  0
SECTION
  2
HEADER
  9
$ACADVER
  1
AC1004
  9
$INSBASE
 10
0.0
 20
0.0
  9
$EXTMIN
 10
-103.5149356223738
 20
-131.9441224472875
  9
$EXTMAX
 10
235.4410651575682
 20
55.18479437367471
  9
$LIMMIN
 10
0.0
 20
0.0
  9
$LIMMAX
 10
12.0
 20
9.0
  9
$ORTHOMODE
 70
     0
  9
$REGENMODE
 70
     1
  9
$FILLMODE
 70
     1
  9
$QTEXTMODE
 70
     0
  9
$DRAGMODE
 70
     2
  9
$LTSCALE
 40
1.0
  9
$OSMODE
 70
    37
  9
$ATTMODE
 70
     1
  9
$TEXTSIZE
 40
0.2
  9
$TRACEWID
 40
0.05
  9
$TEXTSTYLE
  7
STANDARD
  9
$CLAYER
  8
0
  9
$CELTYPE
  6
BYLAYER
  9
$CECOLOR
 62
   256
  9
$DIMSCALE
 40
1.0
  9
$DIMASZ
 40
2.5
  9
$DIMEXO
 40
0.0625
  9
$DIMDLI
 40
0.38
  9
$DIMRND
 40
0.0
  9
$DIMDLE
 40
0.0
  9
$DIMEXE
 40
1.25
  9
$DIMTP
 40
0.0
  9
$DIMTM
 40
0.0
  9
$DIMTXT
 40
4.0
  9
$DIMCEN
 40
0.09
  9
$DIMTSZ
 40
0.0
  9
$DIMTOL
 70
     0
  9
$DIMLIM
 70
     0
  9
$DIMTIH
 70
     1
  9
$DIMTOH
 70
     1
  9
$DIMSE1
 70
     0
  9
$DIMSE2
 70
     0
  9
$DIMTAD
 70
     1
  9
$DIMZIN
 70
     0
  9
$DIMBLK
  1

  9
$DIMASO
 70
     1
  9
$DIMSHO
 70
     1
  9
$DIMPOST
  1

  9
$DIMAPOST
  1

  9
$DIMALT
 70
     0
  9
$DIMALTD
 70
     2
  9
$DIMALTF
 40
25.4
  9
$DIMLFAC
 40
1.0
  9
$DIMTOFL
 70
     0
  9
$DIMTVP
 40
0.0
  9
$DIMTIX
 70
     0
  9
$DIMSOXD
 70
     0
  9
$DIMSAH
 70
     0
  9
$DIMBLK1
  1

  9
$DIMBLK2
  1

  9
$LUNITS
 70
     2
  9
$LUPREC
 70
     4
  9
$SKETCHINC
 40
0.1
  9
$FILLETRAD
 40
0.0
  9
$AUNITS
 70
     0
  9
$AUPREC
 70
     0
  9
$MENU
  1
.
  9
$ELEVATION
 40
0.0
  9
$THICKNESS
 40
0.0
  9
$LIMCHECK
 70
     0
  9
$CHAMFERA
 40
0.0
  9
$CHAMFERB
 40
0.0
  9
$SKPOLY
 70
     0
  9
$TDCREATE
 40
2460334.861987535
  9
$TDUPDATE
 40
2460334.861987674
  9
$TDINDWG
 40
0.0000000116
  9
$TDUSRTIMER
 40
0.0000000116
  9
$USRTIMER
 70
     1
  9
$ANGBASE
 50
0.0
  9
$ANGDIR
 70
     0
  9
$PDMODE
 70
     0
  9
$PDSIZE
 40
0.0
  9
$PLINEWID
 40
0.0
  9
$COORDS
 70
     1
  9
$SPLFRAME
 70
     0
  9
$SPLINETYPE
 70
     6
  9
$SPLINESEGS
 70
     8
  9
$ATTDIA
 70
     0
  9
$ATTREQ
 70
     1
  9
$SURFTAB1
 70
     6
  9
$SURFTAB2
 70
     6
  9
$SURFTYPE
 70
     6
  9
$SURFU
 70
     6
  9
$SURFV
 70
     6
  9
$UCSNAME
  2

  9
$UCSORG
 10
0.0
 20
0.0
 30
0.0
  9
$UCSXDIR
 10
1.0
 20
0.0
 30
0.0
  9
$UCSYDIR
 10
0.0
 20
1.0
 30
0.0
  9
$USERI1
 70
     0
  9
$USERI2
 70
     0
  9
$USERI3
 70
     0
  9
$USERI4
 70
     0
  9
$USERI5
 70
     0
  9
$USERR1
 40
0.0
  9
$USERR2
 40
0.0
  9
$USERR3
 40
0.0
  9
$USERR4
 40
0.0
  9
$USERR5
 40
0.0
  9
$WORLDVIEW
 70
     1
  0
ENDSEC
  0
SECTION
  2
TABLES
  0
TABLE
  2
LTYPE
 70
     2
  0
LTYPE
  2
CONTINUOUS
 70
     0
  3
Solid line
 72
    65
 73
     0
 40
0.0
  0
LTYPE
  2
CENTER
 70
     0
  3

 72
    65
 73
     0
 40
0.0
  0
ENDTAB
  0
TABLE
  2
LAYER
 70
     1
  0
LAYER
  2
0
 70
     0
 62
     7
  6
CONTINUOUS
  0
ENDTAB
  0
TABLE
  2
STYLE
 70
     3
  0
STYLE
  2
STANDARD
 70
     0
 40
0.0
 41
1.0
 50
0.0
 71
     0
 42
0.2
  3
txt
  4

  0
STYLE
  2
HG丸ｺﾞｼｯｸM-PRO
 70
     0
 40
0.0
 41
1.0
 50
0.0
 71
     0
 42
0.2
  3
HGRSMP.TTF
  4

  0
STYLE
  2
MTXPL_HG丸ｺﾞｼｯｸM-PRO
 70
     0
 40
0.2
 41
1.0
 50
0.0
 71
     0
 42
0.2
  3
txt.shx
  4

  0
ENDTAB
  0
TABLE
  2
VIEW
 70
     0
  0
ENDTAB
  0
ENDSEC
  0
SECTION
  2
BLOCKS
  0
ENDSEC
  0
SECTION
  2
ENTITIES
  0
TEXT
  8
0
 62
     7
 10
5.829545454545454
 20
-13.2545454545456
 40
3.5
  1
A
  7
MTXPL_HG丸ｺﾞｼｯｸM-PRO
  0
TEXT
  8
0
 62
     7
 10
176.8684204959834
 20
43.43396609084643
 40
3.5
  1
断面 A-A
  7
MTXPL_HG丸ｺﾞｼｯｸM-PRO
  0
TEXT
  8
0
 62
     7
 10
5.829545454545454
 20
51.68479437367471
 40
3.5
  1
A
  7
MTXPL_HG丸ｺﾞｼｯｸM-PRO
  0
LINE
  8
0
  6
CONTINUOUS
 62
     7
 10
4.000000000000004
 20
-13.75000000000015
 11
0.0
 21
-15.00000000000012
  0
LINE
  8
0
  6
CONTINUOUS
 62
     7
 10
0.0
 20
-15.00000000000012
 11
4.000000000000004
 21
-16.25000000000004
  0
LINE
  8
0
  6
CONTINUOUS
 62
     7
 10
4.000000000000004
 20
48.68933982822016
 11
0.0
 21
49.93933982822013
  0
LINE
  8
0
  6
CONTINUOUS
 62
     7
 10
0.0
 20
49.93933982822013
 11
4.000000000000004
 21
51.18933982822011
  0
LINE
  8
0
  6
CONTINUOUS
 62
     7
 10
203.5184949124362
 20
31.72030616203802
 11
204.7814191673097
 21
32.98323041691165
  0
LINE
  8
0
  6
CONTINUOUS
 62
     7
 10
204.2981887503978
 20
29.99999999999975
 11
207.298188750398
 21
32.99999999999997
  0
LINE
  8
0
  6
CONTINUOUS
 62
     7
 10
206.7981887503978
 20
29.99999999999975
 11
209.798188750398
 21
32.99999999999997
  0
LINE
  8
0
  6
CONTINUOUS
 62
     7
 10
209.2981887503978
 20
29.99999999999975
 11
212.298188750398
 21
32.99999999999997
  0
LINE
  8
0
  6
CONTINUOUS
 62
     7
 10
211.7981887503978
 20
29.99999999999975
 11
214.798188750398
 21
32.99999999999997
  0
LINE
  8
0
  6
CONTINUOUS
 62
     7
 10
214.2981887503978
 20
29.99999999999975
 11
217.298188750398
 21
32.99999999999997
  0
LINE
  8
0
  6
CONTINUOUS
 62
     7
 10
216.7981887503977
 20
29.99999999999975
 11
219.798188750398
 21
32.99999999999997
  0
LINE
  8
0
  6
CONTINUOUS
 62
     7
 10
219.2981887503978
 20
29.99999999999975
 11
222.298188750398
 21
32.99999999999997
  0
LINE
  8
0
  6
CONTINUOUS
 62
     7
 10
221.7981887503977
 20
29.99999999999975
 11
224.8720047487708
 21
33.07381599837267
  0
LINE
  8
0
  6
CONTINUOUS
 62
     7
 10
224.2981887503979
 20
29.99999999999975
 11
229.2289291318695
 21
34.93074038147137
  0
LINE
  8
0
  6
CONTINUOUS
 62
     7
 10
226.7981887503979
 20
29.99999999999975
 11
231.4049705521836
 21
34.60678180178556
  0
LINE
  8
0
  6
CONTINUOUS
 62
     7
 10
230.5004803341611
 20
31.20229158376308
 11
233.0377908196298
 21
33.73960206923176
  0
LINE
  8
0
  6
CONTINUOUS
 62
     7
 10
231.7333465424302
 20
29.9351577920321
 11
234.2785670151044
 21
32.48037826470629
  0
LINE
  8
0
  6
CONTINUOUS
 62
     7
 10
230.5668559850363
 20
26.26866723463817
 11
235.1300568676192
 21
30.83186811722105
  0
LINE
  8
0
  6
CONTINUOUS
 62
     7
 10
230.6097450165274
 20
23.81155626612941
 11
235.4315055771741
 21
28.63331682677606
  0
LINE
  8
0
  6
CONTINUOUS
 62
     7
 10
230.6526340480185
 20
21.35444529762048
 11
234.0150371131645
 21
24.71684836276633
  0
LINE
  8
0
  6
CONTINUOUS
 62
     7
 10
230.6955230795096
 20
18.89733432911156
 11
234.001725329348
 21
22.20353657894985
  0
LINE
  8
0
  6
CONTINUOUS
 62
     7
 10
230.7384121110008
 20
16.44022336060269
 11
234.001725329348
 21
19.70353657894985
  0
LINE
  8
0
  6
CONTINUOUS
 62
     7
 10
230.7813011424919
 20
13.98311239209388
 11
234.001725329348
 21
17.20353657894985
  0
LINE
  8
0
  6
CONTINUOUS
 62
     7
 10
230.8241901739831
 20
11.52600142358495
 11
234.001725329348
 21
14.70353657894985
  0
LINE
  8
0
  6
CONTINUOUS
 62
     7
 10
230.8670792054742
 20
9.068890455076195
 11
234.001725329348
 21
12.20353657894985
  0
LINE
  8
0
  6
CONTINUOUS
 62
     7
 10
230.9099682369655
 20
6.61177948656727
 11
234.001725329348
 21
9.703536578949844
  0
LINE
  8
0
  6
CONTINUOUS
 62
     7
 10
230.9528572684565
 20
4.154668518058346
 11
234.001725329348
 21
7.203536578949842
  0
LINE
  8
0
  6
CONTINUOUS
 62
     7
 10
230.9957462999477
 20
1.697557549549533
 11
234.001725329348
 21
4.703536578949841
  0
LINE
  8
0
  6
CONTINUOUS
 62
     7
 10
231.798188750398
 20
0.0
 11
234.001725329348
 21
2.203536578949838
  0
LINE
  8
0
  6
CONTINUOUS
 62
     7
 10
75.47577428814239
 20
16.75045831698835
 11
72.753003139631
 21
23.49266997170535
  0
LINE
  8
0
  6
CONTINUOUS
 62
     7
 10
72.75300313963112
 20
23.49266997170535
 11
74.84127092281628
 21
23.49266997170535
  0
LINE
  8
0
  6
CONTINUOUS
 62
     7
 10
79.4119663547252
 20
26.4941301454018
 11
75.47577428814239
 21
16.75045831698824
  0
LINE
  8
0
  6
CONTINUOUS
 62
     7
 10
76.05482212013598
 20
26.4941301454018
 11
79.4119663547252
 21
26.4941301454018
  0
LINE
  8
0
  6
CONTINUOUS
 62
     7
 10
74.84127092281628
 20
23.49266997170535
 11
76.05482212013598
 21
26.4941301454018
  0
LINE
  8
0
  6
CONTINUOUS
 62
     7
 10
74.4486961214647
 20
13.49864485459806
 11
71.0915518868755
 21
13.49864485459806
  0
LINE
  8
0
  6
CONTINUOUS
 62
     7
 10
65.84047308105329
 20
26.4941301454018
 11
69.19835556471581
 21
26.4941301454018
  0
LINE
  8
0
  6
CONTINUOUS
 62
     7
 10
69.19835556471581
 20
26.4941301454018
 11
74.4486961214647
 21
13.49864485459801
  0
LINE
  8
0
  6
CONTINUOUS
 62
     7
 10
71.0915518868755
 20
13.49864485459806
 11
65.84047308105329
 21
26.4941301454018
  0
LINE
  8
0
  6
CONTINUOUS
 62
     7
 10
68.6751758170075
 20
13.49864485459806
 11
65.31705448805658
 21
13.49864485459806
  0
LINE
  8
0
  6
CONTINUOUS
 62
     7
 10
65.31705448805658
 20
13.49864485459806
 11
60.06597568223437
 21
26.4941301454018
  0
LINE
  8
0
  6
CONTINUOUS
 62
     7
 10
63.4240970111854
 20
26.4941301454018
 11
68.6751758170075
 21
13.49864485459801
  0
LINE
  8
0
  6
CONTINUOUS
 62
     7
 10
60.06597568223437
 20
26.4941301454018
 11
63.4240970111854
 21
26.4941301454018
  0
LINE
  8
0
  6
CONTINUOUS
 62
     7
 10
48.84954037892741
 20
13.49864485459806
 11
54.09979408284399
 21
26.4941301454018
  0
LINE
  8
0
  6
CONTINUOUS
 62
     7
 10
58.64606215570866
 20
15.71669248223445
 11
55.875109398558
 21
22.5747223886335
  0
LINE
  8
0
  6
CONTINUOUS
 62
     7
 10
55.875109398558
 20
22.5747223886335
 11
52.2077051342944
 21
13.49864485459801
  0
LINE
  8
0
  6
CONTINUOUS
 62
     7
 10
60.32514453339221
 20
19.87329532362481
 11
58.64606215570866
 21
15.71669248223445
  0
LINE
  8
0
  6
CONTINUOUS
 62
     7
 10
57.64968646519858
 20
26.4941301454018
 11
60.32514453339221
 21
19.87329532362481
  0
LINE
  8
0
  6
CONTINUOUS
 62
     7
 10
54.09979408284399
 20
26.4941301454018
 11
57.64968646519858
 21
26.4941301454018
  0
LINE
  8
0
  6
CONTINUOUS
 62
     7
 10
52.2077051342944
 20
13.49864485459806
 11
48.84954037892741
 21
13.49864485459806
  0
LINE
  8
0
  6
CONTINUOUS
 62
     7
 10
46.18407038560529
 20
13.49864485459806
 11
42.78782066416381
 21
13.49864485459806
  0
LINE
  8
0
  6
CONTINUOUS
 62
     7
 10
42.78782066416381
 20
13.49864485459806
 11
42.78782066416381
 21
22.15913014540177
  0
ARC
  8
0
  6
CONTINUOUS
 62
     7
 10
49.0740703856053
 20
21.71434120052351
 40
2.890000000000004
 50
90.0
 51
180.0
  0
LINE
  8
0
  6
CONTINUOUS
 62
     7
 10
50.91998057078406
 20
24.60434120052357
 11
49.0740703856053
 21
24.60434120052357
  0
LINE
  8
0
  6
CONTINUOUS
 62
     7
 10
46.18407038560529
 20
21.71434120052351
 11
46.18407038560529
 21
13.49864485459801
  0
LINE
  8
0
  6
CONTINUOUS
 62
     7
 10
47.12282066416385
 20
26.4941301454018
 11
51.68350486580825
 21
26.4941301454018
  0
ARC
  8
0
  6
CONTINUOUS
 62
     7
 10
47.12282066416385
 20
22.15913014540177
 40
4.334999999999978
 50
90.0
 51
180.0
  0
LINE
  8
0
  6
CONTINUOUS
 62
     7
 10
51.68350486580825
 20
26.4941301454018
 11
50.91998057078406
 21
24.60434120052357
  0
ARC
  8
0
  6
CONTINUOUS
 62
     7
 10
-143.0883554622572
 20
29.77557961147892
 40
140.0368251400884
 50
347.7236669938783
 51
353.0327231413668
  0
ARC
  8
0
  6
CONTINUOUS
 62
     7
 10
-27.16050920089341
 20
14.79305167059808
 40
23.16177223471905
 50
355.035753833848
 51
0.5983581356775289
  0
LINE
  8
0
  6
CONTINUOUS
 62
     7
 10
-3.999999999994286
 20
15.03493306316645
 11
-3.999999999994286
 21
29.99999999999997
  0
LINE
  8
0
  6
CONTINUOUS
 62
     7
 10
-8.800964920698705
 20
0.0
 11
-7.238131321696317
 21
8.863269777109773
  0
LINE
  8
0
  6
CONTINUOUS
 62
     7
 10
-7.238131321696317
 20
8.863269777109773
 11
-6.724577339397519
 21
11.8189961896375
  0
ARC
  8
0
  6
CONTINUOUS
 62
     7
 10
-26.53262380680943
 20
14.75311047033967
 40
20.02417867148043
 50
351.5741946332415
 51
0.2116716329400674
  0
LINE
  8
0
  6
CONTINUOUS
 62
     7
 10
-6.508581783642997
 20
14.82708696550517
 11
-6.508581783642997
 21
29.99999999999997
  0
LINE
  8
0
  6
CONTINUOUS
 62
     7
 10
-5.009710650489107
 20
29.99999999999997
 11
-6.508581783642997
 21
29.99999999999997
  0
LINE
  8
0
  6
CONTINUOUS
 62
     7
 10
-5.009710650489107
 20
29.99999999999997
 11
-5.009710650489107
 21
14.99642955652975
  0
LINE
  8
0
  6
CONTINUOUS
 62
     7
 10
-5.009710650489107
 20
14.99642955652974
 11
-5.020990461999386
 21
14.16166716135409
  0
ARC
  8
0
  6
CONTINUOUS
 62
     7
 10
-26.56264302515127
 20
14.72683736128355
 40
21.54906523509631
 50
349.4297384738177
 51
358.4971236414427
  0
LINE
  8
0
  6
CONTINUOUS
 62
     7
 10
-5.379250476291397
 20
10.77385208084736
 11
-7.278971284306879
 21
0.0
  0
LINE
  8
0
  6
CONTINUOUS
 62
     7
 10
-7.278971284306879
 20
0.0
 11
-8.800964920698705
 21
0.0
  0
ARC
  8
0
  6
CONTINUOUS
 62
     7
 10
146.446209719731
 20
30.23945472949158
 40
142.414693329291
 50
186.9762913643196
 51
192.2591547570092
  0
ARC
  8
0
  6
CONTINUOUS
 62
     7
 10
27.19082283170571
 20
14.78788403124886
 40
22.18187861096488
 50
179.5237051360599
 51
184.7735357080622
  0
LINE
  8
0
  6
CONTINUOUS
 62
     7
 10
5.009710650500487
 20
14.9722779475594
 11
5.009710650500487
 21
29.99999999999997
  0
LINE
  8
0
  6
CONTINUOUS
 62
     7
 10
6.508581783654376
 20
29.99999999999997
 11
5.009710650500487
 21
29.99999999999997
  0
LINE
  8
0
  6
CONTINUOUS
 62
     7
 10
6.508581783654376
 20
29.99999999999997
 11
6.508581783654376
 21
14.99999999999996
  0
LINE
  8
0
  6
CONTINUOUS
 62
     7
 10
6.508581783654376
 20
14.99999999999996
 11
6.516407864342377
 21
14.24963312160032
  0
ARC
  8
0
  6
CONTINUOUS
 62
     7
 10
26.4648270996875
 20
14.73026844890907
 40
19.9542085863344
 50
181.380212058159
 51
190.5181292353097
  0
LINE
  8
0
  6
CONTINUOUS
 62
     7
 10
6.845905162857601
 20
11.08769486097444
 11
8.800964920709974
 21
0.0
  0
LINE
  8
0
  6
CONTINUOUS
 62
     7
 10
8.800964920710086
 20
0.0
 11
7.278971284318258
 21
0.0
  0
LINE
  8
0
  6
CONTINUOUS
 62
     7
 10
4.000000000005721
 20
29.99999999999997
 11
5.009710650500487
 21
29.99999999999997
  0
LINE
  8
0
  6
CONTINUOUS
 62
     7
 10
7.278971284318258
 20
0.0
 11
6.253684219501343
 21
0.0
  0
ARC
  8
0
  6
CONTINUOUS
 62
     7
 10
172.8671199994459
 20
35.09850183260221
 40
170.2702023646266
 50
187.7497731413911
 51
191.8958986155843
  0
ARC
  8
0
  6
CONTINUOUS
 62
     7
 10
28.63059971843329
 20
14.9322542422729
 40
24.63746676719475
 50
178.6471963755256
 51
186.5120288743911
  0
LINE
  8
0
  6
CONTINUOUS
 62
     7
 10
4.000000000005721
 20
15.51391240238026
 11
4.000000000005721
 21
29.99999999999997
  0
LINE
  8
0
  6
CONTINUOUS
 62
     7
 10
-5.009710650489107
 20
29.99999999999997
 11
-3.999999999994286
 21
29.99999999999997
  0
LINE
  8
0
  6
CONTINUOUS
 62
     7
 10
-5.009710650489107
 20
31.49999999999997
 11
-5.009710650489107
 21
29.99999999999997
  0
LINE
  8
0
  6
CONTINUOUS
 62
     7
 10
5.009710650500487
 20
31.49999999999997
 11
-5.009710650489107
 21
31.49999999999997
  0
LINE
  8
0
  6
CONTINUOUS
 62
     7
 10
5.009710650500487
 20
29.99999999999997
 11
5.009710650500487
 21
31.49999999999997
  0
LINE
  8
0
  6
CONTINUOUS
 62
     7
 10
-3.999999999994286
 20
29.99999999999997
 11
4.000000000005721
 21
29.99999999999997
  0
LINE
  8
0
  6
CONTINUOUS
 62
     7
 10
6.508581783654376
 20
31.49999999999997
 11
6.508581783654376
 21
29.99999999999997
  0
LINE
  8
0
  6
CONTINUOUS
 62
     7
 10
6.508581783654376
 20
31.49999999999997
 11
5.009710650500487
 21
31.49999999999997
  0
LINE
  8
0
  6
CONTINUOUS
 62
     7
 10
-6.253684219489963
 20
0.0
 11
-7.278971284306823
 21
0.0
  0
LINE
  8
0
  6
CONTINUOUS
 62
     7
 10
-6.508581783642997
 20
29.99999999999997
 11
-6.508581783642997
 21
31.49999999999997
  0
LINE
  8
0
  6
CONTINUOUS
 62
     7
 10
-5.009710650489107
 20
31.49999999999997
 11
-6.508581783642997
 21
31.49999999999997
  0
LINE
  8
0
  6
CONTINUOUS
 62
     7
 10
-5.009710650489052
 20
32.99999999999997
 11
-5.302125902516718
 21
32.97117792060477
  0
LINE
  8
0
  6
CONTINUOUS
 62
     7
 10
-5.302125902516718
 20
32.97117792060477
 11
-5.583303800397288
 21
32.88581929876688
  0
LINE
  8
0
  6
CONTINUOUS
 62
     7
 10
-5.583303800397288
 20
32.88581929876688
 11
-5.84243883520169
 21
32.7472044184538
  0
LINE
  8
0
  6
CONTINUOUS
 62
     7
 10
-5.84243883520169
 20
32.7472044184538
 11
-6.069572592866945
 21
32.56066017177977
  0
LINE
  8
0
  6
CONTINUOUS
 62
     7
 10
-6.069572592866945
 20
32.56066017177977
 11
-6.255976450464051
 21
32.33335534952936
  0
LINE
  8
0
  6
CONTINUOUS
 62
     7
 10
-6.255976450464051
 20
32.33335534952936
 11
-6.394487012281902
 21
32.07402514854757
  0
LINE
  8
0
  6
CONTINUOUS
 62
     7
 10
-6.394487012281902
 20
32.07402514854757
 11
-6.479781395107686
 21
31.79263548302419
  0
LINE
  8
0
  6
CONTINUOUS
 62
     7
 10
-6.479781395107686
 20
31.79263548302419
 11
-6.508581783642997
 21
31.49999999999997
  0
LINE
  8
0
  6
CONTINUOUS
 62
     7
 10
-5.009710650489107
 20
32.99999999999997
 11
-5.009710650489107
 21
31.49999999999997
  0
LINE
  8
0
  6
CONTINUOUS
 62
     7
 10
5.009710650500487
 20
31.49999999999997
 11
5.009710650500487
 21
32.99999999999997
  0
LINE
  8
0
  6
CONTINUOUS
 62
     7
 10
6.508581783654376
 20
31.49999999999997
 11
6.479781395119121
 21
31.79263548302408
  0
LINE
  8
0
  6
CONTINUOUS
 62
     7
 10
6.479781395119121
 20
31.79263548302408
 11
6.394487012293393
 21
32.07402514854757
  0
LINE
  8
0
  6
CONTINUOUS
 62
     7
 10
6.394487012293393
 20
32.07402514854757
 11
6.255976450475431
 21
32.33335534952936
  0
LINE
  8
0
  6
CONTINUOUS
 62
     7
 10
6.255976450475431
 20
32.33335534952936
 11
6.06957259287838
 21
32.56066017177977
  0
LINE
  8
0
  6
CONTINUOUS
 62
     7
 10
6.06957259287838
 20
32.56066017177977
 11
5.842438835213071
 21
32.7472044184538
  0
LINE
  8
0
  6
CONTINUOUS
 62
     7
 10
5.842438835213071
 20
32.7472044184538
 11
5.583303800408834
 21
32.88581929876688
  0
LINE
  8
0
  6
CONTINUOUS
 62
     7
 10
5.583303800408834
 20
32.88581929876688
 11
5.302125902528154
 21
32.97117792060477
  0
LINE
  8
0
  6
CONTINUOUS
 62
     7
 10
5.302125902528154
 20
32.97117792060477
 11
5.009710650500487
 21
32.99999999999997
  0
LINE
  8
0
  6
CONTINUOUS
 62
     7
 10
-5.009710650489107
 20
32.99999999999997
 11
5.009710650500487
 21
32.99999999999997
  0
LINE
  8
0
  6
CONTINUOUS
 62
     7
 10
-17.9999999999943
 20
32.99999999999997
 11
-17.9999999999943
 21
31.49999999999997
  0
LINE
  8
0
  6
CONTINUOUS
 62
     7
 10
-6.508581783642997
 20
31.49999999999997
 11
-17.9999999999943
 21
31.49999999999997
  0
LINE
  8
0
  6
CONTINUOUS
 62
     7
 10
-17.9999999999943
 20
32.99999999999997
 11
-5.114873383534002
 21
32.99999999999997
  0
LINE
  8
0
  6
CONTINUOUS
 62
     7
 10
-5.114873383534002
 20
32.99999999999997
 11
-5.009710650489107
 21
32.99999999999997
  0
LINE
  8
0
  6
CONTINUOUS
 62
     7
 10
18.00000000000573
 20
32.99999999999997
 11
18.00000000000573
 21
31.49999999999997
  0
LINE
  8
0
  6
CONTINUOUS
 62
     7
 10
18.00000000000573
 20
31.49999999999997
 11
6.508581783654376
 21
31.49999999999997
  0
LINE
  8
0
  6
CONTINUOUS
 62
     7
 10
5.009710650500487
 20
32.99999999999997
 11
18.00000000000573
 21
32.99999999999997
  0
LINE
  8
0
  6
CONTINUOUS
 62
     7
 10
18.00000000000573
 20
31.49999999999997
 11
18.00000000000573
 21
29.99999999999997
  0
LINE
  8
0
  6
CONTINUOUS
 62
     7
 10
12.57921172264803
 20
29.99999999999997
 11
18.00000000000573
 21
29.99999999999997
  0
LINE
  8
0
  6
CONTINUOUS
 62
     7
 10
8.438714760829857
 20
29.99999999999997
 11
12.57921172264792
 21
29.99999999999997
  0
LINE
  8
0
  6
CONTINUOUS
 62
     7
 10
6.508581783654376
 20
29.99999999999997
 11
8.438714760829857
 21
29.99999999999997
  0
LINE
  8
0
  6
CONTINUOUS
 62
     7
 10
-17.9999999999943
 20
31.49999999999997
 11
-17.9999999999943
 21
29.99999999999997
  0
LINE
  8
0
  6
CONTINUOUS
 62
     7
 10
-17.9999999999943
 20
29.99999999999997
 11
-6.508581783642997
 21
29.99999999999997
  0
LINE
  8
0
  6
CONTINUOUS
 62
     7
 10
18.00000000000573
 20
14.74687636521238
 11
18.00000000000573
 21
29.99999999999997
  0
ARC
  8
0
  6
CONTINUOUS
 62
     7
 10
43.3800730522495
 20
16.10866512673537
 40
25.41658025180982
 50
183.0713072678769
 51
193.8474192826617
  0
ARC
  8
0
  6
CONTINUOUS
 62
     7
 10
116935.5451027266
 20
20616.92683675564
 40
118718.9645285122
 50
189.9958685373471
 51
190.0007816459297
  0
LINE
  8
0
  6
CONTINUOUS
 62
     7
 10
20.46965678590179
 20
0.0
 11
8.870122232901178
 21
0.0
  0
LINE
  8
0
  6
CONTINUOUS
 62
     7
 10
8.870122232901178
 20
0.0
 11
8.800964920710086
 21
0.0
  0
ARC
  8
0
  6
CONTINUOUS
 62
     7
 10
-43.38007305218433
 20
16.10866512672959
 40
25.4165802517558
 50
346.1525807173358
 51
356.9286927321293
  0
ARC
  8
0
  6
CONTINUOUS
 62
     7
 10
-116935.5451234215
 20
20616.92684040356
 40
118718.9645495262
 50
349.999218354071
 51
350.0041314626528
  0
LINE
  8
0
  6
CONTINUOUS
 62
     7
 10
-17.9999999999943
 20
14.74687636521227
 11
-17.9999999999943
 21
29.99999999999997
  0
LINE
  8
0
  6
CONTINUOUS
 62
     7
 10
-20.46965678589041
 20
0.0
 11
-8.870122232889688
 21
0.0
  0
LINE
  8
0
  6
CONTINUOUS
 62
     7
 10
-8.870122232889688
 20
0.0
 11
-8.800964920698705
 21
0.0
  0
LINE
  8
0
  6
CONTINUOUS
 62
     7
 10
-54.1090909090852
 20
24.67272727272718
 11
-59.56363636363071
 21
24.67272727272718
  0
LINE
  8
0
  6
CONTINUOUS
 62
     7
 10
-53.5090909090852
 20
19.16363636363627
 11
-51.43636363635792
 21
19.16363636363627
  0
LINE
  8
0
  6
CONTINUOUS
 62
     7
 10
-59.56363636363071
 20
24.67272727272718
 11
-59.56363636363071
 21
26.47272727272726
  0
LINE
  8
0
  6
CONTINUOUS
 62
     7
 10
-51.43636363635792
 20
19.16363636363627
 11
-51.44132298196921
 21
18.93465419278984
  0
LINE
  8
0
  6
CONTINUOUS
 62
     7
 10
-51.44132298196921
 20
18.93465419278984
 11
-51.45620101880299
 21
18.71134404388719
  0
LINE
  8
0
  6
CONTINUOUS
 62
     7
 10
-51.45620101880299
 20
18.71134404388719
 11
-51.48099774685938
 21
18.49370591692784
  0
LINE
  8
0
  6
CONTINUOUS
 62
     7
 10
-51.48099774685938
 20
18.49370591692784
 11
-51.51571316613851
 21
18.28173981191228
  0
LINE
  8
0
  6
CONTINUOUS
 62
     7
 10
-51.51571316613851
 20
18.28173981191228
 11
-51.56034727663999
 21
18.07544572884007
  0
LINE
  8
0
  6
CONTINUOUS
 62
     7
 10
-51.56034727663999
 20
18.07544572884007
 11
-51.61490007836419
 21
17.87482366771159
  0
LINE
  8
0
  6
CONTINUOUS
 62
     7
 10
-51.61490007836419
 20
17.87482366771159
 11
-51.67937157131092
 21
17.67987362852669
  0
LINE
  8
0
  6
CONTINUOUS
 62
     7
 10
-51.67937157131092
 20
17.67987362852669
 11
-51.75376175548013
 21
17.4905956112853
  0
LINE
  8
0
  6
CONTINUOUS
 62
     7
 10
-51.75376175548013
 20
17.4905956112853
 11
-51.838070630872
 21
17.30698961598748
  0
LINE
  8
0
  6
CONTINUOUS
 62
     7
 10
-51.838070630872
 20
17.30698961598748
 11
-51.9322981974864
 21
17.12905564263317
  0
LINE
  8
0
  6
CONTINUOUS
 62
     7
 10
-51.9322981974864
 20
17.12905564263317
 11
-52.03644445532341
 21
16.95679369122255
  0
LINE
  8
0
  6
CONTINUOUS
 62
     7
 10
-52.03644445532341
 20
16.95679369122255
 11
-52.15050940438298
 21
16.79020376175539
  0
LINE
  8
0
  6
CONTINUOUS
 62
     7
 10
-52.15050940438298
 20
16.79020376175539
 11
-52.27449304466519
 21
16.6292858542319
  0
LINE
  8
0
  6
CONTINUOUS
 62
     7
 10
-52.27449304466519
 20
16.6292858542319
 11
-52.40839537616992
 21
16.47403996865199
  0
LINE
  8
0
  6
CONTINUOUS
 62
     7
 10
-52.40839537616992
 20
16.47403996865199
 11
-52.55221639889721
 21
16.32446610501554
  0
LINE
  8
0
  6
CONTINUOUS
 62
     7
 10
-52.55221639889721
 20
16.32446610501554
 11
-52.70595611284701
 21
16.18056426332276
  0
LINE
  8
0
  6
CONTINUOUS
 62
     7
 10
-52.70595611284701
 20
16.18056426332276
 11
-52.85605162616991
 21
16.05301724137914
  0
LINE
  8
0
  6
CONTINUOUS
 62
     7
 10
-52.85605162616991
 20
16.05301724137914
 11
-53.01009992162439
 21
15.93369905956105
  0
LINE
  8
0
  6
CONTINUOUS
 62
     7
 10
-53.01009992162439
 20
15.93369905956105
 11
-53.16810099921071
 21
15.82260971786831
  0
LINE
  8
0
  6
CONTINUOUS
 62
     7
 10
-53.16810099921071
 20
15.82260971786831
 11
-53.3300548589285
 21
15.71974921630076
  0
LINE
  8
0
  6
CONTINUOUS
 62
     7
 10
-53.3300548589285
 20
15.71974921630076
 11
-53.49596150077812
 21
15.62511755485885
  0
LINE
  8
0
  6
CONTINUOUS
 62
     7
 10
-53.49596150077812
 20
15.62511755485885
 11
-53.66582092475919
 21
15.53871473354229
  0
LINE
  8
0
  6
CONTINUOUS
 62
     7
 10
-53.66582092475919
 20
15.53871473354229
 11
-53.83963313087209
 21
15.46054075235109
  0
LINE
  8
0
  6
CONTINUOUS
 62
     7
 10
-53.83963313087209
 20
15.46054075235109
 11
-54.0173981191166
 21
15.39059561128514
  0
LINE
  8
0
  6
CONTINUOUS
 62
     7
 10
-54.0173981191166
 20
15.39059561128514
 11
-54.1991158894927
 21
15.32887931034477
  0
LINE
  8
0
  6
CONTINUOUS
 62
     7
 10
-54.1991158894927
 20
15.32887931034477
 11
-54.38478644200059
 21
15.27539184952964
  0
LINE
  8
0
  6
CONTINUOUS
 62
     7
 10
-54.38478644200059
 20
15.27539184952964
 11
-54.5744097766401
 21
15.23013322884009
  0
LINE
  8
0
  6
CONTINUOUS
 62
     7
 10
-54.5744097766401
 20
15.23013322884009
 11
-54.76798589341131
 21
15.19310344827579
  0
LINE
  8
0
  6
CONTINUOUS
 62
     7
 10
-54.76798589341131
 20
15.19310344827579
 11
-54.9655147923141
 21
15.1643025078369
  0
LINE
  8
0
  6
CONTINUOUS
 62
     7
 10
-54.9655147923141
 20
15.1643025078369
 11
-55.1669964733486
 21
15.14373040752348
  0
LINE
  8
0
  6
CONTINUOUS
 62
     7
 10
-55.1669964733486
 20
15.14373040752348
 11
-55.3724309365147
 21
15.13138714733536
  0
LINE
  8
0
  6
CONTINUOUS
 62
     7
 10
-55.3724309365147
 20
15.13138714733536
 11
-55.58181818181252
 21
15.12727272727266
  0
LINE
  8
0
  6
CONTINUOUS
 62
     7
 10
-55.58181818181252
 20
15.12727272727266
 11
-55.92187499999432
 21
15.13749999999986
  0
LINE
  8
0
  6
CONTINUOUS
 62
     7
 10
-55.92187499999432
 20
15.13749999999986
 11
-56.24659090908518
 21
15.16818181818175
  0
LINE
  8
0
  6
CONTINUOUS
 62
     7
 10
-56.24659090908518
 20
15.16818181818175
 11
-56.55596590908529
 21
15.21931818181821
  0
LINE
  8
0
  6
CONTINUOUS
 62
     7
 10
-56.55596590908529
 20
15.21931818181821
 11
-56.8499999999943
 21
15.29090909090908
  0
LINE
  8
0
  6
CONTINUOUS
 62
     7
 10
-56.8499999999943
 20
15.29090909090908
 11
-57.12869318181249
 21
15.38295454545446
  0
LINE
  8
0
  6
CONTINUOUS
 62
     7
 10
-57.12869318181249
 20
15.38295454545446
 11
-57.3920454545398
 21
15.49545454545459
  0
LINE
  8
0
  6
CONTINUOUS
 62
     7
 10
-57.3920454545398
 20
15.49545454545459
 11
-57.64005681817611
 21
15.62840909090896
  0
LINE
  8
0
  6
CONTINUOUS
 62
     7
 10
-57.64005681817611
 20
15.62840909090896
 11
-57.8727272727216
 21
15.78181818181817
  0
LINE
  8
0
  6
CONTINUOUS
 62
     7
 10
-57.8727272727216
 20
15.78181818181817
 11
-58.09005681817619
 21
15.9556818181818
  0
LINE
  8
0
  6
CONTINUOUS
 62
     7
 10
-58.09005681817619
 20
15.9556818181818
 11
-58.2920454545397
 21
16.14999999999994
  0
LINE
  8
0
  6
CONTINUOUS
 62
     7
 10
-58.2920454545397
 20
16.14999999999994
 11
-58.47869318181251
 21
16.36477272727266
  0
LINE
  8
0
  6
CONTINUOUS
 62
     7
 10
-58.47869318181251
 20
16.36477272727266
 11
-58.64999999999431
 21
16.59999999999995
  0
LINE
  8
0
  6
CONTINUOUS
 62
     7
 10
-58.64999999999431
 20
16.59999999999995
 11
-58.80596590908521
 21
16.85568181818175
  0
LINE
  8
0
  6
CONTINUOUS
 62
     7
 10
-58.80596590908521
 20
16.85568181818175
 11
-58.94659090908522
 21
17.13181818181814
  0
LINE
  8
0
  6
CONTINUOUS
 62
     7
 10
-58.94659090908522
 20
17.13181818181814
 11
-59.07187499999431
 21
17.42840909090909
  0
LINE
  8
0
  6
CONTINUOUS
 62
     7
 10
-59.07187499999431
 20
17.42840909090909
 11
-59.1818181818125
 21
17.74545454545456
  0
LINE
  8
0
  6
CONTINUOUS
 62
     7
 10
-59.1818181818125
 20
17.74545454545456
 11
-59.27048472706872
 21
18.06957565514183
  0
LINE
  8
0
  6
CONTINUOUS
 62
     7
 10
-59.27048472706872
 20
18.06957565514183
 11
-59.331938908292
 21
18.38739352965846
  0
LINE
  8
0
  6
CONTINUOUS
 62
     7
 10
-59.331938908292
 20
18.38739352965846
 11
-59.3661807254823
 21
18.69890816900427
  0
LINE
  8
0
  6
CONTINUOUS
 62
     7
 10
-59.3661807254823
 20
18.69890816900427
 11
-59.37321017863961
 21
19.00411957317927
  0
LINE
  8
0
  6
CONTINUOUS
 62
     7
 10
-59.37321017863961
 20
19.00411957317927
 11
-59.3530272677639
 21
19.30302774218345
  0
LINE
  8
0
  6
CONTINUOUS
 62
     7
 10
-59.3530272677639
 20
19.30302774218345
 11
-59.30563199285533
 21
19.59563267601694
  0
LINE
  8
0
  6
CONTINUOUS
 62
     7
 10
-59.30563199285533
 20
19.59563267601694
 11
-59.23102435391381
 21
19.88193437467967
  0
LINE
  8
0
  6
CONTINUOUS
 62
     7
 10
-59.23102435391381
 20
19.88193437467967
 11
-59.12920435093918
 21
20.16193283817169
  0
LINE
  8
0
  6
CONTINUOUS
 62
     7
 10
-59.12920435093918
 20
20.16193283817169
 11
-59.00017198393159
 21
20.43562806649285
  0
LINE
  8
0
  6
CONTINUOUS
 62
     7
 10
-59.00017198393159
 20
20.43562806649285
 11
-58.84392725289111
 21
20.70302005964325
  0
LINE
  8
0
  6
CONTINUOUS
 62
     7
 10
-58.84392725289111
 20
20.70302005964325
 11
-58.66047015781761
 21
20.96410881762301
  0
LINE
  8
0
  6
CONTINUOUS
 62
     7
 10
-58.66047015781761
 20
20.96410881762301
 11
-58.44980069871109
 21
21.21889434043178
  0
LINE
  8
0
  6
CONTINUOUS
 62
     7
 10
-58.44980069871109
 20
21.21889434043178
 11
-58.2119188755717
 21
21.46737662806986
  0
LINE
  8
0
  6
CONTINUOUS
 62
     7
 10
-58.2119188755717
 20
21.46737662806986
 11
-57.94682468839932
 21
21.70955568053712
  0
LINE
  8
0
  6
CONTINUOUS
 62
     7
 10
-57.94682468839932
 20
21.70955568053712
 11
-57.65451813719391
 21
21.94543149783379
  0
LINE
  8
0
  6
CONTINUOUS
 62
     7
 10
-57.65451813719391
 20
21.94543149783379
 11
-57.33499922195551
 21
22.17500407995959
  0
LINE
  8
0
  6
CONTINUOUS
 62
     7
 10
-57.33499922195551
 20
22.17500407995959
 11
-57.23181539881131
 21
22.24525268515204
  0
LINE
  8
0
  6
CONTINUOUS
 62
     7
 10
-57.23181539881131
 20
22.24525268515204
 11
-57.12874100759599
 21
22.31565861162843
  0
LINE
  8
0
  6
CONTINUOUS
 62
     7
 10
-57.12874100759599
 20
22.31565861162843
 11
-57.02577604830991
 21
22.38622185938877
  0
LINE
  8
0
  6
CONTINUOUS
 62
     7
 10
-57.02577604830991
 20
22.38622185938877
 11
-56.92292052095279
 21
22.45694242843305
  0
LINE
  8
0
  6
CONTINUOUS
 62
     7
 10
-56.92292052095279
 20
22.45694242843305
 11
-56.82017442552481
 21
22.52782031876133
  0
LINE
  8
0
  6
CONTINUOUS
 62
     7
 10
-56.82017442552481
 20
22.52782031876133
 11
-56.71753776202593
 21
22.59885553037349
  0
LINE
  8
0
  6
CONTINUOUS
 62
     7
 10
-56.71753776202593
 20
22.59885553037349
 11
-56.615010530456
 21
22.67004806326955
  0
LINE
  8
0
  6
CONTINUOUS
 62
     7
 10
-56.615010530456
 20
22.67004806326955
 11
-56.5125927308151
 21
22.74139791744972
  0
LINE
  8
0
  6
CONTINUOUS
 62
     7
 10
-56.5125927308151
 20
22.74139791744972
 11
-56.41028436310341
 21
22.81290509291367
  0
LINE
  8
0
  6
CONTINUOUS
 62
     7
 10
-56.41028436310341
 20
22.81290509291367
 11
-56.3080854273206
 21
22.88456958966156
  0
LINE
  8
0
  6
CONTINUOUS
 62
     7
 10
-56.3080854273206
 20
22.88456958966156
 11
-56.20599592346701
 21
22.95639140769346
  0
LINE
  8
0
  6
CONTINUOUS
 62
     7
 10
-56.20599592346701
 20
22.95639140769346
 11
-56.1040158515424
 21
23.02837054700924
  0
LINE
  8
0
  6
CONTINUOUS
 62
     7
 10
-56.1040158515424
 20
23.02837054700924
 11
-56.00214521154692
 21
23.10050700760896
  0
LINE
  8
0
  6
CONTINUOUS
 62
     7
 10
-56.00214521154692
 20
23.10050700760896
 11
-55.90038400348052
 21
23.17280078949263
  0
LINE
  8
0
  6
CONTINUOUS
 62
     7
 10
-55.90038400348052
 20
23.17280078949263
 11
-55.7987322273431
 21
23.24525189266041
  0
LINE
  8
0
  6
CONTINUOUS
 62
     7
 10
-55.7987322273431
 20
23.24525189266041
 11
-55.69718988313471
 21
23.31786031711186
  0
LINE
  8
0
  6
CONTINUOUS
 62
     7
 10
-55.69718988313471
 20
23.31786031711186
 11
-55.54962534117772
 21
23.42439782842753
  0
LINE
  8
0
  6
CONTINUOUS
 62
     7
 10
-55.54962534117772
 20
23.42439782842753
 11
-55.4085019133646
 21
23.52802089619788
  0
LINE
  8
0
  6
CONTINUOUS
 62
     7
 10
-55.4085019133646
 20
23.52802089619788
 11
-55.27381959969529
 21
23.62872952042289
  0
LINE
  8
0
  6
CONTINUOUS
 62
     7
 10
-55.27381959969529
 20
23.62872952042289
 11
-55.1455784001699
 21
23.72652370110267
  0
LINE
  8
0
  6
CONTINUOUS
 62
     7
 10
-55.1455784001699
 20
23.72652370110267
 11
-55.0237783147883
 21
23.82140343823719
  0
LINE
  8
0
  6
CONTINUOUS
 62
     7
 10
-55.0237783147883
 20
23.82140343823719
 11
-54.90841934355059
 21
23.91336873182626
  0
LINE
  8
0
  6
CONTINUOUS
 62
     7
 10
-54.90841934355059
 20
23.91336873182626
 11
-54.79950148645671
 21
24.00241958187027
  0
LINE
  8
0
  6
CONTINUOUS
 62
     7
 10
-54.79950148645671
 20
24.00241958187027
 11
-54.69702474350671
 21
24.0885559883689
  0
LINE
  8
0
  6
CONTINUOUS
 62
     7
 10
-54.69702474350671
 20
24.0885559883689
 11
-54.60098911470052
 21
24.17177795132219
  0
LINE
  8
0
  6
CONTINUOUS
 62
     7
 10
-54.60098911470052
 20
24.17177795132219
 11
-54.5113946000382
 21
24.25208547073021
  0
LINE
  8
0
  6
CONTINUOUS
 62
     7
 10
-54.5113946000382
 20
24.25208547073021
 11
-54.4282411995197
 21
24.32947854659301
  0
LINE
  8
0
  6
CONTINUOUS
 62
     7
 10
-54.4282411995197
 20
24.32947854659301
 11
-54.3515289131451
 21
24.40395717891036
  0
LINE
  8
0
  6
CONTINUOUS
 62
     7
 10
-54.3515289131451
 20
24.40395717891036
 11
-54.28125774091441
 21
24.4755213676825
  0
LINE
  8
0
  6
CONTINUOUS
 62
     7
 10
-54.28125774091441
 20
24.4755213676825
 11
-54.2174276828275
 21
24.54417111290935
  0
LINE
  8
0
  6
CONTINUOUS
 62
     7
 10
-54.2174276828275
 20
24.54417111290935
 11
-54.16003873888442
 21
24.60990641459093
  0
LINE
  8
0
  6
CONTINUOUS
 62
     7
 10
-54.16003873888442
 20
24.60990641459093
 11
-54.1090909090852
 21
24.67272727272718
  0
LINE
  8
0
  6
CONTINUOUS
 62
     7
 10
-59.56363636363071
 20
26.47272727272715
 11
-51.43636363635792
 21
26.47272727272715
  0
LINE
  8
0
  6
CONTINUOUS
 62
     7
 10
-51.43636363635792
 20
26.47272727272715
 11
-51.43979365429829
 21
26.16189079086606
  0
LINE
  8
0
  6
CONTINUOUS
 62
     7
 10
-51.43979365429829
 20
26.16189079086606
 11
-51.46372007175589
 21
25.85665407255527
  0
LINE
  8
0
  6
CONTINUOUS
 62
     7
 10
-51.46372007175589
 20
25.85665407255527
 11
-51.5081428887307
 21
25.55701711779484
  0
LINE
  8
0
  6
CONTINUOUS
 62
     7
 10
-51.5081428887307
 20
25.55701711779484
 11
-51.57306210522261
 21
25.26297992658488
  0
LINE
  8
0
  6
CONTINUOUS
 62
     7
 10
-51.57306210522261
 20
25.26297992658488
 11
-51.6584777212318
 21
24.97454249892528
  0
LINE
  8
0
  6
CONTINUOUS
 62
     7
 10
-51.6584777212318
 20
24.97454249892528
 11
-51.76438973675812
 21
24.69170483481586
  0
LINE
  8
0
  6
CONTINUOUS
 62
     7
 10
-51.76438973675812
 20
24.69170483481586
 11
-51.8907981518015
 21
24.41446693425703
  0
LINE
  8
0
  6
CONTINUOUS
 62
     7
 10
-51.8907981518015
 20
24.41446693425703
 11
-52.0377029663622
 21
24.14282879724855
  0
LINE
  8
0
  6
CONTINUOUS
 62
     7
 10
-52.0377029663622
 20
24.14282879724855
 11
-52.20510418044011
 21
23.87679042379048
  0
LINE
  8
0
  6
CONTINUOUS
 62
     7
 10
-52.20510418044011
 20
23.87679042379048
 11
-52.39300179403511
 21
23.61635181388272
  0
LINE
  8
0
  6
CONTINUOUS
 62
     7
 10
-52.39300179403511
 20
23.61635181388272
 11
-52.60139580714731
 21
23.36151296752536
  0
LINE
  8
0
  6
CONTINUOUS
 62
     7
 10
-52.60139580714731
 20
23.36151296752536
 11
-52.83028621977673
 21
23.11227388471837
  0
LINE
  8
0
  6
CONTINUOUS
 62
     7
 10
-52.83028621977673
 20
23.11227388471837
 11
-53.07967303192321
 21
22.86863456546173
  0
LINE
  8
0
  6
CONTINUOUS
 62
     7
 10
-53.07967303192321
 20
22.86863456546173
 11
-53.349556243587
 21
22.63059500975562
  0
LINE
  8
0
  6
CONTINUOUS
 62
     7
 10
-53.349556243587
 20
22.63059500975562
 11
-53.63993585476789
 21
22.39815521759975
  0
LINE
  8
0
  6
CONTINUOUS
 62
     7
 10
-53.63993585476789
 20
22.39815521759975
 11
-53.95081186546602
 21
22.17131518899429
  0
LINE
  8
0
  6
CONTINUOUS
 62
     7
 10
-53.95081186546602
 20
22.17131518899429
 11
-54.06946554535702
 21
22.0885444588747
  0
LINE
  8
0
  6
CONTINUOUS
 62
     7
 10
-54.06946554535702
 20
22.0885444588747
 11
-54.1881295513979
 21
22.0057883384917
  0
LINE
  8
0
  6
CONTINUOUS
 62
     7
 10
-54.1881295513979
 20
22.0057883384917
 11
-54.30680388358883
 21
21.92304682784535
  0
LINE
  8
0
  6
CONTINUOUS
 62
     7
 10
-54.30680388358883
 20
21.92304682784535
 11
-54.42548854192952
 21
21.84031992693569
  0
LINE
  8
0
  6
CONTINUOUS
 62
     7
 10
-54.42548854192952
 20
21.84031992693569
 11
-54.54418352642021
 21
21.75760763576256
  0
LINE
  8
0
  6
CONTINUOUS
 62
     7
 10
-54.54418352642021
 20
21.75760763576256
 11
-54.6628888370608
 21
21.67490995432608
  0
LINE
  8
0
  6
CONTINUOUS
 62
     7
 10
-54.6628888370608
 20
21.67490995432608
 11
-54.78160447385141
 21
21.59222688262613
  0
LINE
  8
0
  6
CONTINUOUS
 62
     7
 10
-54.78160447385141
 20
21.59222688262613
 11
-54.90033043679182
 21
21.50955842066299
  0
LINE
  8
0
  6
CONTINUOUS
 62
     7
 10
-54.90033043679182
 20
21.50955842066299
 11
-55.01906672588222
 21
21.42690456843649
  0
LINE
  8
0
  6
CONTINUOUS
 62
     7
 10
-55.01906672588222
 20
21.42690456843649
 11
-55.13781334112252
 21
21.34426532594647
  0
LINE
  8
0
  6
CONTINUOUS
 62
     7
 10
-55.13781334112252
 20
21.34426532594647
 11
-55.25657028251271
 21
21.2616406931932
  0
LINE
  8
0
  6
CONTINUOUS
 62
     7
 10
-55.25657028251271
 20
21.2616406931932
 11
-55.37533755005281
 21
21.17903067017646
  0
LINE
  8
0
  6
CONTINUOUS
 62
     7
 10
-55.37533755005281
 20
21.17903067017646
 11
-55.49411514374289
 21
21.09643525689636
  0
LINE
  8
0
  6
CONTINUOUS
 62
     7
 10
-55.49411514374289
 20
21.09643525689636
 11
-55.61290306358291
 21
21.01385445335302
  0
LINE
  8
0
  6
CONTINUOUS
 62
     7
 10
-55.61290306358291
 20
21.01385445335302
 11
-55.73170130957281
 21
20.93128825954626
  0
LINE
  8
0
  6
CONTINUOUS
 62
     7
 10
-55.73170130957281
 20
20.93128825954626
 11
-55.85050988171261
 21
20.8487366754761
  0
LINE
  8
0
  6
CONTINUOUS
 62
     7
 10
-55.85050988171261
 20
20.8487366754761
 11
-56.04762794109011
 21
20.7047751149077
  0
LINE
  8
0
  6
CONTINUOUS
 62
     7
 10
-56.04762794109011
 20
20.7047751149077
 11
-56.2288823169251
 21
20.55780187479872
  0
LINE
  8
0
  6
CONTINUOUS
 62
     7
 10
-56.2288823169251
 20
20.55780187479872
 11
-56.3942730092174
 21
20.40781695514909
  0
LINE
  8
0
  6
CONTINUOUS
 62
     7
 10
-56.3942730092174
 20
20.40781695514909
 11
-56.5438000179671
 21
20.25482035595899
  0
LINE
  8
0
  6
CONTINUOUS
 62
     7
 10
-56.5438000179671
 20
20.25482035595899
 11
-56.67746334317422
 21
20.09881207722825
  0
LINE
  8
0
  6
CONTINUOUS
 62
     7
 10
-56.67746334317422
 20
20.09881207722825
 11
-56.79526298483861
 21
19.93979211895708
  0
LINE
  8
0
  6
CONTINUOUS
 62
     7
 10
-56.79526298483861
 20
19.93979211895708
 11
-56.89719894296049
 21
19.77776048114521
  0
LINE
  8
0
  6
CONTINUOUS
 62
     7
 10
-56.89719894296049
 20
19.77776048114521
 11
-56.98327121753971
 21
19.61271716379287
  0
LINE
  8
0
  6
CONTINUOUS
 62
     7
 10
-56.98327121753971
 20
19.61271716379287
 11
-57.05347980857631
 21
19.4446621669
  0
LINE
  8
0
  6
CONTINUOUS
 62
     7
 10
-57.05347980857631
 20
19.4446621669
 11
-57.10782471607031
 21
19.27359549046648
  0
LINE
  8
0
  6
CONTINUOUS
 62
     7
 10
-57.10782471607031
 20
19.27359549046648
 11
-57.1463059400217
 21
19.09951713449237
  0
LINE
  8
0
  6
CONTINUOUS
 62
     7
 10
-57.1463059400217
 20
19.09951713449237
 11
-57.16892348043051
 21
18.92242709897774
  0
LINE
  8
0
  6
CONTINUOUS
 62
     7
 10
-57.16892348043051
 20
18.92242709897774
 11
-57.17567733729658
 21
18.74232538392257
  0
LINE
  8
0
  6
CONTINUOUS
 62
     7
 10
-57.17567733729658
 20
18.74232538392257
 11
-57.16656751062021
 21
18.55921198932675
  0
LINE
  8
0
  6
CONTINUOUS
 62
     7
 10
-57.16656751062021
 20
18.55921198932675
 11
-57.14159400040111
 21
18.37308691519046
  0
LINE
  8
0
  6
CONTINUOUS
 62
     7
 10
-57.14159400040111
 20
18.37308691519046
 11
-57.10075680663942
 21
18.18395016151353
  0
LINE
  8
0
  6
CONTINUOUS
 62
     7
 10
-57.10075680663942
 20
18.18395016151353
 11
-57.07238017790009
 21
18.08329734003544
  0
LINE
  8
0
  6
CONTINUOUS
 62
     7
 10
-57.07238017790009
 20
18.08329734003544
 11
-57.03971222061621
 21
17.98641732507045
  0
LINE
  8
0
  6
CONTINUOUS
 62
     7
 10
-57.03971222061621
 20
17.98641732507045
 11
-57.00275293478762
 21
17.89331011661854
  0
LINE
  8
0
  6
CONTINUOUS
 62
     7
 10
-57.00275293478762
 20
17.89331011661854
 11
-56.96150232041441
 21
17.8039757146799
  0
LINE
  8
0
  6
CONTINUOUS
 62
     7
 10
-56.96150232041441
 20
17.8039757146799
 11
-56.91596037749669
 21
17.71841411925429
  0
LINE
  8
0
  6
CONTINUOUS
 62
     7
 10
-56.91596037749669
 20
17.71841411925429
 11
-56.86612710603431
 21
17.63662533034166
  0
LINE
  8
0
  6
CONTINUOUS
 62
     7
 10
-56.86612710603431
 20
17.63662533034166
 11
-56.81200250602722
 21
17.55860934794229
  0
LINE
  8
0
  6
CONTINUOUS
 62
     7
 10
-56.81200250602722
 20
17.55860934794229
 11
-56.75358657747559
 21
17.48436617205601
  0
LINE
  8
0
  6
CONTINUOUS
 62
     7
 10
-56.75358657747559
 20
17.48436617205601
 11
-56.69087932037942
 21
17.41389580268282
  0
LINE
  8
0
  6
CONTINUOUS
 62
     7
 10
-56.69087932037942
 20
17.41389580268282
 11
-56.62388073473851
 21
17.34719823982267
  0
LINE
  8
0
  6
CONTINUOUS
 62
     7
 10
-56.62388073473851
 20
17.34719823982267
 11
-56.552590820553
 21
17.28427348347572
  0
LINE
  8
0
  6
CONTINUOUS
 62
     7
 10
-56.552590820553
 20
17.28427348347572
 11
-56.47700957782289
 21
17.22512153364186
  0
LINE
  8
0
  6
CONTINUOUS
 62
     7
 10
-56.47700957782289
 20
17.22512153364186
 11
-56.39713700654819
 21
17.1697423903211
  0
LINE
  8
0
  6
CONTINUOUS
 62
     7
 10
-56.39713700654819
 20
17.1697423903211
 11
-56.3129731067288
 21
17.11813605351342
  0
LINE
  8
0
  6
CONTINUOUS
 62
     7
 10
-56.3129731067288
 20
17.11813605351342
 11
-56.22451787836491
 21
17.07030252321895
  0
LINE
  8
0
  6
CONTINUOUS
 62
     7
 10
-56.22451787836491
 20
17.07030252321895
 11
-56.1317713214563
 21
17.02624179943757
  0
LINE
  8
0
  6
CONTINUOUS
 62
     7
 10
-56.1317713214563
 20
17.02624179943757
 11
-56.04235939551741
 21
16.98929169221613
  0
LINE
  8
0
  6
CONTINUOUS
 62
     7
 10
-56.04235939551741
 20
16.98929169221613
 11
-55.95252099352091
 21
16.95772909313875
  0
LINE
  8
0
  6
CONTINUOUS
 62
     7
 10
-55.95252099352091
 20
16.95772909313875
 11
-55.86225611546671
 21
16.93155400220542
  0
LINE
  8
0
  6
CONTINUOUS
 62
     7
 10
-55.86225611546671
 20
16.93155400220542
 11
-55.77156476135489
 21
16.91076641941575
  0
LINE
  8
0
  6
CONTINUOUS
 62
     7
 10
-55.77156476135489
 20
16.91076641941575
 11
-55.68044693118532
 21
16.89536634477018
  0
LINE
  8
0
  6
CONTINUOUS
 62
     7
 10
-55.68044693118532
 20
16.89536634477018
 11
-55.58890262495811
 21
16.88535377826861
  0
LINE
  8
0
  6
CONTINUOUS
 62
     7
 10
-55.58890262495811
 20
16.88535377826861
 11
-55.49693184267332
 21
16.88072871991086
  0
LINE
  8
0
  6
CONTINUOUS
 62
     7
 10
-55.49693184267332
 20
16.88072871991086
 11
-55.4045345843307
 21
16.88149116969717
  0
LINE
  8
0
  6
CONTINUOUS
 62
     7
 10
-55.4045345843307
 20
16.88149116969717
 11
-55.3117108499305
 21
16.88764112762736
  0
LINE
  8
0
  6
CONTINUOUS
 62
     7
 10
-55.3117108499305
 20
16.88764112762736
 11
-55.2184606394727
 21
16.89917859370149
  0
LINE
  8
0
  6
CONTINUOUS
 62
     7
 10
-55.2184606394727
 20
16.89917859370149
 11
-55.12478395295708
 21
16.91610356791956
  0
LINE
  8
0
  6
CONTINUOUS
 62
     7
 10
-55.12478395295708
 20
16.91610356791956
 11
-55.0306807903839
 21
16.93841605028168
  0
LINE
  8
0
  6
CONTINUOUS
 62
     7
 10
-55.0306807903839
 20
16.93841605028168
 11
-54.93615115175309
 21
16.96611604078768
  0
LINE
  8
0
  6
CONTINUOUS
 62
     7
 10
-54.93615115175309
 20
16.96611604078768
 11
-54.84119503706452
 21
16.99920353943757
  0
LINE
  8
0
  6
CONTINUOUS
 62
     7
 10
-54.84119503706452
 20
16.99920353943757
 11
-54.74581244631832
 21
17.0376785462315
  0
LINE
  8
0
  6
CONTINUOUS
 62
     7
 10
-54.74581244631832
 20
17.0376785462315
 11
-54.65000337951439
 21
17.08154106116927
  0
LINE
  8
0
  6
CONTINUOUS
 62
     7
 10
-54.65000337951439
 20
17.08154106116927
 11
-54.52463010095751
 21
17.14830047102056
  0
LINE
  8
0
  6
CONTINUOUS
 62
     7
 10
-54.52463010095751
 20
17.14830047102056
 11
-54.40646565562121
 21
17.22350942041228
  0
LINE
  8
0
  6
CONTINUOUS
 62
     7
 10
-54.40646565562121
 20
17.22350942041228
 11
-54.29551004350561
 21
17.30716790934439
  0
LINE
  8
0
  6
CONTINUOUS
 62
     7
 10
-54.29551004350561
 20
17.30716790934439
 11
-54.1917632646107
 21
17.39927593781682
  0
LINE
  8
0
  6
CONTINUOUS
 62
     7
 10
-54.1917632646107
 20
17.39927593781682
 11
-54.09522531893651
 21
17.49983350582968
  0
LINE
  8
0
  6
CONTINUOUS
 62
     7
 10
-54.09522531893651
 20
17.49983350582968
 11
-54.00589620648299
 21
17.60884061338286
  0
LINE
  8
0
  6
CONTINUOUS
 62
     7
 10
-54.00589620648299
 20
17.60884061338286
 11
-53.92377592725012
 21
17.72629726047647
  0
LINE
  8
0
  6
CONTINUOUS
 62
     7
 10
-53.92377592725012
 20
17.72629726047647
 11
-53.84886448123802
 21
17.85220344711047
  0
LINE
  8
0
  6
CONTINUOUS
 62
     7
 10
-53.84886448123802
 20
17.85220344711047
 11
-53.7811618684465
 21
17.98655917328484
  0
LINE
  8
0
  6
CONTINUOUS
 62
     7
 10
-53.7811618684465
 20
17.98655917328484
 11
-53.72066808887571
 21
18.12936443899954
  0
LINE
  8
0
  6
CONTINUOUS
 62
     7
 10
-53.72066808887571
 20
18.12936443899954
 11
-53.66738314252559
 21
18.28061924425478
  0
LINE
  8
0
  6
CONTINUOUS
 62
     7
 10
-53.66738314252559
 20
18.28061924425478
 11
-53.6213070293961
 21
18.44032358905029
  0
LINE
  8
0
  6
CONTINUOUS
 62
     7
 10
-53.6213070293961
 20
18.44032358905029
 11
-53.5824397494874
 21
18.60847747338629
  0
LINE
  8
0
  6
CONTINUOUS
 62
     7
 10
-53.5824397494874
 20
18.60847747338629
 11
-53.5507813027993
 21
18.78508089726261
  0
LINE
  8
0
  6
CONTINUOUS
 62
     7
 10
-53.5507813027993
 20
18.78508089726261
 11
-53.5263316893319
 21
18.9701338606793
  0
LINE
  8
0
  6
CONTINUOUS
 62
     7
 10
-53.5263316893319
 20
18.9701338606793
 11
-53.5090909090852
 21
19.16363636363627
  0
LINE
  8
0
  6
CONTINUOUS
 62
     7
 10
-63.95626204063262
 20
25.16417069535814
 11
-63.7908067525341
 21
24.98299671683535
  0
LINE
  8
0
  6
CONTINUOUS
 62
     7
 10
-63.7908067525341
 20
24.98299671683535
 11
-63.63521094385302
 21
24.79415381874283
  0
LINE
  8
0
  6
CONTINUOUS
 62
     7
 10
-63.63521094385302
 20
24.79415381874283
 11
-63.48947461458923
 21
24.59764200108078
  0
LINE
  8
0
  6
CONTINUOUS
 62
     7
 10
-63.48947461458923
 20
24.59764200108078
 11
-63.35359776474259
 21
24.39346126384889
  0
LINE
  8
0
  6
CONTINUOUS
 62
     7
 10
-63.35359776474259
 20
24.39346126384889
 11
-63.2275803943132
 21
24.18161160704746
  0
LINE
  8
0
  6
CONTINUOUS
 62
     7
 10
-63.2275803943132
 20
24.18161160704746
 11
-63.11142250330121
 21
23.9620930306762
  0
LINE
  8
0
  6
CONTINUOUS
 62
     7
 10
-63.11142250330121
 20
23.9620930306762
 11
-63.00512409170641
 21
23.73490553473523
  0
LINE
  8
0
  6
CONTINUOUS
 62
     7
 10
-63.00512409170641
 20
23.73490553473523
 11
-62.90868515952891
 21
23.50004911922465
  0
LINE
  8
0
  6
CONTINUOUS
 62
     7
 10
-62.90868515952891
 20
23.50004911922465
 11
-62.82210570676872
 21
23.25752378414447
  0
LINE
  8
0
  6
CONTINUOUS
 62
     7
 10
-62.82210570676872
 20
23.25752378414447
 11
-62.74538573342569
 21
23.00732952949447
  0
LINE
  8
0
  6
CONTINUOUS
 62
     7
 10
-62.74538573342569
 20
23.00732952949447
 11
-62.6785252395001
 21
22.74946635527486
  0
LINE
  8
0
  6
CONTINUOUS
 62
     7
 10
-62.6785252395001
 20
22.74946635527486
 11
-62.6215242249917
 21
22.48393426148559
  0
LINE
  8
0
  6
CONTINUOUS
 62
     7
 10
-62.6215242249917
 20
22.48393426148559
 11
-62.57438268990059
 21
22.21073324812656
  0
LINE
  8
0
  6
CONTINUOUS
 62
     7
 10
-62.57438268990059
 20
22.21073324812656
 11
-62.53710063422668
 21
21.92986331519792
  0
LINE
  8
0
  6
CONTINUOUS
 62
     7
 10
-62.53710063422668
 20
21.92986331519792
 11
-62.5096780579702
 21
21.64132446269956
  0
LINE
  8
0
  6
CONTINUOUS
 62
     7
 10
-62.5096780579702
 20
21.64132446269956
 11
-62.49211496113091
 21
21.34511669063155
  0
LINE
  8
0
  6
CONTINUOUS
 62
     7
 10
-62.49211496113091
 20
21.34511669063155
 11
-62.48351153164081
 21
21.00129638647186
  0
LINE
  8
0
  6
CONTINUOUS
 62
     7
 10
-62.48351153164081
 20
21.00129638647186
 11
-62.4869799834546
 21
20.66520555574181
  0
LINE
  8
0
  6
CONTINUOUS
 62
     7
 10
-62.4869799834546
 20
20.66520555574181
 11
-62.5025203165723
 21
20.33684419844106
  0
LINE
  8
0
  6
CONTINUOUS
 62
     7
 10
-62.5025203165723
 20
20.33684419844106
 11
-62.53013253099402
 21
20.01621231456985
  0
LINE
  8
0
  6
CONTINUOUS
 62
     7
 10
-62.53013253099402
 20
20.01621231456985
 11
-62.56981662671948
 21
19.70330990412828
  0
LINE
  8
0
  6
CONTINUOUS
 62
     7
 10
-62.56981662671948
 20
19.70330990412828
 11
-62.62157260374898
 21
19.39813696711618
  0
LINE
  8
0
  6
CONTINUOUS
 62
     7
 10
-62.62157260374898
 20
19.39813696711618
 11
-62.68540046208251
 21
19.10069350353344
  0
LINE
  8
0
  6
CONTINUOUS
 62
     7
 10
-62.68540046208251
 20
19.10069350353344
 11
-62.7613002017198
 21
18.8109795133804
  0
LINE
  8
0
  6
CONTINUOUS
 62
     7
 10
-62.7613002017198
 20
18.8109795133804
 11
-62.84927182266109
 21
18.52899499665667
  0
LINE
  8
0
  6
CONTINUOUS
 62
     7
 10
-62.84927182266109
 20
18.52899499665667
 11
-62.94931532490622
 21
18.25473995336246
  0
LINE
  8
0
  6
CONTINUOUS
 62
     7
 10
-62.94931532490622
 20
18.25473995336246
 11
-63.0614307084553
 21
17.98821438349779
  0
LINE
  8
0
  6
CONTINUOUS
 62
     7
 10
-63.0614307084553
 20
17.98821438349779
 11
-63.1856179733084
 21
17.72941828706265
  0
LINE
  8
0
  6
CONTINUOUS
 62
     7
 10
-63.1856179733084
 20
17.72941828706265
 11
-63.32187711946541
 21
17.47835166405698
  0
LINE
  8
0
  6
CONTINUOUS
 62
     7
 10
-63.32187711946541
 20
17.47835166405698
 11
-63.47020814692619
 21
17.23501451448078
  0
LINE
  8
0
  6
CONTINUOUS
 62
     7
 10
-63.47020814692619
 20
17.23501451448078
 11
-63.63061105569101
 21
16.99940683833417
  0
LINE
  8
0
  6
CONTINUOUS
 62
     7
 10
-63.63061105569101
 20
16.99940683833417
 11
-63.80308584575969
 21
16.77152863561698
  0
LINE
  8
0
  6
CONTINUOUS
 62
     7
 10
-63.80308584575969
 20
16.77152863561698
 11
-63.9748978935559
 21
16.56581440807947
  0
LINE
  8
0
  6
CONTINUOUS
 62
     7
 10
-63.9748978935559
 20
16.56581440807947
 11
-64.15190095293121
 21
16.37337206618977
  0
LINE
  8
0
  6
CONTINUOUS
 62
     7
 10
-64.15190095293121
 20
16.37337206618977
 11
-64.33409502388562
 21
16.19420160994739
  0
LINE
  8
0
  6
CONTINUOUS
 62
     7
 10
-64.33409502388562
 20
16.19420160994739
 11
-64.5214801064192
 21
16.02830303935276
  0
LINE
  8
0
  6
CONTINUOUS
 62
     7
 10
-64.5214801064192
 20
16.02830303935276
 11
-64.71405620053189
 21
15.87567635440556
  0
LINE
  8
0
  6
CONTINUOUS
 62
     7
 10
-64.71405620053189
 20
15.87567635440556
 11
-64.9118233062237
 21
15.73632155510596
  0
LINE
  8
0
  6
CONTINUOUS
 62
     7
 10
-64.9118233062237
 20
15.73632155510596
 11
-65.1147814234946
 21
15.61023864145417
  0
LINE
  8
0
  6
CONTINUOUS
 62
     7
 10
-65.1147814234946
 20
15.61023864145417
 11
-65.3229305523447
 21
15.49742761344969
  0
LINE
  8
0
  6
CONTINUOUS
 62
     7
 10
-65.3229305523447
 20
15.49742761344969
 11
-65.53627069277401
 21
15.39788847109286
  0
LINE
  8
0
  6
CONTINUOUS
 62
     7
 10
-65.53627069277401
 20
15.39788847109286
 11
-65.7548018447824
 21
15.31162121438356
  0
LINE
  8
0
  6
CONTINUOUS
 62
     7
 10
-65.7548018447824
 20
15.31162121438356
 11
-65.9785240083699
 21
15.23862584332186
  0
LINE
  8
0
  6
CONTINUOUS
 62
     7
 10
-65.9785240083699
 20
15.23862584332186
 11
-66.2074371835365
 21
15.17890235790786
  0
LINE
  8
0
  6
CONTINUOUS
 62
     7
 10
-66.2074371835365
 20
15.17890235790786
 11
-66.44154137028232
 21
15.13245075814135
  0
LINE
  8
0
  6
CONTINUOUS
 62
     7
 10
-66.44154137028232
 20
15.13245075814135
 11
-66.68083656860709
 21
15.09927104402237
  0
LINE
  8
0
  6
CONTINUOUS
 62
     7
 10
-66.68083656860709
 20
15.09927104402237
 11
-66.92532277851117
 21
15.07936321555098
  0
LINE
  8
0
  6
CONTINUOUS
 62
     7
 10
-66.92532277851117
 20
15.07936321555098
 11
-67.17499999999433
 21
15.07272727272724
  0
LINE
  8
0
  6
CONTINUOUS
 62
     7
 10
-67.17499999999433
 20
15.07272727272724
 11
-67.4175325061459
 21
15.07821433034079
  0
LINE
  8
0
  6
CONTINUOUS
 62
     7
 10
-67.4175325061459
 20
15.07821433034079
 11
-67.6542209336916
 21
15.09467550318144
  0
LINE
  8
0
  6
CONTINUOUS
 62
     7
 10
-67.6542209336916
 20
15.09467550318144
 11
-67.88506528263142
 21
15.12211079124925
  0
LINE
  8
0
  6
CONTINUOUS
 62
     7
 10
-67.88506528263142
 20
15.12211079124925
 11
-68.1100655529654
 21
15.16052019454428
  0
LINE
  8
0
  6
CONTINUOUS
 62
     7
 10
-68.1100655529654
 20
15.16052019454428
 11
-68.32922174469341
 21
15.20990371306641
  0
LINE
  8
0
  6
CONTINUOUS
 62
     7
 10
-68.32922174469341
 20
15.20990371306641
 11
-68.54253385781553
 21
15.27026134681553
  0
LINE
  8
0
  6
CONTINUOUS
 62
     7
 10
-68.54253385781553
 20
15.27026134681553
 11
-68.75000189233182
 21
15.34159309579186
  0
LINE
  8
0
  6
CONTINUOUS
 62
     7
 10
-68.75000189233182
 20
15.34159309579186
 11
-68.9516258482421
 21
15.42389895999535
  0
LINE
  8
0
  6
CONTINUOUS
 62
     7
 10
-68.9516258482421
 20
15.42389895999535
 11
-69.1474057255465
 21
15.517178939426
  0
LINE
  8
0
  6
CONTINUOUS
 62
     7
 10
-69.1474057255465
 20
15.517178939426
 11
-69.33734152424512
 21
15.62143303408364
  0
LINE
  8
0
  6
CONTINUOUS
 62
     7
 10
-69.33734152424512
 20
15.62143303408364
 11
-69.52143324433779
 21
15.7366612439685
  0
LINE
  8
0
  6
CONTINUOUS
 62
     7
 10
-69.52143324433779
 20
15.7366612439685
 11
-69.6996808858245
 21
15.86286356908051
  0
LINE
  8
0
  6
CONTINUOUS
 62
     7
 10
-69.6996808858245
 20
15.86286356908051
 11
-69.87208444870541
 21
16.00004000941957
  0
LINE
  8
0
  6
CONTINUOUS
 62
     7
 10
-69.87208444870541
 20
16.00004000941957
 11
-70.03864393298042
 21
16.14819056498579
  0
LINE
  8
0
  6
CONTINUOUS
 62
     7
 10
-70.03864393298042
 20
16.14819056498579
 11
-70.1993593386494
 21
16.30731523577916
  0
LINE
  8
0
  6
CONTINUOUS
 62
     7
 10
-70.1993593386494
 20
16.30731523577916
 11
-70.35423066571258
 21
16.47741402179964
  0
LINE
  8
0
  6
CONTINUOUS
 62
     7
 10
-70.35423066571258
 20
16.47741402179964
 11
-70.5047531420146
 21
16.6601526133533
  0
LINE
  8
0
  6
CONTINUOUS
 62
     7
 10
-70.5047531420146
 20
16.6601526133533
 11
-70.6465827828045
 21
16.85044916619127
  0
LINE
  8
0
  6
CONTINUOUS
 62
     7
 10
-70.6465827828045
 20
16.85044916619127
 11
-70.7797195880826
 21
17.04830368031357
  0
LINE
  8
0
  6
CONTINUOUS
 62
     7
 10
-70.7797195880826
 20
17.04830368031357
 11
-70.90416355784862
 21
17.25371615572035
  0
LINE
  8
0
  6
CONTINUOUS
 62
     7
 10
-70.90416355784862
 20
17.25371615572035
 11
-71.0199146921027
 21
17.46668659241146
  0
LINE
  8
0
  6
CONTINUOUS
 62
     7
 10
-71.0199146921027
 20
17.46668659241146
 11
-71.1269729908448
 21
17.687214990387
  0
LINE
  8
0
  6
CONTINUOUS
 62
     7
 10
-71.1269729908448
 20
17.687214990387
 11
-71.22533845407492
 21
17.91530134964686
  0
LINE
  8
0
  6
CONTINUOUS
 62
     7
 10
-71.22533845407492
 20
17.91530134964686
 11
-71.31501108179309
 21
18.15094567019115
  0
LINE
  8
0
  6
CONTINUOUS
 62
     7
 10
-71.31501108179309
 20
18.15094567019115
 11
-71.3959908739992
 21
18.39414795201982
  0
LINE
  8
0
  6
CONTINUOUS
 62
     7
 10
-71.3959908739992
 20
18.39414795201982
 11
-71.46827783069351
 21
18.64490819513309
  0
LINE
  8
0
  6
CONTINUOUS
 62
     7
 10
-71.46827783069351
 20
18.64490819513309
 11
-71.53187195187569
 21
18.90322639953046
  0
LINE
  8
0
  6
CONTINUOUS
 62
     7
 10
-71.53187195187569
 20
18.90322639953046
 11
-71.58677323754603
 21
19.16910256521231
  0
LINE
  8
0
  6
CONTINUOUS
 62
     7
 10
-71.58677323754603
 20
19.16910256521231
 11
-71.63298168770422
 21
19.44253669217844
  0
LINE
  8
0
  6
CONTINUOUS
 62
     7
 10
-71.63298168770422
 20
19.44253669217844
 11
-71.67049730235061
 21
19.72352878042921
  0
LINE
  8
0
  6
CONTINUOUS
 62
     7
 10
-71.67049730235061
 20
19.72352878042921
 11
-71.69932008148491
 21
20.0120788299642
  0
LINE
  8
0
  6
CONTINUOUS
 62
     7
 10
-71.69932008148491
 20
20.0120788299642
 11
-71.71945002510729
 21
20.30818684078356
  0
LINE
  8
0
  6
CONTINUOUS
 62
     7
 10
-71.71945002510729
 20
20.30818684078356
 11
-71.73194205231259
 21
20.65203887926986
  0
LINE
  8
0
  6
CONTINUOUS
 62
     7
 10
-71.73194205231259
 20
20.65203887926986
 11
-71.73280336747942
 21
20.9879144321975
  0
LINE
  8
0
  6
CONTINUOUS
 62
     7
 10
-71.73280336747942
 20
20.9879144321975
 11
-71.72203397060781
 21
21.31581349956618
  0
LINE
  8
0
  6
CONTINUOUS
 62
     7
 10
-71.72203397060781
 20
21.31581349956618
 11
-71.69963386169759
 21
21.63573608137631
  0
LINE
  8
0
  6
CONTINUOUS
 62
     7
 10
-71.69963386169759
 20
21.63573608137631
 11
-71.66560304074912
 21
21.94768217762749
  0
LINE
  8
0
  6
CONTINUOUS
 62
     7
 10
-71.66560304074912
 20
21.94768217762749
 11
-71.619941507762
 21
22.25165178831995
  0
LINE
  8
0
  6
CONTINUOUS
 62
     7
 10
-71.619941507762
 20
22.25165178831995
 11
-71.5626492627365
 21
22.54764491345373
  0
LINE
  8
0
  6
CONTINUOUS
 62
     7
 10
-71.5626492627365
 20
22.54764491345373
 11
-71.49372630567261
 21
22.83566155302874
  0
LINE
  8
0
  6
CONTINUOUS
 62
     7
 10
-71.49372630567261
 20
22.83566155302874
 11
-71.41317263657021
 21
23.11570170704508
  0
LINE
  8
0
  6
CONTINUOUS
 62
     7
 10
-71.41317263657021
 20
23.11570170704508
 11
-71.32098825542931
 21
23.38776537550247
  0
LINE
  8
0
  6
CONTINUOUS
 62
     7
 10
-71.32098825542931
 20
23.38776537550247
 11
-71.2171731622499
 21
23.65185255840113
  0
LINE
  8
0
  6
CONTINUOUS
 62
     7
 10
-71.2171731622499
 20
23.65185255840113
 11
-71.1017273570321
 21
23.90796325574118
  0
LINE
  8
0
  6
CONTINUOUS
 62
     7
 10
-71.1017273570321
 20
23.90796325574118
 11
-70.9746508397758
 21
24.15609746752234
  0
LINE
  8
0
  6
CONTINUOUS
 62
     7
 10
-70.9746508397758
 20
24.15609746752234
 11
-70.8359436104811
 21
24.39625519374483
  0
LINE
  8
0
  6
CONTINUOUS
 62
     7
 10
-70.8359436104811
 20
24.39625519374483
 11
-70.68560566914792
 21
24.62843643440848
  0
LINE
  8
0
  6
CONTINUOUS
 62
     7
 10
-70.68560566914792
 20
24.62843643440848
 11
-70.52363701577622
 21
24.85264118951347
  0
LINE
  8
0
  6
CONTINUOUS
 62
     7
 10
-70.52363701577622
 20
24.85264118951347
 11
-70.3610357294191
 21
25.05542860228899
  0
LINE
  8
0
  6
CONTINUOUS
 62
     7
 10
-70.3610357294191
 20
25.05542860228899
 11
-70.1922093061114
 21
25.24513295617575
  0
LINE
  8
0
  6
CONTINUOUS
 62
     7
 10
-70.1922093061114
 20
25.24513295617575
 11
-70.01715774585321
 21
25.42175425117382
  0
LINE
  8
0
  6
CONTINUOUS
 62
     7
 10
-70.01715774585321
 20
25.42175425117382
 11
-69.83588104864441
 21
25.58529248728308
  0
LINE
  8
0
  6
CONTINUOUS
 62
     7
 10
-69.83588104864441
 20
25.58529248728308
 11
-69.64837921448499
 21
25.73574766450371
  0
LINE
  8
0
  6
CONTINUOUS
 62
     7
 10
-69.64837921448499
 20
25.73574766450371
 11
-69.45465224337502
 21
25.87311978283546
  0
LINE
  8
0
  6
CONTINUOUS
 62
     7
 10
-69.45465224337502
 20
25.87311978283546
 11
-69.25470013531451
 21
25.99740884227858
  0
LINE
  8
0
  6
CONTINUOUS
 62
     7
 10
-69.25470013531451
 20
25.99740884227858
 11
-69.04852289030342
 21
26.10861484283283
  0
LINE
  8
0
  6
CONTINUOUS
 62
     7
 10
-69.04852289030342
 20
26.10861484283283
 11
-68.8361205083418
 21
26.2067377844985
  0
LINE
  8
0
  6
CONTINUOUS
 62
     7
 10
-68.8361205083418
 20
26.2067377844985
 11
-68.61749298942962
 21
26.2917776672753
  0
LINE
  8
0
  6
CONTINUOUS
 62
     7
 10
-68.61749298942962
 20
26.2917776672753
 11
-68.39264033356682
 21
26.36373449116336
  0
LINE
  8
0
  6
CONTINUOUS
 62
     7
 10
-68.39264033356682
 20
26.36373449116336
 11
-68.1615625407534
 21
26.42260825616266
  0
LINE
  8
0
  6
CONTINUOUS
 62
     7
 10
-68.1615625407534
 20
26.42260825616266
 11
-67.9242596109895
 21
26.46839896227327
  0
LINE
  8
0
  6
CONTINUOUS
 62
     7
 10
-67.9242596109895
 20
26.46839896227327
 11
-67.680731544275
 21
26.50110660949517
  0
LINE
  8
0
  6
CONTINUOUS
 62
     7
 10
-67.680731544275
 20
26.50110660949517
 11
-67.43097834060993
 21
26.52073119782827
  0
LINE
  8
0
  6
CONTINUOUS
 62
     7
 10
-67.43097834060993
 20
26.52073119782827
 11
-67.17499999999433
 21
26.52727272727268
  0
LINE
  8
0
  6
CONTINUOUS
 62
     7
 10
-67.17499999999433
 20
26.52727272727268
 11
-66.9387052139315
 21
26.52194810996045
  0
LINE
  8
0
  6
CONTINUOUS
 62
     7
 10
-66.9387052139315
 20
26.52194810996045
 11
-66.7070935830156
 21
26.50597425802392
  0
LINE
  8
0
  6
CONTINUOUS
 62
     7
 10
-66.7070935830156
 20
26.50597425802392
 11
-66.48016510724689
 21
26.47935117146316
  0
LINE
  8
0
  6
CONTINUOUS
 62
     7
 10
-66.48016510724689
 20
26.47935117146316
 11
-66.2579197866251
 21
26.4420788502781
  0
LINE
  8
0
  6
CONTINUOUS
 62
     7
 10
-66.2579197866251
 20
26.4420788502781
 11
-66.0403576211504
 21
26.39415729446859
  0
LINE
  8
0
  6
CONTINUOUS
 62
     7
 10
-66.0403576211504
 20
26.39415729446859
 11
-65.8274786108227
 21
26.33558650403467
  0
LINE
  8
0
  6
CONTINUOUS
 62
     7
 10
-65.8274786108227
 20
26.33558650403467
 11
-65.6192827556421
 21
26.26636647897656
  0
LINE
  8
0
  6
CONTINUOUS
 62
     7
 10
-65.6192827556421
 20
26.26636647897656
 11
-65.41577005560842
 21
26.18649721929395
  0
LINE
  8
0
  6
CONTINUOUS
 62
     7
 10
-65.41577005560842
 20
26.18649721929395
 11
-65.21694051072183
 21
26.09597872498725
  0
LINE
  8
0
  6
CONTINUOUS
 62
     7
 10
-65.21694051072183
 20
26.09597872498725
 11
-65.02279412098233
 21
25.99481099605611
  0
LINE
  8
0
  6
CONTINUOUS
 62
     7
 10
-65.02279412098233
 20
25.99481099605611
 11
-64.8333308863897
 21
25.88299403250066
  0
LINE
  8
0
  6
CONTINUOUS
 62
     7
 10
-64.8333308863897
 20
25.88299403250066
 11
-64.6485508069442
 21
25.76052783432075
  0
LINE
  8
0
  6
CONTINUOUS
 62
     7
 10
-64.6485508069442
 20
25.76052783432075
 11
-64.4684538826458
 21
25.62741240151667
  0
LINE
  8
0
  6
CONTINUOUS
 62
     7
 10
-64.4684538826458
 20
25.62741240151667
 11
-64.29304011349429
 21
25.48364773408818
  0
LINE
  8
0
  6
CONTINUOUS
 62
     7
 10
-64.29304011349429
 20
25.48364773408818
 11
-64.12230949948992
 21
25.32923383203539
  0
LINE
  8
0
  6
CONTINUOUS
 62
     7
 10
-64.12230949948992
 20
25.32923383203539
 11
-63.95626204063262
 21
25.16417069535814
  0
LINE
  8
0
  6
CONTINUOUS
 62
     7
 10
-65.15681818181251
 20
23.30909090909089
 11
-65.2339527533135
 21
23.46822431656836
  0
LINE
  8
0
  6
CONTINUOUS
 62
     7
 10
-65.2339527533135
 20
23.46822431656836
 11
-65.31535646781661
 21
23.61835181172778
  0
LINE
  8
0
  6
CONTINUOUS
 62
     7
 10
-65.31535646781661
 20
23.61835181172778
 11
-65.40102932532169
 21
23.75947339456935
  0
LINE
  8
0
  6
CONTINUOUS
 62
     7
 10
-65.40102932532169
 20
23.75947339456935
 11
-65.49097132582871
 21
23.89158906509309
  0
LINE
  8
0
  6
CONTINUOUS
 62
     7
 10
-65.49097132582871
 20
23.89158906509309
 11
-65.58518246933792
 21
24.01469882329888
  0
LINE
  8
0
  6
CONTINUOUS
 62
     7
 10
-65.58518246933792
 20
24.01469882329888
 11
-65.683662755849
 21
24.12880266918676
  0
LINE
  8
0
  6
CONTINUOUS
 62
     7
 10
-65.683662755849
 20
24.12880266918676
 11
-65.78641218536221
 21
24.23390060275682
  0
LINE
  8
0
  6
CONTINUOUS
 62
     7
 10
-65.78641218536221
 20
24.23390060275682
 11
-65.8934307578774
 21
24.32999262400881
  0
LINE
  8
0
  6
CONTINUOUS
 62
     7
 10
-65.8934307578774
 20
24.32999262400881
 11
-66.00471847339459
 21
24.41707873294297
  0
LINE
  8
0
  6
CONTINUOUS
 62
     7
 10
-66.00471847339459
 20
24.41707873294297
 11
-66.12027533191392
 21
24.49515892955928
  0
LINE
  8
0
  6
CONTINUOUS
 62
     7
 10
-66.12027533191392
 20
24.49515892955928
 11
-66.24010133343519
 21
24.56423321385759
  0
LINE
  8
0
  6
CONTINUOUS
 62
     7
 10
-66.24010133343519
 20
24.56423321385759
 11
-66.36419647795849
 21
24.62430158583811
  0
LINE
  8
0
  6
CONTINUOUS
 62
     7
 10
-66.36419647795849
 20
24.62430158583811
 11
-66.4925607654839
 21
24.67536404550058
  0
LINE
  8
0
  6
CONTINUOUS
 62
     7
 10
-66.4925607654839
 20
24.67536404550058
 11
-66.62519419601121
 21
24.71742059284532
  0
LINE
  8
0
  6
CONTINUOUS
 62
     7
 10
-66.62519419601121
 20
24.71742059284532
 11
-66.7620967695407
 21
24.75047122787194
  0
LINE
  8
0
  6
CONTINUOUS
 62
     7
 10
-66.7620967695407
 20
24.75047122787194
 11
-66.90326848607208
 21
24.77451595058089
  0
LINE
  8
0
  6
CONTINUOUS
 62
     7
 10
-66.90326848607208
 20
24.77451595058089
 11
-67.05788457548469
 21
24.79098696213766
  0
LINE
  8
0
  6
CONTINUOUS
 62
     7
 10
-67.05788457548469
 20
24.79098696213766
 11
-67.2083454197875
 21
24.79766534808997
  0
LINE
  8
0
  6
CONTINUOUS
 62
     7
 10
-67.2083454197875
 20
24.79766534808997
 11
-67.35465101898039
 21
24.7945511084377
  0
LINE
  8
0
  6
CONTINUOUS
 62
     7
 10
-67.35465101898039
 20
24.7945511084377
 11
-67.4968013730634
 21
24.78164424318074
  0
LINE
  8
0
  6
CONTINUOUS
 62
     7
 10
-67.4968013730634
 20
24.78164424318074
 11
-67.6347964820366
 21
24.75894475231916
  0
LINE
  8
0
  6
CONTINUOUS
 62
     7
 10
-67.6347964820366
 20
24.75894475231916
 11
-67.7686363458999
 21
24.72645263585294
  0
LINE
  8
0
  6
CONTINUOUS
 62
     7
 10
-67.7686363458999
 20
24.72645263585294
 11
-67.8983209646534
 21
24.68416789378219
  0
LINE
  8
0
  6
CONTINUOUS
 62
     7
 10
-67.8983209646534
 20
24.68416789378219
 11
-68.02385033829702
 21
24.63209052610677
  0
LINE
  8
0
  6
CONTINUOUS
 62
     7
 10
-68.02385033829702
 20
24.63209052610677
 11
-68.14522446683071
 21
24.57022053282665
  0
LINE
  8
0
  6
CONTINUOUS
 62
     7
 10
-68.14522446683071
 20
24.57022053282665
 11
-68.26244335025461
 21
24.49855791394207
  0
LINE
  8
0
  6
CONTINUOUS
 62
     7
 10
-68.26244335025461
 20
24.49855791394207
 11
-68.37550698856862
 21
24.41710266945263
  0
LINE
  8
0
  6
CONTINUOUS
 62
     7
 10
-68.37550698856862
 20
24.41710266945263
 11
-68.4844153817728
 21
24.32585479935884
  0
LINE
  8
0
  6
CONTINUOUS
 62
     7
 10
-68.4844153817728
 20
24.32585479935884
 11
-68.58916852986712
 21
24.2248143036603
  0
LINE
  8
0
  6
CONTINUOUS
 62
     7
 10
-68.58916852986712
 20
24.2248143036603
 11
-68.68976643285151
 21
24.11398118235714
  0
LINE
  8
0
  6
CONTINUOUS
 62
     7
 10
-68.68976643285151
 20
24.11398118235714
 11
-68.7862090907261
 21
23.99335543544939
  0
LINE
  8
0
  6
CONTINUOUS
 62
     7
 10
-68.7862090907261
 20
23.99335543544939
 11
-68.87849650349081
 21
23.86293706293696
  0
LINE
  8
0
  6
CONTINUOUS
 62
     7
 10
-68.87849650349081
 20
23.86293706293696
 11
-68.95001985320113
 21
23.75027088370213
  0
LINE
  8
0
  6
CONTINUOUS
 62
     7
 10
-68.95001985320113
 20
23.75027088370213
 11
-69.0177367554786
 21
23.63255206627729
  0
LINE
  8
0
  6
CONTINUOUS
 62
     7
 10
-69.0177367554786
 20
23.63255206627729
 11
-69.08164721032351
 21
23.50978061066239
  0
LINE
  8
0
  6
CONTINUOUS
 62
     7
 10
-69.08164721032351
 20
23.50978061066239
 11
-69.1417512177356
 21
23.38195651685737
  0
LINE
  8
0
  6
CONTINUOUS
 62
     7
 10
-69.1417512177356
 20
23.38195651685737
 11
-69.1980487777151
 21
23.24907978486257
  0
LINE
  8
0
  6
CONTINUOUS
 62
     7
 10
-69.1980487777151
 20
23.24907978486257
 11
-69.25053989026189
 21
23.11115041467754
  0
LINE
  8
0
  6
CONTINUOUS
 62
     7
 10
-69.25053989026189
 20
23.11115041467754
 11
-69.2992245553761
 21
22.96816840630267
  0
LINE
  8
0
  6
CONTINUOUS
 62
     7
 10
-69.2992245553761
 20
22.96816840630267
 11
-69.3441027730575
 21
22.82013375973768
  0
LINE
  8
0
  6
CONTINUOUS
 62
     7
 10
-69.3441027730575
 20
22.82013375973768
 11
-69.38517454330622
 21
22.66704647498263
  0
LINE
  8
0
  6
CONTINUOUS
 62
     7
 10
-69.38517454330622
 20
22.66704647498263
 11
-69.42243986612232
 21
22.50890655203763
  0
LINE
  8
0
  6
CONTINUOUS
 62
     7
 10
-69.42243986612232
 20
22.50890655203763
 11
-69.4558987415057
 21
22.34571399090268
  0
LINE
  8
0
  6
CONTINUOUS
 62
     7
 10
-69.4558987415057
 20
22.34571399090268
 11
-69.4855511694564
 21
22.17746879157767
  0
LINE
  8
0
  6
CONTINUOUS
 62
     7
 10
-69.4855511694564
 20
22.17746879157767
 11
-69.5113971499744
 21
22.00417095406271
  0
LINE
  8
0
  6
CONTINUOUS
 62
     7
 10
-69.5113971499744
 20
22.00417095406271
 11
-69.53343668305969
 21
21.82582047835757
  0
LINE
  8
0
  6
CONTINUOUS
 62
     7
 10
-69.53343668305969
 20
21.82582047835757
 11
-69.55166976871239
 21
21.64241736446249
  0
LINE
  8
0
  6
CONTINUOUS
 62
     7
 10
-69.55166976871239
 20
21.64241736446249
 11
-69.56609640693229
 21
21.45396161237734
  0
LINE
  8
0
  6
CONTINUOUS
 62
     7
 10
-69.56609640693229
 20
21.45396161237734
 11
-69.57823963235349
 21
21.23095601124375
  0
LINE
  8
0
  6
CONTINUOUS
 62
     7
 10
-69.57823963235349
 20
21.23095601124375
 11
-69.5851706830787
 21
21.01179324730068
  0
LINE
  8
0
  6
CONTINUOUS
 62
     7
 10
-69.5851706830787
 20
21.01179324730068
 11
-69.5868895591081
 21
20.79647332054818
  0
LINE
  8
0
  6
CONTINUOUS
 62
     7
 10
-69.5868895591081
 20
20.79647332054818
 11
-69.58339626044149
 21
20.58499623098625
  0
LINE
  8
0
  6
CONTINUOUS
 62
     7
 10
-69.58339626044149
 20
20.58499623098625
 11
-69.57469078707909
 21
20.37736197861501
  0
LINE
  8
0
  6
CONTINUOUS
 62
     7
 10
-69.57469078707909
 20
20.37736197861501
 11
-69.56077313902081
 21
20.17357056343427
  0
LINE
  8
0
  6
CONTINUOUS
 62
     7
 10
-69.56077313902081
 20
20.17357056343427
 11
-69.5416433162665
 21
19.97362198544428
  0
LINE
  8
0
  6
CONTINUOUS
 62
     7
 10
-69.5416433162665
 20
19.97362198544428
 11
-69.5173013188164
 21
19.7775162446448
  0
LINE
  8
0
  6
CONTINUOUS
 62
     7
 10
-69.5173013188164
 20
19.7775162446448
 11
-69.4877471466703
 21
19.58525334103595
  0
LINE
  8
0
  6
CONTINUOUS
 62
     7
 10
-69.4877471466703
 20
19.58525334103595
 11
-69.45298079982842
 21
19.39683327461778
  0
LINE
  8
0
  6
CONTINUOUS
 62
     7
 10
-69.45298079982842
 20
19.39683327461778
 11
-69.41300227829059
 21
19.21225604539006
  0
LINE
  8
0
  6
CONTINUOUS
 62
     7
 10
-69.41300227829059
 20
19.21225604539006
 11
-69.36781158205682
 21
19.03152165335304
  0
LINE
  8
0
  6
CONTINUOUS
 62
     7
 10
-69.36781158205682
 20
19.03152165335304
 11
-69.31740871112719
 21
18.85463009850663
  0
LINE
  8
0
  6
CONTINUOUS
 62
     7
 10
-69.31740871112719
 20
18.85463009850663
 11
-69.26179366550161
 21
18.68158138085085
  0
LINE
  8
0
  6
CONTINUOUS
 62
     7
 10
-69.26179366550161
 20
18.68158138085085
 11
-69.2009664451802
 21
18.51237550038559
  0
LINE
  8
0
  6
CONTINUOUS
 62
     7
 10
-69.2009664451802
 20
18.51237550038559
 11
-69.1349270501628
 21
18.34701245711096
  0
LINE
  8
0
  6
CONTINUOUS
 62
     7
 10
-69.1349270501628
 20
18.34701245711096
 11
-69.05846656999431
 21
18.17459626724199
  0
LINE
  8
0
  6
CONTINUOUS
 62
     7
 10
-69.05846656999431
 20
18.17459626724199
 11
-68.97815780112201
 21
18.01228263009475
  0
LINE
  8
0
  6
CONTINUOUS
 62
     7
 10
-68.97815780112201
 20
18.01228263009475
 11
-68.8940007435457
 21
17.86007154566893
  0
LINE
  8
0
  6
CONTINUOUS
 62
     7
 10
-68.8940007435457
 20
17.86007154566893
 11
-68.8059953972655
 21
17.717963013965
  0
LINE
  8
0
  6
CONTINUOUS
 62
     7
 10
-68.8059953972655
 20
17.717963013965
 11
-68.71414176228139
 21
17.58595703498256
  0
LINE
  8
0
  6
CONTINUOUS
 62
     7
 10
-68.71414176228139
 20
17.58595703498256
 11
-68.6184398385933
 21
17.46405360872177
  0
LINE
  8
0
  6
CONTINUOUS
 62
     7
 10
-68.6184398385933
 20
17.46405360872177
 11
-68.5188896262014
 21
17.35225273518259
  0
LINE
  8
0
  6
CONTINUOUS
 62
     7
 10
-68.5188896262014
 20
17.35225273518259
 11
-68.41549112510559
 21
17.25055441436507
  0
LINE
  8
0
  6
CONTINUOUS
 62
     7
 10
-68.41549112510559
 20
17.25055441436507
 11
-68.3082443353058
 21
17.15895864626915
  0
LINE
  8
0
  6
CONTINUOUS
 62
     7
 10
-68.3082443353058
 20
17.15895864626915
 11
-68.1971492568022
 21
17.077465430895
  0
LINE
  8
0
  6
CONTINUOUS
 62
     7
 10
-68.1971492568022
 20
17.077465430895
 11
-68.0822058895946
 21
17.0060747682424
  0
LINE
  8
0
  6
CONTINUOUS
 62
     7
 10
-68.0822058895946
 20
17.0060747682424
 11
-67.96341423368312
 21
16.94478665831123
  0
LINE
  8
0
  6
CONTINUOUS
 62
     7
 10
-67.96341423368312
 20
16.94478665831123
 11
-67.84077428906771
 21
16.89360110110194
  0
LINE
  8
0
  6
CONTINUOUS
 62
     7
 10
-67.84077428906771
 20
16.89360110110194
 11
-67.71428605574839
 21
16.85251809661436
  0
LINE
  8
0
  6
CONTINUOUS
 62
     7
 10
-67.71428605574839
 20
16.85251809661436
 11
-67.5839495337252
 21
16.82153764484823
  0
LINE
  8
0
  6
CONTINUOUS
 62
     7
 10
-67.5839495337252
 20
16.82153764484823
 11
-67.4497647229981
 21
16.80065974580386
  0
LINE
  8
0
  6
CONTINUOUS
 62
     7
 10
-67.4497647229981
 20
16.80065974580386
 11
-67.2950234135872
 21
16.78657398093886
  0
LINE
  8
0
  6
CONTINUOUS
 62
     7
 10
-67.2950234135872
 20
16.78657398093886
 11
-67.14494521156
 21
16.78084525915868
  0
LINE
  8
0
  6
CONTINUOUS
 62
     7
 10
-67.14494521156
 20
16.78084525915868
 11
-66.99953011691662
 21
16.78347358046317
  0
LINE
  8
0
  6
CONTINUOUS
 62
     7
 10
-66.99953011691662
 20
16.78347358046317
 11
-66.8587781296569
 21
16.79445894485243
  0
LINE
  8
0
  6
CONTINUOUS
 62
     7
 10
-66.8587781296569
 20
16.79445894485243
 11
-66.72268924978091
 21
16.81380135232646
  0
LINE
  8
0
  6
CONTINUOUS
 62
     7
 10
-66.72268924978091
 20
16.81380135232646
 11
-66.5912634772886
 21
16.84150080288521
  0
LINE
  8
0
  6
CONTINUOUS
 62
     7
 10
-66.5912634772886
 20
16.84150080288521
 11
-66.4645008121801
 21
16.87755729652862
  0
LINE
  8
0
  6
CONTINUOUS
 62
     7
 10
-66.4645008121801
 20
16.87755729652862
 11
-66.34240125445531
 21
16.9219708332568
  0
LINE
  8
0
  6
CONTINUOUS
 62
     7
 10
-66.34240125445531
 20
16.9219708332568
 11
-66.22496480411422
 21
16.97474141306976
  0
LINE
  8
0
  6
CONTINUOUS
 62
     7
 10
-66.22496480411422
 20
16.97474141306976
 11
-66.1121914611569
 21
17.03586903596738
  0
LINE
  8
0
  6
CONTINUOUS
 62
     7
 10
-66.1121914611569
 20
17.03586903596738
 11
-66.00408122558332
 21
17.10535370194977
  0
LINE
  8
0
  6
CONTINUOUS
 62
     7
 10
-66.00408122558332
 20
17.10535370194977
 11
-65.90063409739341
 21
17.18319541101687
  0
LINE
  8
0
  6
CONTINUOUS
 62
     7
 10
-65.90063409739341
 20
17.18319541101687
 11
-65.8018500765872
 21
17.26939416316864
  0
LINE
  8
0
  6
CONTINUOUS
 62
     7
 10
-65.8018500765872
 20
17.26939416316864
 11
-65.7077291631647
 21
17.36394995840523
  0
LINE
  8
0
  6
CONTINUOUS
 62
     7
 10
-65.7077291631647
 20
17.36394995840523
 11
-65.618271357126
 21
17.4668627967266
  0
LINE
  8
0
  6
CONTINUOUS
 62
     7
 10
-65.618271357126
 20
17.4668627967266
 11
-65.533476658471
 21
17.57813267813269
  0
LINE
  8
0
  6
CONTINUOUS
 62
     7
 10
-65.533476658471
 20
17.57813267813269
 11
-65.4477449964432
 21
17.70364492435061
  0
LINE
  8
0
  6
CONTINUOUS
 62
     7
 10
-65.4477449964432
 20
17.70364492435061
 11
-65.36653281134281
 21
17.83380574162835
  0
LINE
  8
0
  6
CONTINUOUS
 62
     7
 10
-65.36653281134281
 20
17.83380574162835
 11
-65.28984010316971
 21
17.96861512996611
  0
LINE
  8
0
  6
CONTINUOUS
 62
     7
 10
-65.28984010316971
 20
17.96861512996611
 11
-65.21766687192381
 21
18.1080730893638
  0
LINE
  8
0
  6
CONTINUOUS
 62
     7
 10
-65.21766687192381
 20
18.1080730893638
 11
-65.15001311760543
 21
18.25217961982123
  0
LINE
  8
0
  6
CONTINUOUS
 62
     7
 10
-65.15001311760543
 20
18.25217961982123
 11
-65.08687884021411
 21
18.40093472133875
  0
LINE
  8
0
  6
CONTINUOUS
 62
     7
 10
-65.08687884021411
 20
18.40093472133875
 11
-65.0282640397502
 21
18.55433839391607
  0
LINE
  8
0
  6
CONTINUOUS
 62
     7
 10
-65.0282640397502
 20
18.55433839391607
 11
-64.97416871621361
 21
18.71239063755337
  0
LINE
  8
0
  6
CONTINUOUS
 62
     7
 10
-64.97416871621361
 20
18.71239063755337
 11
-64.92459286960431
 21
18.87509145225047
  0
LINE
  8
0
  6
CONTINUOUS
 62
     7
 10
-64.92459286960431
 20
18.87509145225047
 11
-64.87953649992231
 21
19.04244083800755
  0
LINE
  8
0
  6
CONTINUOUS
 62
     7
 10
-64.87953649992231
 20
19.04244083800755
 11
-64.83899960716771
 21
19.21443879482459
  0
LINE
  8
0
  6
CONTINUOUS
 62
     7
 10
-64.83899960716771
 20
19.21443879482459
 11
-64.80298219134029
 21
19.39108532270145
  0
LINE
  8
0
  6
CONTINUOUS
 62
     7
 10
-64.80298219134029
 20
19.39108532270145
 11
-64.7714842524402
 21
19.57238042163828
  0
LINE
  8
0
  6
CONTINUOUS
 62
     7
 10
-64.7714842524402
 20
19.57238042163828
 11
-64.7445057904675
 21
19.75832409163497
  0
LINE
  8
0
  6
CONTINUOUS
 62
     7
 10
-64.7445057904675
 20
19.75832409163497
 11
-64.72204680542201
 21
19.94891633269152
  0
LINE
  8
0
  6
CONTINUOUS
 62
     7
 10
-64.72204680542201
 20
19.94891633269152
 11
-64.7041072973039
 21
20.1441571448081
  0
LINE
  8
0
  6
CONTINUOUS
 62
     7
 10
-64.7041072973039
 20
20.1441571448081
 11
-64.68861525597491
 21
20.37400175191767
  0
LINE
  8
0
  6
CONTINUOUS
 62
     7
 10
-64.68861525597491
 20
20.37400175191767
 11
-64.6789614108606
 21
20.59957485944819
  0
LINE
  8
0
  6
CONTINUOUS
 62
     7
 10
-64.6789614108606
 20
20.59957485944819
 11
-64.67514576196112
 21
20.82087646739999
  0
LINE
  8
0
  6
CONTINUOUS
 62
     7
 10
-64.67514576196112
 20
20.82087646739999
 11
-64.67716830927641
 21
21.03790657577265
  0
LINE
  8
0
  6
CONTINUOUS
 62
     7
 10
-64.67716830927641
 20
21.03790657577265
 11
-64.68502905280651
 21
21.25066518456653
  0
LINE
  8
0
  6
CONTINUOUS
 62
     7
 10
-64.68502905280651
 20
21.25066518456653
 11
-64.69872799255141
 21
21.45915229378159
  0
LINE
  8
0
  6
CONTINUOUS
 62
     7
 10
-64.69872799255141
 20
21.45915229378159
 11
-64.718265128511
 21
21.66336790341755
  0
LINE
  8
0
  6
CONTINUOUS
 62
     7
 10
-64.718265128511
 20
21.66336790341755
 11
-64.74364046068531
 21
21.86331201347469
  0
LINE
  8
0
  6
CONTINUOUS
 62
     7
 10
-64.74364046068531
 20
21.86331201347469
 11
-64.77485398907449
 21
22.05898462395284
  0
LINE
  8
0
  6
CONTINUOUS
 62
     7
 10
-64.77485398907449
 20
22.05898462395284
 11
-64.81190571367851
 21
22.25038573485227
  0
LINE
  8
0
  6
CONTINUOUS
 62
     7
 10
-64.81190571367851
 20
22.25038573485227
 11
-64.8547956344972
 21
22.43751534617255
  0
LINE
  8
0
  6
CONTINUOUS
 62
     7
 10
-64.8547956344972
 20
22.43751534617255
 11
-64.90352375153071
 21
22.62037345791407
  0
LINE
  8
0
  6
CONTINUOUS
 62
     7
 10
-64.90352375153071
 20
22.62037345791407
 11
-64.95809006477901
 21
22.7989600700767
  0
LINE
  8
0
  6
CONTINUOUS
 62
     7
 10
-64.95809006477901
 20
22.7989600700767
 11
-65.01849457424211
 21
22.97327518266029
  0
LINE
  8
0
  6
CONTINUOUS
 62
     7
 10
-65.01849457424211
 20
22.97327518266029
 11
-65.08473727991992
 21
23.14331879566506
  0
LINE
  8
0
  6
CONTINUOUS
 62
     7
 10
-65.08473727991992
 20
23.14331879566506
 11
-65.15681818181251
 21
23.30909090909089
  0
LINE
  8
0
  6
CONTINUOUS
 62
     7
 10
-48.49999999999429
 20
26.41818181818179
 11
-46.31818181817609
 21
26.41818181818179
  0
LINE
  8
0
  6
CONTINUOUS
 62
     7
 10
-39.49999999999432
 20
15.18181818181807
 11
-41.68181818181249
 21
15.18181818181807
  0
LINE
  8
0
  6
CONTINUOUS
 62
     7
 10
-46.31818181817609
 20
15.18181818181807
 11
-48.49999999999429
 21
15.18181818181807
  0
LINE
  8
0
  6
CONTINUOUS
 62
     7
 10
-39.49999999999432
 20
26.41818181818179
 11
-39.49999999999432
 21
15.18181818181807
  0
LINE
  8
0
  6
CONTINUOUS
 62
     7
 10
-41.68181818181249
 20
21.56363636363639
 11
-41.68181818181249
 21
26.41818181818179
  0
LINE
  8
0
  6
CONTINUOUS
 62
     7
 10
-46.31818181817609
 20
26.41818181818179
 11
-46.31818181817609
 21
21.56363636363639
  0
LINE
  8
0
  6
CONTINUOUS
 62
     7
 10
-48.49999999999429
 20
15.18181818181807
 11
-48.49999999999429
 21
26.41818181818179
  0
LINE
  8
0
  6
CONTINUOUS
 62
     7
 10
-46.31818181817609
 20
19.65454545454537
 11
-46.31818181817609
 21
15.18181818181807
  0
LINE
  8
0
  6
CONTINUOUS
 62
     7
 10
-41.68181818181249
 20
26.41818181818179
 11
-39.49999999999432
 21
26.41818181818179
  0
LINE
  8
0
  6
CONTINUOUS
 62
     7
 10
-41.68181818181249
 20
15.18181818181807
 11
-41.68181818181249
 21
19.65454545454537
  0
LINE
  8
0
  6
CONTINUOUS
 62
     7
 10
-46.31818181817609
 20
21.56363636363639
 11
-41.68181818181249
 21
21.56363636363639
  0
LINE
  8
0
  6
CONTINUOUS
 62
     7
 10
-41.68181818181249
 20
19.65454545454537
 11
-46.31818181817609
 21
19.65454545454537
  0
LINE
  8
0
  6
CONTINUOUS
 62
     7
 10
-77.5568181818125
 20
23.30909090909089
 11
-77.6339527533135
 21
23.46822431656836
  0
LINE
  8
0
  6
CONTINUOUS
 62
     7
 10
-77.6339527533135
 20
23.46822431656836
 11
-77.71535646781652
 21
23.61835181172778
  0
LINE
  8
0
  6
CONTINUOUS
 62
     7
 10
-77.71535646781652
 20
23.61835181172778
 11
-77.80102932532162
 21
23.75947339456935
  0
LINE
  8
0
  6
CONTINUOUS
 62
     7
 10
-77.80102932532162
 20
23.75947339456935
 11
-77.8909713258287
 21
23.89158906509309
  0
LINE
  8
0
  6
CONTINUOUS
 62
     7
 10
-77.8909713258287
 20
23.89158906509309
 11
-77.98518246933789
 21
24.01469882329888
  0
LINE
  8
0
  6
CONTINUOUS
 62
     7
 10
-77.98518246933789
 20
24.01469882329888
 11
-78.08366275584902
 21
24.12880266918676
  0
LINE
  8
0
  6
CONTINUOUS
 62
     7
 10
-78.08366275584902
 20
24.12880266918676
 11
-78.18641218536217
 21
24.23390060275682
  0
LINE
  8
0
  6
CONTINUOUS
 62
     7
 10
-78.18641218536217
 20
24.23390060275682
 11
-78.29343075787739
 21
24.32999262400881
  0
LINE
  8
0
  6
CONTINUOUS
 62
     7
 10
-78.29343075787739
 20
24.32999262400881
 11
-78.40471847339461
 21
24.41707873294297
  0
LINE
  8
0
  6
CONTINUOUS
 62
     7
 10
-78.40471847339461
 20
24.41707873294297
 11
-78.52027533191391
 21
24.49515892955928
  0
LINE
  8
0
  6
CONTINUOUS
 62
     7
 10
-78.52027533191391
 20
24.49515892955928
 11
-78.64010133343521
 21
24.56423321385759
  0
LINE
  8
0
  6
CONTINUOUS
 62
     7
 10
-78.64010133343521
 20
24.56423321385759
 11
-78.76419647795862
 21
24.62430158583811
  0
LINE
  8
0
  6
CONTINUOUS
 62
     7
 10
-78.76419647795862
 20
24.62430158583811
 11
-78.89256076548392
 21
24.67536404550058
  0
LINE
  8
0
  6
CONTINUOUS
 62
     7
 10
-78.89256076548392
 20
24.67536404550058
 11
-79.02519419601123
 21
24.71742059284532
  0
LINE
  8
0
  6
CONTINUOUS
 62
     7
 10
-79.02519419601123
 20
24.71742059284532
 11
-79.1620967695407
 21
24.75047122787194
  0
LINE
  8
0
  6
CONTINUOUS
 62
     7
 10
-79.1620967695407
 20
24.75047122787194
 11
-79.30326848607211
 21
24.77451595058089
  0
LINE
  8
0
  6
CONTINUOUS
 62
     7
 10
-79.30326848607211
 20
24.77451595058089
 11
-79.4578845754847
 21
24.79098696213766
  0
LINE
  8
0
  6
CONTINUOUS
 62
     7
 10
-79.4578845754847
 20
24.79098696213766
 11
-79.60834541978751
 21
24.79766534808997
  0
LINE
  8
0
  6
CONTINUOUS
 62
     7
 10
-79.60834541978751
 20
24.79766534808997
 11
-79.75465101898041
 21
24.7945511084377
  0
LINE
  8
0
  6
CONTINUOUS
 62
     7
 10
-79.75465101898041
 20
24.7945511084377
 11
-79.89680137306343
 21
24.78164424318074
  0
LINE
  8
0
  6
CONTINUOUS
 62
     7
 10
-79.89680137306343
 20
24.78164424318074
 11
-80.03479648203663
 21
24.75894475231916
  0
LINE
  8
0
  6
CONTINUOUS
 62
     7
 10
-80.03479648203663
 20
24.75894475231916
 11
-80.16863634589991
 21
24.72645263585294
  0
LINE
  8
0
  6
CONTINUOUS
 62
     7
 10
-80.16863634589991
 20
24.72645263585294
 11
-80.29832096465341
 21
24.68416789378219
  0
LINE
  8
0
  6
CONTINUOUS
 62
     7
 10
-80.29832096465341
 20
24.68416789378219
 11
-80.42385033829699
 21
24.63209052610677
  0
LINE
  8
0
  6
CONTINUOUS
 62
     7
 10
-80.42385033829699
 20
24.63209052610677
 11
-80.5452244668307
 21
24.57022053282665
  0
LINE
  8
0
  6
CONTINUOUS
 62
     7
 10
-80.5452244668307
 20
24.57022053282665
 11
-80.6624433502546
 21
24.49855791394207
  0
LINE
  8
0
  6
CONTINUOUS
 62
     7
 10
-80.6624433502546
 20
24.49855791394207
 11
-80.77550698856861
 21
24.41710266945263
  0
LINE
  8
0
  6
CONTINUOUS
 62
     7
 10
-80.77550698856861
 20
24.41710266945263
 11
-80.8844153817728
 21
24.32585479935884
  0
LINE
  8
0
  6
CONTINUOUS
 62
     7
 10
-80.8844153817728
 20
24.32585479935884
 11
-80.98916852986709
 21
24.2248143036603
  0
LINE
  8
0
  6
CONTINUOUS
 62
     7
 10
-80.98916852986709
 20
24.2248143036603
 11
-81.0897664328515
 21
24.11398118235714
  0
LINE
  8
0
  6
CONTINUOUS
 62
     7
 10
-81.0897664328515
 20
24.11398118235714
 11
-81.18620909072612
 21
23.99335543544939
  0
LINE
  8
0
  6
CONTINUOUS
 62
     7
 10
-81.18620909072612
 20
23.99335543544939
 11
-81.27849650349079
 21
23.86293706293696
  0
LINE
  8
0
  6
CONTINUOUS
 62
     7
 10
-81.27849650349079
 20
23.86293706293696
 11
-81.350019853201
 21
23.75027088370213
  0
LINE
  8
0
  6
CONTINUOUS
 62
     7
 10
-81.350019853201
 20
23.75027088370213
 11
-81.41773675547861
 21
23.63255206627729
  0
LINE
  8
0
  6
CONTINUOUS
 62
     7
 10
-81.41773675547861
 20
23.63255206627729
 11
-81.4816472103235
 21
23.50978061066239
  0
LINE
  8
0
  6
CONTINUOUS
 62
     7
 10
-81.4816472103235
 20
23.50978061066239
 11
-81.5417512177356
 21
23.38195651685737
  0
LINE
  8
0
  6
CONTINUOUS
 62
     7
 10
-81.5417512177356
 20
23.38195651685737
 11
-81.59804877771512
 21
23.24907978486257
  0
LINE
  8
0
  6
CONTINUOUS
 62
     7
 10
-81.59804877771512
 20
23.24907978486257
 11
-81.65053989026191
 21
23.11115041467754
  0
LINE
  8
0
  6
CONTINUOUS
 62
     7
 10
-81.65053989026191
 20
23.11115041467754
 11
-81.699224555376
 21
22.96816840630267
  0
LINE
  8
0
  6
CONTINUOUS
 62
     7
 10
-81.699224555376
 20
22.96816840630267
 11
-81.74410277305749
 21
22.82013375973768
  0
LINE
  8
0
  6
CONTINUOUS
 62
     7
 10
-81.74410277305749
 20
22.82013375973768
 11
-81.78517454330623
 21
22.66704647498263
  0
LINE
  8
0
  6
CONTINUOUS
 62
     7
 10
-81.78517454330623
 20
22.66704647498263
 11
-81.82243986612231
 21
22.50890655203763
  0
LINE
  8
0
  6
CONTINUOUS
 62
     7
 10
-81.82243986612231
 20
22.50890655203763
 11
-81.8558987415057
 21
22.34571399090268
  0
LINE
  8
0
  6
CONTINUOUS
 62
     7
 10
-81.8558987415057
 20
22.34571399090268
 11
-81.8855511694563
 21
22.17746879157767
  0
LINE
  8
0
  6
CONTINUOUS
 62
     7
 10
-81.8855511694563
 20
22.17746879157767
 11
-81.9113971499743
 21
22.00417095406271
  0
LINE
  8
0
  6
CONTINUOUS
 62
     7
 10
-81.9113971499743
 20
22.00417095406271
 11
-81.93343668305968
 21
21.82582047835757
  0
LINE
  8
0
  6
CONTINUOUS
 62
     7
 10
-81.93343668305968
 20
21.82582047835757
 11
-81.95166976871232
 21
21.64241736446249
  0
LINE
  8
0
  6
CONTINUOUS
 62
     7
 10
-81.95166976871232
 20
21.64241736446249
 11
-81.96609640693231
 21
21.45396161237734
  0
LINE
  8
0
  6
CONTINUOUS
 62
     7
 10
-81.96609640693231
 20
21.45396161237734
 11
-81.9782396323535
 21
21.23095601124375
  0
LINE
  8
0
  6
CONTINUOUS
 62
     7
 10
-81.9782396323535
 20
21.23095601124375
 11
-81.98517068307869
 21
21.01179324730068
  0
LINE
  8
0
  6
CONTINUOUS
 62
     7
 10
-81.98517068307869
 20
21.01179324730068
 11
-81.98688955910809
 21
20.79647332054818
  0
LINE
  8
0
  6
CONTINUOUS
 62
     7
 10
-81.98688955910809
 20
20.79647332054818
 11
-81.98339626044162
 21
20.58499623098625
  0
LINE
  8
0
  6
CONTINUOUS
 62
     7
 10
-81.98339626044162
 20
20.58499623098625
 11
-81.97469078707911
 21
20.37736197861501
  0
LINE
  8
0
  6
CONTINUOUS
 62
     7
 10
-81.97469078707911
 20
20.37736197861501
 11
-81.96077313902077
 21
20.17357056343427
  0
LINE
  8
0
  6
CONTINUOUS
 62
     7
 10
-81.96077313902077
 20
20.17357056343427
 11
-81.94164331626652
 21
19.97362198544428
  0
LINE
  8
0
  6
CONTINUOUS
 62
     7
 10
-81.94164331626652
 20
19.97362198544428
 11
-81.91730131881641
 21
19.7775162446448
  0
LINE
  8
0
  6
CONTINUOUS
 62
     7
 10
-81.91730131881641
 20
19.7775162446448
 11
-81.88774714667029
 21
19.58525334103595
  0
LINE
  8
0
  6
CONTINUOUS
 62
     7
 10
-81.88774714667029
 20
19.58525334103595
 11
-81.85298079982839
 21
19.39683327461778
  0
LINE
  8
0
  6
CONTINUOUS
 62
     7
 10
-81.85298079982839
 20
19.39683327461778
 11
-81.81300227829053
 21
19.21225604539006
  0
LINE
  8
0
  6
CONTINUOUS
 62
     7
 10
-81.81300227829053
 20
19.21225604539006
 11
-81.76781158205681
 21
19.03152165335304
  0
LINE
  8
0
  6
CONTINUOUS
 62
     7
 10
-81.76781158205681
 20
19.03152165335304
 11
-81.71740871112712
 21
18.85463009850663
  0
LINE
  8
0
  6
CONTINUOUS
 62
     7
 10
-81.71740871112712
 20
18.85463009850663
 11
-81.6617936655016
 21
18.68158138085085
  0
LINE
  8
0
  6
CONTINUOUS
 62
     7
 10
-81.6617936655016
 20
18.68158138085085
 11
-81.6009664451801
 21
18.51237550038559
  0
LINE
  8
0
  6
CONTINUOUS
 62
     7
 10
-81.6009664451801
 20
18.51237550038559
 11
-81.53492705016282
 21
18.34701245711096
  0
LINE
  8
0
  6
CONTINUOUS
 62
     7
 10
-81.53492705016282
 20
18.34701245711096
 11
-81.45846656999429
 21
18.17459626724199
  0
LINE
  8
0
  6
CONTINUOUS
 62
     7
 10
-81.45846656999429
 20
18.17459626724199
 11
-81.3781578011219
 21
18.01228263009475
  0
LINE
  8
0
  6
CONTINUOUS
 62
     7
 10
-81.3781578011219
 20
18.01228263009475
 11
-81.29400074354572
 21
17.86007154566893
  0
LINE
  8
0
  6
CONTINUOUS
 62
     7
 10
-81.29400074354572
 20
17.86007154566893
 11
-81.20599539726553
 21
17.717963013965
  0
LINE
  8
0
  6
CONTINUOUS
 62
     7
 10
-81.20599539726553
 20
17.717963013965
 11
-81.1141417622814
 21
17.58595703498256
  0
LINE
  8
0
  6
CONTINUOUS
 62
     7
 10
-81.1141417622814
 20
17.58595703498256
 11
-81.0184398385933
 21
17.46405360872177
  0
LINE
  8
0
  6
CONTINUOUS
 62
     7
 10
-81.0184398385933
 20
17.46405360872177
 11
-80.91888962620139
 21
17.35225273518259
  0
LINE
  8
0
  6
CONTINUOUS
 62
     7
 10
-80.91888962620139
 20
17.35225273518259
 11
-80.81549112510561
 21
17.25055441436507
  0
LINE
  8
0
  6
CONTINUOUS
 62
     7
 10
-80.81549112510561
 20
17.25055441436507
 11
-80.7082443353059
 21
17.15895864626915
  0
LINE
  8
0
  6
CONTINUOUS
 62
     7
 10
-80.7082443353059
 20
17.15895864626915
 11
-80.59714925680223
 21
17.077465430895
  0
LINE
  8
0
  6
CONTINUOUS
 62
     7
 10
-80.59714925680223
 20
17.077465430895
 11
-80.4822058895946
 21
17.0060747682424
  0
LINE
  8
0
  6
CONTINUOUS
 62
     7
 10
-80.4822058895946
 20
17.0060747682424
 11
-80.36341423368309
 21
16.94478665831123
  0
LINE
  8
0
  6
CONTINUOUS
 62
     7
 10
-80.36341423368309
 20
16.94478665831123
 11
-80.2407742890677
 21
16.89360110110194
  0
LINE
  8
0
  6
CONTINUOUS
 62
     7
 10
-80.2407742890677
 20
16.89360110110194
 11
-80.11428605574841
 21
16.85251809661436
  0
LINE
  8
0
  6
CONTINUOUS
 62
     7
 10
-80.11428605574841
 20
16.85251809661436
 11
-79.98394953372522
 21
16.82153764484823
  0
LINE
  8
0
  6
CONTINUOUS
 62
     7
 10
-79.98394953372522
 20
16.82153764484823
 11
-79.84976472299812
 21
16.80065974580386
  0
LINE
  8
0
  6
CONTINUOUS
 62
     7
 10
-79.84976472299812
 20
16.80065974580386
 11
-79.69502341358722
 21
16.78657398093886
  0
LINE
  8
0
  6
CONTINUOUS
 62
     7
 10
-79.69502341358722
 20
16.78657398093886
 11
-79.54494521156002
 21
16.78084525915868
  0
LINE
  8
0
  6
CONTINUOUS
 62
     7
 10
-79.54494521156002
 20
16.78084525915868
 11
-79.39953011691661
 21
16.78347358046317
  0
LINE
  8
0
  6
CONTINUOUS
 62
     7
 10
-79.39953011691661
 20
16.78347358046317
 11
-79.2587781296569
 21
16.79445894485243
  0
LINE
  8
0
  6
CONTINUOUS
 62
     7
 10
-79.2587781296569
 20
16.79445894485243
 11
-79.12268924978089
 21
16.81380135232646
  0
LINE
  8
0
  6
CONTINUOUS
 62
     7
 10
-79.12268924978089
 20
16.81380135232646
 11
-78.99126347728871
 21
16.84150080288521
  0
LINE
  8
0
  6
CONTINUOUS
 62
     7
 10
-78.99126347728871
 20
16.84150080288521
 11
-78.8645008121801
 21
16.87755729652862
  0
LINE
  8
0
  6
CONTINUOUS
 62
     7
 10
-78.8645008121801
 20
16.87755729652862
 11
-78.7424012544553
 21
16.9219708332568
  0
LINE
  8
0
  6
CONTINUOUS
 62
     7
 10
-78.7424012544553
 20
16.9219708332568
 11
-78.62496480411419
 21
16.97474141306976
  0
LINE
  8
0
  6
CONTINUOUS
 62
     7
 10
-78.62496480411419
 20
16.97474141306976
 11
-78.5121914611569
 21
17.03586903596738
  0
LINE
  8
0
  6
CONTINUOUS
 62
     7
 10
-78.5121914611569
 20
17.03586903596738
 11
-78.40408122558331
 21
17.10535370194977
  0
LINE
  8
0
  6
CONTINUOUS
 62
     7
 10
-78.40408122558331
 20
17.10535370194977
 11
-78.3006340973934
 21
17.18319541101687
  0
LINE
  8
0
  6
CONTINUOUS
 62
     7
 10
-78.3006340973934
 20
17.18319541101687
 11
-78.20185007658722
 21
17.26939416316864
  0
LINE
  8
0
  6
CONTINUOUS
 62
     7
 10
-78.20185007658722
 20
17.26939416316864
 11
-78.10772916316472
 21
17.36394995840523
  0
LINE
  8
0
  6
CONTINUOUS
 62
     7
 10
-78.10772916316472
 20
17.36394995840523
 11
-78.01827135712603
 21
17.4668627967266
  0
LINE
  8
0
  6
CONTINUOUS
 62
     7
 10
-78.01827135712603
 20
17.4668627967266
 11
-77.93347665847102
 21
17.57813267813269
  0
LINE
  8
0
  6
CONTINUOUS
 62
     7
 10
-77.93347665847102
 20
17.57813267813269
 11
-77.84774499644323
 21
17.70364492435061
  0
LINE
  8
0
  6
CONTINUOUS
 62
     7
 10
-77.84774499644323
 20
17.70364492435061
 11
-77.7665328113428
 21
17.83380574162835
  0
LINE
  8
0
  6
CONTINUOUS
 62
     7
 10
-77.7665328113428
 20
17.83380574162835
 11
-77.6898401031697
 21
17.96861512996611
  0
LINE
  8
0
  6
CONTINUOUS
 62
     7
 10
-77.6898401031697
 20
17.96861512996611
 11
-77.61766687192379
 21
18.1080730893638
  0
LINE
  8
0
  6
CONTINUOUS
 62
     7
 10
-77.61766687192379
 20
18.1080730893638
 11
-77.5500131176054
 21
18.25217961982123
  0
LINE
  8
0
  6
CONTINUOUS
 62
     7
 10
-77.5500131176054
 20
18.25217961982123
 11
-77.4868788402141
 21
18.40093472133875
  0
LINE
  8
0
  6
CONTINUOUS
 62
     7
 10
-77.4868788402141
 20
18.40093472133875
 11
-77.4282640397502
 21
18.55433839391607
  0
LINE
  8
0
  6
CONTINUOUS
 62
     7
 10
-77.4282640397502
 20
18.55433839391607
 11
-77.3741687162136
 21
18.71239063755337
  0
LINE
  8
0
  6
CONTINUOUS
 62
     7
 10
-77.3741687162136
 20
18.71239063755337
 11
-77.32459286960439
 21
18.87509145225047
  0
LINE
  8
0
  6
CONTINUOUS
 62
     7
 10
-77.32459286960439
 20
18.87509145225047
 11
-77.27953649992241
 21
19.04244083800755
  0
LINE
  8
0
  6
CONTINUOUS
 62
     7
 10
-77.27953649992241
 20
19.04244083800755
 11
-77.2389996071677
 21
19.21443879482459
  0
LINE
  8
0
  6
CONTINUOUS
 62
     7
 10
-77.2389996071677
 20
19.21443879482459
 11
-77.20298219134031
 21
19.39108532270145
  0
LINE
  8
0
  6
CONTINUOUS
 62
     7
 10
-77.20298219134031
 20
19.39108532270145
 11
-77.17148425244022
 21
19.57238042163828
  0
LINE
  8
0
  6
CONTINUOUS
 62
     7
 10
-77.17148425244022
 20
19.57238042163828
 11
-77.14450579046749
 21
19.75832409163497
  0
LINE
  8
0
  6
CONTINUOUS
 62
     7
 10
-77.14450579046749
 20
19.75832409163497
 11
-77.122046805422
 21
19.94891633269152
  0
LINE
  8
0
  6
CONTINUOUS
 62
     7
 10
-77.122046805422
 20
19.94891633269152
 11
-77.10410729730391
 21
20.1441571448081
  0
LINE
  8
0
  6
CONTINUOUS
 62
     7
 10
-77.10410729730391
 20
20.1441571448081
 11
-77.0886152559749
 21
20.37400175191767
  0
LINE
  8
0
  6
CONTINUOUS
 62
     7
 10
-77.0886152559749
 20
20.37400175191767
 11
-77.0789614108606
 21
20.59957485944819
  0
LINE
  8
0
  6
CONTINUOUS
 62
     7
 10
-77.0789614108606
 20
20.59957485944819
 11
-77.07514576196111
 21
20.82087646739999
  0
LINE
  8
0
  6
CONTINUOUS
 62
     7
 10
-77.07514576196111
 20
20.82087646739999
 11
-77.07716830927639
 21
21.03790657577265
  0
LINE
  8
0
  6
CONTINUOUS
 62
     7
 10
-77.07716830927639
 20
21.03790657577265
 11
-77.0850290528065
 21
21.25066518456653
  0
LINE
  8
0
  6
CONTINUOUS
 62
     7
 10
-77.0850290528065
 20
21.25066518456653
 11
-77.09872799255132
 21
21.45915229378159
  0
LINE
  8
0
  6
CONTINUOUS
 62
     7
 10
-77.09872799255132
 20
21.45915229378159
 11
-77.118265128511
 21
21.66336790341755
  0
LINE
  8
0
  6
CONTINUOUS
 62
     7
 10
-77.118265128511
 20
21.66336790341755
 11
-77.1436404606853
 21
21.86331201347469
  0
LINE
  8
0
  6
CONTINUOUS
 62
     7
 10
-77.1436404606853
 20
21.86331201347469
 11
-77.17485398907462
 21
22.05898462395284
  0
LINE
  8
0
  6
CONTINUOUS
 62
     7
 10
-77.17485398907462
 20
22.05898462395284
 11
-77.2119057136785
 21
22.25038573485227
  0
LINE
  8
0
  6
CONTINUOUS
 62
     7
 10
-77.2119057136785
 20
22.25038573485227
 11
-77.25479563449721
 21
22.43751534617255
  0
LINE
  8
0
  6
CONTINUOUS
 62
     7
 10
-77.25479563449721
 20
22.43751534617255
 11
-77.3035237515307
 21
22.62037345791407
  0
LINE
  8
0
  6
CONTINUOUS
 62
     7
 10
-77.3035237515307
 20
22.62037345791407
 11
-77.358090064779
 21
22.7989600700767
  0
LINE
  8
0
  6
CONTINUOUS
 62
     7
 10
-77.358090064779
 20
22.7989600700767
 11
-77.41849457424199
 21
22.97327518266029
  0
LINE
  8
0
  6
CONTINUOUS
 62
     7
 10
-77.41849457424199
 20
22.97327518266029
 11
-77.48473727991991
 21
23.14331879566506
  0
LINE
  8
0
  6
CONTINUOUS
 62
     7
 10
-77.48473727991991
 20
23.14331879566506
 11
-77.5568181818125
 21
23.30909090909089
  0
LINE
  8
0
  6
CONTINUOUS
 62
     7
 10
-76.35626204063259
 20
25.16417069535814
 11
-76.1908067525342
 21
24.98299671683535
  0
LINE
  8
0
  6
CONTINUOUS
 62
     7
 10
-76.1908067525342
 20
24.98299671683535
 11
-76.03521094385299
 21
24.79415381874283
  0
LINE
  8
0
  6
CONTINUOUS
 62
     7
 10
-76.03521094385299
 20
24.79415381874283
 11
-75.88947461458919
 21
24.59764200108078
  0
LINE
  8
0
  6
CONTINUOUS
 62
     7
 10
-75.88947461458919
 20
24.59764200108078
 11
-75.75359776474261
 21
24.39346126384889
  0
LINE
  8
0
  6
CONTINUOUS
 62
     7
 10
-75.75359776474261
 20
24.39346126384889
 11
-75.62758039431333
 21
24.18161160704746
  0
LINE
  8
0
  6
CONTINUOUS
 62
     7
 10
-75.62758039431333
 20
24.18161160704746
 11
-75.5114225033012
 21
23.9620930306762
  0
LINE
  8
0
  6
CONTINUOUS
 62
     7
 10
-75.5114225033012
 20
23.9620930306762
 11
-75.40512409170641
 21
23.73490553473523
  0
LINE
  8
0
  6
CONTINUOUS
 62
     7
 10
-75.40512409170641
 20
23.73490553473523
 11
-75.3086851595289
 21
23.50004911922465
  0
LINE
  8
0
  6
CONTINUOUS
 62
     7
 10
-75.3086851595289
 20
23.50004911922465
 11
-75.22210570676869
 21
23.25752378414447
  0
LINE
  8
0
  6
CONTINUOUS
 62
     7
 10
-75.22210570676869
 20
23.25752378414447
 11
-75.14538573342583
 21
23.00732952949447
  0
LINE
  8
0
  6
CONTINUOUS
 62
     7
 10
-75.14538573342583
 20
23.00732952949447
 11
-75.07852523950012
 21
22.74946635527486
  0
LINE
  8
0
  6
CONTINUOUS
 62
     7
 10
-75.07852523950012
 20
22.74946635527486
 11
-75.0215242249917
 21
22.48393426148559
  0
LINE
  8
0
  6
CONTINUOUS
 62
     7
 10
-75.0215242249917
 20
22.48393426148559
 11
-74.97438268990061
 21
22.21073324812656
  0
LINE
  8
0
  6
CONTINUOUS
 62
     7
 10
-74.97438268990061
 20
22.21073324812656
 11
-74.93710063422681
 21
21.92986331519792
  0
LINE
  8
0
  6
CONTINUOUS
 62
     7
 10
-74.93710063422681
 20
21.92986331519792
 11
-74.90967805797018
 21
21.64132446269956
  0
LINE
  8
0
  6
CONTINUOUS
 62
     7
 10
-74.90967805797018
 20
21.64132446269956
 11
-74.8921149611309
 21
21.34511669063155
  0
LINE
  8
0
  6
CONTINUOUS
 62
     7
 10
-74.8921149611309
 20
21.34511669063155
 11
-74.88351153164079
 21
21.00129638647186
  0
LINE
  8
0
  6
CONTINUOUS
 62
     7
 10
-74.88351153164079
 20
21.00129638647186
 11
-74.88697998345458
 21
20.66520555574181
  0
LINE
  8
0
  6
CONTINUOUS
 62
     7
 10
-74.88697998345458
 20
20.66520555574181
 11
-74.90252031657232
 21
20.33684419844106
  0
LINE
  8
0
  6
CONTINUOUS
 62
     7
 10
-74.90252031657232
 20
20.33684419844106
 11
-74.93013253099397
 21
20.01621231456985
  0
LINE
  8
0
  6
CONTINUOUS
 62
     7
 10
-74.93013253099397
 20
20.01621231456985
 11
-74.9698166267195
 21
19.70330990412828
  0
LINE
  8
0
  6
CONTINUOUS
 62
     7
 10
-74.9698166267195
 20
19.70330990412828
 11
-75.02157260374901
 21
19.39813696711618
  0
LINE
  8
0
  6
CONTINUOUS
 62
     7
 10
-75.02157260374901
 20
19.39813696711618
 11
-75.0854004620825
 21
19.10069350353344
  0
LINE
  8
0
  6
CONTINUOUS
 62
     7
 10
-75.0854004620825
 20
19.10069350353344
 11
-75.16130020171983
 21
18.8109795133804
  0
LINE
  8
0
  6
CONTINUOUS
 62
     7
 10
-75.16130020171983
 20
18.8109795133804
 11
-75.24927182266111
 21
18.52899499665667
  0
LINE
  8
0
  6
CONTINUOUS
 62
     7
 10
-75.24927182266111
 20
18.52899499665667
 11
-75.34931532490619
 21
18.25473995336246
  0
LINE
  8
0
  6
CONTINUOUS
 62
     7
 10
-75.34931532490619
 20
18.25473995336246
 11
-75.46143070845542
 21
17.98821438349779
  0
LINE
  8
0
  6
CONTINUOUS
 62
     7
 10
-75.46143070845542
 20
17.98821438349779
 11
-75.5856179733084
 21
17.72941828706265
  0
LINE
  8
0
  6
CONTINUOUS
 62
     7
 10
-75.5856179733084
 20
17.72941828706265
 11
-75.72187711946532
 21
17.47835166405698
  0
LINE
  8
0
  6
CONTINUOUS
 62
     7
 10
-75.72187711946532
 20
17.47835166405698
 11
-75.87020814692622
 21
17.23501451448078
  0
LINE
  8
0
  6
CONTINUOUS
 62
     7
 10
-75.87020814692622
 20
17.23501451448078
 11
-76.030611055691
 21
16.99940683833417
  0
LINE
  8
0
  6
CONTINUOUS
 62
     7
 10
-76.030611055691
 20
16.99940683833417
 11
-76.20308584575972
 21
16.77152863561698
  0
LINE
  8
0
  6
CONTINUOUS
 62
     7
 10
-76.20308584575972
 20
16.77152863561698
 11
-76.37489789355593
 21
16.56581440807947
  0
LINE
  8
0
  6
CONTINUOUS
 62
     7
 10
-76.37489789355593
 20
16.56581440807947
 11
-76.5519009529312
 21
16.37337206618977
  0
LINE
  8
0
  6
CONTINUOUS
 62
     7
 10
-76.5519009529312
 20
16.37337206618977
 11
-76.73409502388559
 21
16.19420160994739
  0
LINE
  8
0
  6
CONTINUOUS
 62
     7
 10
-76.73409502388559
 20
16.19420160994739
 11
-76.92148010641911
 21
16.02830303935276
  0
LINE
  8
0
  6
CONTINUOUS
 62
     7
 10
-76.92148010641911
 20
16.02830303935276
 11
-77.1140562005319
 21
15.87567635440556
  0
LINE
  8
0
  6
CONTINUOUS
 62
     7
 10
-77.1140562005319
 20
15.87567635440556
 11
-77.31182330622372
 21
15.73632155510596
  0
LINE
  8
0
  6
CONTINUOUS
 62
     7
 10
-77.31182330622372
 20
15.73632155510596
 11
-77.51478142349471
 21
15.61023864145417
  0
LINE
  8
0
  6
CONTINUOUS
 62
     7
 10
-77.51478142349471
 20
15.61023864145417
 11
-77.7229305523448
 21
15.49742761344969
  0
LINE
  8
0
  6
CONTINUOUS
 62
     7
 10
-77.7229305523448
 20
15.49742761344969
 11
-77.936270692774
 21
15.39788847109286
  0
LINE
  8
0
  6
CONTINUOUS
 62
     7
 10
-77.936270692774
 20
15.39788847109286
 11
-78.15480184478241
 21
15.31162121438356
  0
LINE
  8
0
  6
CONTINUOUS
 62
     7
 10
-78.15480184478241
 20
15.31162121438356
 11
-78.37852400836981
 21
15.23862584332186
  0
LINE
  8
0
  6
CONTINUOUS
 62
     7
 10
-78.37852400836981
 20
15.23862584332186
 11
-78.60743718353652
 21
15.17890235790786
  0
LINE
  8
0
  6
CONTINUOUS
 62
     7
 10
-78.60743718353652
 20
15.17890235790786
 11
-78.8415413702822
 21
15.13245075814135
  0
LINE
  8
0
  6
CONTINUOUS
 62
     7
 10
-78.8415413702822
 20
15.13245075814135
 11
-79.0808365686071
 21
15.09927104402237
  0
LINE
  8
0
  6
CONTINUOUS
 62
     7
 10
-79.0808365686071
 20
15.09927104402237
 11
-79.32532277851121
 21
15.07936321555098
  0
LINE
  8
0
  6
CONTINUOUS
 62
     7
 10
-79.32532277851121
 20
15.07936321555098
 11
-79.57499999999429
 21
15.07272727272724
  0
LINE
  8
0
  6
CONTINUOUS
 62
     7
 10
-79.57499999999429
 20
15.07272727272724
 11
-79.8175325061459
 21
15.07821433034079
  0
LINE
  8
0
  6
CONTINUOUS
 62
     7
 10
-79.8175325061459
 20
15.07821433034079
 11
-80.05422093369161
 21
15.09467550318144
  0
LINE
  8
0
  6
CONTINUOUS
 62
     7
 10
-80.05422093369161
 20
15.09467550318144
 11
-80.28506528263141
 21
15.12211079124925
  0
LINE
  8
0
  6
CONTINUOUS
 62
     7
 10
-80.28506528263141
 20
15.12211079124925
 11
-80.5100655529653
 21
15.16052019454428
  0
LINE
  8
0
  6
CONTINUOUS
 62
     7
 10
-80.5100655529653
 20
15.16052019454428
 11
-80.7292217446934
 21
15.20990371306641
  0
LINE
  8
0
  6
CONTINUOUS
 62
     7
 10
-80.7292217446934
 20
15.20990371306641
 11
-80.94253385781549
 21
15.27026134681553
  0
LINE
  8
0
  6
CONTINUOUS
 62
     7
 10
-80.94253385781549
 20
15.27026134681553
 11
-81.15000189233179
 21
15.34159309579186
  0
LINE
  8
0
  6
CONTINUOUS
 62
     7
 10
-81.15000189233179
 20
15.34159309579186
 11
-81.35162584824212
 21
15.42389895999535
  0
LINE
  8
0
  6
CONTINUOUS
 62
     7
 10
-81.35162584824212
 20
15.42389895999535
 11
-81.54740572554653
 21
15.517178939426
  0
LINE
  8
0
  6
CONTINUOUS
 62
     7
 10
-81.54740572554653
 20
15.517178939426
 11
-81.73734152424511
 21
15.62143303408364
  0
LINE
  8
0
  6
CONTINUOUS
 62
     7
 10
-81.73734152424511
 20
15.62143303408364
 11
-81.9214332443377
 21
15.7366612439685
  0
LINE
  8
0
  6
CONTINUOUS
 62
     7
 10
-81.9214332443377
 20
15.7366612439685
 11
-82.0996808858245
 21
15.86286356908051
  0
LINE
  8
0
  6
CONTINUOUS
 62
     7
 10
-82.0996808858245
 20
15.86286356908051
 11
-82.2720844487054
 21
16.00004000941957
  0
LINE
  8
0
  6
CONTINUOUS
 62
     7
 10
-82.2720844487054
 20
16.00004000941957
 11
-82.43864393298031
 21
16.14819056498579
  0
LINE
  8
0
  6
CONTINUOUS
 62
     7
 10
-82.43864393298031
 20
16.14819056498579
 11
-82.5993593386495
 21
16.30731523577916
  0
LINE
  8
0
  6
CONTINUOUS
 62
     7
 10
-82.5993593386495
 20
16.30731523577916
 11
-82.75423066571261
 21
16.47741402179964
  0
LINE
  8
0
  6
CONTINUOUS
 62
     7
 10
-82.75423066571261
 20
16.47741402179964
 11
-82.90475314201461
 21
16.6601526133533
  0
LINE
  8
0
  6
CONTINUOUS
 62
     7
 10
-82.90475314201461
 20
16.6601526133533
 11
-83.04658278280449
 21
16.85044916619127
  0
LINE
  8
0
  6
CONTINUOUS
 62
     7
 10
-83.04658278280449
 20
16.85044916619127
 11
-83.17971958808259
 21
17.04830368031357
  0
LINE
  8
0
  6
CONTINUOUS
 62
     7
 10
-83.17971958808259
 20
17.04830368031357
 11
-83.30416355784861
 21
17.25371615572035
  0
LINE
  8
0
  6
CONTINUOUS
 62
     7
 10
-83.30416355784861
 20
17.25371615572035
 11
-83.4199146921027
 21
17.46668659241146
  0
LINE
  8
0
  6
CONTINUOUS
 62
     7
 10
-83.4199146921027
 20
17.46668659241146
 11
-83.52697299084483
 21
17.687214990387
  0
LINE
  8
0
  6
CONTINUOUS
 62
     7
 10
-83.52697299084483
 20
17.687214990387
 11
-83.6253384540749
 21
17.91530134964686
  0
LINE
  8
0
  6
CONTINUOUS
 62
     7
 10
-83.6253384540749
 20
17.91530134964686
 11
-83.71501108179302
 21
18.15094567019115
  0
LINE
  8
0
  6
CONTINUOUS
 62
     7
 10
-83.71501108179302
 20
18.15094567019115
 11
-83.79599087399922
 21
18.39414795201982
  0
LINE
  8
0
  6
CONTINUOUS
 62
     7
 10
-83.79599087399922
 20
18.39414795201982
 11
-83.86827783069342
 21
18.64490819513309
  0
LINE
  8
0
  6
CONTINUOUS
 62
     7
 10
-83.86827783069342
 20
18.64490819513309
 11
-83.93187195187562
 21
18.90322639953046
  0
LINE
  8
0
  6
CONTINUOUS
 62
     7
 10
-83.93187195187562
 20
18.90322639953046
 11
-83.98677323754592
 21
19.16910256521231
  0
LINE
  8
0
  6
CONTINUOUS
 62
     7
 10
-83.98677323754592
 20
19.16910256521231
 11
-84.03298168770421
 21
19.44253669217844
  0
LINE
  8
0
  6
CONTINUOUS
 62
     7
 10
-84.03298168770421
 20
19.44253669217844
 11
-84.0704973023505
 21
19.72352878042921
  0
LINE
  8
0
  6
CONTINUOUS
 62
     7
 10
-84.0704973023505
 20
19.72352878042921
 11
-84.0993200814849
 21
20.0120788299642
  0
LINE
  8
0
  6
CONTINUOUS
 62
     7
 10
-84.0993200814849
 20
20.0120788299642
 11
-84.11945002510731
 21
20.30818684078356
  0
LINE
  8
0
  6
CONTINUOUS
 62
     7
 10
-84.11945002510731
 20
20.30818684078356
 11
-84.13194205231261
 21
20.65203887926986
  0
LINE
  8
0
  6
CONTINUOUS
 62
     7
 10
-84.13194205231261
 20
20.65203887926986
 11
-84.13280336747941
 21
20.9879144321975
  0
LINE
  8
0
  6
CONTINUOUS
 62
     7
 10
-84.13280336747941
 20
20.9879144321975
 11
-84.12203397060769
 21
21.31581349956618
  0
LINE
  8
0
  6
CONTINUOUS
 62
     7
 10
-84.12203397060769
 20
21.31581349956618
 11
-84.09963386169761
 21
21.63573608137631
  0
LINE
  8
0
  6
CONTINUOUS
 62
     7
 10
-84.09963386169761
 20
21.63573608137631
 11
-84.06560304074911
 21
21.94768217762749
  0
LINE
  8
0
  6
CONTINUOUS
 62
     7
 10
-84.06560304074911
 20
21.94768217762749
 11
-84.01994150776201
 21
22.25165178831995
  0
LINE
  8
0
  6
CONTINUOUS
 62
     7
 10
-84.01994150776201
 20
22.25165178831995
 11
-83.96264926273649
 21
22.54764491345373
  0
LINE
  8
0
  6
CONTINUOUS
 62
     7
 10
-83.96264926273649
 20
22.54764491345373
 11
-83.8937263056726
 21
22.83566155302874
  0
LINE
  8
0
  6
CONTINUOUS
 62
     7
 10
-83.8937263056726
 20
22.83566155302874
 11
-83.81317263657009
 21
23.11570170704508
  0
LINE
  8
0
  6
CONTINUOUS
 62
     7
 10
-83.81317263657009
 20
23.11570170704508
 11
-83.7209882554293
 21
23.38776537550247
  0
LINE
  8
0
  6
CONTINUOUS
 62
     7
 10
-83.7209882554293
 20
23.38776537550247
 11
-83.6171731622499
 21
23.65185255840113
  0
LINE
  8
0
  6
CONTINUOUS
 62
     7
 10
-83.6171731622499
 20
23.65185255840113
 11
-83.5017273570321
 21
23.90796325574118
  0
LINE
  8
0
  6
CONTINUOUS
 62
     7
 10
-83.5017273570321
 20
23.90796325574118
 11
-83.37465083977582
 21
24.15609746752234
  0
LINE
  8
0
  6
CONTINUOUS
 62
     7
 10
-83.37465083977582
 20
24.15609746752234
 11
-83.23594361048112
 21
24.39625519374483
  0
LINE
  8
0
  6
CONTINUOUS
 62
     7
 10
-83.23594361048112
 20
24.39625519374483
 11
-83.08560566914791
 21
24.62843643440848
  0
LINE
  8
0
  6
CONTINUOUS
 62
     7
 10
-83.08560566914791
 20
24.62843643440848
 11
-82.92363701577621
 21
24.85264118951347
  0
LINE
  8
0
  6
CONTINUOUS
 62
     7
 10
-82.92363701577621
 20
24.85264118951347
 11
-82.76103572941912
 21
25.05542860228899
  0
LINE
  8
0
  6
CONTINUOUS
 62
     7
 10
-82.76103572941912
 20
25.05542860228899
 11
-82.59220930611141
 21
25.24513295617575
  0
LINE
  8
0
  6
CONTINUOUS
 62
     7
 10
-82.59220930611141
 20
25.24513295617575
 11
-82.4171577458532
 21
25.42175425117382
  0
LINE
  8
0
  6
CONTINUOUS
 62
     7
 10
-82.4171577458532
 20
25.42175425117382
 11
-82.2358810486444
 21
25.58529248728308
  0
LINE
  8
0
  6
CONTINUOUS
 62
     7
 10
-82.2358810486444
 20
25.58529248728308
 11
-82.04837921448498
 21
25.73574766450371
  0
LINE
  8
0
  6
CONTINUOUS
 62
     7
 10
-82.04837921448498
 20
25.73574766450371
 11
-81.85465224337499
 21
25.87311978283546
  0
LINE
  8
0
  6
CONTINUOUS
 62
     7
 10
-81.85465224337499
 20
25.87311978283546
 11
-81.65470013531453
 21
25.99740884227858
  0
LINE
  8
0
  6
CONTINUOUS
 62
     7
 10
-81.65470013531453
 20
25.99740884227858
 11
-81.44852289030341
 21
26.10861484283283
  0
LINE
  8
0
  6
CONTINUOUS
 62
     7
 10
-81.44852289030341
 20
26.10861484283283
 11
-81.23612050834181
 21
26.2067377844985
  0
LINE
  8
0
  6
CONTINUOUS
 62
     7
 10
-81.23612050834181
 20
26.2067377844985
 11
-81.01749298942961
 21
26.2917776672753
  0
LINE
  8
0
  6
CONTINUOUS
 62
     7
 10
-81.01749298942961
 20
26.2917776672753
 11
-80.79264033356681
 21
26.36373449116336
  0
LINE
  8
0
  6
CONTINUOUS
 62
     7
 10
-80.79264033356681
 20
26.36373449116336
 11
-80.56156254075341
 21
26.42260825616266
  0
LINE
  8
0
  6
CONTINUOUS
 62
     7
 10
-80.56156254075341
 20
26.42260825616266
 11
-80.32425961098951
 21
26.46839896227327
  0
LINE
  8
0
  6
CONTINUOUS
 62
     7
 10
-80.32425961098951
 20
26.46839896227327
 11
-80.080731544275
 21
26.50110660949517
  0
LINE
  8
0
  6
CONTINUOUS
 62
     7
 10
-80.080731544275
 20
26.50110660949517
 11
-79.8309783406099
 21
26.52073119782827
  0
LINE
  8
0
  6
CONTINUOUS
 62
     7
 10
-79.8309783406099
 20
26.52073119782827
 11
-79.57499999999429
 21
26.52727272727268
  0
LINE
  8
0
  6
CONTINUOUS
 62
     7
 10
-79.57499999999429
 20
26.52727272727268
 11
-79.33870521393152
 21
26.52194810996045
  0
LINE
  8
0
  6
CONTINUOUS
 62
     7
 10
-79.33870521393152
 20
26.52194810996045
 11
-79.10709358301563
 21
26.50597425802392
  0
LINE
  8
0
  6
CONTINUOUS
 62
     7
 10
-79.10709358301563
 20
26.50597425802392
 11
-78.88016510724691
 21
26.47935117146316
  0
LINE
  8
0
  6
CONTINUOUS
 62
     7
 10
-78.88016510724691
 20
26.47935117146316
 11
-78.65791978662511
 21
26.4420788502781
  0
LINE
  8
0
  6
CONTINUOUS
 62
     7
 10
-78.65791978662511
 20
26.4420788502781
 11
-78.4403576211504
 21
26.39415729446859
  0
LINE
  8
0
  6
CONTINUOUS
 62
     7
 10
-78.4403576211504
 20
26.39415729446859
 11
-78.22747861082271
 21
26.33558650403467
  0
LINE
  8
0
  6
CONTINUOUS
 62
     7
 10
-78.22747861082271
 20
26.33558650403467
 11
-78.0192827556421
 21
26.26636647897656
  0
LINE
  8
0
  6
CONTINUOUS
 62
     7
 10
-78.0192827556421
 20
26.26636647897656
 11
-77.81577005560841
 21
26.18649721929395
  0
LINE
  8
0
  6
CONTINUOUS
 62
     7
 10
-77.81577005560841
 20
26.18649721929395
 11
-77.6169405107219
 21
26.09597872498725
  0
LINE
  8
0
  6
CONTINUOUS
 62
     7
 10
-77.6169405107219
 20
26.09597872498725
 11
-77.42279412098229
 21
25.99481099605611
  0
LINE
  8
0
  6
CONTINUOUS
 62
     7
 10
-77.42279412098229
 20
25.99481099605611
 11
-77.23333088638981
 21
25.88299403250066
  0
LINE
  8
0
  6
CONTINUOUS
 62
     7
 10
-77.23333088638981
 20
25.88299403250066
 11
-77.0485508069443
 21
25.76052783432075
  0
LINE
  8
0
  6
CONTINUOUS
 62
     7
 10
-77.0485508069443
 20
25.76052783432075
 11
-76.8684538826458
 21
25.62741240151667
  0
LINE
  8
0
  6
CONTINUOUS
 62
     7
 10
-76.8684538826458
 20
25.62741240151667
 11
-76.69304011349442
 21
25.48364773408818
  0
LINE
  8
0
  6
CONTINUOUS
 62
     7
 10
-76.69304011349442
 20
25.48364773408818
 11
-76.52230949948999
 21
25.32923383203539
  0
LINE
  8
0
  6
CONTINUOUS
 62
     7
 10
-76.52230949948999
 20
25.32923383203539
 11
-76.35626204063259
 21
25.16417069535814
  0
LINE
  8
0
  6
CONTINUOUS
 62
     7
 10
-101.9999999999943
 20
31.49999999999997
 11
-101.9999999999943
 21
-0.000000000000111
  0
LINE
  8
0
  6
CONTINUOUS
 62
     7
 10
-17.9999999999943
 20
31.49999999999997
 11
-101.9999999999943
 21
31.49999999999997
  0
LINE
  8
0
  6
CONTINUOUS
 62
     7
 10
-101.9999999999943
 20
0.0
 11
-20.46965678589041
 21
0.0
  0
LINE
  8
0
  6
CONTINUOUS
 62
     7
 10
102.0000000000057
 20
31.49999999999997
 11
18.00000000000573
 21
31.49999999999997
  0
LINE
  8
0
  6
CONTINUOUS
 62
     7
 10
102.0000000000057
 20
0.0
 11
102.0000000000057
 21
31.49999999999997
  0
LINE
  8
0
  6
CONTINUOUS
 62
     7
 10
20.46965678590179
 20
0.0
 11
102.0000000000057
 21
0.0
  0
LINE
  8
0
  6
CONTINUOUS
 62
     7
 10
102.0000000000057
 20
31.49999999999997
 11
102.0000000000057
 21
32.99999999999997
  0
ARC
  8
0
  6
CONTINUOUS
 62
     7
 10
102.0000000000057
 20
31.49999999999997
 40
1.500000000000001
 50
0.0
 51
90.0
  0
LINE
  8
0
  6
CONTINUOUS
 62
     7
 10
103.5000000000057
 20
31.49999999999997
 11
102.0000000000057
 21
31.49999999999997
  0
LINE
  8
0
  6
CONTINUOUS
 62
     7
 10
-101.9999999999943
 20
32.99999999999997
 11
-101.9999999999943
 21
31.49999999999997
  0
LINE
  8
0
  6
CONTINUOUS
 62
     7
 10
-101.9999999999943
 20
31.49999999999997
 11
-103.4999999999943
 21
31.49999999999997
  0
ARC
  8
0
  6
CONTINUOUS
 62
     7
 10
-101.9999999999943
 20
31.49999999999997
 40
1.500000000000001
 50
90.0
 51
180.0
  0
LINE
  8
0
  6
CONTINUOUS
 62
     7
 10
-101.9999999999943
 20
32.99999999999997
 11
-17.9999999999943
 21
32.99999999999997
  0
LINE
  8
0
  6
CONTINUOUS
 62
     7
 10
103.5000000000057
 20
31.49999999999997
 11
103.5000000000057
 21
-0.000000000000111
  0
LINE
  8
0
  6
CONTINUOUS
 62
     7
 10
103.5000000000057
 20
0.0
 11
102.0000000000057
 21
0.0
  0
LINE
  8
0
  6
CONTINUOUS
 62
     7
 10
18.00000000000573
 20
32.99999999999997
 11
102.0000000000057
 21
32.99999999999997
  0
LINE
  8
0
  6
CONTINUOUS
 62
     7
 10
-103.4999999999943
 20
0.0
 11
-103.4999999999943
 21
31.49999999999997
  0
LINE
  8
0
  6
CONTINUOUS
 62
     7
 10
-101.9999999999943
 20
0.0
 11
-103.4999999999943
 21
0.0
  0
LINE
  8
0
  6
CONTINUOUS
 62
     7
 10
-101.9999999999942
 20
32.99999999999997
 11
-101.9999999999942
 21
33.38786796564397
  0
ARC
  8
0
  6
CONTINUOUS
 62
     7
 10
-101.8426511218347
 20
31.72300257129967
 40
1.672284500539106
 50
95.3990709557118
 51
187.6633378812809
  0
LINE
  8
0
  6
CONTINUOUS
 62
     7
 10
102.0000000000057
 20
33.38786796564397
 11
102.0000000000057
 21
32.99999999999997
  0
ARC
  8
0
  6
CONTINUOUS
 62
     7
 10
101.9966075678148
 20
32.06324772141467
 40
1.324624588333767
 50
63.4125262116811
 51
89.85326238013886
  0
ARC
  8
0
  6
CONTINUOUS
 62
     7
 10
101.9208675892862
 20
31.9258565197798
 40
1.481398556193447
 50
35.9703976188232
 51
63.17120787237603
  0
LINE
  8
0
  6
CONTINUOUS
 62
     7
 10
103.1197939145663
 20
32.79598142394147
 11
103.2249516869388
 21
32.6348563564503
  0
ARC
  8
0
  6
CONTINUOUS
 62
     7
 10
101.1970268090186
 20
31.54260131306841
 40
2.303367185292116
 50
358.9402407755866
 51
28.30722753247204
  0
LINE
  8
0
  6
CONTINUOUS
 62
     7
 10
-101.9999999999943
 20
33.38786796564397
 11
102.0000000000057
 21
33.38786796564397
  0
LINE
  8
0
  6
CONTINUOUS
 62
     7
 10
-101.9999999999943
 20
34.93933982822011
 11
-101.9999999999943
 21
33.38786796564397
  0
LINE
  8
0
  6
CONTINUOUS
 62
     7
 10
-103.4999999999943
 20
31.49999999999997
 11
-103.4999999999943
 21
33.43933982822011
  0
LINE
  8
0
  6
CONTINUOUS
 62
     7
 10
103.5000000000057
 20
33.43933982822011
 11
103.5000000000057
 21
31.49999999999997
  0
LINE
  8
0
  6
CONTINUOUS
 62
     7
 10
102.0000000000057
 20
33.38786796564397
 11
102.0000000000057
 21
34.93933982822011
  0
LINE
  8
0
  6
CONTINUOUS
 62
     7
 10
-3.999999999994286
 20
26.70335651330069
 11
4.000000000005721
 21
26.70335651330069
  0
LINE
  8
0
  6
CONTINUOUS
 62
     7
 10
6.248684219501365
 20
0.0
 11
-6.248684219489986
 21
0.0
  0
LINE
  8
0
  6
CONTINUOUS
 62
     7
 10
-6.253684203385679
 20
0.0000000913317755
 11
-4.341825941834021
 21
10.8426870917554
  0
LINE
  8
0
  6
CONTINUOUS
 62
     7
 10
-4.341825941834021
 20
10.8426870917554
 11
-4.219875448264521
 21
11.61193224443691
  0
ARC
  8
0
  6
CONTINUOUS
 62
     7
 10
-26.50005320015264
 20
14.74977760140461
 40
22.5000532030476
 50
351.9834310315688
 51
359.9379430406661
  0
LINE
  8
0
  6
CONTINUOUS
 62
     7
 10
-4.000013194530749
 20
14.72540783760162
 11
-3.999999999994286
 21
22.04775804470105
  0
LINE
  8
0
  6
CONTINUOUS
 62
     7
 10
-3.999999999994286
 20
22.04775804470105
 11
-3.999999999994286
 21
30.00000000000075
  0
ARC
  8
0
  6
CONTINUOUS
 62
     7
 10
-101.9999999999943
 20
33.43933982822011
 40
1.500000000000001
 50
90.0
 51
179.9999999999996
  0
ARC
  8
0
  6
CONTINUOUS
 62
     7
 10
102.0000000000057
 20
33.43933982822011
 40
1.500000000000001
 50
0.000000000000265
 51
90.0
  0
LINE
  8
0
  6
CONTINUOUS
 62
     7
 10
102.0000000000057
 20
34.93933982822011
 11
-101.9999999999943
 21
34.93933982822011
  0
LINE
  8
0
  6
CONTINUOUS
 62
     7
 10
75.47577428814239
 20
-112.0042826190673
 11
75.47577428814239
 21
-112.5042826190673
  0
LINE
  8
0
  6
CONTINUOUS
 62
     7
 10
79.4119663547252
 20
-112.0042826190673
 11
79.41196635472508
 21
-112.5042826190673
  0
LINE
  8
0
  6
CONTINUOUS
 62
     7
 10
79.4119663547252
 20
-112.0042826190673
 11
75.47577428814239
 21
-112.0042826190673
  0
LINE
  8
0
  6
CONTINUOUS
 62
     7
 10
75.47577428814239
 20
-112.0042826190673
 11
74.4486961214647
 21
-112.0042826190673
  0
LINE
  8
0
  6
CONTINUOUS
 62
     7
 10
71.0915518868755
 20
-112.0042826190673
 11
71.0915518868755
 21
-112.5042826190673
  0
LINE
  8
0
  6
CONTINUOUS
 62
     7
 10
74.4486961214647
 20
-112.0042826190673
 11
71.0915518868755
 21
-112.0042826190673
  0
LINE
  8
0
  6
CONTINUOUS
 62
     7
 10
74.4486961214647
 20
-112.0042826190673
 11
74.4486961214647
 21
-112.5042826190673
  0
LINE
  8
0
  6
CONTINUOUS
 62
     7
 10
71.0915518868755
 20
-112.0042826190673
 11
68.6751758170075
 21
-112.0042826190673
  0
LINE
  8
0
  6
CONTINUOUS
 62
     7
 10
65.31705448805668
 20
-112.0042826190673
 11
65.31705448805668
 21
-112.5042826190673
  0
LINE
  8
0
  6
CONTINUOUS
 62
     7
 10
68.6751758170075
 20
-112.0042826190673
 11
68.6751758170075
 21
-112.5042826190673
  0
LINE
  8
0
  6
CONTINUOUS
 62
     7
 10
68.6751758170075
 20
-112.0042826190673
 11
65.31705448805668
 21
-112.0042826190673
  0
LINE
  8
0
  6
CONTINUOUS
 62
     7
 10
65.31705448805668
 20
-112.0042826190673
 11
60.32514453339221
 21
-112.0042826190673
  0
LINE
  8
0
  6
CONTINUOUS
 62
     7
 10
52.2077051342944
 20
-112.0042826190673
 11
52.2077051342944
 21
-112.5042826190673
  0
LINE
  8
0
  6
CONTINUOUS
 62
     7
 10
55.875109398558
 20
-112.0042826190673
 11
52.2077051342944
 21
-112.0042826190673
  0
LINE
  8
0
  6
CONTINUOUS
 62
     7
 10
55.875109398558
 20
-112.0042826190673
 11
55.875109398558
 21
-112.5042826190673
  0
LINE
  8
0
  6
CONTINUOUS
 62
     7
 10
52.2077051342944
 20
-112.0042826190673
 11
48.84954037892741
 21
-112.0042826190673
  0
LINE
  8
0
  6
CONTINUOUS
 62
     7
 10
48.84954037892741
 20
-112.0042826190673
 11
48.84954037892741
 21
-112.5042826190673
  0
LINE
  8
0
  6
CONTINUOUS
 62
     7
 10
58.64606215570866
 20
-112.0042826190673
 11
58.64606215570866
 21
-112.5042826190673
  0
LINE
  8
0
  6
CONTINUOUS
 62
     7
 10
58.64606215570866
 20
-112.0042826190673
 11
55.875109398558
 21
-112.0042826190673
  0
LINE
  8
0
  6
CONTINUOUS
 62
     7
 10
60.32514453339221
 20
-112.0042826190673
 11
60.32514453339221
 21
-112.5042826190673
  0
LINE
  8
0
  6
CONTINUOUS
 62
     7
 10
60.32514453339221
 20
-112.0042826190673
 11
58.64606215570866
 21
-112.0042826190673
  0
LINE
  8
0
  6
CONTINUOUS
 62
     7
 10
46.18407038560529
 20
-112.0042826190673
 11
42.78782066416381
 21
-112.0042826190673
  0
LINE
  8
0
  6
CONTINUOUS
 62
     7
 10
46.18407038560529
 20
-112.0042826190673
 11
46.18407038560529
 21
-112.5042826190673
  0
LINE
  8
0
  6
CONTINUOUS
 62
     7
 10
42.78782066416381
 20
-112.0042826190673
 11
42.78782066416381
 21
-112.5042826190673
  0
LINE
  8
0
  6
CONTINUOUS
 62
     7
 10
46.18407038560529
 20
-112.0042826190673
 11
48.84954037892741
 21
-112.0042826190673
  0
ARC
  8
0
  6
CONTINUOUS
 62
     7
 10
20.38655541003942
 20
-100.9069273561793
 40
11.59815297957262
 50
182.6669832660123
 51
270.4105307851794
  0
ARC
  8
0
  6
CONTINUOUS
 62
     7
 10
-20.38655541002804
 20
-100.9069273561793
 40
11.59815297957262
 50
269.5894692148206
 51
357.3330167339798
  0
ARC
  8
0
  6
CONTINUOUS
 62
     7
 10
18.02468585310202
 20
-100.9484091561775
 40
14.05639513956464
 50
176.1507549266596
 51
269.8993770515763
  0
LINE
  8
0
  6
CONTINUOUS
 62
     7
 10
6.253684219501398
 20
-100.0047826190673
 11
4.000000000005721
 21
-100.0047826190673
  0
ARC
  8
0
  6
CONTINUOUS
 62
     7
 10
20.32241985183914
 20
-100.8801284065852
 40
14.09594099520611
 50
176.4396906943118
 51
254.7719138589679
  0
LINE
  8
0
  6
CONTINUOUS
 62
     7
 10
16.6199490636072
 20
-114.4811306712207
 11
15.65539959499218
 21
-114.637999671392
  0
LINE
  8
0
  6
CONTINUOUS
 62
     7
 10
15.65539959499218
 20
-114.637999671392
 11
15.43487921982772
 21
-114.6772532870405
  0
LINE
  8
0
  6
CONTINUOUS
 62
     7
 10
15.43487921982772
 20
-114.6772532870405
 11
15.32868354900352
 21
-114.6968868880902
  0
LINE
  8
0
  6
CONTINUOUS
 62
     7
 10
15.32868354900352
 20
-114.6968868880902
 11
15.76574340927533
 21
-114.8246509829597
  0
ARC
  8
0
  6
CONTINUOUS
 62
     7
 10
18.00199289950299
 20
-101.0337353172649
 40
13.97104744394095
 50
260.7894398566032
 51
269.9918270458224
  0
LINE
  8
0
  6
CONTINUOUS
 62
     7
 10
16.6199490636072
 20
-114.4811306712208
 11
100.5236519478521
 21
-114.4811306712208
  0
LINE
  8
0
  6
CONTINUOUS
 62
     7
 10
100.5236519478521
 20
-114.4811306712208
 11
100.0000000000058
 21
-115.0047826190673
  0
LINE
  8
0
  6
CONTINUOUS
 62
     7
 10
18.00000000000573
 20
-115.0047826190673
 11
100.0000000000057
 21
-115.0047826190673
  0
LINE
  8
0
  6
CONTINUOUS
 62
     7
 10
-6.253684219489963
 20
-100.0047826190673
 11
-3.999999999994286
 21
-100.0047826190673
  0
ARC
  8
0
  6
CONTINUOUS
 62
     7
 10
-18.02468585309064
 20
-100.9484091561774
 40
14.05639513956469
 50
270.1006229484239
 51
3.849245073340001
  0
LINE
  8
0
  6
CONTINUOUS
 62
     7
 10
-16.61994906359571
 20
-114.4811306712207
 11
-15.65539959498097
 21
-114.637999671392
  0
LINE
  8
0
  6
CONTINUOUS
 62
     7
 10
-15.65539959498097
 20
-114.637999671392
 11
-15.43487921981662
 21
-114.6772532870404
  0
LINE
  8
0
  6
CONTINUOUS
 62
     7
 10
-15.43487921981662
 20
-114.6772532870404
 11
-15.32868354899231
 21
-114.6968868880901
  0
LINE
  8
0
  6
CONTINUOUS
 62
     7
 10
-15.32868354899231
 20
-114.6968868880901
 11
-15.76574340926351
 21
-114.8246509829596
  0
ARC
  8
0
  6
CONTINUOUS
 62
     7
 10
-18.00199289949333
 20
-101.0337353172416
 40
13.97104744396421
 50
270.008172954185
 51
279.2105601433905
  0
ARC
  8
0
  6
CONTINUOUS
 62
     7
 10
-20.32241985182776
 20
-100.8801284065851
 40
14.09594099520628
 50
285.2280861410322
 51
3.560309305687724
  0
LINE
  8
0
  6
CONTINUOUS
 62
     7
 10
-99.99999999999432
 20
-115.0047826190673
 11
-17.99999999999431
 21
-115.0047826190673
  0
LINE
  8
0
  6
CONTINUOUS
 62
     7
 10
-100.5236519478407
 20
-114.4811306712208
 11
-99.99999999999432
 21
-115.0047826190673
  0
LINE
  8
0
  6
CONTINUOUS
 62
     7
 10
-100.5236519478407
 20
-114.4811306712208
 11
-16.61994906359571
 21
-114.4811306712208
  0
LINE
  8
0
  6
CONTINUOUS
 62
     7
 10
20.46965678590179
 20
-112.5047826190673
 11
102.0000000000057
 21
-112.5047826190673
  0
ARC
  8
0
  6
CONTINUOUS
 62
     7
 10
102.0000000000057
 20
-114.0047826190673
 40
1.500000000000001
 50
0.0
 51
90.0
  0
LINE
  8
0
  6
CONTINUOUS
 62
     7
 10
103.5000000000057
 20
-114.0047826190673
 11
103.5000000000057
 21
-129.0047826190673
  0
ARC
  8
0
  6
CONTINUOUS
 62
     7
 10
102.0000000000057
 20
-129.0047826190673
 40
1.500000000000001
 50
270.0
 51
0.0
  0
LINE
  8
0
  6
CONTINUOUS
 62
     7
 10
102.0000000000057
 20
-130.5047826190673
 11
-101.9999999999942
 21
-130.5047826190673
  0
ARC
  8
0
  6
CONTINUOUS
 62
     7
 10
-101.9999999999942
 20
-129.0047826190673
 40
1.500000000000001
 50
180.0
 51
270.0
  0
LINE
  8
0
  6
CONTINUOUS
 62
     7
 10
-103.4999999999942
 20
-129.0047826190673
 11
-103.4999999999942
 21
-114.0047826190673
  0
ARC
  8
0
  6
CONTINUOUS
 62
     7
 10
-101.9999999999942
 20
-114.0047826190673
 40
1.500000000000001
 50
90.0
 51
180.0
  0
LINE
  8
0
  6
CONTINUOUS
 62
     7
 10
-101.9999999999942
 20
-112.5047826190673
 11
-20.4696567858903
 21
-112.5047826190673
  0
ARC
  8
0
  6
CONTINUOUS
 62
     7
 10
-7.289808388736385
 20
-101.5175657814502
 40
1.512821978694623
 50
89.58955801454182
 51
177.3112591751897
  0
LINE
  8
0
  6
CONTINUOUS
 62
     7
 10
-6.253684219489963
 20
-100.0047826190673
 11
-7.278971284306823
 21
-100.0047826190673
  0
LINE
  8
0
  6
CONTINUOUS
 62
     7
 10
-100.5236519478407
 20
-127.5284345669138
 11
-100.5236519478407
 21
-114.4811306712208
  0
LINE
  8
0
  6
CONTINUOUS
 62
     7
 10
100.5236519478521
 20
-127.5284345669138
 11
-100.5236519478407
 21
-127.5284345669138
  0
LINE
  8
0
  6
CONTINUOUS
 62
     7
 10
100.5236519478521
 20
-114.4811306712208
 11
100.5236519478521
 21
-127.5284345669138
  0
LINE
  8
0
  6
CONTINUOUS
 62
     7
 10
7.278971284318258
 20
-100.0047826190673
 11
6.253684219501398
 21
-100.0047826190673
  0
ARC
  8
0
  6
CONTINUOUS
 62
     7
 10
7.289668663085502
 20
-101.5177132770414
 40
1.512968476125809
 50
2.694072081491784
 51
90.40511072883506
  0
LINE
  8
0
  6
CONTINUOUS
 62
     7
 10
100.0000000000058
 20
-115.0047826190673
 11
100.0000000000058
 21
-123.6802761627532
  0
LINE
  8
0
  6
CONTINUOUS
 62
     7
 10
100.5236519478521
 20
-127.5284345669138
 11
100.0575431261111
 21
-127.0623257451728
  0
LINE
  8
0
  6
CONTINUOUS
 62
     7
 10
100.0000000000058
 20
-123.6802761627531
 11
99.97948465823059
 21
-127.062325745173
  0
LINE
  8
0
  6
CONTINUOUS
 62
     7
 10
-100.5236519478407
 20
-127.5284345669138
 11
-100.0575431260996
 21
-127.0623257451728
  0
LINE
  8
0
  6
CONTINUOUS
 62
     7
 10
-99.99999999999432
 20
-123.6802761627532
 11
-99.99999999999432
 21
-115.0047826190673
  0
LINE
  8
0
  6
CONTINUOUS
 62
     7
 10
-100.0575431260996
 20
-127.0623257451728
 11
100.0575431261111
 21
-127.0623257451728
  0
LINE
  8
0
  6
CONTINUOUS
 62
     7
 10
-74.88323856464771
 20
-112.0047826190673
 11
-84.1338583407698
 21
-112.0047826190673
  0
LINE
  8
0
  6
CONTINUOUS
 62
     7
 10
-62.48323856464769
 20
-112.0047826190674
 11
-71.73385834076981
 21
-112.0047826190673
  0
LINE
  8
0
  6
CONTINUOUS
 62
     7
 10
-51.43636363635792
 20
-112.0047826190673
 11
-59.37400490826569
 21
-112.0047826190673
  0
LINE
  8
0
  6
CONTINUOUS
 62
     7
 10
-51.43636363635792
 20
-112.0047826190673
 11
-51.43636363635792
 21
-112.5047826190673
  0
LINE
  8
0
  6
CONTINUOUS
 62
     7
 10
-48.49999999999429
 20
-112.0047826190673
 11
-48.49999999999429
 21
-112.5047826190673
  0
LINE
  8
0
  6
CONTINUOUS
 62
     7
 10
-46.31818181817609
 20
-112.0047826190673
 11
-48.49999999999429
 21
-112.0047826190673
  0
LINE
  8
0
  6
CONTINUOUS
 62
     7
 10
-46.31818181817609
 20
-112.0047826190673
 11
-46.31818181817609
 21
-112.5047826190673
  0
LINE
  8
0
  6
CONTINUOUS
 62
     7
 10
-39.49999999999421
 20
-112.0047826190673
 11
-39.49999999999421
 21
-112.5047826190673
  0
LINE
  8
0
  6
CONTINUOUS
 62
     7
 10
-39.49999999999421
 20
-112.0047826190673
 11
-41.68181818181249
 21
-112.0047826190673
  0
LINE
  8
0
  6
CONTINUOUS
 62
     7
 10
-41.68181818181249
 20
-112.0047826190673
 11
-41.68181818181249
 21
-112.5047826190673
  0
LINE
  8
0
  6
CONTINUOUS
 62
     7
 10
-41.68181818181249
 20
-112.0047826190673
 11
-46.31818181817609
 21
-112.0047826190673
  0
LINE
  8
0
  6
CONTINUOUS
 62
     7
 10
102.0000000000057
 20
-130.5047826190673
 11
102.0000000000057
 21
-130.7926505847113
  0
ARC
  8
0
  6
CONTINUOUS
 62
     7
 10
101.8870420408346
 20
-129.1747051180266
 40
1.621883791677436
 50
273.9936634096923
 51
6.013834952857167
  0
LINE
  8
0
  6
CONTINUOUS
 62
     7
 10
-101.9999999999942
 20
-130.7926505847113
 11
-101.9999999999942
 21
-130.5047826190673
  0
ARC
  8
0
  6
CONTINUOUS
 62
     7
 10
-101.9966496002192
 20
-129.4238964095474
 40
1.368758275667209
 50
247.5800003224674
 51
269.8597532070507
  0
ARC
  8
0
  6
CONTINUOUS
 62
     7
 10
-101.9406073376048
 20
-129.3197569899249
 40
1.486449388333227
 50
213.9885864651824
 51
247.1140530346505
  0
ARC
  8
0
  6
CONTINUOUS
 62
     7
 10
-101.452189492636
 20
-129.040198601819
 40
2.048116736390104
 50
179.009193449846
 51
212.8347250099159
  0
LINE
  8
0
  6
CONTINUOUS
 62
     7
 10
102.0000000000057
 20
-130.7926505847113
 11
-101.9999999999942
 21
-130.7926505847114
  0
LINE
  8
0
  6
CONTINUOUS
 62
     7
 10
-59.56363636363071
 20
-112.0047826190673
 11
-59.56363636363071
 21
-112.5047826190673
  0
LINE
  8
0
  6
CONTINUOUS
 62
     7
 10
-59.389939069981
 20
-112.0047826190673
 11
-59.56363636363071
 21
-112.0047826190673
  0
LINE
  8
0
  6
CONTINUOUS
 62
     7
 10
102.0000000000057
 20
-131.9441224472875
 11
102.0000000000057
 21
-130.7926505847113
  0
LINE
  8
0
  6
CONTINUOUS
 62
     7
 10
103.5000000000057
 20
-129.0047826190673
 11
103.5000000000057
 21
-130.4441224472875
  0
LINE
  8
0
  6
CONTINUOUS
 62
     7
 10
-103.4999999999942
 20
-130.4441224472875
 11
-103.4999999999942
 21
-129.0047826190673
  0
LINE
  8
0
  6
CONTINUOUS
 62
     7
 10
-101.9999999999942
 20
-130.7926505847114
 11
-101.9999999999942
 21
-131.9441224472875
  0
LINE
  8
0
  6
CONTINUOUS
 62
     7
 10
-99.97948465821912
 20
-127.0623257451728
 11
-99.99999999999432
 21
-123.6802761627532
  0
LINE
  8
0
  6
CONTINUOUS
 62
     7
 10
100.0000000000058
 20
-123.6802761627532
 11
-99.9999999999942
 21
-123.6802761627532
  0
LINE
  8
0
  6
CONTINUOUS
 62
     7
 10
-3.999999999994286
 20
-100.0047826190673
 11
4.000000000005721
 21
-100.0047826190673
  0
LINE
  8
0
  6
CONTINUOUS
 62
     7
 10
-84.13385844135132
 20
-112.0047826190673
 11
-84.13385844135132
 21
-112.5047826190673
  0
LINE
  8
0
  6
CONTINUOUS
 62
     7
 10
-74.88323850050472
 20
-112.5047826190673
 11
-74.88323850050472
 21
-112.0047826190673
  0
LINE
  8
0
  6
CONTINUOUS
 62
     7
 10
-71.7338584413513
 20
-112.0047826190673
 11
-71.7338584413513
 21
-112.5047826190673
  0
LINE
  8
0
  6
CONTINUOUS
 62
     7
 10
-62.48323850050472
 20
-112.5047826190673
 11
-62.48323850050472
 21
-112.0047826190673
  0
LINE
  8
0
  6
CONTINUOUS
 62
     7
 10
-59.3740049159589
 20
-112.0047826190673
 11
-59.3740049159589
 21
-112.5047826190673
  0
LINE
  8
0
  6
CONTINUOUS
 62
     7
 10
-51.43522959319913
 20
-112.5047826190673
 11
-51.43522959319913
 21
-112.0047826190673
  0
ARC
  8
0
  6
CONTINUOUS
 62
     7
 10
102.0000000000057
 20
-130.4441224472875
 40
1.499999999999946
 50
270.0
 51
359.9999999999998
  0
ARC
  8
0
  6
CONTINUOUS
 62
     7
 10
-101.9999999999942
 20
-130.4441224472875
 40
1.500000000000001
 50
180.0000000000002
 51
270.0
  0
LINE
  8
0
  6
CONTINUOUS
 62
     7
 10
-101.9999999999942
 20
-131.9441224472875
 11
102.0000000000057
 21
-131.9441224472875
  0
LINE
  8
0
  6
CONTINUOUS
 62
     7
 10
9.999999999999954
 20
-15.00000000000012
 11
0.0
 21
-15.00000000000012
  0
LINE
  8
0
  6
CONTINUOUS
 62
     7
 10
0.0
 20
47.43933982822013
 11
0.0
 21
52.43933982822013
  0
LINE
  8
0
  6
CONTINUOUS
 62
     7
 10
9.999999999999954
 20
49.93933982822013
 11
0.0
 21
49.93933982822013
  0
LINE
  8
0
  6
CENTER
 62
     1
 10
0.0
 20
-12.50000000000012
 11
0.0
 21
47.43933982822013
  0
LINE
  8
0
  6
CONTINUOUS
 62
     7
 10
0.0
 20
-12.50000000000012
 11
0.0
 21
-17.50000000000013
  0
ARC
  8
0
  6
CONTINUOUS
 62
     7
 10
205.0017253293479
 20
31.49999999999997
 40
1.500000000000001
 50
90.0
 51
180.0
  0
ARC
  8
0
  6
CONTINUOUS
 62
     7
 10
229.4410651575682
 20
28.93933982822017
 40
6.000000000000005
 50
323.9095445145512
 51
132.1473655303909
  0
LINE
  8
0
  6
CONTINUOUS
 62
     7
 10
203.5017253293479
 20
0.0
 11
203.5017253293479
 21
29.99999999999997
  0
ARC
  8
0
  6
CONTINUOUS
 62
     7
 10
224.4082668848394
 20
34.49999999999997
 40
1.500000000000057
 50
270.0000000000007
 51
312.1473655303909
  0
LINE
  8
0
  6
CONTINUOUS
 62
     7
 10
203.5017253293479
 20
31.49999999999997
 11
203.5017253293479
 21
29.99999999999997
  0
LINE
  8
0
  6
CONTINUOUS
 62
     7
 10
234.001725329348
 20
24.52137669095861
 11
234.001725329348
 21
0.0
  0
LINE
  8
0
  6
CONTINUOUS
 62
     7
 10
217.9780733815055
 20
0.0
 11
203.5017253293479
 21
0.0
  0
LINE
  8
0
  6
CONTINUOUS
 62
     7
 10
217.9780733815013
 20
0.0
 11
218.5017253293479
 21
29.99999999999996
  0
ARC
  8
0
  6
CONTINUOUS
 62
     7
 10
235.501725329348
 20
24.52137669095861
 40
1.499999999999946
 50
143.909544514552
 51
180.0
  0
LINE
  8
0
  6
CONTINUOUS
 62
     7
 10
230.5592684554535
 20
26.70335651330069
 11
231.0253772771946
 21
-0.0000000000000035
  0
ARC
  8
0
  6
CONTINUOUS
 62
     7
 10
229.4410651575682
 20
28.93933982822017
 40
2.499999999999947
 50
296.569389543637
 51
154.8959097497833
  0
LINE
  8
0
  6
CONTINUOUS
 62
     7
 10
231.0253772771945
 20
0.0
 11
217.9780733815013
 21
0.0
  0
LINE
  8
0
  6
CONTINUOUS
 62
     7
 10
227.1772188730338
 20
29.99999999999975
 11
203.5017253293479
 21
29.99999999999997
  0
LINE
  8
0
  6
CONTINUOUS
 62
     7
 10
224.4082668848394
 20
32.99999999999997
 11
205.0017253293479
 21
32.99999999999997
  0
LINE
  8
0
  6
CONTINUOUS
 62
     7
 10
234.001725329348
 20
0.0
 11
231.0253772771945
 21
0.0
  0
ENDSEC
  0
EOF
