  0
SECTION
  2
HEADER
  9
$ACADVER
  1
AC1004
  9
$INSBASE
 10
0.0
 20
0.0
  9
$EXTMIN
 10
-78.00000000000001
 20
-124.4350079194964
  9
$EXTMAX
 10
202.443970953106
 20
53.70726912114951
  9
$LIMMIN
 10
0.0
 20
0.0
  9
$LIMMAX
 10
12.0
 20
9.0
  9
$ORTHOMODE
 70
     0
  9
$REGENMODE
 70
     1
  9
$FILLMODE
 70
     1
  9
$QTEXTMODE
 70
     0
  9
$DRAGMODE
 70
     2
  9
$LTSCALE
 40
1.0
  9
$OSMODE
 70
    37
  9
$ATTMODE
 70
     1
  9
$TEXTSIZE
 40
0.2
  9
$TRACEWID
 40
0.05
  9
$TEXTSTYLE
  7
STANDARD
  9
$CLAYER
  8
0
  9
$CELTYPE
  6
BYLAYER
  9
$CECOLOR
 62
   256
  9
$DIMSCALE
 40
1.0
  9
$DIMASZ
 40
2.5
  9
$DIMEXO
 40
0.0625
  9
$DIMDLI
 40
0.38
  9
$DIMRND
 40
0.0
  9
$DIMDLE
 40
0.0
  9
$DIMEXE
 40
1.25
  9
$DIMTP
 40
0.0
  9
$DIMTM
 40
0.0
  9
$DIMTXT
 40
4.0
  9
$DIMCEN
 40
0.09
  9
$DIMTSZ
 40
0.0
  9
$DIMTOL
 70
     0
  9
$DIMLIM
 70
     0
  9
$DIMTIH
 70
     1
  9
$DIMTOH
 70
     1
  9
$DIMSE1
 70
     0
  9
$DIMSE2
 70
     0
  9
$DIMTAD
 70
     1
  9
$DIMZIN
 70
     0
  9
$DIMBLK
  1

  9
$DIMASO
 70
     1
  9
$DIMSHO
 70
     1
  9
$DIMPOST
  1

  9
$DIMAPOST
  1

  9
$DIMALT
 70
     0
  9
$DIMALTD
 70
     2
  9
$DIMALTF
 40
25.4
  9
$DIMLFAC
 40
1.0
  9
$DIMTOFL
 70
     0
  9
$DIMTVP
 40
0.0
  9
$DIMTIX
 70
     0
  9
$DIMSOXD
 70
     0
  9
$DIMSAH
 70
     0
  9
$DIMBLK1
  1

  9
$DIMBLK2
  1

  9
$LUNITS
 70
     2
  9
$LUPREC
 70
     4
  9
$SKETCHINC
 40
0.1
  9
$FILLETRAD
 40
0.0
  9
$AUNITS
 70
     0
  9
$AUPREC
 70
     0
  9
$MENU
  1
.
  9
$ELEVATION
 40
0.0
  9
$THICKNESS
 40
0.0
  9
$LIMCHECK
 70
     0
  9
$CHAMFERA
 40
0.0
  9
$CHAMFERB
 40
0.0
  9
$SKPOLY
 70
     0
  9
$TDCREATE
 40
2460334.859879259
  9
$TDUPDATE
 40
2460334.859879433
  9
$TDINDWG
 40
0.0000000116
  9
$TDUSRTIMER
 40
0.0000000116
  9
$USRTIMER
 70
     1
  9
$ANGBASE
 50
0.0
  9
$ANGDIR
 70
     0
  9
$PDMODE
 70
     0
  9
$PDSIZE
 40
0.0
  9
$PLINEWID
 40
0.0
  9
$COORDS
 70
     1
  9
$SPLFRAME
 70
     0
  9
$SPLINETYPE
 70
     6
  9
$SPLINESEGS
 70
     8
  9
$ATTDIA
 70
     0
  9
$ATTREQ
 70
     1
  9
$SURFTAB1
 70
     6
  9
$SURFTAB2
 70
     6
  9
$SURFTYPE
 70
     6
  9
$SURFU
 70
     6
  9
$SURFV
 70
     6
  9
$UCSNAME
  2

  9
$UCSORG
 10
0.0
 20
0.0
 30
0.0
  9
$UCSXDIR
 10
1.0
 20
0.0
 30
0.0
  9
$UCSYDIR
 10
0.0
 20
1.0
 30
0.0
  9
$USERI1
 70
     0
  9
$USERI2
 70
     0
  9
$USERI3
 70
     0
  9
$USERI4
 70
     0
  9
$USERI5
 70
     0
  9
$USERR1
 40
0.0
  9
$USERR2
 40
0.0
  9
$USERR3
 40
0.0
  9
$USERR4
 40
0.0
  9
$USERR5
 40
0.0
  9
$WORLDVIEW
 70
     1
  0
ENDSEC
  0
SECTION
  2
TABLES
  0
TABLE
  2
LTYPE
 70
     2
  0
LTYPE
  2
CONTINUOUS
 70
     0
  3
Solid line
 72
    65
 73
     0
 40
0.0
  0
LTYPE
  2
CENTER
 70
     0
  3

 72
    65
 73
     0
 40
0.0
  0
ENDTAB
  0
TABLE
  2
LAYER
 70
     1
  0
LAYER
  2
0
 70
     0
 62
     7
  6
CONTINUOUS
  0
ENDTAB
  0
TABLE
  2
STYLE
 70
     3
  0
STYLE
  2
STANDARD
 70
     0
 40
0.0
 41
1.0
 50
0.0
 71
     0
 42
0.2
  3
txt
  4

  0
STYLE
  2
HG丸ｺﾞｼｯｸM-PRO
 70
     0
 40
0.0
 41
1.0
 50
0.0
 71
     0
 42
0.2
  3
HGRSMP.TTF
  4

  0
STYLE
  2
MTXPL_HG丸ｺﾞｼｯｸM-PRO
 70
     0
 40
0.2
 41
1.0
 50
0.0
 71
     0
 42
0.2
  3
txt.shx
  4

  0
ENDTAB
  0
TABLE
  2
VIEW
 70
     0
  0
ENDTAB
  0
ENDSEC
  0
SECTION
  2
BLOCKS
  0
ENDSEC
  0
SECTION
  2
ENTITIES
  0
TEXT
  8
0
 62
     7
 10
6.30890404040404
 20
50.20726912114951
 40
3.5
  1
A
  7
MTXPL_HG丸ｺﾞｼｯｸM-PRO
  0
TEXT
  8
0
 62
     7
 10
152.6666848773797
 20
41.54453679791704
 40
3.5
  1
断面 A-A
  7
MTXPL_HG丸ｺﾞｼｯｸM-PRO
  0
TEXT
  8
0
 62
     7
 10
6.30890404040404
 20
-14.23207070707085
 40
3.5
  1
A
  7
MTXPL_HG丸ｺﾞｼｯｸM-PRO
  0
LINE
  8
0
  6
CONTINUOUS
 62
     7
 10
12.50000000000001
 20
31.50000000000003
 11
12.50000000000001
 21
33.00000000000003
  0
LINE
  8
0
  6
CONTINUOUS
 62
     7
 10
12.50000000000001
 20
31.50000000000003
 11
12.50000000000001
 21
30.00000000000002
  0
LINE
  8
0
  6
CONTINUOUS
 62
     7
 10
-39.75166125200358
 20
16.5572156944126
 11
-39.8368683986432
 21
16.49437104634177
  0
LINE
  8
0
  6
CONTINUOUS
 62
     7
 10
-37.8873135877032
 20
17.06041511621237
 11
-38.04872829960498
 21
17.04275219329626
  0
LINE
  8
0
  6
CONTINUOUS
 62
     7
 10
-32.3181818181818
 20
26.41818181818179
 11
-32.3181818181818
 21
21.56363636363628
  0
LINE
  8
0
  6
CONTINUOUS
 62
     7
 10
-12.50000000000001
 20
13.87488663525921
 11
-14.90023703241028
 21
0.0000000000000052
  0
LINE
  8
0
  6
CONTINUOUS
 62
     7
 10
5.259851434853191
 20
32.33335534952858
 11
5.073634444846542
 21
32.56066017177911
  0
LINE
  8
0
  6
CONTINUOUS
 62
     7
 10
-40.32729956205633
 20
15.90197468227622
 11
-40.38221560496336
 21
15.79556322632813
  0
LINE
  8
0
  6
CONTINUOUS
 62
     7
 10
-38.20379980535832
 20
17.0234786466682
 11
-38.35252810496331
 21
17.00259447632812
  0
LINE
  8
0
  6
CONTINUOUS
 62
     7
 10
-39.91828915731621
 20
16.4260805472865
 11
-39.99592352802272
 21
16.35234419724629
  0
LINE
  8
0
  6
CONTINUOUS
 62
     7
 10
-39.00102151076257
 20
16.87401426894891
 11
-39.11169057347724
 21
16.84346635633721
  0
LINE
  8
0
  6
CONTINUOUS
 62
     7
 10
-39.99592352802272
 20
16.35234419724629
 11
-40.06977151076252
 21
16.27316199622159
  0
LINE
  8
0
  6
CONTINUOUS
 62
     7
 10
-4.306957110428389
 20
32.97117792060483
 11
-4.587853130900987
 21
32.88581929876688
  0
LINE
  8
0
  6
CONTINUOUS
 62
     7
 10
5.073634444846542
 20
32.56066017177911
 11
4.846728385999088
 21
32.74720441845319
  0
LINE
  8
0
  6
CONTINUOUS
 62
     7
 10
5.512203534270621
 20
15.00000000000001
 11
5.519241621245508
 21
13.50000000000001
  0
LINE
  8
0
  6
CONTINUOUS
 62
     7
 10
3.500000000000003
 20
14.5619285843972
 11
3.500000000000003
 21
29.99999999999991
  0
LINE
  8
0
  6
CONTINUOUS
 62
     7
 10
-38.04872829960498
 20
17.04275219329626
 11
-38.20379980535832
 21
17.0234786466682
  0
LINE
  8
0
  6
CONTINUOUS
 62
     7
 10
-38.35252810496331
 20
17.00259447632812
 11
-38.49491319842002
 21
16.98009968227609
  0
LINE
  8
0
  6
CONTINUOUS
 62
     7
 10
-6.284174686304711
 20
0.0
 11
-7.80464254266755
 21
0.0
  0
LINE
  8
0
  6
CONTINUOUS
 62
     7
 10
-40.56401589692571
 20
15.31545889268948
 11
-40.60000000000002
 21
15.18181818181819
  0
LINE
  8
0
  6
CONTINUOUS
 62
     7
 10
7.898826791467195
 20
0.0
 11
7.804642542667439
 21
0.0
  0
LINE
  8
0
  6
CONTINUOUS
 62
     7
 10
3.685245019681316
 20
11.77444596065486
 11
3.639567184770875
 21
12.05002193649107
  0
LINE
  8
0
  6
CONTINUOUS
 62
     7
 10
-4.123901549784814
 20
33.00000000000003
 11
-4.014835001119043
 21
33.00000000000003
  0
LINE
  8
0
  6
CONTINUOUS
 62
     7
 10
-38.49491319842002
 20
16.98009968227609
 11
-38.63095508572822
 21
16.95599426451233
  0
LINE
  8
0
  6
CONTINUOUS
 62
     7
 10
6.284174686304211
 20
0.0
 11
5.761397525438583
 21
0.0
  0
LINE
  8
0
  6
CONTINUOUS
 62
     7
 10
-27.68181818181819
 20
19.65454545454548
 11
-32.3181818181818
 21
19.65454545454548
  0
LINE
  8
0
  6
CONTINUOUS
 62
     7
 10
-39.8368683986432
 20
16.49437104634177
 11
-39.91828915731621
 21
16.4260805472865
  0
LINE
  8
0
  6
CONTINUOUS
 62
     7
 10
-39.40563852473095
 20
16.74215887623082
 11
-39.49093476285204
 21
16.7051684687714
  0
LINE
  8
0
  6
CONTINUOUS
 62
     7
 10
-14.90023703241028
 20
0.0
 11
-7.898826791467252
 21
0.0
  0
LINE
  8
0
  6
CONTINUOUS
 62
     7
 10
-27.68181818181819
 20
15.18181818181819
 11
-27.68181818181819
 21
19.65454545454548
  0
LINE
  8
0
  6
CONTINUOUS
 62
     7
 10
-39.49093476285204
 20
16.7051684687714
 11
-39.56988779482479
 21
16.66656743760009
  0
LINE
  8
0
  6
CONTINUOUS
 62
     7
 10
4.306957110429277
 20
32.97117792060461
 11
4.014835001119987
 21
33.00000000000003
  0
LINE
  8
0
  6
CONTINUOUS
 62
     7
 10
-39.11169057347724
 20
16.84346635633721
 11
-39.21601643004341
 21
16.81130782001367
  0
LINE
  8
0
  6
CONTINUOUS
 62
     7
 10
-5.398223141524216
 20
32.07402514854763
 11
-5.483432017773127
 21
31.79263548302408
  0
LINE
  8
0
  6
CONTINUOUS
 62
     7
 10
5.512203534270621
 20
30.00000000000002
 11
5.512203534270621
 21
15.00000000000001
  0
LINE
  8
0
  6
CONTINUOUS
 62
     7
 10
-40.20610831234261
 20
16.09846004121817
 11
-40.26859713118274
 21
16.00294028723948
  0
LINE
  8
0
  6
CONTINUOUS
 62
     7
 10
-4.846728385998311
 20
32.7472044184538
 11
-5.073634444845931
 21
32.56066017177977
  0
ARC
  8
0
  6
CONTINUOUS
 62
     7
 10
-15.2082851672008
 20
13.8736372087182
 40
9.696243817423177
 50
350.730675148784
 51
0.3313913251191707
  0
LINE
  8
0
  6
CONTINUOUS
 62
     7
 10
14.90023703241028
 20
0.0
 11
12.50000278912328
 21
13.8707974596784
  0
LINE
  8
0
  6
CONTINUOUS
 62
     7
 10
-27.68181818181819
 20
26.41818181818179
 11
-25.49999999999991
 21
26.41818181818179
  0
LINE
  8
0
  6
CONTINUOUS
 62
     7
 10
-32.3181818181818
 20
19.65454545454548
 11
-32.3181818181818
 21
15.18181818181819
  0
LINE
  8
0
  6
CONTINUOUS
 62
     7
 10
-34.49999999999997
 20
26.41818181818179
 11
-32.3181818181818
 21
26.41818181818179
  0
LINE
  8
0
  6
CONTINUOUS
 62
     7
 10
-27.68181818181819
 20
21.56363636363628
 11
-27.68181818181819
 21
26.41818181818179
  0
LINE
  8
0
  6
CONTINUOUS
 62
     7
 10
-38.88400924189944
 20
16.9029515578486
 11
-39.00102151076257
 21
16.87401426894891
  0
LINE
  8
0
  6
CONTINUOUS
 62
     7
 10
-38.63095508572822
 20
16.95599426451233
 11
-38.76065376688803
 21
16.93027822303639
  0
LINE
  8
0
  6
CONTINUOUS
 62
     7
 10
-37.54545454545449
 20
17.09090909090904
 11
-37.71955566965313
 21
17.0764674154168
  0
LINE
  8
0
  6
CONTINUOUS
 62
     7
 10
-34.49999999999997
 20
15.18181818181819
 11
-34.49999999999997
 21
26.41818181818179
  0
LINE
  8
0
  6
CONTINUOUS
 62
     7
 10
-40.27272727272729
 20
26.41818181818179
 11
-40.27272727272729
 21
18.45454545454539
  0
LINE
  8
0
  6
CONTINUOUS
 62
     7
 10
-40.52424540588506
 20
15.44365375257622
 11
-40.56401589692571
 21
15.31545889268948
  0
LINE
  8
0
  6
CONTINUOUS
 62
     7
 10
-39.3139990804614
 20
16.77753865997816
 11
-39.40563852473095
 21
16.74215887623082
  0
LINE
  8
0
  6
CONTINUOUS
 62
     7
 10
-40.06977151076252
 20
16.27316199622159
 11
-40.13983310553576
 21
16.18853394421216
  0
LINE
  8
0
  6
CONTINUOUS
 62
     7
 10
-40.13983310553576
 20
16.18853394421216
 11
-40.20610831234261
 21
16.09846004121817
  0
LINE
  8
0
  6
CONTINUOUS
 62
     7
 10
-39.66266771739751
 20
16.6146144914987
 11
-39.75166125200358
 21
16.5572156944126
  0
LINE
  8
0
  6
CONTINUOUS
 62
     7
 10
-38.76065376688803
 20
16.93027822303639
 11
-38.88400924189944
 21
16.9029515578486
  0
LINE
  8
0
  6
CONTINUOUS
 62
     7
 10
-32.3181818181818
 20
21.56363636363628
 11
-27.68181818181819
 21
21.56363636363628
  0
LINE
  8
0
  6
CONTINUOUS
 62
     7
 10
-25.50000000000002
 20
15.18181818181819
 11
-27.68181818181819
 21
15.18181818181819
  0
LINE
  8
0
  6
CONTINUOUS
 62
     7
 10
-40.43334525990383
 20
15.6837059193955
 11
-40.48068852687769
 21
15.56640276147814
  0
LINE
  8
0
  6
CONTINUOUS
 62
     7
 10
-12.50000000000001
 20
33.00000000000003
 11
-4.123901549784814
 21
33.00000000000003
  0
LINE
  8
0
  6
CONTINUOUS
 62
     7
 10
-12.50000000000001
 20
33.00000000000003
 11
-12.50000000000001
 21
31.50000000000003
  0
LINE
  8
0
  6
CONTINUOUS
 62
     7
 10
4.014835001119099
 20
33.00000000000003
 11
4.116998405920668
 21
33.00000000000003
  0
LINE
  8
0
  6
CONTINUOUS
 62
     7
 10
-59.18641218536791
 20
24.23390060275682
 11
-59.29343075788309
 21
24.32999262400881
  0
LINE
  8
0
  6
CONTINUOUS
 62
     7
 10
-60.45788457549042
 20
24.79098696213777
 11
-60.60834541979312
 21
24.79766534809013
  0
LINE
  8
0
  6
CONTINUOUS
 62
     7
 10
-62.59804877772079
 20
23.24907978486262
 11
-62.65053989026763
 21
23.1111504146776
  0
LINE
  8
0
  6
CONTINUOUS
 62
     7
 10
-12.50000000000001
 20
13.87488663525921
 11
-12.50000000000001
 21
31.50000000000003
  0
LINE
  8
0
  6
CONTINUOUS
 62
     7
 10
-58.89097132583443
 20
23.89158906509314
 11
-58.98518246934353
 21
24.01469882329888
  0
LINE
  8
0
  6
CONTINUOUS
 62
     7
 10
-60.60834541979312
 20
24.79766534809013
 11
-60.754651018986
 21
24.7945511084377
  0
LINE
  8
0
  6
CONTINUOUS
 62
     7
 10
-62.65053989026763
 20
23.1111504146776
 11
-62.69922455538171
 21
22.96816840630272
  0
LINE
  8
0
  6
CONTINUOUS
 62
     7
 10
-39.56988779482479
 20
16.66656743760009
 11
-39.66266771739751
 21
16.6146144914987
  0
LINE
  8
0
  6
CONTINUOUS
 62
     7
 10
-58.63395275331923
 20
23.4682243165682
 11
-58.71535646782219
 21
23.61835181172767
  0
LINE
  8
0
  6
CONTINUOUS
 62
     7
 10
-37.54545454545449
 20
18.45454545454539
 11
-37.54545454545449
 21
17.09090909090904
  0
LINE
  8
0
  6
CONTINUOUS
 62
     7
 10
-42.45454545454552
 20
26.41818181818179
 11
-40.27272727272729
 21
26.41818181818179
  0
LINE
  8
0
  6
CONTINUOUS
 62
     7
 10
14.90023703241028
 20
0.0
 11
7.898826791467195
 21
0.0
  0
LINE
  8
0
  6
CONTINUOUS
 62
     7
 10
-59.08366275585469
 20
24.12880266918676
 11
-59.18641218536791
 21
24.23390060275682
  0
LINE
  8
0
  6
CONTINUOUS
 62
     7
 10
-62.74410277306322
 20
22.82013375973768
 11
-62.78517454331192
 21
22.66704647498269
  0
LINE
  8
0
  6
CONTINUOUS
 62
     7
 10
-40.38221560496336
 20
15.79556322632813
 11
-40.43334525990383
 21
15.6837059193955
  0
LINE
  8
0
  6
CONTINUOUS
 62
     7
 10
-62.85589874151141
 20
22.34571399090274
 11
-62.8855511694621
 21
22.17746879157767
  0
LINE
  8
0
  6
CONTINUOUS
 62
     7
 10
-32.3181818181818
 20
15.18181818181819
 11
-34.49999999999997
 21
15.18181818181819
  0
LINE
  8
0
  6
CONTINUOUS
 62
     7
 10
-40.26859713118274
 20
16.00294028723948
 11
-40.32729956205633
 21
15.90197468227622
  0
LINE
  8
0
  6
CONTINUOUS
 62
     7
 10
-59.76419647796421
 20
24.62430158583811
 11
-59.8925607654896
 21
24.67536404550058
  0
LINE
  8
0
  6
CONTINUOUS
 62
     7
 10
-61.6624433502603
 20
24.49855791394195
 11
-61.77550698857431
 21
24.41710266945268
  0
LINE
  8
0
  6
CONTINUOUS
 62
     7
 10
-62.5417512177413
 20
23.38195651685759
 11
-62.59804877772079
 21
23.24907978486262
  0
LINE
  8
0
  6
CONTINUOUS
 62
     7
 10
-40.60000000000002
 20
15.18181818181819
 11
-42.45454545454541
 21
15.18181818181819
  0
LINE
  8
0
  6
CONTINUOUS
 62
     7
 10
-62.93343668306542
 20
21.82582047835757
 11
-62.95166976871802
 21
21.64241736446254
  0
LINE
  8
0
  6
CONTINUOUS
 62
     7
 10
-62.41773675548434
 20
23.6325520662774
 11
-62.48164721032911
 21
23.5097806106625
  0
LINE
  8
0
  6
CONTINUOUS
 62
     7
 10
-60.16209676954631
 20
24.75047122787199
 11
-60.30326848607783
 21
24.77451595058089
  0
LINE
  8
0
  6
CONTINUOUS
 62
     7
 10
-62.96609640693801
 20
21.45396161237739
 11
-62.97823963235921
 21
21.23095601124369
  0
LINE
  8
0
  6
CONTINUOUS
 62
     7
 10
-59.40471847340032
 20
24.41707873294297
 11
-59.52027533191961
 21
24.49515892955917
  0
LINE
  8
0
  6
CONTINUOUS
 62
     7
 10
-62.98517068308443
 20
21.01179324730062
 11
-62.98688955911383
 21
20.79647332054824
  0
LINE
  8
0
  6
CONTINUOUS
 62
     7
 10
-62.9833962604472
 20
20.5849962309862
 11
-62.97469078708481
 21
20.37736197861512
  0
LINE
  8
0
  6
CONTINUOUS
 62
     7
 10
-62.88774714667603
 20
19.585253341036
 11
-62.8529807998341
 21
19.39683327461778
  0
LINE
  8
0
  6
CONTINUOUS
 62
     7
 10
-25.50000000000002
 20
26.41818181818179
 11
-25.50000000000002
 21
15.18181818181807
  0
LINE
  8
0
  6
CONTINUOUS
 62
     7
 10
-62.1862090907318
 20
23.9933554354495
 11
-62.27849650349651
 21
23.86293706293707
  0
LINE
  8
0
  6
CONTINUOUS
 62
     7
 10
-62.82243986612801
 20
22.50890655203769
 11
-62.85589874151141
 21
22.34571399090274
  0
LINE
  8
0
  6
CONTINUOUS
 62
     7
 10
-59.8925607654896
 20
24.67536404550058
 11
-60.02519419601704
 21
24.71742059284532
  0
LINE
  8
0
  6
CONTINUOUS
 62
     7
 10
-62.08976643285721
 20
24.11398118235719
 11
-62.1862090907318
 21
23.9933554354495
  0
LINE
  8
0
  6
CONTINUOUS
 62
     7
 10
-40.27272727272729
 20
18.45454545454539
 11
-37.54545454545449
 21
18.45454545454539
  0
LINE
  8
0
  6
CONTINUOUS
 62
     7
 10
-7.898826791467252
 20
0.0
 11
-7.80464254266755
 21
0.0
  0
LINE
  8
0
  6
CONTINUOUS
 62
     7
 10
-60.8968013730691
 20
24.78164424318069
 11
-61.03479648204232
 21
24.75894475231916
  0
LINE
  8
0
  6
CONTINUOUS
 62
     7
 10
-62.3500198532067
 20
23.75027088370219
 11
-62.41773675548434
 21
23.6325520662774
  0
LINE
  8
0
  6
CONTINUOUS
 62
     7
 10
-58.55681818181821
 20
23.30909090909094
 11
-58.63395275331923
 21
23.4682243165682
  0
LINE
  8
0
  6
CONTINUOUS
 62
     7
 10
-62.69922455538171
 20
22.96816840630272
 11
-62.74410277306322
 21
22.82013375973768
  0
LINE
  8
0
  6
CONTINUOUS
 62
     7
 10
-60.02519419601704
 20
24.71742059284532
 11
-60.16209676954631
 21
24.75047122787199
  0
LINE
  8
0
  6
CONTINUOUS
 62
     7
 10
-58.8010293253273
 20
23.75947339456941
 11
-58.89097132583443
 21
23.89158906509314
  0
LINE
  8
0
  6
CONTINUOUS
 62
     7
 10
-40.48068852687769
 20
15.56640276147814
 11
-40.52424540588506
 21
15.44365375257622
  0
LINE
  8
0
  6
CONTINUOUS
 62
     7
 10
-37.71955566965313
 20
17.0764674154168
 11
-37.8873135877032
 21
17.06041511621237
  0
LINE
  8
0
  6
CONTINUOUS
 62
     7
 10
-61.42385033830272
 20
24.63209052610677
 11
-61.54522446683641
 21
24.5702205328267
  0
LINE
  8
0
  6
CONTINUOUS
 62
     7
 10
-62.27849650349651
 20
23.86293706293707
 11
-62.3500198532067
 21
23.75027088370219
  0
LINE
  8
0
  6
CONTINUOUS
 62
     7
 10
-62.97823963235921
 20
21.23095601124369
 11
-62.98517068308443
 21
21.01179324730062
  0
LINE
  8
0
  6
CONTINUOUS
 62
     7
 10
12.50000000000001
 20
13.87079745587355
 11
12.50000000000001
 21
30.00000000000002
  0
LINE
  8
0
  6
CONTINUOUS
 62
     7
 10
-62.91730131882211
 20
19.77751624464491
 11
-62.88774714667603
 21
19.585253341036
  0
LINE
  8
0
  6
CONTINUOUS
 62
     7
 10
-59.64010133344091
 20
24.56423321385759
 11
-59.76419647796421
 21
24.62430158583811
  0
LINE
  8
0
  6
CONTINUOUS
 62
     7
 10
-61.29832096465912
 20
24.68416789378225
 11
-61.42385033830272
 21
24.63209052610677
  0
LINE
  8
0
  6
CONTINUOUS
 62
     7
 10
-61.77550698857431
 20
24.41710266945268
 11
-61.88441538177852
 21
24.32585479935889
  0
LINE
  8
0
  6
CONTINUOUS
 62
     7
 10
-62.95166976871802
 20
21.64241736446254
 11
-62.96609640693801
 21
21.45396161237739
  0
LINE
  8
0
  6
CONTINUOUS
 62
     7
 10
-61.1686363459056
 20
24.72645263585299
 11
-61.29832096465912
 21
24.68416789378225
  0
LINE
  8
0
  6
CONTINUOUS
 62
     7
 10
-61.54522446683641
 20
24.5702205328267
 11
-61.6624433502603
 21
24.49855791394195
  0
LINE
  8
0
  6
CONTINUOUS
 62
     7
 10
-62.94164331627219
 20
19.97362198544434
 11
-62.91730131882211
 21
19.77751624464491
  0
LINE
  8
0
  6
CONTINUOUS
 62
     7
 10
-61.03479648204232
 20
24.75894475231916
 11
-61.1686363459056
 21
24.72645263585299
  0
LINE
  8
0
  6
CONTINUOUS
 62
     7
 10
-62.9607731390264
 20
20.17357056343439
 11
-62.94164331627219
 21
19.97362198544434
  0
LINE
  8
0
  6
CONTINUOUS
 62
     7
 10
-62.8529807998341
 20
19.39683327461778
 11
-62.81300227829621
 21
19.21225604539017
  0
LINE
  8
0
  6
CONTINUOUS
 62
     7
 10
-42.45454545454552
 20
15.18181818181819
 11
-42.45454545454552
 21
26.41818181818179
  0
LINE
  8
0
  6
CONTINUOUS
 62
     7
 10
-58.71535646782219
 20
23.61835181172767
 11
-58.8010293253273
 21
23.75947339456941
  0
LINE
  8
0
  6
CONTINUOUS
 62
     7
 10
-39.21601643004341
 20
16.81130782001367
 11
-39.3139990804614
 21
16.77753865997816
  0
LINE
  8
0
  6
CONTINUOUS
 62
     7
 10
-62.48164721032911
 20
23.5097806106625
 11
-62.5417512177413
 21
23.38195651685759
  0
LINE
  8
0
  6
CONTINUOUS
 62
     7
 10
11.8286865554138
 20
-109.4720161434297
 11
10.633122991211
 21
-109.6441805209507
  0
ARC
  8
0
  6
CONTINUOUS
 62
     7
 10
-14.8461484516364
 20
-100.8595847192612
 40
9.125735659724132
 50
289.3084813966353
 51
5.432220857025527
  0
LINE
  8
0
  6
CONTINUOUS
 62
     7
 10
-46.71008522727271
 20
-107.4956680912762
 11
-53.09190340909092
 21
-107.4956680912762
  0
LINE
  8
0
  6
CONTINUOUS
 62
     7
 10
75.00000000000001
 20
-109.9956680912762
 11
75.00000000000001
 21
-116.671161634962
  0
LINE
  8
0
  6
CONTINUOUS
 62
     7
 10
-64.89372630567833
 20
22.8356615530288
 11
-64.81317263657581
 21
23.11570170704513
  0
LINE
  8
0
  6
CONTINUOUS
 62
     7
 10
-46.71008522727271
 20
-107.4956680912762
 11
-46.71008522727271
 21
-107.9956680912762
  0
LINE
  8
0
  6
CONTINUOUS
 62
     7
 10
76.50000000000001
 20
-123.3040980544662
 11
76.79263548302417
 21
-123.281202370329
  0
ARC
  8
0
  6
CONTINUOUS
 62
     7
 10
14.84614845163651
 20
-100.8595847192612
 40
9.125735659724187
 50
174.5677791429745
 51
250.6915186033636
  0
LINE
  8
0
  6
CONTINUOUS
 62
     7
 10
-10.63312299121094
 20
-109.6441805209507
 11
-10.35535976702073
 21
-109.6872641840905
  0
LINE
  8
0
  6
CONTINUOUS
 62
     7
 10
-37.54545454545449
 20
-107.4956680912762
 11
-37.54545454545449
 21
-107.9956680912762
  0
LINE
  8
0
  6
CONTINUOUS
 62
     7
 10
-25.50000000000002
 20
-107.4956680912762
 11
-25.50000000000002
 21
-107.9956680912762
  0
LINE
  8
0
  6
CONTINUOUS
 62
     7
 10
-75.52365194784649
 20
-109.4720161434297
 11
-75.00000000000001
 21
-109.9956680912762
  0
LINE
  8
0
  6
CONTINUOUS
 62
     7
 10
-75.00000000000001
 20
-116.6711616349621
 11
-75.00000000000001
 21
-109.9956680912762
  0
LINE
  8
0
  6
CONTINUOUS
 62
     7
 10
-64.81317263657581
 20
23.11570170704513
 11
-64.72098825543502
 21
23.38776537550258
  0
LINE
  8
0
  6
CONTINUOUS
 62
     7
 10
-75.00000000000001
 20
-109.9956680912762
 11
-12.50000000000001
 21
-109.9956680912762
  0
LINE
  8
0
  6
CONTINUOUS
 62
     7
 10
-64.04658278281022
 20
16.85044916619133
 11
-64.17971958808822
 21
17.04830368031363
  0
LINE
  8
0
  6
CONTINUOUS
 62
     7
 10
75.52365194784649
 20
-109.4720161434297
 11
75.52365194784649
 21
-120.5193200391228
  0
LINE
  8
0
  6
CONTINUOUS
 62
     7
 10
-78.00000000000001
 20
-121.4956680912762
 11
-78.00000000000001
 21
-109.4956680912762
  0
LINE
  8
0
  6
CONTINUOUS
 62
     7
 10
-64.96264926274223
 20
22.54764491345379
 11
-64.89372630567833
 21
22.8356615530288
  0
LINE
  8
0
  6
CONTINUOUS
 62
     7
 10
-40.60000000000002
 20
-107.4956680912762
 11
-42.45454545454552
 21
-107.4956680912762
  0
LINE
  8
0
  6
CONTINUOUS
 62
     7
 10
-45.29190340909089
 20
-107.4956680912762
 11
-45.29190340909089
 21
-107.9956680912762
  0
LINE
  8
0
  6
CONTINUOUS
 62
     7
 10
-45.29190340909089
 20
-107.4956680912763
 11
-45.67824704545459
 21
-107.4956680912763
  0
ARC
  8
0
  6
CONTINUOUS
 62
     7
 10
76.50000000000001
 20
-121.4956680912762
 40
1.500000000000001
 50
270.0
 51
0.0
  0
LINE
  8
0
  6
CONTINUOUS
 62
     7
 10
-64.30416355785422
 20
17.25371615572041
 11
-64.4199146921083
 21
17.46668659241146
  0
LINE
  8
0
  6
CONTINUOUS
 62
     7
 10
-11.82868655541369
 20
-109.4720161434297
 11
-10.63312299121094
 21
-109.6441805209507
  0
LINE
  8
0
  6
CONTINUOUS
 62
     7
 10
-75.52365194784649
 20
-120.5193200391228
 11
-75.52365194784649
 21
-109.4720161434297
  0
LINE
  8
0
  6
CONTINUOUS
 62
     7
 10
-25.50000000000002
 20
-107.4956680912762
 11
-27.68181818181819
 21
-107.4956680912762
  0
LINE
  8
0
  6
CONTINUOUS
 62
     7
 10
-55.88323856465344
 20
-107.4956680912762
 11
-65.1338583407755
 21
-107.4956680912762
  0
LINE
  8
0
  6
CONTINUOUS
 62
     7
 10
14.90023703241028
 20
-107.9956680912762
 11
76.50000000000001
 21
-107.9956680912762
  0
LINE
  8
0
  6
CONTINUOUS
 62
     7
 10
78.00000000000001
 20
-109.4956680912762
 11
78.00000000000001
 21
-121.4956680912762
  0
ARC
  8
0
  6
CONTINUOUS
 62
     7
 10
6.294376482127828
 20
-101.5093753217023
 40
1.513741608096475
 50
3.883349723483948
 51
90.38614534075722
  0
LINE
  8
0
  6
CONTINUOUS
 62
     7
 10
-65.01994150776771
 20
22.25165178832
 11
-64.96264926274223
 21
22.54764491345379
  0
LINE
  8
0
  6
CONTINUOUS
 62
     7
 10
75.52365194784649
 20
-109.4720161434297
 11
75.00000000000001
 21
-109.9956680912762
  0
LINE
  8
0
  6
CONTINUOUS
 62
     7
 10
12.50000000000001
 20
-109.9956680912762
 11
75.00000000000001
 21
-109.9956680912762
  0
LINE
  8
0
  6
CONTINUOUS
 62
     7
 10
-27.68181818181819
 20
-107.4956680912762
 11
-27.68181818181819
 21
-107.9956680912762
  0
LINE
  8
0
  6
CONTINUOUS
 62
     7
 10
-53.09190340909092
 20
-107.4956680912762
 11
-53.09190340909092
 21
-107.9956680912762
  0
LINE
  8
0
  6
CONTINUOUS
 62
     7
 10
-53.11414394544992
 20
-107.4956680912762
 11
-53.70948891664043
 21
-107.4956680912762
  0
LINE
  8
0
  6
CONTINUOUS
 62
     7
 10
-75.52365194784649
 20
-120.5193200391228
 11
-75.05754312610551
 21
-120.0532112173817
  0
LINE
  8
0
  6
CONTINUOUS
 62
     7
 10
-34.49999999999997
 20
-107.4956680912762
 11
-34.49999999999997
 21
-107.9956680912762
  0
LINE
  8
0
  6
CONTINUOUS
 62
     7
 10
-63.43864393298604
 20
16.14819056498579
 11
-63.59935933865513
 21
16.30731523577922
  0
LINE
  8
0
  6
CONTINUOUS
 62
     7
 10
-65.06560304075474
 20
21.94768217762749
 11
-65.01994150776771
 21
22.25165178832
  0
ARC
  8
0
  6
CONTINUOUS
 62
     7
 10
-12.53805296561261
 20
-100.9114204222249
 40
9.08432736865289
 50
270.2400046382273
 51
5.785570370139567
  0
LINE
  8
0
  6
CONTINUOUS
 62
     7
 10
10.633122991211
 20
-109.6441805209507
 11
10.35535976702068
 21
-109.6872641840905
  0
LINE
  8
0
  6
CONTINUOUS
 62
     7
 10
-64.17971958808822
 20
17.04830368031363
 11
-64.30416355785422
 21
17.25371615572041
  0
LINE
  8
0
  6
CONTINUOUS
 62
     7
 10
76.50000000000001
 20
-122.9956680912762
 11
-76.50000000000001
 21
-122.9956680912762
  0
LINE
  8
0
  6
CONTINUOUS
 62
     7
 10
11.82868655539387
 20
-109.4720161434297
 11
75.52365194784649
 21
-109.4720161434297
  0
LINE
  8
0
  6
CONTINUOUS
 62
     7
 10
-32.3181818181818
 20
-107.4956680912762
 11
-32.3181818181818
 21
-107.9956680912762
  0
LINE
  8
0
  6
CONTINUOUS
 62
     7
 10
75.00000000000001
 20
-116.6711616349621
 11
74.97948465822485
 21
-120.0532112173817
  0
LINE
  8
0
  6
CONTINUOUS
 62
     7
 10
-76.50000000000001
 20
-107.9956680912762
 11
-14.90023703241028
 21
-107.9956680912762
  0
LINE
  8
0
  6
CONTINUOUS
 62
     7
 10
-5.761397525438472
 20
-99.9956680912762
 11
-6.284174686304711
 21
-99.9956680912762
  0
LINE
  8
0
  6
CONTINUOUS
 62
     7
 10
-64.86827783069913
 20
18.64490819513298
 11
-64.93187195188129
 21
18.90322639953046
  0
LINE
  8
0
  6
CONTINUOUS
 62
     7
 10
75.52365194784649
 20
-120.5193200391228
 11
75.05754312610557
 21
-120.0532112173817
  0
LINE
  8
0
  6
CONTINUOUS
 62
     7
 10
-75.52365194784649
 20
-109.4720161434297
 11
-11.82868655539404
 21
-109.4720161434297
  0
LINE
  8
0
  6
CONTINUOUS
 62
     7
 10
76.50000000000001
 20
-122.9956680912762
 11
76.50000000000001
 21
-123.3040980544662
  0
LINE
  8
0
  6
CONTINUOUS
 62
     7
 10
76.50000000000001
 20
-123.3040980544662
 11
-76.50000000000001
 21
-123.3040980544663
  0
LINE
  8
0
  6
CONTINUOUS
 62
     7
 10
-27.68181818181819
 20
-107.4956680912762
 11
-32.3181818181818
 21
-107.4956680912762
  0
ARC
  8
0
  6
CONTINUOUS
 62
     7
 10
-12.50219894079691
 20
-100.9961377487282
 40
8.99953061119202
 50
270.0139996221756
 51
281.5642964853851
  0
LINE
  8
0
  6
CONTINUOUS
 62
     7
 10
-63.75423066571834
 20
16.4774140217997
 11
-63.90475314202032
 21
16.66015261335335
  0
LINE
  8
0
  6
CONTINUOUS
 62
     7
 10
-64.72098825543502
 20
23.38776537550258
 11
-64.61717316225563
 21
23.6518525584013
  0
LINE
  8
0
  6
CONTINUOUS
 62
     7
 10
-37.54545454545449
 20
-107.4956680912762
 11
-40.60000000000002
 21
-107.4956680912762
  0
ARC
  8
0
  6
CONTINUOUS
 62
     7
 10
-6.294839064009794
 20
-101.5088769185023
 40
1.51324640549616
 50
89.5962132212596
 51
176.1342917145267
  0
LINE
  8
0
  6
CONTINUOUS
 62
     7
 10
-76.50000000000001
 20
-122.9956680912762
 11
-76.50000000000001
 21
-123.3040980544662
  0
LINE
  8
0
  6
CONTINUOUS
 62
     7
 10
-45.72826704545452
 20
-107.4956680912762
 11
-45.72826704545452
 21
-107.9956680912762
  0
LINE
  8
0
  6
CONTINUOUS
 62
     7
 10
-5.761397525438472
 20
-99.9956680912762
 11
-3.500000000000003
 21
-99.9956680912762
  0
LINE
  8
0
  6
CONTINUOUS
 62
     7
 10
-76.50000000000001
 20
-124.4350079194964
 11
76.50000000000001
 21
-124.4350079194964
  0
LINE
  8
0
  6
CONTINUOUS
 62
     7
 10
-62.15000189233741
 20
15.34159309579181
 11
-62.3516258482478
 21
15.4238989599953
  0
LINE
  8
0
  6
CONTINUOUS
 62
     7
 10
-57.37489789356154
 20
16.56581440807953
 11
-57.55190095293691
 21
16.37337206618972
  0
LINE
  8
0
  6
CONTINUOUS
 62
     7
 10
-45.72826704545452
 20
-107.4956680912762
 11
-46.71008522727271
 21
-107.4956680912762
  0
LINE
  8
0
  6
CONTINUOUS
 62
     7
 10
-60.81753250615163
 20
15.07821433034084
 11
-61.0542209336973
 21
15.09467550318144
  0
LINE
  8
0
  6
CONTINUOUS
 62
     7
 10
-57.0306110556967
 20
16.99940683833412
 11
-57.20308584576539
 21
16.77152863561704
  0
LINE
  8
0
  6
CONTINUOUS
 62
     7
 10
-58.31182330622944
 20
15.73632155510596
 11
-58.51478142350033
 21
15.610238641454
  0
LINE
  8
0
  6
CONTINUOUS
 62
     7
 10
77.56066017177976
 20
-122.9550952709433
 11
77.74720441845379
 21
-122.7745288606659
  0
LINE
  8
0
  6
CONTINUOUS
 62
     7
 10
-10.35535976702073
 20
-109.6872641840905
 11
-10.69808584560977
 21
-109.8129811272599
  0
LINE
  8
0
  6
CONTINUOUS
 62
     7
 10
-78.00000000000001
 20
-122.9350079194964
 11
-78.00000000000001
 21
-122.1125280176563
  0
LINE
  8
0
  6
CONTINUOUS
 62
     7
 10
-57.73409502389132
 20
16.19420160994745
 11
-57.92148010642492
 21
16.02830303935282
  0
LINE
  8
0
  6
CONTINUOUS
 62
     7
 10
3.500000000000003
 20
-99.9956680912762
 11
3.500000000000003
 21
-100.9283988144525
  0
LINE
  8
0
  6
CONTINUOUS
 62
     7
 10
0.0
 20
46.93933982822018
 11
0.0
 21
51.93933982822018
  0
LINE
  8
0
  6
CONTINUOUS
 62
     7
 10
-3.500000000000003
 20
-99.9956680912762
 11
3.500000000000002
 21
-99.9956680912762
  0
LINE
  8
0
  6
CONTINUOUS
 62
     7
 10
10.00000000000001
 20
-15.00000000000001
 11
0.0
 21
-15.00000000000001
  0
LINE
  8
0
  6
CONTINUOUS
 62
     7
 10
-77.33335534952943
 20
-123.103282294194
 11
-77.0740251485476
 21
-123.2133951862187
  0
LINE
  8
0
  6
CONTINUOUS
 62
     7
 10
-56.16130020172552
 20
18.81097951338029
 11
-56.2492718226667
 21
18.52899499665661
  0
LINE
  8
0
  6
CONTINUOUS
 62
     7
 10
76.79263548302417
 20
-123.281202370329
 11
77.07402514854766
 21
-123.2133951862187
  0
LINE
  8
0
  6
CONTINUOUS
 62
     7
 10
-32.3181818181818
 20
-107.4956680912762
 11
-34.49999999999997
 21
-107.4956680912762
  0
LINE
  8
0
  6
CONTINUOUS
 62
     7
 10
-76.50000000000001
 20
-123.3040980544662
 11
-76.50000000000001
 21
-124.4350079194964
  0
LINE
  8
0
  6
CONTINUOUS
 62
     7
 10
-77.88581929876689
 20
-122.5685221292461
 11
-77.7472044184538
 21
-122.774528860666
  0
LINE
  8
0
  6
CONTINUOUS
 62
     7
 10
-58.93627069277971
 20
15.39788847109286
 11
-59.15480184478803
 21
15.31162121438351
  0
LINE
  8
0
  6
CONTINUOUS
 62
     7
 10
-61.51006555297101
 20
15.16052019454417
 11
-61.72922174469911
 21
15.20990371306641
  0
LINE
  8
0
  6
CONTINUOUS
 62
     7
 10
-77.56066017177982
 20
-122.9550952709433
 11
-77.33335534952943
 21
-123.103282294194
  0
LINE
  8
0
  6
CONTINUOUS
 62
     7
 10
6.284174686304211
 20
-99.9956680912762
 11
5.761397525438583
 21
-99.9956680912762
  0
LINE
  8
0
  6
CONTINUOUS
 62
     7
 10
-57.55190095293691
 20
16.37337206618972
 11
-57.73409502389132
 21
16.19420160994745
  0
LINE
  8
0
  6
CONTINUOUS
 62
     7
 10
-42.45454545454552
 20
-107.4956680912762
 11
-42.45454545454552
 21
-107.9956680912762
  0
ARC
  8
0
  6
CONTINUOUS
 62
     7
 10
76.50000000000001
 20
-109.4956680912762
 40
1.500000000000001
 50
0.0
 51
90.0
  0
LINE
  8
0
  6
CONTINUOUS
 62
     7
 10
-40.60000000000002
 20
-107.4956680912762
 11
-40.60000000000002
 21
-107.9956680912762
  0
ARC
  8
0
  6
CONTINUOUS
 62
     7
 10
76.50000000000001
 20
-122.9350079194964
 40
1.500000000000001
 50
270.0
 51
359.9999999999998
  0
LINE
  8
0
  6
CONTINUOUS
 62
     7
 10
-56.46143070846102
 20
17.98821438349779
 11
-56.5856179733141
 21
17.72941828706259
  0
ARC
  8
0
  6
CONTINUOUS
 62
     7
 10
-76.50000000000001
 20
-109.4956680912762
 40
1.500000000000001
 50
90.0
 51
180.0
  0
ARC
  8
0
  6
CONTINUOUS
 62
     7
 10
-76.50000000000001
 20
-121.4956680912762
 40
1.500000000000001
 50
180.0
 51
270.0
  0
LINE
  8
0
  6
CONTINUOUS
 62
     7
 10
75.52365194784649
 20
-120.5193200391228
 11
-75.52365194784649
 21
-120.5193200391228
  0
LINE
  8
0
  6
CONTINUOUS
 62
     7
 10
-78.00000000000001
 20
-122.1125280176563
 11
-77.97117792060482
 21
-122.3449917998423
  0
LINE
  8
0
  6
CONTINUOUS
 62
     7
 10
10.35535976702068
 20
-109.6872641840905
 11
10.45924431805079
 21
-109.7608062615358
  0
LINE
  8
0
  6
CONTINUOUS
 62
     7
 10
-74.97948465822482
 20
-120.0532112173817
 11
-75.00000000000001
 21
-116.671161634962
  0
LINE
  8
0
  6
CONTINUOUS
 62
     7
 10
77.07402514854766
 20
-123.2133951862187
 11
77.3333553495294
 21
-123.103282294194
  0
LINE
  8
0
  6
CONTINUOUS
 62
     7
 10
-65.13385844135699
 20
-107.4956680912762
 11
-65.13385844135699
 21
-107.9956680912762
  0
LINE
  8
0
  6
CONTINUOUS
 62
     7
 10
0.0
 20
-12.50000000000001
 11
0.0
 21
-17.50000000000001
  0
LINE
  8
0
  6
CONTINUOUS
 62
     7
 10
75.00000000000001
 20
-116.671161634962
 11
-75.00000000000001
 21
-116.6711616349621
  0
LINE
  8
0
  6
CONTINUOUS
 62
     7
 10
77.74720441845379
 20
-122.7745288606659
 11
77.88581929876686
 21
-122.5685221292461
  0
LINE
  8
0
  6
CONTINUOUS
 62
     7
 10
77.97117792060487
 20
-122.3449917998423
 11
78.00000000000001
 21
-122.1125280176563
  0
LINE
  8
0
  6
CONTINUOUS
 62
     7
 10
-55.88323850051041
 20
-107.9956680912762
 11
-55.88323850051041
 21
-107.4956680912762
  0
LINE
  8
0
  6
CONTINUOUS
 62
     7
 10
76.50000000000001
 20
-124.4350079194964
 11
76.50000000000001
 21
-123.3040980544662
  0
LINE
  8
0
  6
CONTINUOUS
 62
     7
 10
-77.7472044184538
 20
-122.774528860666
 11
-77.56066017177982
 21
-122.9550952709433
  0
LINE
  8
0
  6
CONTINUOUS
 62
     7
 10
-60.57500000000002
 20
15.07272727272724
 11
-60.81753250615163
 21
15.07821433034084
  0
LINE
  8
0
  6
CONTINUOUS
 62
     7
 10
-77.0740251485476
 20
-123.2133951862187
 11
-76.7926354830242
 21
-123.2812023703291
  0
ARC
  8
0
  6
CONTINUOUS
 62
     7
 10
-76.50000000000001
 20
-122.9350079194964
 40
1.500000000000001
 50
180.0
 51
270.0
  0
LINE
  8
0
  6
CENTER
 62
     1
 10
0.0
 20
-12.50000000000001
 11
0.0
 21
46.93933982822018
  0
LINE
  8
0
  6
CONTINUOUS
 62
     7
 10
10.00000000000001
 20
49.43933982822018
 11
0.0
 21
49.43933982822018
  0
LINE
  8
0
  6
CONTINUOUS
 62
     7
 10
-59.84154137028793
 20
15.13245075814135
 11
-60.08083656861282
 21
15.09927104402237
  0
LINE
  8
0
  6
CONTINUOUS
 62
     7
 10
77.88581929876686
 20
-122.5685221292461
 11
77.97117792060487
 21
-122.3449917998423
  0
LINE
  8
0
  6
CONTINUOUS
 62
     7
 10
-76.7926354830242
 20
-123.2812023703291
 11
-76.50000000000001
 21
-123.3040980544663
  0
LINE
  8
0
  6
CONTINUOUS
 62
     7
 10
-58.1140562005375
 20
15.87567635440545
 11
-58.31182330622944
 21
15.73632155510596
  0
LINE
  8
0
  6
CONTINUOUS
 62
     7
 10
77.3333553495294
 20
-123.103282294194
 11
77.56066017177976
 21
-122.9550952709433
  0
LINE
  8
0
  6
CONTINUOUS
 62
     7
 10
-58.72293055235042
 20
15.49742761344969
 11
-58.93627069277971
 21
15.39788847109286
  0
LINE
  8
0
  6
CONTINUOUS
 62
     7
 10
-56.2492718226667
 20
18.52899499665661
 11
-56.34931532491191
 21
18.25473995336252
  0
LINE
  8
0
  6
CONTINUOUS
 62
     7
 10
-59.37852400837551
 20
15.23862584332186
 11
-59.60743718354211
 21
15.17890235790781
  0
ARC
  8
0
  6
CONTINUOUS
 62
     7
 10
12.50083717230821
 20
-100.9943164954206
 40
9.001078543322993
 50
179.580401542295
 51
256.9374313674134
  0
LINE
  8
0
  6
CONTINUOUS
 62
     7
 10
78.00000000000001
 20
-122.1125280176563
 11
78.00000000000001
 21
-122.9350079194964
  0
LINE
  8
0
  6
CONTINUOUS
 62
     7
 10
-53.70948891993371
 20
-107.4956680912762
 11
-53.70948891993371
 21
-107.9956680912762
  0
LINE
  8
0
  6
CONTINUOUS
 62
     7
 10
-77.97117792060482
 20
-122.3449917998423
 11
-77.88581929876689
 21
-122.5685221292461
  0
LINE
  8
0
  6
CONTINUOUS
 62
     7
 10
-75.05754312610551
 20
-120.0532112173817
 11
75.05754312610557
 21
-120.0532112173817
  0
LINE
  8
0
  6
CONTINUOUS
 62
     7
 10
-57.92148010642492
 20
16.02830303935282
 11
-58.1140562005375
 21
15.87567635440545
  0
LINE
  8
0
  6
CONTINUOUS
 62
     7
 10
3.500000000000003
 20
31.50000000000003
 11
3.500000000000003
 21
30.00000000000002
  0
LINE
  8
0
  6
CONTINUOUS
 62
     7
 10
53.19835556471008
 20
26.49413014540186
 11
58.44869612145892
 21
13.49864485459806
  0
LINE
  8
0
  6
CONTINUOUS
 62
     7
 10
-61.0542209336973
 20
15.09467550318144
 11
-61.28506528263711
 21
15.12211079124925
  0
LINE
  8
0
  6
CONTINUOUS
 62
     7
 10
-60.32532277851682
 20
15.07936321555098
 11
-60.57500000000002
 21
15.07272727272724
  0
LINE
  8
0
  6
CONTINUOUS
 62
     7
 10
39.87510939855232
 20
22.5747223886335
 11
36.20770513428878
 21
13.49864485459806
  0
LINE
  8
0
  6
CONTINUOUS
 62
     7
 10
63.41196635471935
 20
26.49413014540186
 11
59.47577428813655
 21
16.7504583169884
  0
LINE
  8
0
  6
CONTINUOUS
 62
     7
 10
192.6920233459521
 20
32.99999999999991
 11
179.5046311248858
 21
33.00000000000003
  0
LINE
  8
0
  6
CONTINUOUS
 62
     7
 10
-62.5474057255522
 20
15.51717893942589
 11
-62.73734152425081
 21
15.6214330340837
  0
LINE
  8
0
  6
CONTINUOUS
 62
     7
 10
0.0
 20
-15.00000000000001
 11
4.000000000000004
 21
-16.24999999999999
  0
ARC
  8
0
  6
CONTINUOUS
 62
     7
 10
196.943970953106
 20
28.93933982822011
 40
5.500000000000004
 50
322.5967365664445
 51
127.4032634335552
  0
LINE
  8
0
  6
CONTINUOUS
 62
     7
 10
26.78782066415808
 20
13.49864485459806
 11
26.78782066415808
 21
22.15913014540188
  0
LINE
  8
0
  6
CONTINUOUS
 62
     7
 10
49.84047308104761
 20
26.49413014540186
 11
53.19835556471008
 21
26.49413014540186
  0
LINE
  8
0
  6
CONTINUOUS
 62
     7
 10
3.514005208504756
 20
33.00000000000003
 11
4.014835001118988
 21
33.00000000000003
  0
LINE
  8
0
  6
CONTINUOUS
 62
     7
 10
187.4809791770323
 20
0.0
 11
178.0046311248857
 21
0.0
  0
LINE
  8
0
  6
CONTINUOUS
 62
     7
 10
58.84127092281049
 20
23.49266997170535
 11
60.05482212013019
 21
26.49413014540186
  0
ARC
  8
0
  6
CONTINUOUS
 62
     7
 10
196.943970953106
 20
28.93933982822011
 40
2.500000000000002
 50
296.5693895436378
 51
154.8959097497789
  0
LINE
  8
0
  6
CONTINUOUS
 62
     7
 10
4.014835001118988
 20
31.50000000000003
 11
4.014835001118988
 21
33.00000000000003
  0
ARC
  8
0
  6
CONTINUOUS
 62
     7
 10
-15.98017999366203
 20
13.92747483676893
 40
12.48260900799447
 50
351.3467144419903
 51
1.13033461638588
  0
LINE
  8
0
  6
CONTINUOUS
 62
     7
 10
30.18407038559956
 20
13.49864485459806
 11
26.78782066415808
 21
13.49864485459806
  0
LINE
  8
0
  6
CONTINUOUS
 62
     7
 10
-3.500000000000003
 20
30.00000000000002
 11
3.500000000000002
 21
30.00000000000002
  0
LINE
  8
0
  6
CONTINUOUS
 62
     7
 10
38.09979408283831
 20
26.49413014540186
 11
41.64968646519285
 21
26.49413014540186
  0
LINE
  8
0
  6
CONTINUOUS
 62
     7
 10
201.0046311248857
 20
0.0
 11
198.5282830727323
 21
0.0
  0
LINE
  8
0
  6
CONTINUOUS
 62
     7
 10
-56.5856179733141
 20
17.72941828706259
 11
-56.72187711947099
 21
17.47835166405703
  0
LINE
  8
0
  6
CONTINUOUS
 62
     7
 10
-61.94253385782111
 20
15.27026134681558
 11
-62.15000189233741
 21
15.34159309579181
  0
LINE
  8
0
  6
CONTINUOUS
 62
     7
 10
-61.72922174469911
 20
15.20990371306641
 11
-61.94253385782111
 21
15.27026134681558
  0
LINE
  8
0
  6
CONTINUOUS
 62
     7
 10
-60.08083656861282
 20
15.09927104402237
 11
-60.32532277851682
 21
15.07936321555098
  0
ARC
  8
0
  6
CONTINUOUS
 62
     7
 10
33.07407038559962
 20
21.71434120052357
 40
2.890000000000004
 50
90.0
 51
180.000000000001
  0
LINE
  8
0
  6
CONTINUOUS
 62
     7
 10
187.4809791770392
 20
0.0
 11
188.0046311248857
 21
30.00000000000002
  0
ARC
  8
0
  6
CONTINUOUS
 62
     7
 10
202.5046311248857
 20
24.68739222106619
 40
1.500000000000001
 50
142.5967365664443
 51
179.9999999999993
  0
LINE
  8
0
  6
CONTINUOUS
 62
     7
 10
-58.51478142350033
 20
15.610238641454
 11
-58.72293055235042
 21
15.49742761344969
  0
LINE
  8
0
  6
CONTINUOUS
 62
     7
 10
-59.15480184478803
 20
15.31162121438351
 11
-59.37852400837551
 21
15.23862584332186
  0
LINE
  8
0
  6
CONTINUOUS
 62
     7
 10
-56.34931532491191
 20
18.25473995336252
 11
-56.46143070846102
 21
17.98821438349779
  0
LINE
  8
0
  6
CONTINUOUS
 62
     7
 10
-56.02157260375473
 20
19.39813696711612
 11
-56.0854004620881
 21
19.10069350353338
  0
LINE
  8
0
  6
CONTINUOUS
 62
     7
 10
0.0
 20
49.43933982822018
 11
4.000000000000004
 21
50.68933982822016
  0
LINE
  8
0
  6
CONTINUOUS
 62
     7
 10
-56.87020814693192
 20
17.23501451448078
 11
-57.0306110556967
 21
16.99940683833412
  0
LINE
  8
0
  6
CONTINUOUS
 62
     7
 10
-61.28506528263711
 20
15.12211079124925
 11
-61.51006555297101
 21
15.16052019454417
  0
LINE
  8
0
  6
CONTINUOUS
 62
     7
 10
52.67517581700187
 20
13.49864485459806
 11
49.31705448805074
 21
13.49864485459806
  0
ARC
  8
0
  6
CONTINUOUS
 62
     7
 10
31.12282066415811
 20
22.15913014540188
 40
4.334999999999978
 50
90.0
 51
180.0
  0
ARC
  8
0
  6
CONTINUOUS
 62
     7
 10
192.6920233459521
 20
34.50000000000003
 40
1.500000000000001
 50
270.0000000000002
 51
307.4032634335555
  0
LINE
  8
0
  6
CONTINUOUS
 62
     7
 10
55.0915518868697
 20
13.49864485459806
 11
49.84047308104761
 21
26.49413014540186
  0
LINE
  8
0
  6
CONTINUOUS
 62
     7
 10
198.5282830727323
 20
0.0
 11
187.4809791770392
 21
0.0
  0
LINE
  8
0
  6
CONTINUOUS
 62
     7
 10
59.47577428813655
 20
16.7504583169884
 11
56.75300313962528
 21
23.49266997170535
  0
LINE
  8
0
  6
CONTINUOUS
 62
     7
 10
4.000000000000004
 20
-13.7500000000001
 11
0.0
 21
-15.00000000000001
  0
LINE
  8
0
  6
CONTINUOUS
 62
     7
 10
4.014835001118988
 20
31.50000000000003
 11
3.514005208504756
 21
31.50000000000003
  0
LINE
  8
0
  6
CONTINUOUS
 62
     7
 10
-56.0854004620881
 20
19.10069350353338
 11
-56.16130020172552
 21
18.81097951338029
  0
LINE
  8
0
  6
CONTINUOUS
 62
     7
 10
-56.72187711947099
 20
17.47835166405703
 11
-56.87020814693192
 21
17.23501451448078
  0
LINE
  8
0
  6
CONTINUOUS
 62
     7
 10
-59.60743718354211
 20
15.17890235790781
 11
-59.84154137028793
 21
15.13245075814135
  0
LINE
  8
0
  6
CONTINUOUS
 62
     7
 10
42.64606215570288
 20
15.71669248223456
 11
39.87510939855232
 21
22.5747223886335
  0
LINE
  8
0
  6
CONTINUOUS
 62
     7
 10
-5.761397525438472
 20
0.0
 11
-3.683531195472212
 21
11.78416554465533
  0
LINE
  8
0
  6
CONTINUOUS
 62
     7
 10
56.75300313962528
 20
23.49266997170535
 11
58.84127092281049
 21
23.49266997170535
  0
LINE
  8
0
  6
CONTINUOUS
 62
     7
 10
-3.500000000000003
 20
14.17371653158328
 11
-3.500000000000003
 21
29.99999999999991
  0
LINE
  8
0
  6
CONTINUOUS
 62
     7
 10
32.84954037892157
 20
13.49864485459806
 11
38.09979408283814
 21
26.49413014540186
  0
LINE
  8
0
  6
CONTINUOUS
 62
     7
 10
4.000000000000004
 20
48.18933982822016
 11
0.0
 21
49.43933982822018
  0
LINE
  8
0
  6
CONTINUOUS
 62
     7
 10
3.500000000000003
 20
31.50000000000003
 11
3.500000000000003
 21
33.00000000000003
  0
LINE
  8
0
  6
CONTINUOUS
 62
     7
 10
44.06597568222864
 20
26.49413014540186
 11
47.42409701117955
 21
26.49413014540186
  0
LINE
  8
0
  6
CONTINUOUS
 62
     7
 10
-3.500000000000003
 20
31.50000000000003
 11
-3.500000000000003
 21
30.00000000000002
  0
LINE
  8
0
  6
CONTINUOUS
 62
     7
 10
178.0046311248857
 20
0.0
 11
178.0046311248857
 21
30.00000000000002
  0
LINE
  8
0
  6
CONTINUOUS
 62
     7
 10
-57.20308584576539
 20
16.77152863561704
 11
-57.37489789356154
 21
16.56581440807953
  0
LINE
  8
0
  6
CONTINUOUS
 62
     7
 10
178.0046311248857
 20
31.49999999999991
 11
178.0046311248857
 21
30.00000000000002
  0
LINE
  8
0
  6
CONTINUOUS
 62
     7
 10
-62.3516258482478
 20
15.4238989599953
 11
-62.5474057255522
 21
15.51717893942589
  0
LINE
  8
0
  6
CONTINUOUS
 62
     7
 10
41.64968646519285
 20
26.49413014540186
 11
44.32514453338637
 21
19.87329532362492
  0
LINE
  8
0
  6
CONTINUOUS
 62
     7
 10
34.91998057077833
 20
24.60434120052363
 11
33.07407038559962
 21
24.60434120052363
  0
ARC
  8
0
  6
CONTINUOUS
 62
     7
 10
179.5046311248858
 20
31.49999999999991
 40
1.500000000000001
 50
90.0
 51
180.0
  0
LINE
  8
0
  6
CONTINUOUS
 62
     7
 10
5.673632176570464
 20
12.08556034666286
 11
7.804642542667439
 21
-0.0000000000000017
  0
LINE
  8
0
  6
CONTINUOUS
 62
     7
 10
4.199900553499281
 20
11.82050599648082
 11
4.121850705228802
 21
12.31500347613124
  0
LINE
  8
0
  6
CONTINUOUS
 62
     7
 10
201.0046311248857
 20
24.68739222106631
 11
201.0046311248857
 21
0.0
  0
LINE
  8
0
  6
CONTINUOUS
 62
     7
 10
-3.683531195472212
 20
11.78416554465533
 11
-3.639661967725416
 21
12.04940601534638
  0
LINE
  8
0
  6
CONTINUOUS
 62
     7
 10
58.44869612145892
 20
13.49864485459806
 11
55.0915518868697
 21
13.49864485459806
  0
LINE
  8
0
  6
CONTINUOUS
 62
     7
 10
47.42409701117955
 20
26.49413014540186
 11
52.67517581700187
 21
13.49864485459806
  0
LINE
  8
0
  6
CONTINUOUS
 62
     7
 10
35.68350486580263
 20
26.49413014540186
 11
34.91998057077839
 21
24.60434120052363
  0
LINE
  8
0
  6
CONTINUOUS
 62
     7
 10
-5.761397525438472
 20
0.0
 11
-6.284174686304711
 21
0.0
  0
LINE
  8
0
  6
CONTINUOUS
 62
     7
 10
194.6801246685716
 20
29.99999999999991
 11
178.0046311248857
 21
30.00000000000002
  0
LINE
  8
0
  6
CONTINUOUS
 62
     7
 10
60.05482212013019
 20
26.49413014540186
 11
63.41196635471935
 21
26.49413014540186
  0
LINE
  8
0
  6
CONTINUOUS
 62
     7
 10
36.20770513428878
 20
13.49864485459806
 11
32.84954037892168
 21
13.49864485459806
  0
LINE
  8
0
  6
CONTINUOUS
 62
     7
 10
-3.514005208504756
 20
31.50000000000003
 11
-4.014835001119043
 21
31.50000000000003
  0
LINE
  8
0
  6
CONTINUOUS
 62
     7
 10
-4.014835001119043
 20
31.50000000000003
 11
-5.512203534270621
 21
31.50000000000003
  0
LINE
  8
0
  6
CONTINUOUS
 62
     7
 10
44.32514453338637
 20
19.87329532362492
 11
42.64606215570288
 21
15.71669248223456
  0
LINE
  8
0
  6
CONTINUOUS
 62
     7
 10
31.12282066415811
 20
26.49413014540186
 11
35.68350486580263
 21
26.49413014540186
  0
LINE
  8
0
  6
CONTINUOUS
 62
     7
 10
4.116998405920668
 20
33.00000000000003
 11
12.50000000000001
 21
33.00000000000003
  0
LINE
  8
0
  6
CONTINUOUS
 62
     7
 10
30.18407038559956
 20
21.71434120052357
 11
30.18407038559956
 21
13.49864485459806
  0
LINE
  8
0
  6
CONTINUOUS
 62
     7
 10
49.31705448805074
 20
13.49864485459806
 11
44.06597568222864
 21
26.49413014540186
  0
LINE
  8
0
  6
CONTINUOUS
 62
     7
 10
198.0621742509913
 20
26.70335651330063
 11
198.5282830727323
 21
-0.0000000000000035
  0
LINE
  8
0
  6
CONTINUOUS
 62
     7
 10
3.500000000000003
 20
31.50000000000003
 11
-3.500000000000002
 21
31.50000000000003
  0
LINE
  8
0
  6
CONTINUOUS
 62
     7
 10
6.284174686304211
 20
0.0000000000053846
 11
4.199900553499281
 21
11.82050599648082
  0
LINE
  8
0
  6
CONTINUOUS
 62
     7
 10
-5.720864410664328
 20
11.81769303614644
 11
-5.638653982321884
 21
12.3118103449743
  0
ARC
  8
0
  6
CONTINUOUS
 62
     7
 10
-15.55805427388662
 20
13.87910987932189
 40
11.54332723159951
 50
349.6179852302571
 51
358.0966560178067
  0
LINE
  8
0
  6
CONTINUOUS
 62
     7
 10
-5.073634444845931
 20
32.56066017177977
 11
-5.259851434852636
 21
32.33335534952936
  0
LINE
  8
0
  6
CONTINUOUS
 62
     7
 10
5.512203534270621
 20
31.50000000000003
 11
5.512203534270621
 21
30.00000000000002
  0
LINE
  8
0
  6
CONTINUOUS
 62
     7
 10
5.761397525438583
 20
0.0
 11
3.685245019681315
 21
11.77444596065486
  0
LINE
  8
0
  6
CONTINUOUS
 62
     7
 10
-5.259851434852636
 20
32.33335534952936
 11
-5.398223141524216
 21
32.07402514854763
  0
LINE
  8
0
  6
CONTINUOUS
 62
     7
 10
4.846728385999088
 20
32.74720441845319
 11
4.587853130901875
 21
32.88581929876649
  0
LINE
  8
0
  6
CONTINUOUS
 62
     7
 10
4.587853130901875
 20
32.88581929876649
 11
4.306957110429277
 21
32.97117792060461
  0
LINE
  8
0
  6
CONTINUOUS
 62
     7
 10
-7.80464254266755
 20
0.0
 11
-5.720864410664328
 21
11.81769303614644
  0
LINE
  8
0
  6
CONTINUOUS
 62
     7
 10
-4.014835001119043
 20
31.50000000000003
 11
-4.014835001119043
 21
33.00000000000003
  0
ARC
  8
0
  6
CONTINUOUS
 62
     7
 10
15.52977679078604
 20
13.87703559456499
 40
10.01763296493624
 50
182.1569618128403
 51
190.3017456047014
  0
LINE
  8
0
  6
CONTINUOUS
 62
     7
 10
4.014835001118988
 20
13.9961914887391
 11
4.014835001118988
 21
29.99999999999991
  0
LINE
  8
0
  6
CONTINUOUS
 62
     7
 10
-5.512203534270621
 20
31.50000000000003
 11
-12.50000000000001
 21
31.50000000000003
  0
LINE
  8
0
  6
CONTINUOUS
 62
     7
 10
5.483432017773293
 20
31.79263548302325
 11
5.398223141524549
 21
32.07402514854668
  0
LINE
  8
0
  6
CONTINUOUS
 62
     7
 10
12.50000000000001
 20
31.50000000000003
 11
5.512203534270621
 21
31.50000000000003
  0
LINE
  8
0
  6
CONTINUOUS
 62
     7
 10
-3.500000000000003
 20
31.50000000000003
 11
-3.500000000000003
 21
33.00000000000003
  0
LINE
  8
0
  6
CONTINUOUS
 62
     7
 10
-5.483432017773127
 20
31.79263548302408
 11
-5.512203534270621
 21
31.50000000000003
  0
LINE
  8
0
  6
CONTINUOUS
 62
     7
 10
-4.014835001119043
 20
15.49619152696513
 11
-4.021095736168434
 21
13.49571546783568
  0
LINE
  8
0
  6
CONTINUOUS
 62
     7
 10
4.014835001118988
 20
31.50000000000003
 11
5.512203534270621
 21
31.50000000000003
  0
ARC
  8
0
  6
CONTINUOUS
 62
     7
 10
15.52395039539939
 20
13.88480200801001
 40
11.50965441597956
 50
179.445487542111
 51
187.8389882835641
  0
LINE
  8
0
  6
CONTINUOUS
 62
     7
 10
4.014835001118988
 20
30.00000000000002
 11
4.014835001118988
 21
31.50000000000003
  0
LINE
  8
0
  6
CONTINUOUS
 62
     7
 10
-4.014835001119154
 20
33.00000000000003
 11
-3.514005208504867
 21
33.00000000000003
  0
LINE
  8
0
  6
CONTINUOUS
 62
     7
 10
5.398223141524549
 20
32.07402514854668
 11
5.259851434853191
 21
32.33335534952858
  0
LINE
  8
0
  6
CONTINUOUS
 62
     7
 10
-4.587853130900987
 20
32.88581929876688
 11
-4.846728385998311
 21
32.7472044184538
  0
LINE
  8
0
  6
CONTINUOUS
 62
     7
 10
-5.512203534270621
 20
13.92971870720039
 11
-5.512203534270621
 21
31.49999999999991
  0
LINE
  8
0
  6
CONTINUOUS
 62
     7
 10
-4.203713384729523
 20
11.79888235604382
 11
-6.284174686304711
 21
0.0
  0
LINE
  8
0
  6
CONTINUOUS
 62
     7
 10
-4.014835001119154
 20
33.00000000000003
 11
-4.306957110428389
 21
32.97117792060483
  0
LINE
  8
0
  6
CONTINUOUS
 62
     7
 10
-3.500000000000003
 20
33.00000000000003
 11
3.500000000000002
 21
33.00000000000003
  0
LINE
  8
0
  6
CONTINUOUS
 62
     7
 10
5.512203534270621
 20
31.49999999999897
 11
5.483432017773293
 21
31.79263548302325
  0
LINE
  8
0
  6
CONTINUOUS
 62
     7
 10
-4.014835001119043
 20
31.50000000000003
 11
-4.014835001119043
 21
15.49619152696513
  0
LINE
  8
0
  6
CONTINUOUS
 62
     7
 10
7.804642542667439
 20
0.0
 11
6.284174686304211
 21
0.0
  0
ARC
  8
0
  6
CONTINUOUS
 62
     7
 10
16.9458873373951
 20
14.04918167874425
 40
13.45566035834655
 50
177.8161348061435
 51
188.5442901826034
  0
LINE
  8
0
  6
CONTINUOUS
 62
     7
 10
-62.2059953972712
 20
17.717963013965
 11
-62.11414176228699
 21
17.58595703498261
  0
LINE
  8
0
  6
CONTINUOUS
 62
     7
 10
-58.76653281134853
 20
17.83380574162829
 11
-58.68984010317541
 21
17.96861512996611
  0
LINE
  8
0
  6
CONTINUOUS
 62
     7
 10
-60.30326848607783
 20
24.77451595058089
 11
-60.45788457549042
 21
24.79098696213777
  0
LINE
  8
0
  6
CONTINUOUS
 62
     7
 10
-61.91888962620712
 20
17.35225273518265
 11
-61.81549112511131
 21
17.25055441436507
  0
LINE
  8
0
  6
CONTINUOUS
 62
     7
 10
-58.07514576196682
 20
20.82087646739999
 11
-58.07716830928211
 21
21.0379065757727
  0
LINE
  8
0
  6
CONTINUOUS
 62
     7
 10
-61.36341423368882
 20
16.94478665831128
 11
-61.24077428907343
 21
16.893601101102
  0
LINE
  8
0
  6
CONTINUOUS
 62
     7
 10
-58.55001311761102
 20
18.25217961982128
 11
-58.48687884021983
 21
18.40093472133869
  0
LINE
  8
0
  6
CONTINUOUS
 62
     7
 10
-58.10410729730961
 20
20.1441571448081
 11
-58.08861525598052
 21
20.37400175191761
  0
LINE
  8
0
  6
CONTINUOUS
 62
     7
 10
-62.91139714998012
 20
22.00417095406259
 11
-62.93343668306542
 21
21.82582047835757
  0
LINE
  8
0
  6
CONTINUOUS
 62
     7
 10
-58.48687884021983
 20
18.40093472133869
 11
-58.4282640397559
 21
18.55433839391613
  0
LINE
  8
0
  6
CONTINUOUS
 62
     7
 10
-62.7678115820625
 20
19.03152165335309
 11
-62.71740871113279
 21
18.85463009850669
  0
LINE
  8
0
  6
CONTINUOUS
 62
     7
 10
-59.99126347729433
 20
16.84150080288527
 11
-59.8645008121858
 21
16.87755729652868
  0
LINE
  8
0
  6
CONTINUOUS
 62
     7
 10
-59.40408122558902
 20
17.10535370194982
 11
-59.30063409739903
 21
17.18319541101687
  0
LINE
  8
0
  6
CONTINUOUS
 62
     7
 10
-62.78517454331192
 20
22.66704647498269
 11
-62.82243986612801
 21
22.50890655203769
  0
LINE
  8
0
  6
CONTINUOUS
 62
     7
 10
-62.97469078708481
 20
20.37736197861512
 11
-62.9607731390264
 21
20.17357056343439
  0
LINE
  8
0
  6
CONTINUOUS
 62
     7
 10
-59.29343075788309
 20
24.32999262400881
 11
-59.40471847340032
 21
24.41707873294297
  0
LINE
  8
0
  6
CONTINUOUS
 62
     7
 10
-59.2018500765929
 20
17.26939416316869
 11
-59.10772916317042
 21
17.36394995840529
  0
LINE
  8
0
  6
CONTINUOUS
 62
     7
 10
-58.11826512851661
 20
21.66336790341755
 11
-58.14364046069101
 21
21.86331201347469
  0
LINE
  8
0
  6
CONTINUOUS
 62
     7
 10
-60.754651018986
 20
24.7945511084377
 11
-60.8968013730691
 21
24.78164424318069
  0
LINE
  8
0
  6
CONTINUOUS
 62
     7
 10
-59.8645008121858
 20
16.87755729652868
 11
-59.74240125446101
 21
16.92197083325686
  0
LINE
  8
0
  6
CONTINUOUS
 62
     7
 10
-58.9334766584767
 20
17.57813267813269
 11
-58.84774499644902
 21
17.70364492435061
  0
LINE
  8
0
  6
CONTINUOUS
 62
     7
 10
-60.12268924978661
 20
16.81380135232641
 11
-59.99126347729433
 21
16.84150080288527
  0
LINE
  8
0
  6
CONTINUOUS
 62
     7
 10
-59.74240125446101
 20
16.92197083325686
 11
-59.62496480411991
 21
16.97474141306981
  0
LINE
  8
0
  6
CONTINUOUS
 62
     7
 10
-61.24077428907343
 20
16.893601101102
 11
-61.11428605575411
 21
16.85251809661431
  0
LINE
  8
0
  6
CONTINUOUS
 62
     7
 10
-58.20298219134604
 20
19.3910853227014
 11
-58.17148425244592
 21
19.57238042163828
  0
LINE
  8
0
  6
CONTINUOUS
 62
     7
 10
-61.11428605575411
 20
16.85251809661431
 11
-60.9839495337309
 21
16.82153764484823
  0
LINE
  8
0
  6
CONTINUOUS
 62
     7
 10
-59.51219146116263
 20
17.03586903596738
 11
-59.40408122558902
 21
17.10535370194982
  0
LINE
  8
0
  6
CONTINUOUS
 62
     7
 10
-58.0850290528121
 20
21.25066518456659
 11
-58.098727992557
 21
21.45915229378148
  0
LINE
  8
0
  6
CONTINUOUS
 62
     7
 10
-61.48220588960032
 20
17.0060747682424
 11
-61.36341423368882
 21
16.94478665831128
  0
LINE
  8
0
  6
CONTINUOUS
 62
     7
 10
-58.84774499644902
 20
17.70364492435061
 11
-58.76653281134853
 21
17.83380574162829
  0
LINE
  8
0
  6
CONTINUOUS
 62
     7
 10
-62.81300227829621
 20
19.21225604539017
 11
-62.7678115820625
 21
19.03152165335309
  0
LINE
  8
0
  6
CONTINUOUS
 62
     7
 10
-62.8855511694621
 20
22.17746879157767
 11
-62.91139714998012
 21
22.00417095406259
  0
LINE
  8
0
  6
CONTINUOUS
 62
     7
 10
-59.52027533191961
 20
24.49515892955917
 11
-59.64010133344091
 21
24.56423321385759
  0
LINE
  8
0
  6
CONTINUOUS
 62
     7
 10
-62.71740871113279
 20
18.85463009850669
 11
-62.66179366550731
 21
18.68158138085091
  0
LINE
  8
0
  6
CONTINUOUS
 62
     7
 10
-62.66179366550731
 20
18.68158138085091
 11
-62.60096644518581
 21
18.5123755003857
  0
LINE
  8
0
  6
CONTINUOUS
 62
     7
 10
-58.98518246934353
 20
24.01469882329888
 11
-59.08366275585469
 21
24.12880266918676
  0
LINE
  8
0
  6
CONTINUOUS
 62
     7
 10
-62.60096644518581
 20
18.5123755003857
 11
-62.5349270501685
 21
18.34701245711107
  0
LINE
  8
0
  6
CONTINUOUS
 62
     7
 10
-61.98916852987274
 20
24.2248143036603
 11
-62.08976643285721
 21
24.11398118235719
  0
LINE
  8
0
  6
CONTINUOUS
 62
     7
 10
-59.01827135713172
 20
17.4668627967266
 11
-58.9334766584767
 21
17.57813267813269
  0
LINE
  8
0
  6
CONTINUOUS
 62
     7
 10
-61.59714925680781
 20
17.07746543089489
 11
-61.48220588960032
 21
17.0060747682424
  0
LINE
  8
0
  6
CONTINUOUS
 62
     7
 10
-61.70824433531152
 20
17.15895864626921
 11
-61.59714925680781
 21
17.07746543089489
  0
LINE
  8
0
  6
CONTINUOUS
 62
     7
 10
-60.5449452115657
 20
16.78084525915857
 11
-60.39953011692231
 21
16.78347358046317
  0
LINE
  8
0
  6
CONTINUOUS
 62
     7
 10
-60.84976472300379
 20
16.8006597458038
 11
-60.69502341359289
 21
16.7865739809388
  0
LINE
  8
0
  6
CONTINUOUS
 62
     7
 10
-62.5349270501685
 20
18.34701245711107
 11
-62.45846657000001
 21
18.17459626724205
  0
LINE
  8
0
  6
CONTINUOUS
 62
     7
 10
-61.88441538177852
 20
24.32585479935889
 11
-61.98916852987274
 21
24.2248143036603
  0
LINE
  8
0
  6
CONTINUOUS
 62
     7
 10
-58.68984010317541
 20
17.96861512996611
 11
-58.61766687192959
 21
18.10807308936369
  0
LINE
  8
0
  6
CONTINUOUS
 62
     7
 10
-58.48473727992562
 20
23.143318795665
 11
-58.55681818181821
 21
23.30909090909094
  0
LINE
  8
0
  6
CONTINUOUS
 62
     7
 10
-60.9839495337309
 20
16.82153764484823
 11
-60.84976472300379
 21
16.8006597458038
  0
LINE
  8
0
  6
CONTINUOUS
 62
     7
 10
-58.27953649992801
 20
19.04244083800755
 11
-58.23899960717333
 21
19.21443879482459
  0
LINE
  8
0
  6
CONTINUOUS
 62
     7
 10
-60.69502341359289
 20
16.7865739809388
 11
-60.5449452115657
 21
16.78084525915857
  0
LINE
  8
0
  6
CONTINUOUS
 62
     7
 10
-62.37815780112771
 20
18.0122826300948
 11
-62.2940007435514
 21
17.8600715456691
  0
LINE
  8
0
  6
CONTINUOUS
 62
     7
 10
-62.2940007435514
 20
17.8600715456691
 11
-62.2059953972712
 21
17.717963013965
  0
LINE
  8
0
  6
CONTINUOUS
 62
     7
 10
-58.17148425244592
 20
19.57238042163828
 11
-58.1445057904732
 21
19.75832409163502
  0
LINE
  8
0
  6
CONTINUOUS
 62
     7
 10
-58.17485398908023
 20
22.05898462395289
 11
-58.21190571368409
 21
22.25038573485222
  0
LINE
  8
0
  6
CONTINUOUS
 62
     7
 10
-58.08861525598052
 20
20.37400175191761
 11
-58.07896141086633
 21
20.59957485944819
  0
LINE
  8
0
  6
CONTINUOUS
 62
     7
 10
-58.3580900647847
 20
22.7989600700767
 11
-58.41849457424772
 21
22.97327518266029
  0
LINE
  8
0
  6
CONTINUOUS
 62
     7
 10
-57.03521094385871
 20
24.79415381874289
 11
-56.88947461459481
 21
24.59764200108072
  0
LINE
  8
0
  6
CONTINUOUS
 62
     7
 10
-60.25877812966259
 20
16.79445894485249
 11
-60.12268924978661
 21
16.81380135232641
  0
LINE
  8
0
  6
CONTINUOUS
 62
     7
 10
-62.45846657000001
 20
18.17459626724205
 11
-62.37815780112771
 21
18.0122826300948
  0
LINE
  8
0
  6
CONTINUOUS
 62
     7
 10
-62.98688955911383
 20
20.79647332054824
 11
-62.9833962604472
 21
20.5849962309862
  0
LINE
  8
0
  6
CONTINUOUS
 62
     7
 10
-55.90967805797592
 20
21.64132446269956
 11
-55.89211496113663
 21
21.34511669063149
  0
LINE
  8
0
  6
CONTINUOUS
 62
     7
 10
-59.30063409739903
 20
17.18319541101687
 11
-59.2018500765929
 21
17.26939416316869
  0
LINE
  8
0
  6
CONTINUOUS
 62
     7
 10
-58.25479563450292
 20
22.43751534617255
 11
-58.30352375153641
 21
22.62037345791407
  0
LINE
  8
0
  6
CONTINUOUS
 62
     7
 10
-58.61766687192959
 20
18.10807308936369
 11
-58.55001311761102
 21
18.25217961982128
  0
LINE
  8
0
  6
CONTINUOUS
 62
     7
 10
-59.10772916317042
 20
17.36394995840529
 11
-59.01827135713172
 21
17.4668627967266
  0
LINE
  8
0
  6
CONTINUOUS
 62
     7
 10
-55.88351153164653
 20
21.00129638647191
 11
-55.88697998346031
 21
20.66520555574181
  0
LINE
  8
0
  6
CONTINUOUS
 62
     7
 10
-56.5114225033069
 20
23.9620930306762
 11
-56.40512409171211
 21
23.73490553473528
  0
LINE
  8
0
  6
CONTINUOUS
 62
     7
 10
-57.35626204063831
 20
25.16417069535814
 11
-57.19080675253982
 21
24.9829967168354
  0
LINE
  8
0
  6
CONTINUOUS
 62
     7
 10
-56.7535977647482
 20
24.39346126384889
 11
-56.62758039431892
 21
24.1816116070474
  0
LINE
  8
0
  6
CONTINUOUS
 62
     7
 10
-55.902520316578
 20
20.33684419844112
 11
-55.9301325309996
 21
20.01621231457002
  0
LINE
  8
0
  6
CONTINUOUS
 62
     7
 10
-55.89211496113663
 20
21.34511669063149
 11
-55.88351153164653
 21
21.00129638647191
  0
LINE
  8
0
  6
CONTINUOUS
 62
     7
 10
-55.93710063423251
 20
21.92986331519792
 11
-55.90967805797592
 21
21.64132446269956
  0
LINE
  8
0
  6
CONTINUOUS
 62
     7
 10
-58.07896141086633
 20
20.59957485944819
 11
-58.07514576196682
 21
20.82087646739999
  0
LINE
  8
0
  6
CONTINUOUS
 62
     7
 10
-58.37416871621931
 20
18.71239063755331
 11
-58.32459286961
 21
18.87509145225053
  0
LINE
  8
0
  6
CONTINUOUS
 62
     7
 10
-56.02152422499743
 20
22.48393426148559
 11
-55.97438268990631
 21
22.21073324812661
  0
LINE
  8
0
  6
CONTINUOUS
 62
     7
 10
-56.62758039431892
 20
24.1816116070474
 11
-56.5114225033069
 21
23.9620930306762
  0
LINE
  8
0
  6
CONTINUOUS
 62
     7
 10
-56.40512409171211
 20
23.73490553473528
 11
-56.3086851595346
 21
23.50004911922471
  0
LINE
  8
0
  6
CONTINUOUS
 62
     7
 10
-58.1445057904732
 20
19.75832409163502
 11
-58.12204680542771
 21
19.94891633269158
  0
LINE
  8
0
  6
CONTINUOUS
 62
     7
 10
-58.41849457424772
 20
22.97327518266029
 11
-58.48473727992562
 21
23.143318795665
  0
LINE
  8
0
  6
CONTINUOUS
 62
     7
 10
-58.14364046069101
 20
21.86331201347469
 11
-58.17485398908023
 21
22.05898462395289
  0
LINE
  8
0
  6
CONTINUOUS
 62
     7
 10
-62.01843983859903
 20
17.46405360872172
 11
-61.91888962620712
 21
17.35225273518265
  0
LINE
  8
0
  6
CONTINUOUS
 62
     7
 10
-58.12204680542771
 20
19.94891633269158
 11
-58.10410729730961
 21
20.1441571448081
  0
LINE
  8
0
  6
CONTINUOUS
 62
     7
 10
-58.30352375153641
 20
22.62037345791407
 11
-58.3580900647847
 21
22.7989600700767
  0
LINE
  8
0
  6
CONTINUOUS
 62
     7
 10
-55.88697998346031
 20
20.66520555574181
 11
-55.902520316578
 21
20.33684419844112
  0
LINE
  8
0
  6
CONTINUOUS
 62
     7
 10
-55.9301325309996
 20
20.01621231457002
 11
-55.96981662672523
 21
19.70330990412828
  0
LINE
  8
0
  6
CONTINUOUS
 62
     7
 10
-55.96981662672523
 20
19.70330990412828
 11
-56.02157260375473
 21
19.39813696711612
  0
LINE
  8
0
  6
CONTINUOUS
 62
     7
 10
-56.22210570677441
 20
23.25752378414436
 11
-56.14538573343142
 21
23.00732952949458
  0
LINE
  8
0
  6
CONTINUOUS
 62
     7
 10
-55.97438268990631
 20
22.21073324812661
 11
-55.93710063423251
 21
21.92986331519792
  0
LINE
  8
0
  6
CONTINUOUS
 62
     7
 10
-58.21190571368409
 20
22.25038573485222
 11
-58.25479563450292
 21
22.43751534617255
  0
LINE
  8
0
  6
CONTINUOUS
 62
     7
 10
-56.3086851595346
 20
23.50004911922471
 11
-56.22210570677441
 21
23.25752378414436
  0
LINE
  8
0
  6
CONTINUOUS
 62
     7
 10
-58.32459286961
 20
18.87509145225053
 11
-58.27953649992801
 21
19.04244083800755
  0
LINE
  8
0
  6
CONTINUOUS
 62
     7
 10
-58.23899960717333
 20
19.21443879482459
 11
-58.20298219134604
 21
19.3910853227014
  0
LINE
  8
0
  6
CONTINUOUS
 62
     7
 10
-56.07852523950582
 20
22.74946635527486
 11
-56.02152422499743
 21
22.48393426148559
  0
LINE
  8
0
  6
CONTINUOUS
 62
     7
 10
-62.11414176228699
 20
17.58595703498261
 11
-62.01843983859903
 21
17.46405360872172
  0
LINE
  8
0
  6
CONTINUOUS
 62
     7
 10
-56.88947461459481
 20
24.59764200108072
 11
-56.7535977647482
 21
24.39346126384889
  0
LINE
  8
0
  6
CONTINUOUS
 62
     7
 10
-56.14538573343142
 20
23.00732952949458
 11
-56.07852523950582
 21
22.74946635527486
  0
LINE
  8
0
  6
CONTINUOUS
 62
     7
 10
-58.07716830928211
 20
21.0379065757727
 11
-58.0850290528121
 21
21.25066518456659
  0
LINE
  8
0
  6
CONTINUOUS
 62
     7
 10
-61.81549112511131
 20
17.25055441436507
 11
-61.70824433531152
 21
17.15895864626921
  0
LINE
  8
0
  6
CONTINUOUS
 62
     7
 10
-59.62496480411991
 20
16.97474141306981
 11
-59.51219146116263
 21
17.03586903596738
  0
LINE
  8
0
  6
CONTINUOUS
 62
     7
 10
-58.098727992557
 20
21.45915229378148
 11
-58.11826512851661
 21
21.66336790341755
  0
LINE
  8
0
  6
CONTINUOUS
 62
     7
 10
-57.19080675253982
 20
24.9829967168354
 11
-57.03521094385871
 21
24.79415381874289
  0
LINE
  8
0
  6
CONTINUOUS
 62
     7
 10
-60.39953011692231
 20
16.78347358046317
 11
-60.25877812966259
 21
16.79445894485249
  0
LINE
  8
0
  6
CONTINUOUS
 62
     7
 10
-58.4282640397559
 20
18.55433839391613
 11
-58.37416871621931
 21
18.71239063755331
  0
LINE
  8
0
  6
CONTINUOUS
 62
     7
 10
-51.50724177325361
 20
23.25016357914766
 11
-51.55162192325552
 21
23.0920301031457
  0
LINE
  8
0
  6
CONTINUOUS
 62
     7
 10
-51.59576269380542
 20
22.1023160474913
 11
-51.56223503167284
 21
21.95319767702686
  0
LINE
  8
0
  6
CONTINUOUS
 62
     7
 10
-50.06701203208549
 20
20.52614471925129
 11
-49.97724139371654
 21
20.5027510862299
  0
LINE
  8
0
  6
CONTINUOUS
 62
     7
 10
-49.77610792406362
 20
24.65696690279939
 11
-49.878988855833
 21
24.6351906944986
  0
LINE
  8
0
  6
CONTINUOUS
 62
     7
 10
-51.45978195770381
 20
21.6705799357571
 11
-51.39085654586731
 21
21.53708056495168
  0
LINE
  8
0
  6
CONTINUOUS
 62
     7
 10
-51.61749110603672
 20
22.25664075117539
 11
-51.59576269380542
 21
22.1023160474913
  0
LINE
  8
0
  6
CONTINUOUS
 62
     7
 10
-51.61188084332272
 20
22.75085286154582
 11
-51.62555018079532
 21
22.58090915820271
  0
LINE
  8
0
  6
CONTINUOUS
 62
     7
 10
-49.21169994986629
 20
20.45592621991976
 11
-49.11008522727273
 21
20.46761363636357
  0
LINE
  8
0
  6
CONTINUOUS
 62
     7
 10
-48.81477272727272
 20
20.5238636363636
 11
-48.7214488636363
 21
20.54943181818181
  0
LINE
  8
0
  6
CONTINUOUS
 62
     7
 10
-48.91065340909081
 20
20.50170454545452
 11
-48.81477272727272
 21
20.5238636363636
  0
LINE
  8
0
  6
CONTINUOUS
 62
     7
 10
-49.50864806149733
 20
20.44425133689842
 11
-49.41098136697853
 21
20.44424507018722
  0
LINE
  8
0
  6
CONTINUOUS
 62
     7
 10
-49.67332739953181
 20
24.67328070132652
 11
-49.77610792406362
 21
24.65696690279939
  0
LINE
  8
0
  6
CONTINUOUS
 62
     7
 10
-50.72951982692101
 20
20.84541733773276
 11
-50.57799966577542
 21
20.7483622994652
  0
LINE
  8
0
  6
CONTINUOUS
 62
     7
 10
-51.11328481095001
 20
21.16782045185367
 11
-50.99716239950833
 21
21.05514641392708
  0
LINE
  8
0
  6
CONTINUOUS
 62
     7
 10
-49.878988855833
 20
24.6351906944986
 11
-50.05762644815423
 21
24.58756942498702
  0
LINE
  8
0
  6
CONTINUOUS
 62
     7
 10
-51.45327180594331
 20
23.40040332611476
 11
-51.50724177325361
 21
23.25016357914766
  0
LINE
  8
0
  6
CONTINUOUS
 62
     7
 10
-51.62555018079532
 20
22.58090915820271
 11
-51.6274202683667
 21
22.4161717880792
  0
LINE
  8
0
  6
CONTINUOUS
 62
     7
 10
-49.70003342245982
 20
20.4559575534759
 11
-49.60499874665772
 21
20.44815549799472
  0
LINE
  8
0
  6
CONTINUOUS
 62
     7
 10
-51.316562419397
 20
23.67720163294379
 11
-51.38971202132442
 21
23.54274934404682
  0
LINE
  8
0
  6
CONTINUOUS
 62
     7
 10
-49.36558826936213
 20
24.68944763826558
 11
-49.468067572181
 21
24.68952106905969
  0
LINE
  8
0
  6
CONTINUOUS
 62
     7
 10
-51.6274202683667
 20
22.4161717880792
 11
-51.61749110603672
 21
22.25664075117539
  0
LINE
  8
0
  6
CONTINUOUS
 62
     7
 10
-49.3119986631016
 20
20.448136697861
 11
-49.21169994986629
 21
20.45592621991976
  0
LINE
  8
0
  6
CONTINUOUS
 62
     7
 10
-48.7214488636363
 20
20.54943181818181
 11
-48.63068181818181
 21
20.57840909090897
  0
LINE
  8
0
  6
CONTINUOUS
 62
     7
 10
-49.00909090909089
 20
20.48295454545462
 11
-48.91065340909081
 21
20.50170454545452
  0
LINE
  8
0
  6
CONTINUOUS
 62
     7
 10
-51.21760797249042
 20
21.28570082300002
 11
-51.11328481095001
 21
21.16782045185367
  0
LINE
  8
0
  6
CONTINUOUS
 62
     7
 10
-50.92806583860212
 20
24.13607349818142
 11
-51.03957470976364
 21
24.03319612542448
  0
LINE
  8
0
  6
CONTINUOUS
 62
     7
 10
-50.86924073816532
 20
20.9476787092201
 11
-50.72951982692101
 21
20.84541733773276
  0
LINE
  8
0
  6
CONTINUOUS
 62
     7
 10
-49.79375208890372
 20
20.46765750334234
 11
-49.70003342245982
 21
20.4559575534759
  0
LINE
  8
0
  6
CONTINUOUS
 62
     7
 10
-51.03957470976364
 20
24.03319612542448
 11
-51.14149376361662
 21
23.92242502363256
  0
LINE
  8
0
  6
CONTINUOUS
 62
     7
 10
-51.38971202132442
 20
23.54274934404682
 11
-51.45327180594331
 21
23.40040332611476
  0
LINE
  8
0
  6
CONTINUOUS
 62
     7
 10
-49.11008522727273
 20
20.46761363636357
 11
-49.00909090909089
 21
20.48295454545462
  0
LINE
  8
0
  6
CONTINUOUS
 62
     7
 10
-48.63068181818181
 20
20.57840909090897
 11
-48.54247159090913
 21
20.61079545454542
  0
LINE
  8
0
  6
CONTINUOUS
 62
     7
 10
-49.60499874665772
 20
20.44815549799472
 11
-49.50864806149733
 21
20.44425133689842
  0
LINE
  8
0
  6
CONTINUOUS
 62
     7
 10
-51.3101318841295
 20
21.40878752736597
 11
-51.21760797249042
 21
21.28570082300002
  0
LINE
  8
0
  6
CONTINUOUS
 62
     7
 10
-51.14149376361662
 20
23.92242502363256
 11
-51.23382300016113
 21
23.80376019280567
  0
LINE
  8
0
  6
CONTINUOUS
 62
     7
 10
-49.16093088543702
 20
24.67291354735657
 11
-49.2632093737807
 21
24.68391179769802
  0
LINE
  8
0
  6
CONTINUOUS
 62
     7
 10
-53.70179367999481
 20
22.28105952070847
 11
-53.7090615028328
 21
22.4710091942889
  0
LINE
  8
0
  6
CONTINUOUS
 62
     7
 10
-51.14578350304552
 20
18.86700408396857
 11
-51.3777374502776
 21
18.95122622648543
  0
LINE
  8
0
  6
CONTINUOUS
 62
     7
 10
-53.44352848642231
 20
23.92838578975648
 11
-53.3698774094816
 21
24.10278026504303
  0
LINE
  8
0
  6
CONTINUOUS
 62
     7
 10
-52.95434643552662
 20
20.12886746913056
 11
-53.05988180575122
 21
20.27814746571222
  0
LINE
  8
0
  6
CONTINUOUS
 62
     7
 10
-52.4551274912986
 20
19.59634385099862
 11
-52.59149384685499
 21
19.71978530030244
  0
LINE
  8
0
  6
CONTINUOUS
 62
     7
 10
-51.23382300016113
 20
23.80376019280567
 11
-51.316562419397
 21
23.67720163294379
  0
LINE
  8
0
  6
CONTINUOUS
 62
     7
 10
-47.85553977272733
 20
19.21306818181817
 11
-48.12675692228812
 21
19.09144004568242
  0
LINE
  8
0
  6
CONTINUOUS
 62
     7
 10
-51.39085654586731
 20
21.53708056495168
 11
-51.3101318841295
 21
21.40878752736597
  0
LINE
  8
0
  6
CONTINUOUS
 62
     7
 10
-53.58281250000002
 20
21.50397727272718
 11
-53.62604427829512
 21
21.70084036777159
  0
LINE
  8
0
  6
CONTINUOUS
 62
     7
 10
-51.3777374502776
 20
18.95122622648543
 11
-51.60667115117673
 21
19.0512830058216
  0
LINE
  8
0
  6
CONTINUOUS
 62
     7
 10
-50.6728148695823
 20
18.7460637093933
 11
-50.91080930948041
 21
18.79861657827125
  0
LINE
  8
0
  6
CONTINUOUS
 62
     7
 10
-50.18776525078733
 20
18.68846188209566
 11
-50.43180018335133
 21
18.70934547733482
  0
LINE
  8
0
  6
CONTINUOUS
 62
     7
 10
-49.94071007189032
 20
18.68341292367609
 11
-50.18776525078733
 21
18.68846188209566
  0
LINE
  8
0
  6
CONTINUOUS
 62
     7
 10
-48.37372159090913
 20
20.68579545454535
 11
-48.29318181818181
 21
20.72840909090912
  0
LINE
  8
0
  6
CONTINUOUS
 62
     7
 10
-53.40494582331981
 20
20.93986382023283
 11
-53.4719424618795
 21
21.12144200091159
  0
LINE
  8
0
  6
CONTINUOUS
 62
     7
 10
-48.13977272727271
 20
20.82386363636357
 11
-48.06690340909092
 21
20.87670454545454
  0
LINE
  8
0
  6
CONTINUOUS
 62
     7
 10
-48.12675692228812
 20
19.09144004568242
 11
-48.39495382551592
 21
18.98564654636609
  0
LINE
  8
0
  6
CONTINUOUS
 62
     7
 10
-53.05988180575122
 20
20.27814746571222
 11
-53.15770942964281
 21
20.4338870991132
  0
LINE
  8
0
  6
CONTINUOUS
 62
     7
 10
-50.24260528074861
 20
20.58462566844921
 11
-50.15546666109624
 21
20.55343624665768
  0
LINE
  8
0
  6
CONTINUOUS
 62
     7
 10
-48.95667513046239
 20
24.6345298173527
 11
-49.05875280433091
 21
24.6564528872415
  0
LINE
  8
0
  6
CONTINUOUS
 62
     7
 10
-48.39495382551592
 20
18.98564654636609
 11
-48.66013048241071
 21
18.89568768386934
  0
LINE
  8
0
  6
CONTINUOUS
 62
     7
 10
-49.43753897509743
 20
18.72081891729499
 11
-49.69063464666032
 21
18.69419860207594
  0
LINE
  8
0
  6
CONTINUOUS
 62
     7
 10
-53.4719424618795
 20
21.12144200091159
 11
-53.5312313541062
 21
21.30947981840969
  0
LINE
  8
0
  6
CONTINUOUS
 62
     7
 10
-51.99978194663132
 20
19.26477732400339
 11
-52.15927154118671
 21
19.36883986284899
  0
LINE
  8
0
  6
CONTINUOUS
 62
     7
 10
-51.51690811963902
 20
21.80928563978224
 11
-51.45978195770381
 21
21.6705799357571
  0
LINE
  8
0
  6
CONTINUOUS
 62
     7
 10
-50.22667422316682
 20
24.5320544264403
 11
-50.3861321808709
 21
24.46864569885859
  0
LINE
  8
0
  6
CONTINUOUS
 62
     7
 10
-50.43180018335133
 20
18.70934547733482
 11
-50.6728148695823
 21
18.7460637093933
  0
LINE
  8
0
  6
CONTINUOUS
 62
     7
 10
-53.33024143842713
 20
20.76474527637362
 11
-53.40494582331981
 21
20.93986382023283
  0
LINE
  8
0
  6
CONTINUOUS
 62
     7
 10
-53.15770942964281
 20
20.4338870991132
 11
-53.24782930720143
 21
20.59608636933369
  0
LINE
  8
0
  6
CONTINUOUS
 62
     7
 10
-50.05762644815423
 20
24.58756942498702
 11
-50.22667422316682
 21
24.5320544264403
  0
LINE
  8
0
  6
CONTINUOUS
 62
     7
 10
-53.6855348682925
 20
22.0893814917622
 11
-53.70179367999481
 21
22.28105952070847
  0
LINE
  8
0
  6
CONTINUOUS
 62
     7
 10
-48.54247159090913
 20
20.61079545454542
 11
-48.45681818181821
 21
20.64659090909077
  0
LINE
  8
0
  6
CONTINUOUS
 62
     7
 10
-49.05875280433091
 20
24.6564528872415
 11
-49.16093088543702
 21
24.67291354735657
  0
LINE
  8
0
  6
CONTINUOUS
 62
     7
 10
-50.32842789104283
 20
20.61971298462561
 11
-50.24260528074861
 21
20.58462566844921
  0
LINE
  8
0
  6
CONTINUOUS
 62
     7
 10
-48.2151988636364
 20
20.77443181818178
 11
-48.13977272727271
 21
20.82386363636357
  0
LINE
  8
0
  6
CONTINUOUS
 62
     7
 10
-52.15927154118671
 20
19.36883986284899
 11
-52.31105338940914
 21
19.47936203851408
  0
LINE
  8
0
  6
CONTINUOUS
 62
     7
 10
-50.91080930948041
 20
18.79861657827125
 11
-51.14578350304552
 21
18.86700408396857
  0
LINE
  8
0
  6
CONTINUOUS
 62
     7
 10
-52.31105338940914
 20
19.47936203851408
 11
-52.4551274912986
 21
19.59634385099862
  0
LINE
  8
0
  6
CONTINUOUS
 62
     7
 10
-53.5081885744986
 20
23.75226295910399
 11
-53.44352848642231
 21
23.92838578975648
  0
LINE
  8
0
  6
CONTINUOUS
 62
     7
 10
-53.3698774094816
 20
24.10278026504303
 11
-53.28723534367683
 21
24.27544638496354
  0
LINE
  8
0
  6
CONTINUOUS
 62
     7
 10
-47.86363636363633
 20
21.05568181818179
 11
-47.8009943181818
 21
21.12215909090903
  0
LINE
  8
0
  6
CONTINUOUS
 62
     7
 10
-48.66013048241071
 20
18.89568768386934
 11
-48.92228689297262
 21
18.82156345819169
  0
LINE
  8
0
  6
CONTINUOUS
 62
     7
 10
-52.72015245607853
 20
19.8496863864257
 11
-52.84110331896902
 21
19.98604710936846
  0
LINE
  8
0
  6
CONTINUOUS
 62
     7
 10
-49.18142305720152
 20
18.76327386933374
 11
-49.43753897509743
 21
18.72081891729499
  0
LINE
  8
0
  6
CONTINUOUS
 62
     7
 10
-49.69063464666032
 20
18.69419860207594
 11
-49.94071007189032
 21
18.68341292367609
  0
LINE
  8
0
  6
CONTINUOUS
 62
     7
 10
-52.84110331896902
 20
19.98604710936846
 11
-52.95434643552662
 21
20.12886746913056
  0
LINE
  8
0
  6
CONTINUOUS
 62
     7
 10
-53.66028506772602
 20
21.89597510744978
 11
-53.6855348682925
 21
22.0893814917622
  0
LINE
  8
0
  6
CONTINUOUS
 62
     7
 10
-51.56223503167284
 20
21.95319767702686
 11
-51.51690811963902
 21
21.80928563978224
  0
LINE
  8
0
  6
CONTINUOUS
 62
     7
 10
-48.29318181818181
 20
20.72840909090912
 11
-48.2151988636364
 21
20.77443181818178
  0
LINE
  8
0
  6
CONTINUOUS
 62
     7
 10
-45.72826704545452
 20
21.12215909090903
 11
-46.71008522727271
 21
15.12215909090903
  0
LINE
  8
0
  6
CONTINUOUS
 62
     7
 10
-53.7090615028328
 20
22.4710091942889
 11
-53.70733833680641
 21
22.65923051250318
  0
LINE
  8
0
  6
CONTINUOUS
 62
     7
 10
-53.62604427829512
 20
21.70084036777159
 11
-53.66028506772602
 21
21.89597510744978
  0
LINE
  8
0
  6
CONTINUOUS
 62
     7
 10
-53.5312313541062
 20
21.30947981840969
 11
-53.58281250000002
 21
21.50397727272718
  0
LINE
  8
0
  6
CONTINUOUS
 62
     7
 10
-53.70733833680641
 20
22.65923051250318
 11
-53.69662418191592
 21
22.84572347535158
  0
LINE
  8
0
  6
CONTINUOUS
 62
     7
 10
-47.99659090909092
 20
20.93295454545441
 11
-47.9288352272727
 21
20.99261363636362
  0
LINE
  8
0
  6
CONTINUOUS
 62
     7
 10
-53.67691903816099
 20
23.03048808283398
 11
-53.6482229055418
 21
23.2135243349505
  0
LINE
  8
0
  6
CONTINUOUS
 62
     7
 10
-52.59149384685499
 20
19.71978530030244
 11
-52.72015245607853
 21
19.8496863864257
  0
LINE
  8
0
  6
CONTINUOUS
 62
     7
 10
-53.6482229055418
 20
23.2135243349505
 11
-53.61053578405834
 21
23.39483223170102
  0
LINE
  8
0
  6
CONTINUOUS
 62
     7
 10
-50.3861321808709
 20
24.46864569885859
 11
-50.53600032126653
 21
24.39734324224169
  0
LINE
  8
0
  6
CONTINUOUS
 62
     7
 10
-50.53600032126653
 20
24.39734324224169
 11
-50.67627864435362
 21
24.31814705658997
  0
LINE
  8
0
  6
CONTINUOUS
 62
     7
 10
-51.08545558097052
 20
26.19540672718473
 11
-50.93435080178782
 21
26.24901941984109
  0
LINE
  8
0
  6
CONTINUOUS
 62
     7
 10
-49.37512387069462
 20
26.48237422530081
 11
-49.21438326365863
 21
26.4754324937363
  0
LINE
  8
0
  6
CONTINUOUS
 62
     7
 10
-50.00932645533562
 20
26.4550916749941
 11
-49.85208978570083
 21
26.47016973405541
  0
LINE
  8
0
  6
CONTINUOUS
 62
     7
 10
-48.45681818181821
 20
20.64659090909077
 11
-48.37372159090913
 21
20.68579545454535
  0
LINE
  8
0
  6
CONTINUOUS
 62
     7
 10
-47.288124727348
 20
25.96187908121855
 11
-47.1474135311174
 21
25.88553345715294
  0
LINE
  8
0
  6
CONTINUOUS
 62
     7
 10
-51.2356843758028
 20
26.13628908687204
 11
-51.08545558097052
 21
26.19540672718473
  0
LINE
  8
0
  6
CONTINUOUS
 62
     7
 10
-48.55171833161309
 20
26.39071440597979
 11
-48.38036179440031
 21
26.35479759697279
  0
LINE
  8
0
  6
CONTINUOUS
 62
     7
 10
-76.50000000000001
 20
33.00000000000003
 11
-76.50000000000001
 21
31.50000000000003
  0
LINE
  8
0
  6
CONTINUOUS
 62
     7
 10
-52.1257186860192
 20
25.64486367853991
 11
-51.99030172538021
 21
25.73862532519322
  0
LINE
  8
0
  6
CONTINUOUS
 62
     7
 10
76.50000000000001
 20
31.50000000000003
 11
12.50000000000001
 21
31.50000000000003
  0
LINE
  8
0
  6
CONTINUOUS
 62
     7
 10
-48.72690553644873
 20
26.42157761310449
 11
-48.55171833161309
 21
26.39071440597979
  0
LINE
  8
0
  6
CONTINUOUS
 62
     7
 10
-46.71008522727271
 20
15.12215909090908
 11
-53.09190340909092
 21
15.12215909090908
  0
LINE
  8
0
  6
CONTINUOUS
 62
     7
 10
-47.88927618849831
 20
26.21672555865778
 11
-47.73324232177661
 21
26.16059434212148
  0
LINE
  8
0
  6
CONTINUOUS
 62
     7
 10
-47.43266659120143
 20
26.03317110340192
 11
-47.288124727348
 21
25.96187908121855
  0
LINE
  8
0
  6
CONTINUOUS
 62
     7
 10
-46.74826394816201
 20
25.62617497366199
 11
-46.62287542242244
 21
25.52961494206712
  0
LINE
  8
0
  6
CONTINUOUS
 62
     7
 10
-46.62287542242244
 20
25.52961494206712
 11
-46.50131756430564
 21
25.42800130858969
  0
LINE
  8
0
  6
CONTINUOUS
 62
     7
 10
-47.9288352272727
 20
20.99261363636362
 11
-47.86363636363633
 21
21.05568181818179
  0
LINE
  8
0
  6
CONTINUOUS
 62
     7
 10
-53.09190340909092
 20
15.12215909090908
 11
-53.09190340909092
 21
16.97670454545447
  0
LINE
  8
0
  6
CONTINUOUS
 62
     7
 10
-47.73324232177661
 20
26.16059434212148
 11
-47.58103912267764
 21
26.09940952370276
  0
LINE
  8
0
  6
CONTINUOUS
 62
     7
 10
-12.50000000000001
 20
31.50000000000003
 11
-76.50000000000001
 21
31.50000000000003
  0
LINE
  8
0
  6
CONTINUOUS
 62
     7
 10
-47.0105330025094
 20
25.80413423120492
 11
-46.87748314152434
 21
25.7176814033746
  0
LINE
  8
0
  6
CONTINUOUS
 62
     7
 10
-47.8009943181818
 20
21.12215909090903
 11
-45.72826704545452
 21
21.12215909090903
  0
LINE
  8
0
  6
CONTINUOUS
 62
     7
 10
-76.50000000000001
 20
31.50000000000003
 11
-76.50000000000001
 21
0.0
  0
LINE
  8
0
  6
CONTINUOUS
 62
     7
 10
-49.53498849338034
 20
26.48381100920871
 11
-49.37512387069462
 21
26.48237422530081
  0
LINE
  8
0
  6
CONTINUOUS
 62
     7
 10
-53.56385767371061
 20
23.5744117730855
 11
-53.5081885744986
 21
23.75226295910399
  0
LINE
  8
0
  6
CONTINUOUS
 62
     7
 10
12.50000000000001
 20
33.00000000000003
 11
76.50000000000001
 21
33.00000000000003
  0
LINE
  8
0
  6
CONTINUOUS
 62
     7
 10
-48.04914072284289
 20
26.26780317331179
 11
-47.88927618849831
 21
26.21672555865778
  0
LINE
  8
0
  6
CONTINUOUS
 62
     7
 10
-50.3211718415543
 20
26.40842071390209
 11
-50.16568714062011
 21
26.43450866827629
  0
LINE
  8
0
  6
CONTINUOUS
 62
     7
 10
-76.50000000000001
 20
0.0
 11
-14.90023703241028
 21
0.0
  0
LINE
  8
0
  6
CONTINUOUS
 62
     7
 10
-51.83258460574292
 20
19.16717442197718
 11
-51.99978194663132
 21
19.26477732400339
  0
LINE
  8
0
  6
CONTINUOUS
 62
     7
 10
-53.1956022890076
 20
24.44638414951811
 11
-53.11187369262343
 21
24.58757544389661
  0
LINE
  8
0
  6
CONTINUOUS
 62
     7
 10
-49.69397713171583
 20
26.47974284546017
 11
-49.53498849338034
 21
26.48381100920871
  0
LINE
  8
0
  6
CONTINUOUS
 62
     7
 10
14.90023703241028
 20
0.0
 11
76.50000000000001
 21
0.0
  0
LINE
  8
0
  6
CONTINUOUS
 62
     7
 10
-53.69662418191592
 20
22.84572347535158
 11
-53.67691903816099
 21
23.03048808283398
  0
LINE
  8
0
  6
CONTINUOUS
 62
     7
 10
-53.61053578405834
 20
23.39483223170102
 11
-53.56385767371061
 21
23.5744117730855
  0
LINE
  8
0
  6
CONTINUOUS
 62
     7
 10
-50.47578055813812
 20
26.37682781187145
 11
-50.3211718415543
 21
26.40842071390209
  0
LINE
  8
0
  6
CONTINUOUS
 62
     7
 10
-48.38036179440031
 20
26.35479759697279
 11
-48.21283592481013
 21
26.31382718608349
  0
LINE
  8
0
  6
CONTINUOUS
 62
     7
 10
-45.29190340909089
 20
22.97670454545458
 11
-47.3100852272727
 21
22.97670454545458
  0
LINE
  8
0
  6
CONTINUOUS
 62
     7
 10
-52.50095654938342
 20
25.33512094994478
 11
-52.38104609802082
 21
25.44311149091566
  0
LINE
  8
0
  6
CONTINUOUS
 62
     7
 10
-48.21283592481013
 20
26.31382718608349
 11
-48.04914072284289
 21
26.26780317331179
  0
LINE
  8
0
  6
CONTINUOUS
 62
     7
 10
-46.50131756430564
 20
25.42800130858969
 11
-46.38359037381162
 21
25.32133407323012
  0
LINE
  8
0
  6
CONTINUOUS
 62
     7
 10
-53.09190340909092
 20
16.97670454545447
 11
-48.2919034090909
 21
16.97670454545447
  0
LINE
  8
0
  6
CONTINUOUS
 62
     7
 10
-51.39694551856921
 20
26.06624226408122
 11
-51.2356843758028
 21
26.13628908687204
  0
LINE
  8
0
  6
CONTINUOUS
 62
     7
 10
-50.78237003825492
 20
26.297127164841
 11
-50.62951329037171
 21
26.33972996218448
  0
LINE
  8
0
  6
CONTINUOUS
 62
     7
 10
-51.60667115117673
 20
19.0512830058216
 11
-51.83258460574292
 21
19.16717442197718
  0
LINE
  8
0
  6
CONTINUOUS
 62
     7
 10
-53.24782930720143
 20
20.59608636933369
 11
-53.33024143842713
 21
20.76474527637362
  0
LINE
  8
0
  6
CONTINUOUS
 62
     7
 10
-53.28723534367683
 20
24.27544638496354
 11
-53.1956022890076
 21
24.44638414951811
  0
LINE
  8
0
  6
CONTINUOUS
 62
     7
 10
-48.89027409653562
 20
26.44503418763822
 11
-48.72690553644873
 21
26.42157761310449
  0
LINE
  8
0
  6
CONTINUOUS
 62
     7
 10
-48.06690340909092
 20
20.87670454545454
 11
-47.99659090909092
 21
20.93295454545441
  0
LINE
  8
0
  6
CONTINUOUS
 62
     7
 10
76.50000000000001
 20
31.50000000000003
 11
76.50000000000001
 21
33.00000000000003
  0
LINE
  8
0
  6
CONTINUOUS
 62
     7
 10
-49.21438326365863
 20
26.4754324937363
 11
-49.05276667227232
 21
26.46298581451551
  0
LINE
  8
0
  6
CONTINUOUS
 62
     7
 10
-52.82967488491813
 20
24.982691538397
 11
-52.72527094283203
 21
25.10491097368561
  0
LINE
  8
0
  6
CONTINUOUS
 62
     7
 10
-76.50000000000001
 20
33.00000000000003
 11
-12.50000000000001
 21
33.00000000000003
  0
ARC
  8
0
  6
CONTINUOUS
 62
     7
 10
-48.75751321738772
 20
22.7895419163065
 40
3.470660051505064
 50
3.09129474181691
 51
46.84318185980289
  0
LINE
  8
0
  6
CONTINUOUS
 62
     7
 10
-53.11187369262343
 20
24.58757544389661
 11
-53.02297625981381
 21
24.72402377350269
  0
LINE
  8
0
  6
CONTINUOUS
 62
     7
 10
-48.92228689297262
 20
18.82156345819169
 11
-49.18142305720152
 21
18.76327386933374
  0
LINE
  8
0
  6
CONTINUOUS
 62
     7
 10
-51.55303782491022
 20
25.99145247651796
 11
-51.39694551856921
 21
26.06624226408122
  0
LINE
  8
0
  6
CONTINUOUS
 62
     7
 10
-78.00000000000001
 20
0.0
 11
-78.00000000000001
 21
31.49999999999991
  0
LINE
  8
0
  6
CONTINUOUS
 62
     7
 10
-53.02297625981381
 20
24.72402377350269
 11
-52.92890999057872
 21
24.85572913833606
  0
LINE
  8
0
  6
CONTINUOUS
 62
     7
 10
76.50000000000001
 20
0.0
 11
76.50000000000001
 21
31.50000000000003
  0
LINE
  8
0
  6
CONTINUOUS
 62
     7
 10
184.2606734494269
 20
29.99999999999991
 11
187.260673449427
 21
32.99999999999991
  0
LINE
  8
0
  6
CONTINUOUS
 62
     7
 10
-77.7472044184538
 20
32.77886076938979
 11
-77.88581929876689
 21
32.57285403796989
  0
LINE
  8
0
  6
CONTINUOUS
 62
     7
 10
-76.50000000000001
 20
33.30842996319
 11
76.50000000000001
 21
33.30842996319
  0
LINE
  8
0
  6
CONTINUOUS
 62
     7
 10
-50.16568714062011
 20
26.43450866827629
 11
-50.00932645533562
 21
26.4550916749941
  0
LINE
  8
0
  6
CONTINUOUS
 62
     7
 10
-51.99030172538021
 20
25.73862532519322
 11
-51.84971592831569
 21
25.82764400707405
  0
LINE
  8
0
  6
CONTINUOUS
 62
     7
 10
77.88581929876686
 20
32.57285403796989
 11
77.74720441845379
 21
32.77886076938979
  0
LINE
  8
0
  6
CONTINUOUS
 62
     7
 10
198.0690683319016
 20
26.3083948824745
 11
202.2245375520997
 21
30.46386410267282
  0
LINE
  8
0
  6
CONTINUOUS
 62
     7
 10
-77.88581929876689
 20
32.57285403796989
 11
-77.97117792060482
 21
32.34932370856608
  0
LINE
  8
0
  6
CONTINUOUS
 62
     7
 10
-77.0740251485476
 20
33.21772709494252
 11
-77.33335534952943
 21
33.1076142029178
  0
LINE
  8
0
  6
CONTINUOUS
 62
     7
 10
55.0915518868697
 20
-107.4951680912762
 11
52.67517581700187
 21
-107.4951680912762
  0
LINE
  8
0
  6
CONTINUOUS
 62
     7
 10
199.260673449427
 20
0.0
 11
201.0046311248857
 21
1.743957675458707
  0
LINE
  8
0
  6
CONTINUOUS
 62
     7
 10
-52.61569816432041
 20
25.22238744420152
 11
-52.50095654938342
 21
25.33512094994478
  0
LINE
  8
0
  6
CONTINUOUS
 62
     7
 10
-49.05276667227232
 20
26.46298581451551
 11
-48.89027409653562
 21
26.44503418763822
  0
LINE
  8
0
  6
CONTINUOUS
 62
     7
 10
-76.50000000000001
 20
33.30842996319
 11
-76.7926354830242
 21
33.28553427905278
  0
LINE
  8
0
  6
CONTINUOUS
 62
     7
 10
59.47577428813655
 20
-107.4951680912762
 11
59.47577428813655
 21
-107.9951680912762
  0
LINE
  8
0
  6
CONTINUOUS
 62
     7
 10
-3.500000000000003
 20
26.70335651330075
 11
3.500000000000002
 21
26.70335651330075
  0
LINE
  8
0
  6
CONTINUOUS
 62
     7
 10
178.0046311248857
 20
31.24395767545879
 11
179.7606734494269
 21
32.99999999999991
  0
LINE
  8
0
  6
CONTINUOUS
 62
     7
 10
194.2606734494269
 20
29.99999999999991
 11
198.4779919672996
 21
34.21731851787252
  0
LINE
  8
0
  6
CONTINUOUS
 62
     7
 10
-47.58103912267764
 20
26.09940952370276
 11
-47.43266659120143
 21
26.03317110340192
  0
LINE
  8
0
  6
CONTINUOUS
 62
     7
 10
-47.1474135311174
 20
25.88553345715294
 11
-47.0105330025094
 21
25.80413423120492
  0
LINE
  8
0
  6
CONTINUOUS
 62
     7
 10
-52.92890999057872
 20
24.85572913833606
 11
-52.82967488491813
 21
24.982691538397
  0
ARC
  8
0
  6
CONTINUOUS
 62
     7
 10
76.50000000000001
 20
32.93933982822011
 40
1.500000000000001
 50
0.0
 51
90.0
  0
LINE
  8
0
  6
CONTINUOUS
 62
     7
 10
198.1119573633927
 20
23.85128391396568
 11
202.3786115568176
 21
28.11793810739066
  0
ARC
  8
0
  6
CONTINUOUS
 62
     7
 10
-76.50000000000001
 20
31.50000000000003
 40
1.500000000000001
 50
90.0
 51
180.0
  0
LINE
  8
0
  6
CONTINUOUS
 62
     7
 10
76.50000000000001
 20
31.50000000000003
 11
78.00000000000001
 21
31.50000000000003
  0
LINE
  8
0
  6
CONTINUOUS
 62
     7
 10
199.2232923291713
 20
29.96261887974433
 11
201.4096693461479
 21
32.14899589672082
  0
LINE
  8
0
  6
CONTINUOUS
 62
     7
 10
-77.56066017177982
 20
32.9594271796671
 11
-77.7472044184538
 21
32.77886076938979
  0
LINE
  8
0
  6
CONTINUOUS
 62
     7
 10
-52.72527094283203
 20
25.10491097368561
 11
-52.61569816432041
 21
25.22238744420152
  0
LINE
  8
0
  6
CONTINUOUS
 62
     7
 10
-78.00000000000001
 20
31.50000000000003
 11
-76.50000000000001
 21
31.50000000000003
  0
LINE
  8
0
  6
CONTINUOUS
 62
     7
 10
55.0915518868697
 20
-107.4951680912762
 11
55.0915518868697
 21
-107.9951680912762
  0
LINE
  8
0
  6
CONTINUOUS
 62
     7
 10
189.2606734494268
 20
29.99999999999991
 11
192.2606734494269
 21
32.99999999999991
  0
LINE
  8
0
  6
CONTINUOUS
 62
     7
 10
181.7606734494269
 20
29.99999999999991
 11
184.760673449427
 21
32.99999999999991
  0
LINE
  8
0
  6
CONTINUOUS
 62
     7
 10
198.497958646813
 20
1.737285197386085
 11
201.0046311248857
 21
4.24395767545871
  0
LINE
  8
0
  6
CONTINUOUS
 62
     7
 10
77.3333553495294
 20
33.1076142029178
 11
77.07402514854766
 21
33.21772709494252
  0
LINE
  8
0
  6
CONTINUOUS
 62
     7
 10
198.2406244578661
 20
16.47995100843913
 11
201.0046311248857
 21
19.24395767545872
  0
LINE
  8
0
  6
CONTINUOUS
 62
     7
 10
-76.7926354830242
 20
33.28553427905278
 11
-77.0740251485476
 21
33.21772709494252
  0
LINE
  8
0
  6
CONTINUOUS
 62
     7
 10
5.75639752543855
 20
0.0
 11
-5.756397525438494
 21
0.0
  0
LINE
  8
0
  6
CONTINUOUS
 62
     7
 10
-46.87748314152434
 20
25.7176814033746
 11
-46.74826394816201
 21
25.62617497366199
  0
LINE
  8
0
  6
CONTINUOUS
 62
     7
 10
-48.2919034090909
 20
16.97670454545447
 11
-47.85553977272733
 21
19.21306818181817
  0
LINE
  8
0
  6
CONTINUOUS
 62
     7
 10
78.00000000000001
 20
31.50000000000003
 11
78.00000000000001
 21
0.0
  0
LINE
  8
0
  6
CONTINUOUS
 62
     7
 10
76.50000000000001
 20
33.30842996319
 11
76.50000000000001
 21
34.43933982822011
  0
LINE
  8
0
  6
CONTINUOUS
 62
     7
 10
198.1548463948837
 20
21.39417294545676
 11
201.0046311248857
 21
24.24395767545873
  0
LINE
  8
0
  6
CONTINUOUS
 62
     7
 10
198.2835134893573
 20
14.02284003993032
 11
201.0046311248857
 21
16.74395767545872
  0
LINE
  8
0
  6
CONTINUOUS
 62
     7
 10
-52.38104609802082
 20
25.44311149091566
 11
-52.2559668102327
 21
25.54635906711411
  0
LINE
  8
0
  6
CONTINUOUS
 62
     7
 10
58.44869612145892
 20
-107.4951680912762
 11
58.44869612145892
 21
-107.9951680912762
  0
LINE
  8
0
  6
CONTINUOUS
 62
     7
 10
-51.84971592831569
 20
25.82764400707405
 11
-51.70396129482571
 21
25.91191972418228
  0
LINE
  8
0
  6
CONTINUOUS
 62
     7
 10
58.44869612145892
 20
-107.4951680912762
 11
55.0915518868697
 21
-107.4951680912762
  0
LINE
  8
0
  6
CONTINUOUS
 62
     7
 10
-50.93435080178782
 20
26.24901941984109
 11
-50.78237003825492
 21
26.297127164841
  0
LINE
  8
0
  6
CONTINUOUS
 62
     7
 10
78.00000000000001
 20
0.0
 11
76.50000000000001
 21
0.0
  0
LINE
  8
0
  6
CONTINUOUS
 62
     7
 10
76.79263548302417
 20
33.28553427905278
 11
76.50000000000001
 21
33.30842996319
  0
LINE
  8
0
  6
CONTINUOUS
 62
     7
 10
-78.00000000000001
 20
32.11685992638008
 11
-78.00000000000001
 21
32.93933982822017
  0
LINE
  8
0
  6
CONTINUOUS
 62
     7
 10
-52.2559668102327
 20
25.54635906711411
 11
-52.1257186860192
 21
25.64486367853991
  0
LINE
  8
0
  6
CONTINUOUS
 62
     7
 10
77.74720441845379
 20
32.77886076938979
 11
77.56066017177976
 21
32.9594271796671
  0
LINE
  8
0
  6
CONTINUOUS
 62
     7
 10
78.00000000000001
 20
32.93933982822011
 11
78.00000000000001
 21
32.11685992638002
  0
LINE
  8
0
  6
CONTINUOUS
 62
     7
 10
198.3264025208485
 20
11.5657290714215
 11
201.0046311248857
 21
14.24395767545872
  0
LINE
  8
0
  6
CONTINUOUS
 62
     7
 10
77.56066017177976
 20
32.9594271796671
 11
77.3333553495294
 21
33.1076142029178
  0
LINE
  8
0
  6
CONTINUOUS
 62
     7
 10
198.3692915523397
 20
9.10861810291258
 11
201.0046311248857
 21
11.74395767545872
  0
LINE
  8
0
  6
CONTINUOUS
 62
     7
 10
-76.50000000000001
 20
33.30842996319
 11
-76.50000000000001
 21
33.00000000000003
  0
LINE
  8
0
  6
CONTINUOUS
 62
     7
 10
49.31705448805074
 20
-107.4951680912762
 11
49.31705448805074
 21
-107.9951680912762
  0
LINE
  8
0
  6
CONTINUOUS
 62
     7
 10
197.9753361176177
 20
31.21466266819067
 11
200.160892620614
 21
33.40021917118702
  0
LINE
  8
0
  6
CONTINUOUS
 62
     7
 10
-49.85208978570083
 20
26.47016973405541
 11
-49.69397713171583
 21
26.47974284546017
  0
LINE
  8
0
  6
CONTINUOUS
 62
     7
 10
191.7606734494269
 20
29.99999999999991
 11
196.1365279046894
 21
34.37585445526231
  0
LINE
  8
0
  6
CONTINUOUS
 62
     7
 10
-50.62951329037171
 20
26.33972996218448
 11
-50.47578055813812
 21
26.37682781187145
  0
LINE
  8
0
  6
CONTINUOUS
 62
     7
 10
-51.70396129482571
 20
25.91191972418228
 11
-51.55303782491022
 21
25.99145247651796
  0
LINE
  8
0
  6
CONTINUOUS
 62
     7
 10
-64.71501108179869
 20
18.15094567019127
 11
-64.79599087400489
 21
18.39414795201988
  0
LINE
  8
0
  6
CONTINUOUS
 62
     7
 10
-65.12203397061342
 20
21.31581349956624
 11
-65.09963386170334
 21
21.63573608137631
  0
LINE
  8
0
  6
CONTINUOUS
 62
     7
 10
-76.50000000000001
 20
0.0
 11
-78.00000000000001
 21
0.0
  0
LINE
  8
0
  6
CONTINUOUS
 62
     7
 10
77.07402514854766
 20
33.21772709494252
 11
76.79263548302417
 21
33.28553427905278
  0
LINE
  8
0
  6
CONTINUOUS
 62
     7
 10
179.2606734494269
 20
29.99999999999991
 11
182.2606734494269
 21
32.99999999999991
  0
LINE
  8
0
  6
CONTINUOUS
 62
     7
 10
52.67517581700187
 20
-107.4951680912762
 11
52.67517581700187
 21
-107.9951680912762
  0
LINE
  8
0
  6
CONTINUOUS
 62
     7
 10
42.64606215570288
 20
-107.4951680912762
 11
39.87510939855232
 21
-107.4951680912762
  0
LINE
  8
0
  6
CONTINUOUS
 62
     7
 10
26.78782066415808
 20
-107.4951680912762
 11
26.78782066415808
 21
-107.9951680912762
  0
LINE
  8
0
  6
CONTINUOUS
 62
     7
 10
-65.09963386170334
 20
21.63573608137631
 11
-65.06560304075474
 21
21.94768217762749
  0
LINE
  8
0
  6
CONTINUOUS
 62
     7
 10
-64.4199146921083
 20
17.46668659241146
 11
-64.52697299085041
 21
17.68721499038706
  0
LINE
  8
0
  6
CONTINUOUS
 62
     7
 10
-76.50000000000001
 20
34.43933982822017
 11
-76.50000000000001
 21
33.30842996319
  0
LINE
  8
0
  6
CONTINUOUS
 62
     7
 10
39.87510939855232
 20
-107.4951680912762
 11
39.87510939855232
 21
-107.9951680912762
  0
LINE
  8
0
  6
CONTINUOUS
 62
     7
 10
198.4121805838308
 20
6.651507134403822
 11
201.0046311248857
 21
9.243957675458713
  0
LINE
  8
0
  6
CONTINUOUS
 62
     7
 10
44.32514453338637
 20
-107.4951680912762
 11
42.64606215570288
 21
-107.4951680912762
  0
LINE
  8
0
  6
CONTINUOUS
 62
     7
 10
30.18407038559956
 20
-107.4951680912762
 11
30.18407038559956
 21
-107.9951680912762
  0
LINE
  8
0
  6
CONTINUOUS
 62
     7
 10
36.20770513428878
 20
-107.4951680912762
 11
36.20770513428878
 21
-107.9951680912762
  0
LINE
  8
0
  6
CONTINUOUS
 62
     7
 10
-65.07049730235623
 20
19.7235287804291
 11
-65.0993200814906
 21
20.01207882996409
  0
LINE
  8
0
  6
CONTINUOUS
 62
     7
 10
-65.0993200814906
 20
20.01207882996409
 11
-65.11945002511301
 21
20.3081868407835
  0
LINE
  8
0
  6
CONTINUOUS
 62
     7
 10
44.32514453338637
 20
-107.4951680912762
 11
44.32514453338637
 21
-107.9951680912762
  0
LINE
  8
0
  6
CONTINUOUS
 62
     7
 10
-63.09968088583023
 20
15.86286356908051
 11
-63.27208444871102
 21
16.00004000941962
  0
LINE
  8
0
  6
CONTINUOUS
 62
     7
 10
-63.59935933865513
 20
16.30731523577922
 11
-63.75423066571834
 21
16.4774140217997
  0
LINE
  8
0
  6
CONTINUOUS
 62
     7
 10
52.67517581700187
 20
-107.4951680912762
 11
49.31705448805074
 21
-107.4951680912762
  0
ARC
  8
0
  6
CONTINUOUS
 62
     7
 10
76.50000000000001
 20
31.50000000000003
 40
1.500000000000001
 50
0.0
 51
90.0
  0
LINE
  8
0
  6
CONTINUOUS
 62
     7
 10
-63.27208444871102
 20
16.00004000941962
 11
-63.43864393298604
 21
16.14819056498579
  0
LINE
  8
0
  6
CONTINUOUS
 62
     7
 10
78.00000000000001
 20
32.11685992638008
 11
78.00000000000001
 21
31.50000000000003
  0
LINE
  8
0
  6
CONTINUOUS
 62
     7
 10
-63.90475314202032
 20
16.66015261335335
 11
-64.04658278281022
 21
16.85044916619133
  0
LINE
  8
0
  6
CONTINUOUS
 62
     7
 10
-64.6253384540806
 20
17.91530134964686
 11
-64.71501108179869
 21
18.15094567019127
  0
LINE
  8
0
  6
CONTINUOUS
 62
     7
 10
-64.79599087400489
 20
18.39414795201988
 11
-64.86827783069913
 21
18.64490819513298
  0
LINE
  8
0
  6
CONTINUOUS
 62
     7
 10
-64.52697299085041
 20
17.68721499038706
 11
-64.6253384540806
 21
17.91530134964686
  0
LINE
  8
0
  6
CONTINUOUS
 62
     7
 10
-62.9214332443434
 20
15.7366612439685
 11
-63.09968088583023
 21
15.86286356908051
  0
LINE
  8
0
  6
CONTINUOUS
 62
     7
 10
198.1977354263749
 20
18.937061976948
 11
201.0046311248857
 21
21.74395767545872
  0
LINE
  8
0
  6
CONTINUOUS
 62
     7
 10
78.00000000000001
 20
32.11685992638008
 11
77.97117792060487
 21
32.34932370856608
  0
LINE
  8
0
  6
CONTINUOUS
 62
     7
 10
59.47577428813655
 20
-107.4951680912762
 11
58.44869612145892
 21
-107.4951680912762
  0
LINE
  8
0
  6
CONTINUOUS
 62
     7
 10
76.50000000000001
 20
34.43933982822011
 11
-76.50000000000001
 21
34.43933982822011
  0
LINE
  8
0
  6
CONTINUOUS
 62
     7
 10
-77.33335534952943
 20
33.1076142029178
 11
-77.56066017177982
 21
32.9594271796671
  0
LINE
  8
0
  6
CONTINUOUS
 62
     7
 10
36.20770513428878
 20
-107.4951680912762
 11
32.84954037892157
 21
-107.4951680912762
  0
LINE
  8
0
  6
CONTINUOUS
 62
     7
 10
42.64606215570288
 20
-107.4951680912762
 11
42.64606215570288
 21
-107.9951680912762
  0
LINE
  8
0
  6
CONTINUOUS
 62
     7
 10
39.87510939855232
 20
-107.4951680912762
 11
36.20770513428878
 21
-107.4951680912762
  0
LINE
  8
0
  6
CONTINUOUS
 62
     7
 10
49.31705448805074
 20
-107.4951680912762
 11
44.32514453338637
 21
-107.4951680912762
  0
LINE
  8
0
  6
CONTINUOUS
 62
     7
 10
30.18407038559956
 20
-107.4951680912762
 11
32.84954037892157
 21
-107.4951680912762
  0
LINE
  8
0
  6
CONTINUOUS
 62
     7
 10
30.18407038559956
 20
-107.4951680912762
 11
26.78782066415808
 21
-107.4951680912762
  0
ARC
  8
0
  6
CONTINUOUS
 62
     7
 10
14.85038152014434
 20
-100.9342740003761
 40
7.061570085972579
 50
183.8372829610854
 51
270.4045182777538
  0
ARC
  8
0
  6
CONTINUOUS
 62
     7
 10
12.50236770836832
 20
-100.9914214970907
 40
9.004246905485402
 50
256.8849793083133
 51
269.9849338096113
  0
LINE
  8
0
  6
CONTINUOUS
 62
     7
 10
63.41196635471935
 20
-107.4951680912762
 11
59.47577428813655
 21
-107.4951680912762
  0
LINE
  8
0
  6
CONTINUOUS
 62
     7
 10
-64.93187195188129
 20
18.90322639953046
 11
-64.98677323755162
 21
19.16910256521231
  0
LINE
  8
0
  6
CONTINUOUS
 62
     7
 10
198.455069615322
 20
4.194396165894898
 11
201.0046311248857
 21
6.743957675458711
  0
LINE
  8
0
  6
CONTINUOUS
 62
     7
 10
63.41196635471935
 20
-107.4951680912762
 11
63.41196635471935
 21
-107.9951680912762
  0
LINE
  8
0
  6
CONTINUOUS
 62
     7
 10
-77.97117792060482
 20
32.34932370856608
 11
-78.00000000000001
 21
32.11685992638008
  0
LINE
  8
0
  6
CONTINUOUS
 62
     7
 10
5.761397525438583
 20
-99.9956680912762
 11
3.500000000000003
 21
-99.9956680912762
  0
ARC
  8
0
  6
CONTINUOUS
 62
     7
 10
-14.85038152014445
 20
-100.934274000376
 40
7.061570085972635
 50
269.5954817222462
 51
356.1627170389128
  0
LINE
  8
0
  6
CONTINUOUS
 62
     7
 10
32.84954037892157
 20
-107.4951680912762
 11
32.84954037892157
 21
-107.9951680912762
  0
LINE
  8
0
  6
CONTINUOUS
 62
     7
 10
-78.00000000000001
 20
31.50000000000003
 11
-78.00000000000001
 21
32.11685992638008
  0
LINE
  8
0
  6
CONTINUOUS
 62
     7
 10
-65.11945002511301
 20
20.3081868407835
 11
-65.13194205231831
 21
20.65203887926981
  0
LINE
  8
0
  6
CONTINUOUS
 62
     7
 10
-65.13194205231831
 20
20.65203887926981
 11
-65.13280336748511
 21
20.98791443219739
  0
LINE
  8
0
  6
CONTINUOUS
 62
     7
 10
-65.13280336748511
 20
20.98791443219739
 11
-65.12203397061342
 21
21.31581349956624
  0
ARC
  8
0
  6
CONTINUOUS
 62
     7
 10
-76.50000000000001
 20
32.93933982822017
 40
1.500000000000001
 50
90.0
 51
180.0
  0
LINE
  8
0
  6
CONTINUOUS
 62
     7
 10
186.7606734494269
 20
29.99999999999991
 11
189.760673449427
 21
32.99999999999991
  0
LINE
  8
0
  6
CONTINUOUS
 62
     7
 10
76.50000000000001
 20
33.30842996319
 11
76.50000000000001
 21
33.00000000000003
  0
LINE
  8
0
  6
CONTINUOUS
 62
     7
 10
-65.0329816877099
 20
19.44253669217849
 11
-65.07049730235623
 21
19.7235287804291
  0
LINE
  8
0
  6
CONTINUOUS
 62
     7
 10
-62.73734152425081
 20
15.6214330340837
 11
-62.9214332443434
 21
15.7366612439685
  0
LINE
  8
0
  6
CONTINUOUS
 62
     7
 10
-64.98677323755162
 20
19.16910256521231
 11
-65.0329816877099
 21
19.44253669217849
  0
LINE
  8
0
  6
CONTINUOUS
 62
     7
 10
77.97117792060487
 20
32.34932370856608
 11
77.88581929876686
 21
32.57285403796989
  0
LINE
  8
0
  6
CONTINUOUS
 62
     7
 10
-47.7519685183379
 20
23.91369245025354
 11
-47.8222640094616
 21
23.99045991026139
  0
LINE
  8
0
  6
CONTINUOUS
 62
     7
 10
-61.08073154428073
 20
26.50110660949523
 11
-60.83097834061562
 21
26.52073119782833
  0
LINE
  8
0
  6
CONTINUOUS
 62
     7
 10
-64.23594361048681
 20
24.39625519374489
 11
-64.08560566915361
 21
24.6284364344086
  0
LINE
  8
0
  6
CONTINUOUS
 62
     7
 10
-57.69304011350002
 20
25.48364773408823
 11
-57.52230949949561
 21
25.32923383203545
  0
LINE
  8
0
  6
CONTINUOUS
 62
     7
 10
-47.36048783164259
 20
23.188729516192
 11
-47.39280926892314
 21
23.29012436597738
  0
LINE
  8
0
  6
CONTINUOUS
 62
     7
 10
-47.8973062573157
 20
24.06414894654701
 11
-47.97709526190008
 21
24.13475955911037
  0
LINE
  8
0
  6
CONTINUOUS
 62
     7
 10
-48.06163102321504
 20
24.20229174795158
 11
-48.15091354126033
 21
24.26674551307062
  0
LINE
  8
0
  6
CONTINUOUS
 62
     7
 10
-48.7528210044382
 20
24.57429644825404
 11
-48.8546978638314
 21
24.60714433769023
  0
LINE
  8
0
  6
CONTINUOUS
 62
     7
 10
-48.24494281603592
 20
24.32812085446739
 11
-48.3463176392411
 21
24.38828079277211
  0
LINE
  8
0
  6
CONTINUOUS
 62
     7
 10
-60.33870521393711
 20
26.5219481099605
 11
-60.10709358302132
 21
26.50597425802398
  0
LINE
  8
0
  6
CONTINUOUS
 62
     7
 10
-48.8546978638314
 20
24.60714433769023
 11
-48.95667513046239
 21
24.6345298173527
  0
LINE
  8
0
  6
CONTINUOUS
 62
     7
 10
-62.44852289030911
 20
26.10861484283289
 11
-62.2361205083475
 21
26.2067377844985
  0
LINE
  8
0
  6
CONTINUOUS
 62
     7
 10
-59.44035762115612
 20
26.39415729446848
 11
-59.22747861082844
 21
26.33558650403467
  0
LINE
  8
0
  6
CONTINUOUS
 62
     7
 10
-59.01928275564783
 20
26.26636647897645
 11
-58.81577005561411
 21
26.18649721929411
  0
LINE
  8
0
  6
CONTINUOUS
 62
     7
 10
-61.79264033357251
 20
26.36373449116336
 11
-61.56156254075912
 21
26.42260825616266
  0
LINE
  8
0
  6
CONTINUOUS
 62
     7
 10
-60.57500000000002
 20
26.52727272727273
 11
-60.33870521393711
 21
26.5219481099605
  0
LINE
  8
0
  6
CONTINUOUS
 62
     7
 10
-62.65470013532019
 20
25.99740884227863
 11
-62.44852289030911
 21
26.10861484283289
  0
LINE
  8
0
  6
CONTINUOUS
 62
     7
 10
-47.39280926892314
 20
23.29012436597738
 11
-47.42987746293398
 21
23.38844079204056
  0
LINE
  8
0
  6
CONTINUOUS
 62
     7
 10
-47.33291315109251
 20
23.0842562426844
 11
-47.36048783164259
 21
23.188729516192
  0
LINE
  8
0
  6
CONTINUOUS
 62
     7
 10
-64.50172735703782
 20
23.90796325574129
 11
-64.3746508397815
 21
24.15609746752251
  0
LINE
  8
0
  6
CONTINUOUS
 62
     7
 10
-63.76103572942482
 20
25.0554286022891
 11
-63.59220930611714
 21
25.24513295617581
  0
LINE
  8
0
  6
CONTINUOUS
 62
     7
 10
-58.61694051072752
 20
26.09597872498725
 11
-58.42279412098802
 21
25.99481099605611
  0
LINE
  8
0
  6
CONTINUOUS
 62
     7
 10
-47.8222640094616
 20
23.99045991026139
 11
-47.8973062573157
 21
24.06414894654701
  0
LINE
  8
0
  6
CONTINUOUS
 62
     7
 10
-58.81577005561411
 20
26.18649721929411
 11
-58.61694051072752
 21
26.09597872498725
  0
LINE
  8
0
  6
CONTINUOUS
 62
     7
 10
-48.44779286968401
 20
24.44297832130321
 11
-48.54936850736441
 21
24.49221344006036
  0
LINE
  8
0
  6
CONTINUOUS
 62
     7
 10
-59.65791978663082
 20
26.44207885027799
 11
-59.44035762115612
 21
26.39415729446848
  0
LINE
  8
0
  6
CONTINUOUS
 62
     7
 10
-62.85465224338071
 20
25.87311978283563
 11
-62.65470013532019
 21
25.99740884227863
  0
LINE
  8
0
  6
CONTINUOUS
 62
     7
 10
-63.4171577458589
 20
25.42175425117388
 11
-63.23588104865011
 21
25.58529248728308
  0
LINE
  8
0
  6
CONTINUOUS
 62
     7
 10
-57.52230949949561
 20
25.32923383203545
 11
-57.35626204063831
 21
25.16417069535814
  0
LINE
  8
0
  6
CONTINUOUS
 62
     7
 10
-57.86845388265152
 20
25.62741240151661
 11
-57.69304011350002
 21
25.48364773408823
  0
LINE
  8
0
  6
CONTINUOUS
 62
     7
 10
-63.59220930611714
 20
25.24513295617581
 11
-63.4171577458589
 21
25.42175425117388
  0
LINE
  8
0
  6
CONTINUOUS
 62
     7
 10
-47.56956258534922
 20
23.66491952789701
 11
-47.62561780628172
 21
23.75092225907149
  0
LINE
  8
0
  6
CONTINUOUS
 62
     7
 10
-48.3463176392411
 20
24.38828079277211
 11
-48.44779286968401
 21
24.44297832130321
  0
LINE
  8
0
  6
CONTINUOUS
 62
     7
 10
-48.6510445522825
 20
24.53598614904412
 11
-48.7528210044382
 21
24.57429644825404
  0
LINE
  8
0
  6
CONTINUOUS
 62
     7
 10
-64.61717316225563
 20
23.6518525584013
 11
-64.50172735703782
 21
23.90796325574129
  0
LINE
  8
0
  6
CONTINUOUS
 62
     7
 10
-63.23588104865011
 20
25.58529248728308
 11
-63.04837921449072
 21
25.73574766450365
  0
LINE
  8
0
  6
CONTINUOUS
 62
     7
 10
-64.3746508397815
 20
24.15609746752251
 11
-64.23594361048681
 21
24.39625519374489
  0
LINE
  8
0
  6
CONTINUOUS
 62
     7
 10
-64.08560566915361
 20
24.6284364344086
 11
-63.92363701578191
 21
24.85264118951347
  0
LINE
  8
0
  6
CONTINUOUS
 62
     7
 10
-61.56156254075912
 20
26.42260825616266
 11
-61.32425961099522
 21
26.46839896227327
  0
LINE
  8
0
  6
CONTINUOUS
 62
     7
 10
-47.42987746293398
 20
23.38844079204056
 11
-47.47169241367543
 21
23.48367879438162
  0
LINE
  8
0
  6
CONTINUOUS
 62
     7
 10
-58.04855080695001
 20
25.76052783432081
 11
-57.86845388265152
 21
25.62741240151661
  0
LINE
  8
0
  6
CONTINUOUS
 62
     7
 10
-59.88016510725249
 20
26.47935117146316
 11
-59.65791978663082
 21
26.44207885027799
  0
LINE
  8
0
  6
CONTINUOUS
 62
     7
 10
-60.83097834061562
 20
26.52073119782833
 11
-60.57500000000002
 21
26.52727272727273
  0
LINE
  8
0
  6
CONTINUOUS
 62
     7
 10
-60.10709358302132
 20
26.50597425802398
 11
-59.88016510725249
 21
26.47935117146316
  0
LINE
  8
0
  6
CONTINUOUS
 62
     7
 10
-58.2333308863954
 20
25.8829940325006
 11
-58.04855080695001
 21
25.76052783432081
  0
LINE
  8
0
  6
CONTINUOUS
 62
     7
 10
-47.68641978394461
 20
23.8338465665236
 11
-47.7519685183379
 21
23.91369245025354
  0
LINE
  8
0
  6
CONTINUOUS
 62
     7
 10
-62.01749298943523
 20
26.29177766727536
 11
-61.79264033357251
 21
26.36373449116336
  0
LINE
  8
0
  6
CONTINUOUS
 62
     7
 10
-63.92363701578191
 20
24.85264118951347
 11
-63.76103572942482
 21
25.0554286022891
  0
LINE
  8
0
  6
CONTINUOUS
 62
     7
 10
-47.62561780628172
 20
23.75092225907149
 11
-47.68641978394461
 21
23.8338465665236
  0
LINE
  8
0
  6
CONTINUOUS
 62
     7
 10
-62.2361205083475
 20
26.2067377844985
 11
-62.01749298943523
 21
26.29177766727536
  0
LINE
  8
0
  6
CONTINUOUS
 62
     7
 10
-47.97709526190008
 20
24.13475955911037
 11
-48.06163102321504
 21
24.20229174795158
  0
LINE
  8
0
  6
CONTINUOUS
 62
     7
 10
-58.42279412098802
 20
25.99481099605611
 11
-58.2333308863954
 21
25.8829940325006
  0
LINE
  8
0
  6
CONTINUOUS
 62
     7
 10
-59.22747861082844
 20
26.33558650403467
 11
-59.01928275564783
 21
26.26636647897645
  0
LINE
  8
0
  6
CONTINUOUS
 62
     7
 10
-47.47169241367543
 20
23.48367879438162
 11
-47.51825412114713
 21
23.57583837300042
  0
LINE
  8
0
  6
CONTINUOUS
 62
     7
 10
-61.32425961099522
 20
26.46839896227327
 11
-61.08073154428073
 21
26.50110660949523
  0
LINE
  8
0
  6
CONTINUOUS
 62
     7
 10
-47.51825412114713
 20
23.57583837300042
 11
-47.56956258534922
 21
23.66491952789701
  0
LINE
  8
0
  6
CONTINUOUS
 62
     7
 10
-47.3100852272727
 20
22.97670454545458
 11
-47.33291315109251
 21
23.0842562426844
  0
LINE
  8
0
  6
CONTINUOUS
 62
     7
 10
-63.04837921449072
 20
25.73574766450365
 11
-62.85465224338071
 21
25.87311978283563
  0
LINE
  8
0
  6
CONTINUOUS
 62
     7
 10
-51.55162192325552
 20
23.0920301031457
 11
-51.58641225594882
 21
22.92600289810859
  0
LINE
  8
0
  6
CONTINUOUS
 62
     7
 10
-50.49612508355611
 20
20.70158130013366
 11
-50.41293449197862
 21
20.65869819518706
  0
LINE
  8
0
  6
CONTINUOUS
 62
     7
 10
-50.15546666109624
 20
20.55343624665768
 11
-50.06701203208549
 21
20.52614471925129
  0
LINE
  8
0
  6
CONTINUOUS
 62
     7
 10
-50.41293449197862
 20
20.65869819518706
 11
-50.32842789104283
 21
20.61971298462561
  0
LINE
  8
0
  6
CONTINUOUS
 62
     7
 10
-49.97724139371654
 20
20.5027510862299
 11
-49.88615474598932
 21
20.4832553475936
  0
LINE
  8
0
  6
CONTINUOUS
 62
     7
 10
-50.99716239950833
 20
21.05514641392708
 11
-50.86924073816532
 21
20.9476787092201
  0
LINE
  8
0
  6
CONTINUOUS
 62
     7
 10
-50.80696715013214
 20
24.23105714190332
 11
-50.92806583860212
 21
24.13607349818142
  0
LINE
  8
0
  6
CONTINUOUS
 62
     7
 10
-49.88615474598932
 20
20.4832553475936
 11
-49.79375208890372
 21
20.46765750334234
  0
LINE
  8
0
  6
CONTINUOUS
 62
     7
 10
-51.58641225594882
 20
22.92600289810859
 11
-51.61188084332272
 21
22.75085286154582
  0
LINE
  8
0
  6
CONTINUOUS
 62
     7
 10
-48.54936850736441
 20
24.49221344006036
 11
-48.6510445522825
 21
24.53598614904412
  0
LINE
  8
0
  6
CONTINUOUS
 62
     7
 10
-49.468067572181
 20
24.68952106905969
 11
-49.57064728223762
 21
24.68413209007997
  0
LINE
  8
0
  6
CONTINUOUS
 62
     7
 10
-49.41098136697853
 20
20.44424507018722
 11
-49.3119986631016
 21
20.448136697861
  0
LINE
  8
0
  6
CONTINUOUS
 62
     7
 10
-48.15091354126033
 20
24.26674551307062
 11
-48.24494281603592
 21
24.32812085446739
  0
LINE
  8
0
  6
CONTINUOUS
 62
     7
 10
-50.57799966577542
 20
20.7483622994652
 11
-50.49612508355611
 21
20.70158130013366
  0
LINE
  8
0
  6
CONTINUOUS
 62
     7
 10
-49.2632093737807
 20
24.68391179769802
 11
-49.36558826936213
 21
24.68944763826558
  0
LINE
  8
0
  6
CONTINUOUS
 62
     7
 10
-49.57064728223762
 20
24.68413209007997
 11
-49.67332739953181
 21
24.67328070132652
  0
LINE
  8
0
  6
CONTINUOUS
 62
     7
 10
-50.67627864435362
 20
24.31814705658997
 11
-50.80696715013214
 21
24.23105714190332
  0
ENDSEC
  0
EOF
