  0
SECTION
  2
HEADER
  9
$ACADVER
  1
AC1004
  9
$INSBASE
 10
0.0
 20
0.0
  9
$EXTMIN
 10
-65.5
 20
-123.4365495536147
  9
$EXTMAX
 10
188.9354646832806
 20
53.70726912114964
  9
$LIMMIN
 10
0.0
 20
0.0
  9
$LIMMAX
 10
12.0
 20
9.0
  9
$ORTHOMODE
 70
     0
  9
$REGENMODE
 70
     1
  9
$FILLMODE
 70
     1
  9
$QTEXTMODE
 70
     0
  9
$DRAGMODE
 70
     2
  9
$LTSCALE
 40
1.0
  9
$OSMODE
 70
    37
  9
$ATTMODE
 70
     1
  9
$TEXTSIZE
 40
0.2
  9
$TRACEWID
 40
0.05
  9
$TEXTSTYLE
  7
STANDARD
  9
$CLAYER
  8
0
  9
$CELTYPE
  6
BYLAYER
  9
$CECOLOR
 62
   256
  9
$DIMSCALE
 40
1.0
  9
$DIMASZ
 40
2.5
  9
$DIMEXO
 40
0.0625
  9
$DIMDLI
 40
0.38
  9
$DIMRND
 40
0.0
  9
$DIMDLE
 40
0.0
  9
$DIMEXE
 40
1.25
  9
$DIMTP
 40
0.0
  9
$DIMTM
 40
0.0
  9
$DIMTXT
 40
4.0
  9
$DIMCEN
 40
0.09
  9
$DIMTSZ
 40
0.0
  9
$DIMTOL
 70
     0
  9
$DIMLIM
 70
     0
  9
$DIMTIH
 70
     1
  9
$DIMTOH
 70
     1
  9
$DIMSE1
 70
     0
  9
$DIMSE2
 70
     0
  9
$DIMTAD
 70
     1
  9
$DIMZIN
 70
     0
  9
$DIMBLK
  1

  9
$DIMASO
 70
     1
  9
$DIMSHO
 70
     1
  9
$DIMPOST
  1

  9
$DIMAPOST
  1

  9
$DIMALT
 70
     0
  9
$DIMALTD
 70
     2
  9
$DIMALTF
 40
25.4
  9
$DIMLFAC
 40
1.0
  9
$DIMTOFL
 70
     0
  9
$DIMTVP
 40
0.0
  9
$DIMTIX
 70
     0
  9
$DIMSOXD
 70
     0
  9
$DIMSAH
 70
     0
  9
$DIMBLK1
  1

  9
$DIMBLK2
  1

  9
$LUNITS
 70
     2
  9
$LUPREC
 70
     4
  9
$SKETCHINC
 40
0.1
  9
$FILLETRAD
 40
0.0
  9
$AUNITS
 70
     0
  9
$AUPREC
 70
     0
  9
$MENU
  1
.
  9
$ELEVATION
 40
0.0
  9
$THICKNESS
 40
0.0
  9
$LIMCHECK
 70
     0
  9
$CHAMFERA
 40
0.0
  9
$CHAMFERB
 40
0.0
  9
$SKPOLY
 70
     0
  9
$TDCREATE
 40
2460334.851310509
  9
$TDUPDATE
 40
2460334.851310741
  9
$TDINDWG
 40
0.0000000116
  9
$TDUSRTIMER
 40
0.0000000116
  9
$USRTIMER
 70
     1
  9
$ANGBASE
 50
0.0
  9
$ANGDIR
 70
     0
  9
$PDMODE
 70
     0
  9
$PDSIZE
 40
0.0
  9
$PLINEWID
 40
0.0
  9
$COORDS
 70
     1
  9
$SPLFRAME
 70
     0
  9
$SPLINETYPE
 70
     6
  9
$SPLINESEGS
 70
     8
  9
$ATTDIA
 70
     0
  9
$ATTREQ
 70
     1
  9
$SURFTAB1
 70
     6
  9
$SURFTAB2
 70
     6
  9
$SURFTYPE
 70
     6
  9
$SURFU
 70
     6
  9
$SURFV
 70
     6
  9
$UCSNAME
  2

  9
$UCSORG
 10
0.0
 20
0.0
 30
0.0
  9
$UCSXDIR
 10
1.0
 20
0.0
 30
0.0
  9
$UCSYDIR
 10
0.0
 20
1.0
 30
0.0
  9
$USERI1
 70
     0
  9
$USERI2
 70
     0
  9
$USERI3
 70
     0
  9
$USERI4
 70
     0
  9
$USERI5
 70
     0
  9
$USERR1
 40
0.0
  9
$USERR2
 40
0.0
  9
$USERR3
 40
0.0
  9
$USERR4
 40
0.0
  9
$USERR5
 40
0.0
  9
$WORLDVIEW
 70
     1
  0
ENDSEC
  0
SECTION
  2
TABLES
  0
TABLE
  2
LTYPE
 70
     2
  0
LTYPE
  2
CONTINUOUS
 70
     0
  3
Solid line
 72
    65
 73
     0
 40
0.0
  0
LTYPE
  2
CENTER
 70
     0
  3

 72
    65
 73
     0
 40
0.0
  0
ENDTAB
  0
TABLE
  2
LAYER
 70
     1
  0
LAYER
  2
0
 70
     0
 62
     7
  6
CONTINUOUS
  0
ENDTAB
  0
TABLE
  2
STYLE
 70
     3
  0
STYLE
  2
STANDARD
 70
     0
 40
0.0
 41
1.0
 50
0.0
 71
     0
 42
0.2
  3
txt
  4

  0
STYLE
  2
HG丸ｺﾞｼｯｸM-PRO
 70
     0
 40
0.0
 41
1.0
 50
0.0
 71
     0
 42
0.2
  3
HGRSMP.TTF
  4

  0
STYLE
  2
MTXPL_HG丸ｺﾞｼｯｸM-PRO
 70
     0
 40
0.2
 41
1.0
 50
0.0
 71
     0
 42
0.2
  3
txt.shx
  4

  0
ENDTAB
  0
TABLE
  2
VIEW
 70
     0
  0
ENDTAB
  0
ENDSEC
  0
SECTION
  2
BLOCKS
  0
ENDSEC
  0
SECTION
  2
ENTITIES
  0
TEXT
  8
0
 62
     7
 10
139.6581786075542
 20
41.54453679791714
 40
3.5
  1
断面 A-A
  7
MTXPL_HG丸ｺﾞｼｯｸM-PRO
  0
TEXT
  8
0
 62
     7
 10
6.308904040404095
 20
50.20726912114964
 40
3.5
  1
A
  7
MTXPL_HG丸ｺﾞｼｯｸM-PRO
  0
TEXT
  8
0
 62
     7
 10
6.308904040404095
 20
-14.2320707070774
 40
3.5
  1
A
  7
MTXPL_HG丸ｺﾞｼｯｸM-PRO
  0
LINE
  8
0
  6
CONTINUOUS
 62
     7
 10
-64.83335534952927
 20
-122.1048239283123
 11
-64.57402514854759
 21
-122.2149368203371
  0
LINE
  8
0
  6
CONTINUOUS
 62
     7
 10
33.87510939855232
 20
22.57472238863362
 11
30.20770513428872
 21
13.49864485459823
  0
LINE
  8
0
  6
CONTINUOUS
 62
     7
 10
0.0
 20
46.93933982822035
 11
0.0
 21
51.93933982822035
  0
LINE
  8
0
  6
CONTINUOUS
 62
     7
 10
-64.0
 20
-122.3056396885846
 11
-64.0
 21
-123.4365495536147
  0
LINE
  8
0
  6
CONTINUOUS
 62
     7
 10
-64.0
 20
-123.4365495536147
 11
64.0
 21
-123.4365495536147
  0
LINE
  8
0
  6
CONTINUOUS
 62
     7
 10
0.0
 20
-12.50000000000673
 11
0.0
 21
-17.50000000000673
  0
LINE
  8
0
  6
CONTINUOUS
 62
     7
 10
5.250000000000032
 20
31.49999999999997
 11
5.250000000000032
 21
15.00000000000001
  0
LINE
  8
0
  6
CONTINUOUS
 62
     7
 10
52.44869612145902
 20
13.49864485459823
 11
49.09155188686992
 21
13.49864485459823
  0
LINE
  8
0
  6
CONTINUOUS
 62
     7
 10
184.553667981166
 20
26.70335651330086
 11
185.0197768029069
 21
-0.0000000000000035
  0
LINE
  8
0
  6
CONTINUOUS
 62
     7
 10
-34.59999999999997
 20
-107.4972097253945
 11
-36.45454545454535
 21
-107.4972097253945
  0
LINE
  8
0
  6
CONTINUOUS
 62
     7
 10
-36.45454545454535
 20
-107.4972097253945
 11
-36.45454545454535
 21
-107.9972097253945
  0
LINE
  8
0
  6
CONTINUOUS
 62
     7
 10
65.38581929876702
 20
-121.5700637633644
 11
65.47117792060492
 21
-121.3465334339606
  0
LINE
  8
0
  6
CONTINUOUS
 62
     7
 10
-31.54545454545449
 20
-107.4972097253945
 11
-34.59999999999997
 21
-107.4972097253945
  0
ARC
  8
0
  6
CONTINUOUS
 62
     7
 10
15.31473704532643
 20
13.87972416121619
 40
10.06487315679977
 50
182.1621490992304
 51
190.427062546082
  0
LINE
  8
0
  6
CONTINUOUS
 62
     7
 10
-58.70948891993369
 20
-107.4972097253945
 11
-58.70948891993369
 21
-107.9972097253945
  0
LINE
  8
0
  6
CONTINUOUS
 62
     7
 10
62.5
 20
-115.6727032690803
 11
-62.5
 21
-115.6727032690804
  0
LINE
  8
0
  6
CONTINUOUS
 62
     7
 10
165.4961248550604
 20
31.49999999999997
 11
165.4961248550604
 21
29.99999999999997
  0
LINE
  8
0
  6
CONTINUOUS
 62
     7
 10
64.0
 20
-123.4365495536147
 11
64.0
 21
-122.3056396885846
  0
LINE
  8
0
  6
CONTINUOUS
 62
     7
 10
174.9724729072139
 20
0.0
 11
165.4961248550604
 21
0.0
  0
LINE
  8
0
  6
CONTINUOUS
 62
     7
 10
65.5
 20
-121.1140696517746
 11
65.5
 21
-121.9365495536147
  0
LINE
  8
0
  6
CONTINUOUS
 62
     7
 10
64.0
 20
-122.3056396885846
 11
-64.0
 21
-122.3056396885846
  0
LINE
  8
0
  6
CONTINUOUS
 62
     7
 10
64.0
 20
-122.3056396885845
 11
64.29263548302421
 21
-122.2827440044473
  0
LINE
  8
0
  6
CONTINUOUS
 62
     7
 10
10.00000000000001
 20
-15.00000000000673
 11
0.0
 21
-15.00000000000673
  0
LINE
  8
0
  6
CONTINUOUS
 62
     7
 10
187.4961248550605
 20
0.0
 11
185.0197768029069
 21
0.0
  0
LINE
  8
0
  6
CONTINUOUS
 62
     7
 10
-65.5
 20
-121.1140696517746
 11
-65.47117792060477
 21
-121.3465334339606
  0
LINE
  8
0
  6
CONTINUOUS
 62
     7
 10
65.06066017177992
 20
-121.9566369050616
 11
65.24720441845393
 21
-121.7760704947843
  0
LINE
  8
0
  6
CONTINUOUS
 62
     7
 10
-47.8740049159646
 20
-107.4972097253945
 11
-47.8740049159646
 21
-107.9972097253945
  0
LINE
  8
0
  6
CONTINUOUS
 62
     7
 10
52.84127092281054
 20
23.49266997170551
 11
54.05482212013024
 21
26.49413014540192
  0
LINE
  8
0
  6
CONTINUOUS
 62
     7
 10
46.67517581700181
 20
13.49864485459823
 11
43.31705448805096
 21
13.49864485459823
  0
LINE
  8
0
  6
CONTINUOUS
 62
     7
 10
-65.38581929876688
 20
-121.5700637633645
 11
-65.2472044184538
 21
-121.7760704947843
  0
ARC
  8
0
  6
CONTINUOUS
 62
     7
 10
179.1835170761267
 20
34.50000000000009
 40
1.500000000000001
 50
270.0000000000002
 51
307.4032634335555
  0
LINE
  8
0
  6
CONTINUOUS
 62
     7
 10
181.1716183987462
 20
29.99999999999997
 11
165.4961248550605
 21
29.99999999999997
  0
LINE
  8
0
  6
CENTER
 62
     1
 10
0.0
 20
-12.50000000000673
 11
0.0
 21
46.93933982822035
  0
LINE
  8
0
  6
CONTINUOUS
 62
     7
 10
-58.11413420368308
 20
-107.4972097253945
 11
-58.70948891664037
 21
-107.4972097253946
  0
LINE
  8
0
  6
CONTINUOUS
 62
     7
 10
-64.57402514854759
 20
-122.2149368203371
 11
-64.29263548302409
 21
-122.2827440044474
  0
LINE
  8
0
  6
CONTINUOUS
 62
     7
 10
65.47117792060492
 20
-121.3465334339606
 11
65.5
 21
-121.1140696517746
  0
LINE
  8
0
  6
CONTINUOUS
 62
     7
 10
-39.93522959320478
 20
-107.9972097253945
 11
-39.93522959320478
 21
-107.4972097253945
  0
LINE
  8
0
  6
CONTINUOUS
 62
     7
 10
185.0197768029069
 20
0.0
 11
174.9724729072138
 21
0.0
  0
ARC
  8
0
  6
CONTINUOUS
 62
     7
 10
-64.0
 20
-121.9365495536147
 40
1.500000000000001
 50
180.0
 51
270.0
  0
LINE
  8
0
  6
CONTINUOUS
 62
     7
 10
10.00000000000001
 20
49.43933982822035
 11
0.0
 21
49.43933982822035
  0
LINE
  8
0
  6
CONTINUOUS
 62
     7
 10
64.29263548302421
 20
-122.2827440044473
 11
64.5740251485477
 21
-122.214936820337
  0
LINE
  8
0
  6
CONTINUOUS
 62
     7
 10
29.68350486580262
 20
26.49413014540192
 11
28.91998057077855
 21
24.60434120052363
  0
LINE
  8
0
  6
CONTINUOUS
 62
     7
 10
6.019110831381513
 20
0.0
 11
3.935332699378291
 21
11.81769303614649
  0
LINE
  8
0
  6
CONTINUOUS
 62
     7
 10
30.20770513428872
 20
13.49864485459823
 11
26.84954037892179
 21
13.49864485459823
  0
LINE
  8
0
  6
CONTINUOUS
 62
     7
 10
-65.47117792060477
 20
-121.3465334339606
 11
-65.38581929876688
 21
-121.5700637633645
  0
LINE
  8
0
  6
CONTINUOUS
 62
     7
 10
165.4961248550604
 20
0.0
 11
165.4961248550604
 21
29.99999999999997
  0
LINE
  8
0
  6
CONTINUOUS
 62
     7
 10
5.250000000000032
 20
31.49999999999997
 11
3.750000000000031
 21
31.49999999999997
  0
LINE
  8
0
  6
CONTINUOUS
 62
     7
 10
0.0
 20
49.43933982822035
 11
4.000000000000004
 21
50.68933982822033
  0
LINE
  8
0
  6
CONTINUOUS
 62
     7
 10
41.42409701117972
 20
26.49413014540192
 11
46.67517581700181
 21
13.49864485459823
  0
ARC
  8
0
  6
CONTINUOUS
 62
     7
 10
183.4354646832806
 20
28.93933982822022
 40
2.500000000000002
 50
296.5693895436376
 51
154.8959097497784
  0
LINE
  8
0
  6
CONTINUOUS
 62
     7
 10
50.75300313962544
 20
23.49266997170551
 11
52.84127092281066
 21
23.49266997170551
  0
LINE
  8
0
  6
CONTINUOUS
 62
     7
 10
43.84047308104771
 20
26.49413014540192
 11
47.19835556471008
 21
26.49413014540192
  0
ARC
  8
0
  6
CONTINUOUS
 62
     7
 10
183.4354646832806
 20
28.93933982822022
 40
5.500000000000004
 50
322.5967365664446
 51
127.4032634335554
  0
LINE
  8
0
  6
CONTINUOUS
 62
     7
 10
20.78782066415824
 20
13.49864485459823
 11
20.78782066415824
 21
22.15913014540188
  0
LINE
  8
0
  6
CONTINUOUS
 62
     7
 10
179.1835170761267
 20
33.00000000000009
 11
166.9961248550604
 21
33.00000000000009
  0
LINE
  8
0
  6
CONTINUOUS
 62
     7
 10
-3.249999999999975
 20
-99.9972097253945
 11
3.25000000000003
 21
-99.9972097253945
  0
LINE
  8
0
  6
CONTINUOUS
 62
     7
 10
-48.06363636363636
 20
-107.4972097253945
 11
-48.06363636363636
 21
-107.9972097253945
  0
LINE
  8
0
  6
CONTINUOUS
 62
     7
 10
3.750000000000031
 20
13.92851868582157
 11
3.750000000000031
 21
31.49999999999997
  0
ARC
  8
0
  6
CONTINUOUS
 62
     7
 10
188.9961248550605
 20
24.68739222106642
 40
1.500000000000001
 50
142.5967365664451
 51
180.0000000000004
  0
LINE
  8
0
  6
CONTINUOUS
 62
     7
 10
57.41196635471945
 20
26.49413014540192
 11
53.47577428813666
 21
16.75045831698846
  0
LINE
  8
0
  6
CONTINUOUS
 62
     7
 10
5.416074233614898
 20
12.0581462181929
 11
7.542250749210111
 21
0.0000000000000017
  0
LINE
  8
0
  6
CONTINUOUS
 62
     7
 10
35.64968646519295
 20
26.49413014540192
 11
38.32514453338648
 21
19.87329532362503
  0
LINE
  8
0
  6
CONTINUOUS
 62
     7
 10
3.750000000000031
 20
31.49999999999997
 11
3.250000000000031
 21
31.49999999999997
  0
LINE
  8
0
  6
CONTINUOUS
 62
     7
 10
3.250000000000031
 20
14.5619285843972
 11
3.250000000000031
 21
29.99999999999997
  0
LINE
  8
0
  6
CONTINUOUS
 62
     7
 10
-6.019110831381402
 20
0.0
 11
-7.54225074921
 21
0.0
  0
LINE
  8
0
  6
CONTINUOUS
 62
     7
 10
5.250000000000032
 20
15.00000000000001
 11
5.25702949221779
 21
13.50000000000001
  0
LINE
  8
0
  6
CONTINUOUS
 62
     7
 10
3.435245019681288
 20
11.77444596065491
 11
3.389567184770903
 21
12.05002193649129
  0
LINE
  8
0
  6
CONTINUOUS
 62
     7
 10
28.91998057077843
 20
24.60434120052363
 11
27.07407038559961
 21
24.60434120052363
  0
LINE
  8
0
  6
CONTINUOUS
 62
     7
 10
-3.249999999999975
 20
31.49999999999997
 11
-3.749999999999976
 21
31.49999999999997
  0
LINE
  8
0
  6
CONTINUOUS
 62
     7
 10
49.09155188686992
 20
13.49864485459823
 11
43.84047308104771
 21
26.49413014540192
  0
LINE
  8
0
  6
CONTINUOUS
 62
     7
 10
-3.249999999999975
 20
32.99999999999997
 11
3.25000000000003
 21
32.99999999999997
  0
ARC
  8
0
  6
CONTINUOUS
 62
     7
 10
25.12282066415822
 20
22.15913014540188
 40
4.334999999999978
 50
90.0
 51
180.0
  0
ARC
  8
0
  6
CONTINUOUS
 62
     7
 10
-3.749999999999976
 20
31.49999999999997
 40
1.500000000000001
 50
90.0
 51
180.0
  0
LINE
  8
0
  6
CONTINUOUS
 62
     7
 10
-5.511397525438611
 20
0.0
 11
-6.019110831381402
 21
0.0
  0
LINE
  8
0
  6
CONTINUOUS
 62
     7
 10
26.84954037892168
 20
13.49864485459823
 11
32.09979408283831
 21
26.49413014540192
  0
LINE
  8
0
  6
CONTINUOUS
 62
     7
 10
3.794459506194114
 20
32.99999999999997
 11
11.25000000000004
 21
32.99999999999997
  0
LINE
  8
0
  6
CONTINUOUS
 62
     7
 10
32.09979408283841
 20
26.49413014540192
 11
35.64968646519295
 21
26.49413014540192
  0
LINE
  8
0
  6
CONTINUOUS
 62
     7
 10
-3.792973591862259
 20
32.99999999999997
 11
-3.749999999999976
 21
32.99999999999997
  0
LINE
  8
0
  6
CONTINUOUS
 62
     7
 10
-3.749999999999976
 20
32.99999999999997
 11
-3.749999999999976
 21
31.49999999999997
  0
ARC
  8
0
  6
CONTINUOUS
 62
     7
 10
3.750000000000031
 20
31.49999999999997
 40
1.500000000000001
 50
0.0
 51
90.0
  0
LINE
  8
0
  6
CONTINUOUS
 62
     7
 10
43.31705448805096
 20
13.49864485459823
 11
38.06597568222875
 21
26.49413014540192
  0
LINE
  8
0
  6
CONTINUOUS
 62
     7
 10
25.12282066415822
 20
26.49413014540192
 11
29.68350486580262
 21
26.49413014540192
  0
LINE
  8
0
  6
CONTINUOUS
 62
     7
 10
-5.458472617206889
 20
11.81769303614649
 11
-5.337106951008197
 21
12.5578629535783
  0
ARC
  8
0
  6
CONTINUOUS
 62
     7
 10
-15.29897235109179
 20
13.87904811836949
 40
10.04909411285648
 50
352.4452768229612
 51
0.282052581375126
  0
LINE
  8
0
  6
CONTINUOUS
 62
     7
 10
-3.938862842796488
 20
11.79767259795783
 11
-6.019110831381402
 21
0.0000000000001093
  0
LINE
  8
0
  6
CONTINUOUS
 62
     7
 10
0.0
 20
-15.00000000000673
 11
4.000000000000004
 21
-16.2500000000067
  0
LINE
  8
0
  6
CONTINUOUS
 62
     7
 10
38.06597568222875
 20
26.49413014540192
 11
41.4240970111796
 21
26.49413014540192
  0
LINE
  8
0
  6
CONTINUOUS
 62
     7
 10
6.019110831381513
 20
0.0
 11
5.511397525438722
 21
0.0
  0
LINE
  8
0
  6
CONTINUOUS
 62
     7
 10
36.64606215570304
 20
15.71669248223467
 11
33.87510939855232
 21
22.57472238863362
  0
LINE
  8
0
  6
CONTINUOUS
 62
     7
 10
-7.54225074921
 20
0.0
 11
-5.458472617206889
 21
11.81769303614649
  0
LINE
  8
0
  6
CONTINUOUS
 62
     7
 10
24.18407038559961
 20
13.49864485459823
 11
20.78782066415824
 21
13.49864485459823
  0
LINE
  8
0
  6
CONTINUOUS
 62
     7
 10
3.935332699378291
 20
11.81769303614649
 11
3.857678536987708
 21
12.31280653336947
  0
LINE
  8
0
  6
CONTINUOUS
 62
     7
 10
47.19835556471008
 20
26.49413014540192
 11
52.44869612145892
 21
13.49864485459823
  0
LINE
  8
0
  6
CONTINUOUS
 62
     7
 10
24.18407038559961
 20
21.71434120052362
 11
24.18407038559961
 21
13.49864485459823
  0
LINE
  8
0
  6
CONTINUOUS
 62
     7
 10
4.000000000000004
 20
-13.75000000000676
 11
0.0
 21
-15.00000000000673
  0
LINE
  8
0
  6
CONTINUOUS
 62
     7
 10
5.511397525438611
 20
0.0
 11
3.435245019681288
 21
11.77444596065491
  0
LINE
  8
0
  6
CONTINUOUS
 62
     7
 10
54.05482212013024
 20
26.49413014540192
 11
57.41196635471945
 21
26.49413014540192
  0
ARC
  8
0
  6
CONTINUOUS
 62
     7
 10
15.1373288611627
 20
13.87597881889152
 40
11.38745006706437
 50
179.7356455313534
 51
187.8899899781791
  0
LINE
  8
0
  6
CONTINUOUS
 62
     7
 10
-36.45454545454535
 20
15.18181818181819
 11
-36.45454545454535
 21
26.4181818181819
  0
LINE
  8
0
  6
CONTINUOUS
 62
     7
 10
7.583931969865731
 20
0.0
 11
7.542250749210111
 21
0.0
  0
LINE
  8
0
  6
CONTINUOUS
 62
     7
 10
11.25000000000004
 20
31.49999999999997
 11
5.250000000000032
 21
31.49999999999997
  0
ARC
  8
0
  6
CONTINUOUS
 62
     7
 10
16.69588733739463
 20
14.0491816787443
 40
13.45566035834606
 50
177.8161348061434
 51
188.5442901826035
  0
LINE
  8
0
  6
CONTINUOUS
 62
     7
 10
53.47577428813666
 20
16.75045831698846
 11
50.75300313962533
 21
23.49266997170551
  0
ARC
  8
0
  6
CONTINUOUS
 62
     7
 10
39.21195531841792
 20
16.34310036602371
 40
28.0707987513229
 50
185.047220220095
 51
193.2246393743513
  0
LINE
  8
0
  6
CONTINUOUS
 62
     7
 10
-31.88731358770319
 20
17.06041511621259
 11
-32.04872829960497
 21
17.04275219329637
  0
LINE
  8
0
  6
CONTINUOUS
 62
     7
 10
-31.54545454545449
 20
17.09090909090921
 11
-31.71955566965312
 21
17.0764674154168
  0
ARC
  8
0
  6
CONTINUOUS
 62
     7
 10
-15.30602186016627
 20
13.87894956880764
 40
11.55612469453149
 50
349.6243200928782
 51
358.1208143155561
  0
LINE
  8
0
  6
CONTINUOUS
 62
     7
 10
-3.433531195472184
 20
11.78416554465556
 11
-3.389661967725333
 21
12.0494060153466
  0
LINE
  8
0
  6
CONTINUOUS
 62
     7
 10
-11.24999999999998
 20
32.99999999999997
 11
-3.79297359186226
 21
32.99999999999997
  0
ARC
  8
0
  6
CONTINUOUS
 62
     7
 10
203937.8332940633
 20
35958.97018863375
 40
207070.3413437646
 50
189.9976571503731
 51
190.0004447030667
  0
LINE
  8
0
  6
CONTINUOUS
 62
     7
 10
-3.749999999999976
 20
32.99999999999997
 11
-3.249999999999975
 21
32.99999999999997
  0
LINE
  8
0
  6
CONTINUOUS
 62
     7
 10
13.63481042052461
 20
0.0
 11
7.58393196986562
 21
0.0
  0
LINE
  8
0
  6
CONTINUOUS
 62
     7
 10
-31.54545454545449
 20
18.4545454545455
 11
-31.54545454545449
 21
17.09090909090921
  0
LINE
  8
0
  6
CONTINUOUS
 62
     7
 10
4.000000000000004
 20
48.18933982822032
 11
0.0
 21
49.43933982822035
  0
LINE
  8
0
  6
CONTINUOUS
 62
     7
 10
-32.20379980535842
 20
17.02347864666831
 11
-32.35252810496331
 21
17.00259447632824
  0
LINE
  8
0
  6
CONTINUOUS
 62
     7
 10
-32.49491319841991
 20
16.9800996822762
 11
-32.63095508572822
 21
16.95599426451227
  0
ARC
  8
0
  6
CONTINUOUS
 62
     7
 10
27.07407038559973
 20
21.71434120052362
 40
2.890000000000004
 50
90.0
 51
180.0
  0
LINE
  8
0
  6
CONTINUOUS
 62
     7
 10
187.4961248550605
 20
24.68739222106642
 11
187.4961248550605
 21
0.0000000000000069
  0
LINE
  8
0
  6
CONTINUOUS
 62
     7
 10
-36.45454545454535
 20
26.4181818181819
 11
-34.27272727272729
 21
26.4181818181819
  0
LINE
  8
0
  6
CONTINUOUS
 62
     7
 10
7.542250749210111
 20
0.0
 11
6.019110831381513
 21
0.0
  0
LINE
  8
0
  6
CONTINUOUS
 62
     7
 10
-3.249999999999975
 20
14.17371653158361
 11
-3.249999999999975
 21
29.99999999999997
  0
LINE
  8
0
  6
CONTINUOUS
 62
     7
 10
38.32514453338648
 20
19.87329532362503
 11
36.64606215570304
 21
15.71669248223467
  0
LINE
  8
0
  6
CONTINUOUS
 62
     7
 10
3.750000000000031
 20
31.49999999999997
 11
3.750000000000031
 21
32.99999999999997
  0
LINE
  8
0
  6
CONTINUOUS
 62
     7
 10
-32.76065376688797
 20
16.93027822303639
 11
-32.88400924189938
 21
16.90295155784871
  0
LINE
  8
0
  6
CONTINUOUS
 62
     7
 10
-33.56988779482478
 20
16.66656743760025
 11
-33.66266771739745
 21
16.61461449149881
  0
LINE
  8
0
  6
CONTINUOUS
 62
     7
 10
-21.68181818181808
 20
15.18181818181819
 11
-21.68181818181808
 21
19.65454545454553
  0
LINE
  8
0
  6
CONTINUOUS
 62
     7
 10
-26.3181818181818
 20
26.4181818181819
 11
-26.3181818181818
 21
21.5636363636365
  0
LINE
  8
0
  6
CONTINUOUS
 62
     7
 10
-34.59999999999997
 20
15.18181818181819
 11
-36.45454545454535
 21
15.18181818181819
  0
LINE
  8
0
  6
CONTINUOUS
 62
     7
 10
-5.249999999999977
 20
13.928517058514
 11
-5.249999999999977
 21
31.49999999999997
  0
LINE
  8
0
  6
CONTINUOUS
 62
     7
 10
-33.11169057347718
 20
16.84346635633738
 11
-33.21601643004352
 21
16.81130782001383
  0
LINE
  8
0
  6
CONTINUOUS
 62
     7
 10
-3.749999999999976
 20
31.49999999999997
 11
-5.249999999999977
 21
31.49999999999997
  0
ARC
  8
0
  6
CONTINUOUS
 62
     7
 10
-15.73017999366288
 20
13.92747483676921
 40
12.48260900799547
 50
351.3467144419906
 51
1.130334616385483
  0
LINE
  8
0
  6
CONTINUOUS
 62
     7
 10
-32.63095508572822
 20
16.95599426451227
 11
-32.76065376688797
 21
16.93027822303639
  0
LINE
  8
0
  6
CONTINUOUS
 62
     7
 10
-3.749999999999976
 20
15.00000000000001
 11
-3.756112112472954
 21
13.50000000000001
  0
LINE
  8
0
  6
CONTINUOUS
 62
     7
 10
-58.24782930720138
 20
20.59608636933369
 11
-58.33024143842707
 21
20.76474527637373
  0
LINE
  8
0
  6
CONTINUOUS
 62
     7
 10
-34.26859713118269
 20
16.00294028723953
 11
-34.32729956205627
 21
15.90197468227622
  0
LINE
  8
0
  6
CONTINUOUS
 62
     7
 10
-56.14578350304547
 20
18.86700408396868
 11
-56.3777374502776
 21
18.95122622648537
  0
LINE
  8
0
  6
CONTINUOUS
 62
     7
 10
-5.511397525438499
 20
0.0
 11
-3.433531195472184
 21
11.78416554465556
  0
ARC
  8
0
  6
CONTINUOUS
 62
     7
 10
-203937.8333783002
 20
35958.97020348463
 40
207070.3414293006
 50
349.999555296934
 51
350.0023428496266
  0
LINE
  8
0
  6
CONTINUOUS
 62
     7
 10
-58.15770942964276
 20
20.43388709911331
 11
-58.24782930720138
 21
20.59608636933369
  0
LINE
  8
0
  6
CONTINUOUS
 62
     7
 10
-34.27272727272729
 20
26.4181818181819
 11
-34.27272727272729
 21
18.4545454545455
  0
LINE
  8
0
  6
CONTINUOUS
 62
     7
 10
3.250000000000031
 20
31.49999999999997
 11
-3.249999999999974
 21
31.49999999999997
  0
LINE
  8
0
  6
CONTINUOUS
 62
     7
 10
-31.71955566965312
 20
17.0764674154168
 11
-31.88731358770319
 21
17.06041511621259
  0
LINE
  8
0
  6
CONTINUOUS
 62
     7
 10
-11.24999999999998
 20
13.87352341710169
 11
-11.24999999999998
 21
31.49999999999997
  0
LINE
  8
0
  6
CONTINUOUS
 62
     7
 10
-3.749999999999976
 20
31.49999999999997
 11
-3.749999999999976
 21
15.00000000000001
  0
LINE
  8
0
  6
CONTINUOUS
 62
     7
 10
-11.24999999999998
 20
31.49999999999997
 11
-11.24999999999998
 21
32.99999999999997
  0
LINE
  8
0
  6
CONTINUOUS
 62
     7
 10
-32.04872829960497
 20
17.04275219329637
 11
-32.20379980535842
 21
17.02347864666831
  0
LINE
  8
0
  6
CONTINUOUS
 62
     7
 10
3.750000000000031
 20
32.99999999999997
 11
3.794459506194114
 21
32.99999999999997
  0
LINE
  8
0
  6
CONTINUOUS
 62
     7
 10
-32.35252810496331
 20
17.00259447632824
 11
-32.49491319841991
 21
16.9800996822762
  0
LINE
  8
0
  6
CONTINUOUS
 62
     7
 10
-21.68181818181808
 20
26.4181818181819
 11
-19.49999999999996
 21
26.4181818181819
  0
LINE
  8
0
  6
CONTINUOUS
 62
     7
 10
-54.69063464666029
 20
18.69419860207605
 11
-54.94071007189017
 21
18.6834129236762
  0
LINE
  8
0
  6
CONTINUOUS
 62
     7
 10
-57.84110331896899
 20
19.98604710936858
 11
-57.95434643552657
 21
20.12886746913073
  0
LINE
  8
0
  6
CONTINUOUS
 62
     7
 10
-34.48068852687769
 20
15.56640276147825
 11
-34.52424540588495
 21
15.44365375257611
  0
LINE
  8
0
  6
CONTINUOUS
 62
     7
 10
-28.49999999999997
 20
15.18181818181819
 11
-28.49999999999997
 21
26.4181818181819
  0
LINE
  8
0
  6
CONTINUOUS
 62
     7
 10
-33.99592352802261
 20
16.3523441972464
 11
-34.06977151076251
 21
16.2731619962217
  0
LINE
  8
0
  6
CONTINUOUS
 62
     7
 10
-34.13983310553576
 20
16.18853394421232
 11
-34.20610831234255
 21
16.09846004121829
  0
LINE
  8
0
  6
CONTINUOUS
 62
     7
 10
-53.3949538255159
 20
18.98564654636625
 11
-53.66013048241069
 21
18.89568768386929
  0
LINE
  8
0
  6
CONTINUOUS
 62
     7
 10
-26.3181818181818
 20
21.5636363636365
 11
-21.68181818181808
 21
21.5636363636365
  0
LINE
  8
0
  6
CONTINUOUS
 62
     7
 10
-34.43334525990377
 20
15.6837059193955
 11
-34.48068852687769
 21
15.56640276147825
  0
LINE
  8
0
  6
CONTINUOUS
 62
     7
 10
-57.31105338940909
 20
19.47936203851425
 11
-57.4551274912985
 21
19.59634385099862
  0
LINE
  8
0
  6
CONTINUOUS
 62
     7
 10
-32.88400924189938
 20
16.90295155784871
 11
-33.00102151076245
 21
16.87401426894902
  0
LINE
  8
0
  6
CONTINUOUS
 62
     7
 10
11.25000000000004
 20
32.99999999999997
 11
11.25000000000004
 21
31.49999999999997
  0
LINE
  8
0
  6
CONTINUOUS
 62
     7
 10
-34.27272727272729
 20
18.4545454545455
 11
-31.54545454545449
 21
18.4545454545455
  0
LINE
  8
0
  6
CONTINUOUS
 62
     7
 10
-33.21601643004352
 20
16.81130782001383
 11
-33.31399908046134
 21
16.77753865997828
  0
ARC
  8
0
  6
CONTINUOUS
 62
     7
 10
-39.21195531842609
 20
16.34310036602593
 40
28.07079875133134
 50
346.7753606256506
 51
354.9527797799025
  0
LINE
  8
0
  6
CONTINUOUS
 62
     7
 10
-33.75166125200369
 20
16.5572156944126
 11
-33.83686839864319
 21
16.49437104634194
  0
LINE
  8
0
  6
CONTINUOUS
 62
     7
 10
-58.05988180575117
 20
20.27814746571244
 11
-58.15770942964276
 21
20.43388709911331
  0
LINE
  8
0
  6
CONTINUOUS
 62
     7
 10
-52.85553977272728
 20
19.21306818181817
 11
-53.126756922288
 21
19.09144004568253
  0
LINE
  8
0
  6
CONTINUOUS
 62
     7
 10
-34.56401589692582
 20
15.31545889268948
 11
-34.59999999999997
 21
15.18181818181819
  0
LINE
  8
0
  6
CONTINUOUS
 62
     7
 10
-33.00102151076245
 20
16.87401426894902
 11
-33.11169057347718
 21
16.84346635633738
  0
LINE
  8
0
  6
CONTINUOUS
 62
     7
 10
-13.6348104205245
 20
0.0
 11
-7.542309123729773
 21
0.0
  0
LINE
  8
0
  6
CONTINUOUS
 62
     7
 10
-33.31399908046134
 20
16.77753865997828
 11
-33.40563852473088
 21
16.74215887623082
  0
LINE
  8
0
  6
CONTINUOUS
 62
     7
 10
-33.83686839864319
 20
16.49437104634194
 11
-33.91828915731615
 21
16.4260805472865
  0
LINE
  8
0
  6
CONTINUOUS
 62
     7
 10
-57.72015245607847
 20
19.84968638642576
 11
-57.84110331896899
 21
19.98604710936858
  0
LINE
  8
0
  6
CONTINUOUS
 62
     7
 10
-57.95434643552657
 20
20.12886746913073
 11
-58.05988180575117
 21
20.27814746571244
  0
LINE
  8
0
  6
CONTINUOUS
 62
     7
 10
-5.34893237903361
 20
31.49999999999997
 11
-11.24999999999998
 21
31.49999999999997
  0
LINE
  8
0
  6
CONTINUOUS
 62
     7
 10
-33.49093476285203
 20
16.70516846877151
 11
-33.56988779482478
 21
16.66656743760025
  0
LINE
  8
0
  6
CONTINUOUS
 62
     7
 10
-58.40494582331967
 20
20.93986382023305
 11
-58.47194246187948
 21
21.12144200091159
  0
LINE
  8
0
  6
CONTINUOUS
 62
     7
 10
3.250000000000031
 20
32.99999999999997
 11
3.750000000000031
 21
32.99999999999997
  0
LINE
  8
0
  6
CONTINUOUS
 62
     7
 10
11.25000000000004
 20
13.87352341710163
 11
11.25000000000004
 21
31.49999999999997
  0
LINE
  8
0
  6
CONTINUOUS
 62
     7
 10
-58.47194246187948
 20
21.12144200091159
 11
-58.53123135410618
 21
21.30947981840986
  0
LINE
  8
0
  6
CONTINUOUS
 62
     7
 10
-3.249999999999975
 20
29.99999999999997
 11
3.25000000000003
 21
29.99999999999997
  0
LINE
  8
0
  6
CONTINUOUS
 62
     7
 10
-53.126756922288
 20
19.09144004568253
 11
-53.3949538255159
 21
18.98564654636625
  0
LINE
  8
0
  6
CONTINUOUS
 62
     7
 10
-57.15927154118666
 20
19.36883986284915
 11
-57.31105338940909
 21
19.47936203851425
  0
ARC
  8
0
  6
CONTINUOUS
 62
     7
 10
-53.75751321738778
 20
22.78954191630639
 40
3.470660051505175
 50
3.09129474181691
 51
46.84318185980192
  0
LINE
  8
0
  6
CONTINUOUS
 62
     7
 10
-54.43753897509726
 20
18.7208189172951
 11
-54.69063464666029
 21
18.69419860207605
  0
LINE
  8
0
  6
CONTINUOUS
 62
     7
 10
-54.94071007189017
 20
18.6834129236762
 11
-55.18776525078717
 21
18.68846188209578
  0
LINE
  8
0
  6
CONTINUOUS
 62
     7
 10
-58.33024143842707
 20
20.76474527637373
 11
-58.40494582331967
 21
20.93986382023305
  0
LINE
  8
0
  6
CONTINUOUS
 62
     7
 10
-3.249999999999975
 20
26.70335651330086
 11
3.25000000000003
 21
26.70335651330086
  0
LINE
  8
0
  6
CONTINUOUS
 62
     7
 10
-43.19702474351228
 20
24.08855598836901
 11
-43.10098911470617
 21
24.17177795132231
  0
LINE
  8
0
  6
CONTINUOUS
 62
     7
 10
53.47577428813666
 20
-107.4967097253945
 11
52.44869612145902
 21
-107.4967097253945
  0
LINE
  8
0
  6
CONTINUOUS
 62
     7
 10
36.64606215570304
 20
-107.4967097253945
 11
36.64606215570304
 21
-107.9967097253945
  0
LINE
  8
0
  6
CONTINUOUS
 62
     7
 10
38.32514453338648
 20
-107.4967097253945
 11
38.32514453338648
 21
-107.9967097253945
  0
LINE
  8
0
  6
CONTINUOUS
 62
     7
 10
65.5
 20
32.11685992638014
 11
65.47117792060492
 21
32.34932370856608
  0
LINE
  8
0
  6
CONTINUOUS
 62
     7
 10
183.5627265185374
 20
31.43544796487124
 11
185.95395220767
 21
33.82667365400371
  0
LINE
  8
0
  6
CONTINUOUS
 62
     7
 10
46.67517581700181
 20
-107.4967097253945
 11
46.67517581700181
 21
-107.9967097253945
  0
LINE
  8
0
  6
CONTINUOUS
 62
     7
 10
38.32514453338648
 20
-107.4967097253945
 11
36.64606215570304
 21
-107.4967097253945
  0
LINE
  8
0
  6
CONTINUOUS
 62
     7
 10
-42.7174276828331
 20
24.54417111290941
 11
-42.66003873888996
 21
24.60990641459104
  0
LINE
  8
0
  6
CONTINUOUS
 62
     7
 10
-64.0
 20
33.30842996319011
 11
-64.29263548302409
 21
33.28553427905278
  0
LINE
  8
0
  6
CONTINUOUS
 62
     7
 10
-65.47117792060477
 20
32.34932370856608
 11
-65.5
 21
32.11685992638014
  0
LINE
  8
0
  6
CONTINUOUS
 62
     7
 10
24.18407038559961
 20
-107.4967097253945
 11
20.78782066415824
 21
-107.4967097253945
  0
LINE
  8
0
  6
CONTINUOUS
 62
     7
 10
64.8333553495295
 20
33.1076142029178
 11
64.5740251485477
 21
33.21772709494264
  0
LINE
  8
0
  6
CONTINUOUS
 62
     7
 10
65.38581929876702
 20
32.57285403796995
 11
65.24720441845393
 21
32.77886076938985
  0
LINE
  8
0
  6
CONTINUOUS
 62
     7
 10
-44.04962534118339
 20
23.42439782842776
 11
-43.90850191337026
 21
23.52802089619804
  0
LINE
  8
0
  6
CONTINUOUS
 62
     7
 10
65.5
 20
31.49999999999997
 11
65.5
 21
0.0
  0
LINE
  8
0
  6
CONTINUOUS
 62
     7
 10
-43.773819599701
 20
23.628729520423
 11
-43.64557840017547
 21
23.72652370110278
  0
ARC
  8
0
  6
CONTINUOUS
 62
     7
 10
11.25089809499979
 20
-101.9951301745483
 40
8.00207960124405
 50
179.0154006357661
 51
269.9935695399496
  0
ARC
  8
0
  6
CONTINUOUS
 62
     7
 10
64.0
 20
31.49999999999997
 40
1.500000000000001
 50
0.0
 51
90.0
  0
LINE
  8
0
  6
CONTINUOUS
 62
     7
 10
43.31705448805096
 20
-107.4967097253945
 11
43.31705448805096
 21
-107.9967097253945
  0
LINE
  8
0
  6
CONTINUOUS
 62
     7
 10
64.5740251485477
 20
33.21772709494264
 11
64.29263548302421
 21
33.28553427905278
  0
LINE
  8
0
  6
CONTINUOUS
 62
     7
 10
24.18407038559961
 20
-107.4967097253945
 11
24.18407038559961
 21
-107.9967097253945
  0
LINE
  8
0
  6
CONTINUOUS
 62
     7
 10
185.9302331891762
 20
28.80295463550997
 11
188.4079779833271
 21
31.28069942966083
  0
LINE
  8
0
  6
CONTINUOUS
 62
     7
 10
64.0
 20
31.49999999999997
 11
65.5
 21
31.49999999999997
  0
LINE
  8
0
  6
CONTINUOUS
 62
     7
 10
-64.0
 20
0.0
 11
-13.63481042052439
 21
0.0
  0
LINE
  8
0
  6
CONTINUOUS
 62
     7
 10
64.0
 20
34.43933982822023
 11
-64.0
 21
34.43933982822023
  0
LINE
  8
0
  6
CONTINUOUS
 62
     7
 10
-43.64557840017547
 20
23.72652370110278
 11
-43.52377831479387
 21
23.8214034382373
  0
LINE
  8
0
  6
CONTINUOUS
 62
     7
 10
169.6272785536663
 20
29.99999999999997
 11
172.6272785536663
 21
33.00000000000009
  0
LINE
  8
0
  6
CONTINUOUS
 62
     7
 10
-43.52377831479387
 20
23.8214034382373
 11
-43.40841934355621
 21
23.91336873182642
  0
LINE
  8
0
  6
CONTINUOUS
 62
     7
 10
64.0
 20
33.30842996319011
 11
64.0
 21
33.00000000000009
  0
LINE
  8
0
  6
CONTINUOUS
 62
     7
 10
-44.70599592347268
 20
22.95639140769351
 11
-44.60401585154811
 21
23.0283705470094
  0
LINE
  8
0
  6
CONTINUOUS
 62
     7
 10
-43.90850191337026
 20
23.52802089619804
 11
-43.773819599701
 21
23.628729520423
  0
LINE
  8
0
  6
CONTINUOUS
 62
     7
 10
57.41196635471945
 20
-107.4967097253945
 11
53.47577428813666
 21
-107.4967097253945
  0
LINE
  8
0
  6
CONTINUOUS
 62
     7
 10
-45.01259273082076
 20
22.74139791744983
 11
-44.91028436310895
 21
22.81290509291367
  0
LINE
  8
0
  6
CONTINUOUS
 62
     7
 10
165.4961248550604
 20
30.86884630139425
 11
167.6272785536663
 21
33.00000000000009
  0
LINE
  8
0
  6
CONTINUOUS
 62
     7
 10
-45.42292052095848
 20
22.45694242843321
 11
-45.32017442553049
 21
22.52782031876144
  0
LINE
  8
0
  6
CONTINUOUS
 62
     7
 10
65.47117792060492
 20
32.34932370856608
 11
65.38581929876702
 21
32.57285403796995
  0
LINE
  8
0
  6
CONTINUOUS
 62
     7
 10
65.24720441845393
 20
32.77886076938985
 11
65.06066017177992
 21
32.9594271796671
  0
LINE
  8
0
  6
CONTINUOUS
 62
     7
 10
65.5
 20
32.11685992638014
 11
65.5
 21
31.49999999999997
  0
LINE
  8
0
  6
CONTINUOUS
 62
     7
 10
-44.80808542732628
 20
22.88456958966173
 11
-44.70599592347268
 21
22.95639140769351
  0
LINE
  8
0
  6
CONTINUOUS
 62
     7
 10
-42.66003873888996
 20
24.60990641459104
 11
-42.60909090909082
 21
24.67272727272735
  0
LINE
  8
0
  6
CONTINUOUS
 62
     7
 10
11.25000000000004
 20
32.99999999999997
 11
64.0
 21
32.99999999999997
  0
LINE
  8
0
  6
CONTINUOUS
 62
     7
 10
20.78782066415824
 20
-107.4967097253945
 11
20.78782066415824
 21
-107.9967097253945
  0
LINE
  8
0
  6
CONTINUOUS
 62
     7
 10
57.41196635471945
 20
-107.4967097253945
 11
57.41196635471945
 21
-107.9967097253945
  0
LINE
  8
0
  6
CONTINUOUS
 62
     7
 10
172.1272785536663
 20
29.99999999999997
 11
175.1272785536663
 21
33.00000000000009
  0
LINE
  8
0
  6
CONTINUOUS
 62
     7
 10
-64.0
 20
31.49999999999997
 11
-64.0
 21
0.0
  0
LINE
  8
0
  6
CONTINUOUS
 62
     7
 10
-65.5
 20
31.49999999999997
 11
-64.0
 21
31.49999999999997
  0
LINE
  8
0
  6
CONTINUOUS
 62
     7
 10
65.06066017177992
 20
32.9594271796671
 11
64.8333553495295
 21
33.1076142029178
  0
LINE
  8
0
  6
CONTINUOUS
 62
     7
 10
-43.40841934355621
 20
23.91336873182642
 11
-43.29950148646228
 21
24.00241958187044
  0
LINE
  8
0
  6
CONTINUOUS
 62
     7
 10
53.47577428813666
 20
-107.4967097253945
 11
53.47577428813666
 21
-107.9967097253945
  0
LINE
  8
0
  6
CONTINUOUS
 62
     7
 10
-43.01139460004377
 20
24.25208547073032
 11
-42.92824119952543
 21
24.32947854659301
  0
LINE
  8
0
  6
CONTINUOUS
 62
     7
 10
65.5
 20
0.0
 11
64.0
 21
0.0
  0
LINE
  8
0
  6
CONTINUOUS
 62
     7
 10
30.20770513428872
 20
-107.4967097253945
 11
26.84954037892168
 21
-107.4967097253945
  0
LINE
  8
0
  6
CONTINUOUS
 62
     7
 10
36.64606215570304
 20
-107.4967097253945
 11
33.87510939855232
 21
-107.4967097253945
  0
ARC
  8
0
  6
CONTINUOUS
 62
     7
 10
-13.59846239002954
 20
-101.9259498593117
 40
6.071368671134113
 50
269.6569799505568
 51
4.049410261748449
  0
LINE
  8
0
  6
CONTINUOUS
 62
     7
 10
-64.0
 20
33.30842996319011
 11
-64.0
 21
33.00000000000009
  0
ARC
  8
0
  6
CONTINUOUS
 62
     7
 10
-64.0
 20
31.49999999999997
 40
1.500000000000001
 50
90.0
 51
180.0
  0
LINE
  8
0
  6
CONTINUOUS
 62
     7
 10
-44.19718988314036
 20
23.31786031711203
 11
-44.04962534118339
 21
23.42439782842776
  0
ARC
  8
0
  6
CONTINUOUS
 62
     7
 10
13.60010120371868
 20
-101.92441377159
 40
6.072895143691858
 50
175.966137896046
 51
270.3274718916489
  0
LINE
  8
0
  6
CONTINUOUS
 62
     7
 10
184.9272651920159
 20
5.299986638349574
 11
187.4961248550605
 21
7.868846301394227
  0
LINE
  8
0
  6
CONTINUOUS
 62
     7
 10
64.29263548302421
 20
33.28553427905278
 11
64.0
 21
33.30842996319011
  0
LINE
  8
0
  6
CONTINUOUS
 62
     7
 10
3.250000000000031
 20
-101.8576251998194
 11
3.250000000000031
 21
-99.9972097253945
  0
LINE
  8
0
  6
CONTINUOUS
 62
     7
 10
64.0
 20
31.49999999999997
 11
11.25000000000004
 21
31.49999999999997
  0
ARC
  8
0
  6
CONTINUOUS
 62
     7
 10
64.0
 20
-120.4972097253945
 40
1.500000000000001
 50
270.0
 51
0.0
  0
LINE
  8
0
  6
CONTINUOUS
 62
     7
 10
-19.49999999999996
 20
-107.4972097253945
 11
-21.68181818181808
 21
-107.4972097253945
  0
LINE
  8
0
  6
CONTINUOUS
 62
     7
 10
33.87510939855232
 20
-107.4967097253945
 11
33.87510939855232
 21
-107.9967097253945
  0
LINE
  8
0
  6
CONTINUOUS
 62
     7
 10
-7.534126955339226
 20
-101.3427116076865
 11
-7.54225074921
 21
-101.4972097253945
  0
ARC
  8
0
  6
CONTINUOUS
 62
     7
 10
-11.25089809499979
 20
-101.9951301745482
 40
8.002079601244105
 50
270.0064304600513
 51
0.9845993642326222
  0
LINE
  8
0
  6
CONTINUOUS
 62
     7
 10
-65.38581929876688
 20
32.57285403796995
 11
-65.47117792060477
 21
32.34932370856608
  0
LINE
  8
0
  6
CONTINUOUS
 62
     7
 10
-65.5
 20
31.49999999999997
 11
-65.5
 21
32.11685992638014
  0
LINE
  8
0
  6
CONTINUOUS
 62
     7
 10
-34.59999999999997
 20
-107.4972097253945
 11
-34.59999999999997
 21
-107.9972097253945
  0
LINE
  8
0
  6
CONTINUOUS
 62
     7
 10
6.019110831381513
 20
-99.9972097253945
 11
5.511397525438611
 21
-99.9972097253945
  0
LINE
  8
0
  6
CONTINUOUS
 62
     7
 10
185.0130432549982
 20
0.3857647013319476
 11
187.4961248550605
 21
2.868846301394223
  0
ARC
  8
0
  6
CONTINUOUS
 62
     7
 10
11.25204143465036
 20
-101.9946647397417
 40
8.002545246035941
 50
257.6116565453887
 51
269.98538395132
  0
LINE
  8
0
  6
CONTINUOUS
 62
     7
 10
52.44869612145902
 20
-107.4967097253945
 11
52.44869612145902
 21
-107.9967097253945
  0
LINE
  8
0
  6
CONTINUOUS
 62
     7
 10
184.5841529400866
 20
24.95687438642041
 11
188.9235778806323
 21
29.29629932696609
  0
LINE
  8
0
  6
CONTINUOUS
 62
     7
 10
184.8414871290337
 20
10.21420857536731
 11
187.4961248550605
 21
12.86884630139423
  0
LINE
  8
0
  6
CONTINUOUS
 62
     7
 10
5.506397525438633
 20
0.0
 11
-5.506397525438578
 21
0.0
  0
ARC
  8
0
  6
CONTINUOUS
 62
     7
 10
-64.0
 20
-120.4972097253945
 40
1.500000000000001
 50
180.0
 51
270.0
  0
LINE
  8
0
  6
CONTINUOUS
 62
     7
 10
49.09155188686992
 20
-107.4967097253945
 11
49.09155188686992
 21
-107.9967097253945
  0
LINE
  8
0
  6
CONTINUOUS
 62
     7
 10
62.5
 20
-115.6727032690803
 11
62.47948465822495
 21
-119.0547528515
  0
ARC
  8
0
  6
CONTINUOUS
 62
     7
 10
64.0
 20
-109.4972097253945
 40
1.500000000000001
 50
0.0
 51
90.0
  0
LINE
  8
0
  6
CONTINUOUS
 62
     7
 10
-9.755267346631014
 20
-109.6107335117632
 11
-9.289551708394406
 21
-109.6793823984727
  0
LINE
  8
0
  6
CONTINUOUS
 62
     7
 10
-62.5
 20
-109.9972097253945
 11
-11.24999999999998
 21
-109.9972097253945
  0
LINE
  8
0
  6
CONTINUOUS
 62
     7
 10
184.970154223507
 20
2.842875669840816
 11
187.4961248550605
 21
5.368846301394226
  0
LINE
  8
0
  6
CONTINUOUS
 62
     7
 10
-64.0
 20
34.43933982822023
 11
-64.0
 21
33.30842996319011
  0
LINE
  8
0
  6
CONTINUOUS
 62
     7
 10
184.7557090660514
 20
15.12843051238499
 11
187.4961248550605
 21
17.86884630139413
  0
LINE
  8
0
  6
CONTINUOUS
 62
     7
 10
179.6272785536663
 20
29.99999999999997
 11
184.0299896523488
 21
34.40271109868264
  0
LINE
  8
0
  6
CONTINUOUS
 62
     7
 10
-10.74418387739468
 20
-109.473557777548
 11
-9.755267346631014
 21
-109.6107335117632
  0
LINE
  8
0
  6
CONTINUOUS
 62
     7
 10
-3.249999999999975
 20
-101.8576251998195
 11
-3.249999999999975
 21
-99.9972097253945
  0
LINE
  8
0
  6
CONTINUOUS
 62
     7
 10
-63.02365194784648
 20
-109.473557777548
 11
-62.5
 21
-109.9972097253945
  0
LINE
  8
0
  6
CONTINUOUS
 62
     7
 10
-58.09190340909087
 20
-107.4972097253945
 11
-58.09190340909087
 21
-107.9972097253945
  0
ARC
  8
0
  6
CONTINUOUS
 62
     7
 10
6.030764111448428
 20
-101.5086950777931
 40
1.511530274077189
 50
0.4353657763551105
 51
90.44173139712831
  0
LINE
  8
0
  6
CONTINUOUS
 62
     7
 10
10.74418387739473
 20
-109.473557777548
 11
63.02365194784654
 21
-109.473557777548
  0
LINE
  8
0
  6
CONTINUOUS
 62
     7
 10
64.0
 20
-121.9972097253945
 11
-64.0
 21
-121.9972097253945
  0
LINE
  8
0
  6
CONTINUOUS
 62
     7
 10
64.0
 20
33.30842996319011
 11
64.0
 21
34.43933982822034
  0
LINE
  8
0
  6
CONTINUOUS
 62
     7
 10
43.31705448805096
 20
-107.4967097253945
 11
38.32514453338648
 21
-107.4967097253945
  0
LINE
  8
0
  6
CONTINUOUS
 62
     7
 10
33.87510939855232
 20
-107.4967097253945
 11
30.20770513428872
 21
-107.4967097253945
  0
LINE
  8
0
  6
CONTINUOUS
 62
     7
 10
52.44869612145902
 20
-107.4967097253945
 11
49.09155188686992
 21
-107.4967097253945
  0
LINE
  8
0
  6
CONTINUOUS
 62
     7
 10
24.18407038559961
 20
-107.4967097253945
 11
26.84954037892168
 21
-107.4967097253945
  0
LINE
  8
0
  6
CONTINUOUS
 62
     7
 10
184.8843761605247
 20
7.757097606858387
 11
187.4961248550605
 21
10.36884630139423
  0
LINE
  8
0
  6
CONTINUOUS
 62
     7
 10
26.84954037892168
 20
-107.4967097253945
 11
26.84954037892168
 21
-107.9967097253945
  0
LINE
  8
0
  6
CONTINUOUS
 62
     7
 10
65.5
 20
32.93933982822023
 11
65.5
 21
32.11685992638014
  0
LINE
  8
0
  6
CONTINUOUS
 62
     7
 10
-65.2472044184538
 20
32.77886076938985
 11
-65.38581929876688
 21
32.57285403796995
  0
LINE
  8
0
  6
CONTINUOUS
 62
     7
 10
-65.5
 20
32.11685992638014
 11
-65.5
 21
32.93933982822023
  0
LINE
  8
0
  6
CONTINUOUS
 62
     7
 10
184.7985980975425
 20
12.67131954387624
 11
187.4961248550605
 21
15.36884630139423
  0
LINE
  8
0
  6
CONTINUOUS
 62
     7
 10
174.6272785536663
 20
29.99999999999997
 11
177.6272785536663
 21
33.00000000000009
  0
LINE
  8
0
  6
CONTINUOUS
 62
     7
 10
49.09155188686992
 20
-107.4967097253945
 11
46.67517581700181
 21
-107.4967097253945
  0
LINE
  8
0
  6
CONTINUOUS
 62
     7
 10
184.6699310030689
 20
20.04265244940273
 11
187.4961248550605
 21
22.86884630139413
  0
ARC
  8
0
  6
CONTINUOUS
 62
     7
 10
64.0
 20
32.93933982822023
 40
1.500000000000001
 50
0.0
 51
90.0
  0
LINE
  8
0
  6
CONTINUOUS
 62
     7
 10
167.1272785536663
 20
29.99999999999997
 11
170.1272785536663
 21
33.00000000000009
  0
LINE
  8
0
  6
CONTINUOUS
 62
     7
 10
177.1272785536663
 20
29.99999999999997
 11
180.9867805913324
 21
33.85950203766613
  0
LINE
  8
0
  6
CONTINUOUS
 62
     7
 10
46.67517581700181
 20
-107.4967097253945
 11
43.31705448805096
 21
-107.4967097253945
  0
LINE
  8
0
  6
CONTINUOUS
 62
     7
 10
-26.3181818181818
 20
-107.4972097253945
 11
-26.3181818181818
 21
-107.9972097253945
  0
LINE
  8
0
  6
CONTINUOUS
 62
     7
 10
-31.54545454545449
 20
-107.4972097253945
 11
-31.54545454545449
 21
-107.9972097253945
  0
ARC
  8
0
  6
CONTINUOUS
 62
     7
 10
-64.0
 20
32.93933982822023
 40
1.500000000000001
 50
90.0
 51
179.9999999999996
  0
LINE
  8
0
  6
CONTINUOUS
 62
     7
 10
184.6270419715778
 20
22.49976341791155
 11
187.9911266705623
 21
25.86384811689602
  0
ARC
  8
0
  6
CONTINUOUS
 62
     7
 10
-11.25204143464981
 20
-101.9946647397456
 40
8.002545246032
 50
270.0146160486773
 51
282.3883434546144
  0
LINE
  8
0
  6
CONTINUOUS
 62
     7
 10
11.25000000000004
 20
-109.9972097253945
 11
62.5
 21
-109.9972097253945
  0
LINE
  8
0
  6
CONTINUOUS
 62
     7
 10
185.2662908174146
 20
30.63901226374832
 11
187.3875076242837
 21
32.76022907061754
  0
LINE
  8
0
  6
CONTINUOUS
 62
     7
 10
184.7128200345601
 20
17.58554148089392
 11
187.4961248550605
 21
20.36884630139413
  0
LINE
  8
0
  6
CONTINUOUS
 62
     7
 10
30.20770513428872
 20
-107.4967097253945
 11
30.20770513428872
 21
-107.9967097253945
  0
LINE
  8
0
  6
CONTINUOUS
 62
     7
 10
-19.49999999999996
 20
-107.4972097253945
 11
-19.49999999999996
 21
-107.9972097253945
  0
LINE
  8
0
  6
CONTINUOUS
 62
     7
 10
63.02365194784654
 20
-119.5208616732411
 11
-63.02365194784648
 21
-119.5208616732411
  0
LINE
  8
0
  6
CONTINUOUS
 62
     7
 10
13.63481042052461
 20
-107.9972097253945
 11
64.0
 21
-107.9972097253945
  0
ARC
  8
0
  6
CONTINUOUS
 62
     7
 10
-13.51895893346128
 20
-101.9608049588708
 40
8.008797133547018
 50
290.2713050738904
 51
1.00651575370523
  0
LINE
  8
0
  6
CONTINUOUS
 62
     7
 10
187.1272785536663
 20
0.0
 11
187.4961248550605
 21
0.3688463013942211
  0
LINE
  8
0
  6
CONTINUOUS
 62
     7
 10
-63.02365194784648
 20
-119.5208616732411
 11
-63.02365194784648
 21
-109.473557777548
  0
LINE
  8
0
  6
CONTINUOUS
 62
     7
 10
62.5
 20
-109.9972097253945
 11
62.5
 21
-115.6727032690803
  0
LINE
  8
0
  6
CONTINUOUS
 62
     7
 10
-64.0
 20
-107.9972097253945
 11
-13.63481042052439
 21
-107.9972097253945
  0
LINE
  8
0
  6
CONTINUOUS
 62
     7
 10
-50.72826704545447
 20
-107.4972097253945
 11
-50.72826704545447
 21
-107.9972097253945
  0
LINE
  8
0
  6
CONTINUOUS
 62
     7
 10
-65.5
 20
-120.4972097253945
 11
-65.5
 21
-109.4972097253945
  0
LINE
  8
0
  6
CONTINUOUS
 62
     7
 10
63.02365194784654
 20
-109.473557777548
 11
62.5
 21
-109.9972097253945
  0
LINE
  8
0
  6
CONTINUOUS
 62
     7
 10
-39.93636363636355
 20
-107.4972097253945
 11
-39.93636363636355
 21
-107.9972097253945
  0
LINE
  8
0
  6
CONTINUOUS
 62
     7
 10
-9.289551708394406
 20
-109.6793823984727
 11
-9.177085877736745
 21
-109.6965526040004
  0
LINE
  8
0
  6
CONTINUOUS
 62
     7
 10
-63.02365194784648
 20
-119.5208616732411
 11
-62.55754312610548
 21
-119.0547528515
  0
LINE
  8
0
  6
CONTINUOUS
 62
     7
 10
-62.5
 20
-115.6727032690804
 11
-62.5
 21
-109.9972097253945
  0
LINE
  8
0
  6
CONTINUOUS
 62
     7
 10
-7.509943006014097
 20
-101.1899013594128
 11
-7.534126955339226
 21
-101.3427116076865
  0
LINE
  8
0
  6
CONTINUOUS
 62
     7
 10
-62.55754312610548
 20
-119.0547528515
 11
62.55754312610551
 21
-119.0547528515
  0
LINE
  8
0
  6
CONTINUOUS
 62
     7
 10
-50.72826704545447
 20
-107.4972097253945
 11
-51.71008522727266
 21
-107.4972097253945
  0
LINE
  8
0
  6
CONTINUOUS
 62
     7
 10
5.511397525438611
 20
-99.9972097253945
 11
3.250000000000031
 21
-99.9972097253945
  0
LINE
  8
0
  6
CONTINUOUS
 62
     7
 10
63.02365194784654
 20
-119.5208616732411
 11
62.55754312610551
 21
-119.0547528515
  0
LINE
  8
0
  6
CONTINUOUS
 62
     7
 10
10.74418387739479
 20
-109.473557777548
 11
9.755267346631124
 21
-109.6107335117632
  0
LINE
  8
0
  6
CONTINUOUS
 62
     7
 10
-51.71008522727266
 20
-107.4972097253945
 11
-58.09190340909087
 21
-107.4972097253945
  0
LINE
  8
0
  6
CONTINUOUS
 62
     7
 10
-26.3181818181818
 20
-107.4972097253945
 11
-28.49999999999997
 21
-107.4972097253945
  0
LINE
  8
0
  6
CONTINUOUS
 62
     7
 10
-51.71008522727266
 20
-107.4972097253945
 11
-51.71008522727266
 21
-107.9972097253945
  0
LINE
  8
0
  6
CONTINUOUS
 62
     7
 10
-21.68181818181808
 20
-107.4972097253945
 11
-21.68181818181808
 21
-107.9972097253945
  0
LINE
  8
0
  6
CONTINUOUS
 62
     7
 10
-5.511397525438611
 20
-99.9972097253945
 11
-6.019110831381402
 21
-99.9972097253945
  0
LINE
  8
0
  6
CONTINUOUS
 62
     7
 10
65.5
 20
-109.4972097253945
 11
65.5
 21
-120.4972097253945
  0
LINE
  8
0
  6
CONTINUOUS
 62
     7
 10
-39.93636363636355
 20
-107.4972097253945
 11
-47.87400490827148
 21
-107.4972097253945
  0
LINE
  8
0
  6
CONTINUOUS
 62
     7
 10
-9.177085877736745
 20
-109.6965526040004
 11
-9.535202397850439
 21
-109.8108782818971
  0
LINE
  8
0
  6
CONTINUOUS
 62
     7
 10
174.9724729072139
 20
0.0
 11
175.4961248550604
 21
29.99999999999996
  0
LINE
  8
0
  6
CONTINUOUS
 62
     7
 10
-5.511397525438611
 20
-101.8201215445778
 11
-5.511397525438611
 21
-99.9972097253945
  0
ARC
  8
0
  6
CONTINUOUS
 62
     7
 10
-64.0
 20
-109.4972097253945
 40
1.500000000000001
 50
90.0
 51
180.0
  0
ARC
  8
0
  6
CONTINUOUS
 62
     7
 10
166.9961248550604
 20
31.49999999999997
 40
1.500000000000001
 50
90.0
 51
180.0
  0
LINE
  8
0
  6
CONTINUOUS
 62
     7
 10
-21.68181818181808
 20
-107.4972097253945
 11
-26.3181818181818
 21
-107.4972097253945
  0
LINE
  8
0
  6
CONTINUOUS
 62
     7
 10
-65.5
 20
-121.9365495536147
 11
-65.5
 21
-121.1140696517746
  0
LINE
  8
0
  6
CONTINUOUS
 62
     7
 10
-47.88993906998679
 20
-107.4972097253945
 11
-48.06363636363636
 21
-107.4972097253945
  0
LINE
  8
0
  6
CONTINUOUS
 62
     7
 10
-50.2919034090909
 20
-107.4972097253945
 11
-50.2919034090909
 21
-107.9972097253945
  0
LINE
  8
0
  6
CONTINUOUS
 62
     7
 10
64.0
 20
-121.9972097253945
 11
64.0
 21
-122.3056396885846
  0
LINE
  8
0
  6
CONTINUOUS
 62
     7
 10
-5.511397525438499
 20
-99.9972097253945
 11
-3.249999999999975
 21
-99.9972097253945
  0
LINE
  8
0
  6
CONTINUOUS
 62
     7
 10
-65.0606601717798
 20
-121.9566369050617
 11
-64.83335534952927
 21
-122.1048239283123
  0
LINE
  8
0
  6
CONTINUOUS
 62
     7
 10
-28.49999999999997
 20
-107.4972097253945
 11
-28.49999999999997
 21
-107.9972097253945
  0
LINE
  8
0
  6
CONTINUOUS
 62
     7
 10
64.8333553495295
 20
-122.1048239283123
 11
65.06066017177992
 21
-121.9566369050616
  0
LINE
  8
0
  6
CONTINUOUS
 62
     7
 10
64.5740251485477
 20
-122.214936820337
 11
64.8333553495295
 21
-122.1048239283123
  0
ARC
  8
0
  6
CONTINUOUS
 62
     7
 10
-6.027410092996732
 20
-101.5149315702677
 40
1.517744535865118
 50
89.68669626401753
 51
167.6341338585638
  0
LINE
  8
0
  6
CONTINUOUS
 62
     7
 10
-62.47948465822478
 20
-119.0547528515
 11
-62.5
 21
-115.6727032690804
  0
LINE
  8
0
  6
CONTINUOUS
 62
     7
 10
63.02365194784654
 20
-109.473557777548
 11
63.02365194784654
 21
-119.5208616732411
  0
LINE
  8
0
  6
CONTINUOUS
 62
     7
 10
9.177085877736857
 20
-109.6965526040003
 11
9.53520239785055
 21
-109.8108782818971
  0
LINE
  8
0
  6
CONTINUOUS
 62
     7
 10
9.755267346631124
 20
-109.6107335117632
 11
9.289551708394516
 21
-109.6793823984727
  0
LINE
  8
0
  6
CONTINUOUS
 62
     7
 10
-63.02365194784648
 20
-109.473557777548
 11
-10.74418387739468
 21
-109.473557777548
  0
LINE
  8
0
  6
CONTINUOUS
 62
     7
 10
5.511397525438611
 20
-101.8201215445778
 11
5.511397525438611
 21
-99.9972097253945
  0
LINE
  8
0
  6
CONTINUOUS
 62
     7
 10
9.289551708394516
 20
-109.6793823984727
 11
9.177085877736857
 21
-109.6965526040003
  0
ARC
  8
0
  6
CONTINUOUS
 62
     7
 10
13.51895893346144
 20
-101.9608049588707
 40
8.00879713354713
 50
178.9934842462951
 51
249.7286949261086
  0
ARC
  8
0
  6
CONTINUOUS
 62
     7
 10
64.0
 20
-121.9365495536147
 40
1.499999999999946
 50
270.0
 51
0.0000000000000568
  0
LINE
  8
0
  6
CONTINUOUS
 62
     7
 10
-65.2472044184538
 20
-121.7760704947843
 11
-65.0606601717798
 21
-121.9566369050617
  0
LINE
  8
0
  6
CONTINUOUS
 62
     7
 10
-64.0
 20
-121.9972097253945
 11
-64.0
 21
-122.3056396885846
  0
LINE
  8
0
  6
CONTINUOUS
 62
     7
 10
65.24720441845393
 20
-121.7760704947843
 11
65.38581929876702
 21
-121.5700637633644
  0
LINE
  8
0
  6
CONTINUOUS
 62
     7
 10
-50.2919034090909
 20
-107.4972097253945
 11
-50.72822704545449
 21
-107.4972097253945
  0
LINE
  8
0
  6
CONTINUOUS
 62
     7
 10
-64.29263548302409
 20
-122.2827440044474
 11
-64.0
 21
-122.3056396885846
  0
LINE
  8
0
  6
CONTINUOUS
 62
     7
 10
-44.08890262496379
 20
16.88535377826872
 11
-43.99693184267889
 21
16.88072871991114
  0
LINE
  8
0
  6
CONTINUOUS
 62
     7
 10
-44.8971370065539
 20
17.16974239032126
 11
-44.8129731067346
 21
17.1181360535137
  0
LINE
  8
0
  6
CONTINUOUS
 62
     7
 10
-42.50589620648859
 20
17.60884061338297
 11
-42.42377592725577
 21
17.72629726047658
  0
LINE
  8
0
  6
CONTINUOUS
 62
     7
 10
-42.34886448124359
 20
17.85220344711064
 11
-42.2811618684521
 21
17.9865591732849
  0
LINE
  8
0
  6
CONTINUOUS
 62
     7
 10
-45.53971222062181
 20
17.98641732507062
 11
-45.50275293479328
 21
17.89331011661871
  0
LINE
  8
0
  6
CONTINUOUS
 62
     7
 10
-42.60909090909082
 20
24.67272727272735
 11
-48.06363636363631
 21
24.67272727272735
  0
LINE
  8
0
  6
CONTINUOUS
 62
     7
 10
-39.98099774686514
 20
18.49370591692806
 11
-40.01571316614416
 21
18.28173981191228
  0
LINE
  8
0
  6
CONTINUOUS
 62
     7
 10
-42.05078130280493
 20
18.78508089726272
 11
-42.02633168933762
 21
18.97013386067942
  0
LINE
  8
0
  6
CONTINUOUS
 62
     7
 10
-54.60499874665766
 20
20.44815549799472
 11
-54.5086480614973
 21
20.44425133689837
  0
LINE
  8
0
  6
CONTINUOUS
 62
     7
 10
-52.86363636363628
 20
21.05568181818196
 11
-52.80099431818178
 21
21.12215909090914
  0
LINE
  8
0
  6
CONTINUOUS
 62
     7
 10
-53.37372159090897
 20
20.68579545454552
 11
-53.29318181818176
 21
20.72840909090923
  0
LINE
  8
0
  6
CONTINUOUS
 62
     7
 10
-52.92883522727268
 20
20.99261363636373
 11
-52.86363636363628
 21
21.05568181818196
  0
LINE
  8
0
  6
CONTINUOUS
 62
     7
 10
-42.80680388359448
 20
21.92304682784551
 11
-42.92548854193517
 21
21.84031992693569
  0
LINE
  8
0
  6
CONTINUOUS
 62
     7
 10
-39.96372007176168
 20
25.85665407255533
 11
-40.00814288873639
 21
25.55701711779501
  0
LINE
  8
0
  6
CONTINUOUS
 62
     7
 10
-43.99411514374857
 20
21.09643525689653
 11
-44.1129030635885
 21
21.01385445335313
  0
LINE
  8
0
  6
CONTINUOUS
 62
     7
 10
-44.180446931191
 20
16.8953663447704
 11
-44.08890262496379
 21
16.88535377826872
  0
LINE
  8
0
  6
CONTINUOUS
 62
     7
 10
-45.17746334317979
 20
20.09881207722841
 11
-45.29526298484426
 21
19.93979211895708
  0
LINE
  8
0
  6
CONTINUOUS
 62
     7
 10
-53.21519886363627
 20
20.77443181818195
 11
-53.13977272727269
 21
20.82386363636374
  0
LINE
  8
0
  6
CONTINUOUS
 62
     7
 10
-53.29318181818176
 20
20.72840909090923
 11
-53.21519886363627
 21
20.77443181818195
  0
LINE
  8
0
  6
CONTINUOUS
 62
     7
 10
-45.39719894296606
 20
19.77776048114532
 11
-45.48327121754525
 21
19.61271716379304
  0
LINE
  8
0
  6
CONTINUOUS
 62
     7
 10
-44.89427300922299
 20
20.4078169551492
 11
-45.0438000179727
 21
20.2548203559591
  0
LINE
  8
0
  6
CONTINUOUS
 62
     7
 10
-53.81477272727258
 20
20.52386363636371
 11
-53.72144886363628
 21
20.54943181818181
  0
LINE
  8
0
  6
CONTINUOUS
 62
     7
 10
-53.72144886363628
 20
20.54943181818181
 11
-53.63068181818178
 21
20.57840909090919
  0
LINE
  8
0
  6
CONTINUOUS
 62
     7
 10
-52.99659090909087
 20
20.93295454545446
 11
-52.92883522727268
 21
20.99261363636373
  0
LINE
  8
0
  6
CONTINUOUS
 62
     7
 10
-43.75657028251828
 20
21.26164069319331
 11
-43.87533755005851
 21
21.17903067017657
  0
LINE
  8
0
  6
CONTINUOUS
 62
     7
 10
-45.12388073474421
 20
17.34719823982284
 11
-45.05259082055868
 21
17.28427348347594
  0
LINE
  8
0
  6
CONTINUOUS
 62
     7
 10
-54.2116999498663
 20
20.45592621991987
 11
-54.11008522727268
 21
20.46761363636368
  0
LINE
  8
0
  6
CONTINUOUS
 62
     7
 10
-53.13977272727269
 20
20.82386363636374
 11
-53.06690340909087
 21
20.87670454545465
  0
LINE
  8
0
  6
CONTINUOUS
 62
     7
 10
-42.45081186547167
 20
22.1713151889944
 11
-42.56946554536268
 21
22.08854445887481
  0
LINE
  8
0
  6
CONTINUOUS
 62
     7
 10
-45.05259082055868
 20
17.28427348347594
 11
-44.97700957782858
 21
17.22512153364203
  0
LINE
  8
0
  6
CONTINUOUS
 62
     7
 10
-54.79375208890366
 20
20.46765750334228
 11
-54.70003342245988
 21
20.45595755347601
  0
LINE
  8
0
  6
CONTINUOUS
 62
     7
 10
-44.35050988171818
 20
20.84873667547621
 11
-44.54762794109579
 21
20.7047751149077
  0
LINE
  8
0
  6
CONTINUOUS
 62
     7
 10
-40.15847772123738
 20
24.97454249892528
 11
-40.26438973676377
 21
24.69170483481598
  0
LINE
  8
0
  6
CONTINUOUS
 62
     7
 10
-43.81171084993618
 20
16.88764112762747
 11
-43.71846063947826
 21
16.8991785937016
  0
LINE
  8
0
  6
CONTINUOUS
 62
     7
 10
-44.45252099352659
 20
16.95772909313892
 11
-44.3622561154724
 21
16.93155400220553
  0
LINE
  8
0
  6
CONTINUOUS
 62
     7
 10
-42.42377592725577
 20
17.72629726047658
 11
-42.34886448124359
 21
17.85220344711064
  0
LINE
  8
0
  6
CONTINUOUS
 62
     7
 10
-42.02633168933762
 20
18.97013386067942
 11
-42.00909090909089
 21
19.16363636363644
  0
LINE
  8
0
  6
CONTINUOUS
 62
     7
 10
-43.16288883706648
 20
21.67490995432619
 11
-43.28160447385709
 21
21.59222688262635
  0
LINE
  8
0
  6
CONTINUOUS
 62
     7
 10
-48.06363636363636
 20
24.67272727272735
 11
-48.06363636363636
 21
26.47272727272732
  0
LINE
  8
0
  6
CONTINUOUS
 62
     7
 10
-45.64630594002728
 20
19.09951713449243
 11
-45.66892348043611
 21
18.92242709897785
  0
LINE
  8
0
  6
CONTINUOUS
 62
     7
 10
-39.93636363636355
 20
19.16363636363644
 11
-39.94132298197489
 21
18.93465419279
  0
LINE
  8
0
  6
CONTINUOUS
 62
     7
 10
-39.94132298197489
 20
18.93465419279
 11
-39.95620101880876
 21
18.71134404388719
  0
LINE
  8
0
  6
CONTINUOUS
 62
     7
 10
-54.3119986631016
 20
20.448136697861
 11
-54.2116999498663
 21
20.45592621991987
  0
LINE
  8
0
  6
CONTINUOUS
 62
     7
 10
-43.51906672588785
 20
21.42690456843649
 11
-43.63781334112809
 21
21.34426532594658
  0
LINE
  8
0
  6
CONTINUOUS
 62
     7
 10
-45.0438000179727
 20
20.2548203559591
 11
-45.17746334317979
 21
20.09881207722841
  0
LINE
  8
0
  6
CONTINUOUS
 62
     7
 10
-53.542471590909
 20
20.61079545454547
 11
-53.45681818181808
 21
20.64659090909088
  0
LINE
  8
0
  6
CONTINUOUS
 62
     7
 10
-45.67567733730227
 20
18.74232538392262
 11
-45.66656751062575
 21
18.55921198932692
  0
LINE
  8
0
  6
CONTINUOUS
 62
     7
 10
-53.63068181818178
 20
20.57840909090919
 11
-53.542471590909
 21
20.61079545454547
  0
LINE
  8
0
  6
CONTINUOUS
 62
     7
 10
-42.16738314253121
 20
18.28061924425489
 11
-42.12130702940181
 21
18.4403235890504
  0
LINE
  8
0
  6
CONTINUOUS
 62
     7
 10
-45.50275293479328
 20
17.89331011661871
 11
-45.46150232042007
 21
17.80397571468001
  0
LINE
  8
0
  6
CONTINUOUS
 62
     7
 10
-42.08243974949299
 20
18.60847747338629
 11
-42.05078130280493
 21
18.78508089726272
  0
LINE
  8
0
  6
CONTINUOUS
 62
     7
 10
-41.579673031929
 20
22.8686345654619
 11
-41.84955624359271
 21
22.63059500975573
  0
LINE
  8
0
  6
CONTINUOUS
 62
     7
 10
-44.72888231693067
 20
20.55780187479872
 11
-44.89427300922299
 21
20.4078169551492
  0
LINE
  8
0
  6
CONTINUOUS
 62
     7
 10
-42.12130702940181
 20
18.4403235890504
 11
-42.08243974949299
 21
18.60847747338629
  0
LINE
  8
0
  6
CONTINUOUS
 62
     7
 10
-42.90646565562689
 20
17.2235094204124
 11
-42.79551004351117
 21
17.30716790934439
  0
LINE
  8
0
  6
CONTINUOUS
 62
     7
 10
-39.95620101880876
 20
18.71134404388719
 11
-39.98099774686514
 21
18.49370591692806
  0
LINE
  8
0
  6
CONTINUOUS
 62
     7
 10
-44.27156476136046
 20
16.91076641941602
 11
-44.180446931191
 21
16.8953663447704
  0
LINE
  8
0
  6
CONTINUOUS
 62
     7
 10
-45.25358657748129
 20
17.48436617205612
 11
-45.19087932038496
 21
17.41389580268293
  0
LINE
  8
0
  6
CONTINUOUS
 62
     7
 10
-45.19087932038496
 20
17.41389580268293
 11
-45.12388073474421
 21
17.34719823982284
  0
LINE
  8
0
  6
CONTINUOUS
 62
     7
 10
-45.66892348043611
 20
18.92242709897785
 11
-45.67567733730227
 21
18.74232538392262
  0
LINE
  8
0
  6
CONTINUOUS
 62
     7
 10
-45.48327121754525
 20
19.61271716379304
 11
-45.55347980858188
 21
19.4446621669
  0
LINE
  8
0
  6
CONTINUOUS
 62
     7
 10
-44.63177132146201
 20
17.02624179943773
 11
-44.5423593955232
 21
16.98929169221641
  0
LINE
  8
0
  6
CONTINUOUS
 62
     7
 10
-40.01571316614416
 20
18.28173981191228
 11
-40.06034727664581
 21
18.07544572884023
  0
LINE
  8
0
  6
CONTINUOUS
 62
     7
 10
-43.71846063947826
 20
16.8991785937016
 11
-43.62478395296277
 21
16.91610356791973
  0
LINE
  8
0
  6
CONTINUOUS
 62
     7
 10
-43.9045345843364
 20
16.88149116969734
 11
-43.81171084993618
 21
16.88764112762747
  0
LINE
  8
0
  6
CONTINUOUS
 62
     7
 10
-43.02463010096308
 20
17.14830047102073
 11
-42.90646565562689
 21
17.2235094204124
  0
LINE
  8
0
  6
CONTINUOUS
 62
     7
 10
-44.74659090909089
 20
15.16818181818191
 11
-45.05596590909089
 21
15.21931818181832
  0
LINE
  8
0
  6
CONTINUOUS
 62
     7
 10
-47.30596590909087
 20
16.85568181818187
 11
-47.44659090909087
 21
17.13181818181825
  0
LINE
  8
0
  6
CONTINUOUS
 62
     7
 10
-42.59522531894206
 20
17.49983350582973
 11
-42.50589620648859
 21
17.60884061338297
  0
LINE
  8
0
  6
CONTINUOUS
 62
     7
 10
-47.5001719839373
 20
20.43562806649302
 11
-47.34392725289666
 21
20.70302005964342
  0
LINE
  8
0
  6
CONTINUOUS
 62
     7
 10
-46.94980069871679
 20
21.21889434043189
 11
-46.7119188755773
 21
21.46737662807002
  0
LINE
  8
0
  6
CONTINUOUS
 62
     7
 10
-45.57238017790571
 20
18.08329734003566
 11
-45.53971222062181
 21
17.98641732507062
  0
LINE
  8
0
  6
CONTINUOUS
 62
     7
 10
-44.3622561154724
 20
16.93155400220553
 11
-44.27156476136046
 21
16.91076641941602
  0
LINE
  8
0
  6
CONTINUOUS
 62
     7
 10
-43.62478395296277
 20
16.91610356791973
 11
-43.53068079038957
 21
16.93841605028184
  0
LINE
  8
0
  6
CONTINUOUS
 62
     7
 10
-45.46150232042007
 20
17.80397571468001
 11
-45.41596037750228
 21
17.71841411925429
  0
LINE
  8
0
  6
CONTINUOUS
 62
     7
 10
-44.72451787837056
 20
17.07030252321912
 11
-44.63177132146201
 21
17.02624179943773
  0
LINE
  8
0
  6
CONTINUOUS
 62
     7
 10
-43.24581244632397
 20
17.03767854623161
 11
-43.15000337952013
 21
17.08154106116938
  0
LINE
  8
0
  6
CONTINUOUS
 62
     7
 10
-45.36612710603988
 20
17.63662533034172
 11
-45.31200250603284
 21
17.5586093479424
  0
LINE
  8
0
  6
CONTINUOUS
 62
     7
 10
-42.22066808888125
 20
18.1293644389997
 11
-42.16738314253121
 21
18.28061924425489
  0
LINE
  8
0
  6
CONTINUOUS
 62
     7
 10
-45.83499922196121
 20
22.1750040799597
 11
-45.73181539881688
 21
22.24525268515221
  0
LINE
  8
0
  6
CONTINUOUS
 62
     7
 10
-45.64159400040668
 20
18.37308691519063
 11
-45.60075680664504
 21
18.18395016151375
  0
LINE
  8
0
  6
CONTINUOUS
 62
     7
 10
-43.43615115175869
 20
16.96611604078785
 11
-43.34119503707007
 21
16.99920353943757
  0
LINE
  8
0
  6
CONTINUOUS
 62
     7
 10
-42.69176326461626
 20
17.39927593781693
 11
-42.59522531894206
 21
17.49983350582973
  0
LINE
  8
0
  6
CONTINUOUS
 62
     7
 10
-44.5423593955232
 20
16.98929169221641
 11
-44.45252099352659
 21
16.95772909313892
  0
LINE
  8
0
  6
CONTINUOUS
 62
     7
 10
-45.60075680664504
 20
18.18395016151375
 11
-45.57238017790571
 21
18.08329734003566
  0
LINE
  8
0
  6
CONTINUOUS
 62
     7
 10
-44.8129731067346
 20
17.1181360535137
 11
-44.72451787837056
 21
17.07030252321912
  0
LINE
  8
0
  6
CONTINUOUS
 62
     7
 10
-40.43229819749217
 20
17.12905564263334
 11
-40.53644445532922
 21
16.9567936912226
  0
LINE
  8
0
  6
CONTINUOUS
 62
     7
 10
-45.41596037750228
 20
17.71841411925429
 11
-45.36612710603988
 21
17.63662533034172
  0
LINE
  8
0
  6
CONTINUOUS
 62
     7
 10
-45.29526298484426
 20
19.93979211895708
 11
-45.39719894296606
 21
19.77776048114532
  0
LINE
  8
0
  6
CONTINUOUS
 62
     7
 10
-46.59005681818179
 20
15.95568181818191
 11
-46.79204545454535
 21
16.15000000000011
  0
LINE
  8
0
  6
CONTINUOUS
 62
     7
 10
-47.7310243539194
 20
19.88193437467994
 11
-47.62920435094481
 21
20.1619328381718
  0
LINE
  8
0
  6
CONTINUOUS
 62
     7
 10
-46.79204545454535
 20
16.15000000000011
 11
-46.97869318181819
 21
16.36477272727277
  0
LINE
  8
0
  6
CONTINUOUS
 62
     7
 10
-41.35605162617545
 20
16.05301724137931
 11
-41.51009992163013
 21
15.93369905956121
  0
LINE
  8
0
  6
CONTINUOUS
 62
     7
 10
-40.25376175548584
 20
17.4905956112853
 11
-40.33807063087763
 21
17.30698961598748
  0
LINE
  8
0
  6
CONTINUOUS
 62
     7
 10
-43.34119503707007
 20
16.99920353943757
 11
-43.24581244632397
 21
17.03767854623161
  0
LINE
  8
0
  6
CONTINUOUS
 62
     7
 10
-41.99596150078366
 20
15.62511755485901
 11
-42.16582092476479
 21
15.5387147335424
  0
LINE
  8
0
  6
CONTINUOUS
 62
     7
 10
-45.31200250603284
 20
17.5586093479424
 11
-45.25358657748129
 21
17.48436617205612
  0
LINE
  8
0
  6
CONTINUOUS
 62
     7
 10
-45.66656751062575
 20
18.55921198932692
 11
-45.64159400040668
 21
18.37308691519063
  0
LINE
  8
0
  6
CONTINUOUS
 62
     7
 10
-44.97700957782858
 20
17.22512153364203
 11
-44.8971370065539
 21
17.16974239032126
  0
LINE
  8
0
  6
CONTINUOUS
 62
     7
 10
-45.55347980858188
 20
19.4446621669
 11
-45.607824716076
 21
19.27359549046648
  0
LINE
  8
0
  6
CONTINUOUS
 62
     7
 10
-47.86618072548787
 20
18.69890816900444
 11
-47.87321017864527
 21
19.00411957317943
  0
LINE
  8
0
  6
CONTINUOUS
 62
     7
 10
-42.2811618684521
 20
17.9865591732849
 11
-42.22066808888125
 21
18.1293644389997
  0
LINE
  8
0
  6
CONTINUOUS
 62
     7
 10
-41.8300548589342
 20
15.71974921630098
 11
-41.99596150078366
 21
15.62511755485901
  0
LINE
  8
0
  6
CONTINUOUS
 62
     7
 10
-43.6669964733542
 20
15.14373040752359
 11
-43.87243093652038
 21
15.13138714733547
  0
LINE
  8
0
  6
CONTINUOUS
 62
     7
 10
-40.11490007836987
 20
17.8748236677117
 11
-40.17937157131662
 21
17.67987362852669
  0
LINE
  8
0
  6
CONTINUOUS
 62
     7
 10
-45.607824716076
 20
19.27359549046648
 11
-45.64630594002728
 21
19.09951713449243
  0
LINE
  8
0
  6
CONTINUOUS
 62
     7
 10
-44.08181818181816
 20
15.12727272727282
 11
-44.421875
 21
15.13750000000008
  0
LINE
  8
0
  6
CONTINUOUS
 62
     7
 10
-42.88478644200622
 20
15.27539184952992
 11
-43.07440977664567
 21
15.2301332288402
  0
LINE
  8
0
  6
CONTINUOUS
 62
     7
 10
-43.53068079038957
 20
16.93841605028184
 11
-43.43615115175869
 21
16.96611604078785
  0
LINE
  8
0
  6
CONTINUOUS
 62
     7
 10
-41.51009992163013
 20
15.93369905956121
 11
-41.66810099921614
 21
15.82260971786842
  0
LINE
  8
0
  6
CONTINUOUS
 62
     7
 10
-43.99693184267889
 20
16.88072871991114
 11
-43.9045345843364
 21
16.88149116969734
  0
LINE
  8
0
  6
CONTINUOUS
 62
     7
 10
-44.421875
 20
15.13750000000008
 11
-44.74659090909089
 21
15.16818181818191
  0
LINE
  8
0
  6
CONTINUOUS
 62
     7
 10
-43.07440977664567
 20
15.2301332288402
 11
-43.26798589341691
 21
15.1931034482759
  0
LINE
  8
0
  6
CONTINUOUS
 62
     7
 10
-43.15000337952013
 20
17.08154106116938
 11
-43.02463010096308
 21
17.14830047102073
  0
LINE
  8
0
  6
CONTINUOUS
 62
     7
 10
-41.05221639890277
 20
16.3244661050157
 11
-41.2059561128526
 21
16.18056426332293
  0
LINE
  8
0
  6
CONTINUOUS
 62
     7
 10
-45.05596590909089
 20
15.21931818181832
 11
-45.35
 21
15.29090909090924
  0
LINE
  8
0
  6
CONTINUOUS
 62
     7
 10
-42.79551004351117
 20
17.30716790934439
 11
-42.69176326461626
 21
17.39927593781693
  0
LINE
  8
0
  6
CONTINUOUS
 62
     7
 10
-40.33807063087763
 20
17.30698961598748
 11
-40.43229819749217
 21
17.12905564263334
  0
LINE
  8
0
  6
CONTINUOUS
 62
     7
 10
-42.33963313087769
 20
15.4605407523512
 11
-42.5173981191222
 21
15.39059561128531
  0
LINE
  8
0
  6
CONTINUOUS
 62
     7
 10
-45.62869318181817
 20
15.38295454545457
 11
-45.89204545454539
 21
15.49545454545459
  0
LINE
  8
0
  6
CONTINUOUS
 62
     7
 10
-45.89204545454539
 20
15.49545454545459
 11
-46.14005681818178
 21
15.62840909090907
  0
LINE
  8
0
  6
CONTINUOUS
 62
     7
 10
-46.97869318181819
 20
16.36477272727277
 11
-47.14999999999997
 21
16.60000000000012
  0
LINE
  8
0
  6
CONTINUOUS
 62
     7
 10
-46.37272727272729
 20
15.78181818181834
 11
-46.59005681818179
 21
15.95568181818191
  0
LINE
  8
0
  6
CONTINUOUS
 62
     7
 10
-47.14999999999997
 20
16.60000000000012
 11
-47.30596590909087
 21
16.85568181818187
  0
LINE
  8
0
  6
CONTINUOUS
 62
     7
 10
13.63481042052461
 20
0.0
 11
64.0
 21
0.0
  0
LINE
  8
0
  6
CONTINUOUS
 62
     7
 10
-11.24999999999998
 20
31.49999999999997
 11
-63.99999999999986
 21
31.49999999999997
  0
LINE
  8
0
  6
CONTINUOUS
 62
     7
 10
-44.5021452115526
 20
23.10050700760924
 11
-44.40038400348606
 21
23.17280078949285
  0
LINE
  8
0
  6
CONTINUOUS
 62
     7
 10
-46.7119188755773
 20
21.46737662807002
 11
-46.44682468840489
 21
21.7095556805374
  0
LINE
  8
0
  6
CONTINUOUS
 62
     7
 10
-40.90839537617552
 20
16.4740399686521
 11
-41.05221639890277
 21
16.3244661050157
  0
LINE
  8
0
  6
CONTINUOUS
 62
     7
 10
-46.15451813719945
 20
21.94543149783401
 11
-45.83499922196121
 21
22.1750040799597
  0
LINE
  8
0
  6
CONTINUOUS
 62
     7
 10
-41.2059561128526
 20
16.18056426332293
 11
-41.35605162617545
 21
16.05301724137931
  0
LINE
  8
0
  6
CONTINUOUS
 62
     7
 10
-45.21753776203147
 20
22.5988555303736
 11
-45.11501053046157
 21
22.67004806326966
  0
LINE
  8
0
  6
CONTINUOUS
 62
     7
 10
-47.7704847270744
 20
18.06957565514195
 11
-47.83193890829768
 21
18.38739352965851
  0
LINE
  8
0
  6
CONTINUOUS
 62
     7
 10
-43.29950148646228
 20
24.00241958187044
 11
-43.19702474351228
 21
24.08855598836901
  0
LINE
  8
0
  6
CONTINUOUS
 62
     7
 10
-47.57187499999998
 20
17.42840909090909
 11
-47.68181818181816
 21
17.74545454545462
  0
LINE
  8
0
  6
CONTINUOUS
 62
     7
 10
-42.92824119952543
 20
24.32947854659301
 11
-42.85152891315064
 21
24.40395717891036
  0
LINE
  8
0
  6
CONTINUOUS
 62
     7
 10
-47.80563199286097
 20
19.5956326760171
 11
-47.7310243539194
 21
19.88193437467994
  0
LINE
  8
0
  6
CONTINUOUS
 62
     7
 10
-45.52577604831559
 20
22.38622185938893
 11
-45.42292052095848
 21
22.45694242843321
  0
LINE
  8
0
  6
CONTINUOUS
 62
     7
 10
-64.0
 20
32.99999999999997
 11
-11.24999999999998
 21
32.99999999999997
  0
LINE
  8
0
  6
CONTINUOUS
 62
     7
 10
-47.68181818181816
 20
17.74545454545462
 11
-47.7704847270744
 21
18.06957565514195
  0
LINE
  8
0
  6
CONTINUOUS
 62
     7
 10
-47.83193890829768
 20
18.38739352965851
 11
-47.86618072548787
 21
18.69890816900444
  0
LINE
  8
0
  6
CONTINUOUS
 62
     7
 10
-47.16047015782321
 20
20.96410881762301
 11
-46.94980069871679
 21
21.21889434043189
  0
LINE
  8
0
  6
CONTINUOUS
 62
     7
 10
-43.46551479231969
 20
15.16430250783712
 11
-43.6669964733542
 21
15.14373040752359
  0
LINE
  8
0
  6
CONTINUOUS
 62
     7
 10
-40.53644445532922
 20
16.9567936912226
 11
-40.65050940438869
 21
16.7902037617555
  0
LINE
  8
0
  6
CONTINUOUS
 62
     7
 10
-46.14005681818178
 20
15.62840909090907
 11
-46.37272727272729
 21
15.78181818181834
  0
LINE
  8
0
  6
CONTINUOUS
 62
     7
 10
-47.62920435094481
 20
20.1619328381718
 11
-47.5001719839373
 21
20.43562806649302
  0
LINE
  8
0
  6
CONTINUOUS
 62
     7
 10
-40.06034727664581
 20
18.07544572884023
 11
-40.11490007836987
 21
17.8748236677117
  0
LINE
  8
0
  6
CONTINUOUS
 62
     7
 10
-47.34392725289666
 20
20.70302005964342
 11
-47.16047015782321
 21
20.96410881762301
  0
LINE
  8
0
  6
CONTINUOUS
 62
     7
 10
-45.62874100760178
 20
22.31565861162865
 11
-45.52577604831559
 21
22.38622185938893
  0
LINE
  8
0
  6
CONTINUOUS
 62
     7
 10
-42.69911588949837
 20
15.32887931034504
 11
-42.88478644200622
 21
15.27539184952992
  0
LINE
  8
0
  6
CONTINUOUS
 62
     7
 10
-40.65050940438869
 20
16.7902037617555
 11
-40.77449304467079
 21
16.62928585423201
  0
LINE
  8
0
  6
CONTINUOUS
 62
     7
 10
-64.29263548302409
 20
33.28553427905278
 11
-64.57402514854759
 21
33.21772709494264
  0
LINE
  8
0
  6
CONTINUOUS
 62
     7
 10
-44.91028436310895
 20
22.81290509291367
 11
-44.80808542732628
 21
22.88456958966173
  0
LINE
  8
0
  6
CONTINUOUS
 62
     7
 10
-42.5173981191222
 20
15.39059561128531
 11
-42.69911588949837
 21
15.32887931034504
  0
LINE
  8
0
  6
CONTINUOUS
 62
     7
 10
64.0
 20
32.99999999999997
 11
64.0
 21
31.49999999999997
  0
LINE
  8
0
  6
CONTINUOUS
 62
     7
 10
-65.5
 20
0.0
 11
-65.5
 21
31.49999999999997
  0
LINE
  8
0
  6
CONTINUOUS
 62
     7
 10
-44.40038400348606
 20
23.17280078949285
 11
-44.2987322273487
 21
23.24525189266041
  0
LINE
  8
0
  6
CONTINUOUS
 62
     7
 10
-40.17937157131662
 20
17.67987362852669
 11
-40.25376175548584
 21
17.4905956112853
  0
LINE
  8
0
  6
CONTINUOUS
 62
     7
 10
-64.83335534952927
 20
33.1076142029178
 11
-65.0606601717798
 21
32.9594271796671
  0
LINE
  8
0
  6
CONTINUOUS
 62
     7
 10
-40.77449304467079
 20
16.62928585423201
 11
-40.90839537617552
 21
16.4740399686521
  0
LINE
  8
0
  6
CONTINUOUS
 62
     7
 10
-45.35
 20
15.29090909090924
 11
-45.62869318181817
 21
15.38295454545457
  0
LINE
  8
0
  6
CONTINUOUS
 62
     7
 10
-45.73181539881688
 20
22.24525268515221
 11
-45.62874100760178
 21
22.31565861162865
  0
LINE
  8
0
  6
CONTINUOUS
 62
     7
 10
-64.57402514854759
 20
33.21772709494264
 11
-64.83335534952927
 21
33.1076142029178
  0
LINE
  8
0
  6
CONTINUOUS
 62
     7
 10
-43.87243093652038
 20
15.13138714733547
 11
-44.08181818181816
 21
15.12727272727282
  0
LINE
  8
0
  6
CONTINUOUS
 62
     7
 10
-45.11501053046157
 20
22.67004806326966
 11
-45.01259273082076
 21
22.74139791744983
  0
LINE
  8
0
  6
CONTINUOUS
 62
     7
 10
-64.0
 20
0.0
 11
-65.5
 21
0.0
  0
LINE
  8
0
  6
CONTINUOUS
 62
     7
 10
-41.66810099921614
 20
15.82260971786842
 11
-41.8300548589342
 21
15.71974921630098
  0
LINE
  8
0
  6
CONTINUOUS
 62
     7
 10
-43.26798589341691
 20
15.1931034482759
 11
-43.46551479231969
 21
15.16430250783712
  0
LINE
  8
0
  6
CONTINUOUS
 62
     7
 10
-64.0
 20
33.30842996319011
 11
64.0
 21
33.30842996319011
  0
LINE
  8
0
  6
CONTINUOUS
 62
     7
 10
-47.87321017864527
 20
19.00411957317943
 11
-47.85302726776958
 21
19.30302774218357
  0
LINE
  8
0
  6
CONTINUOUS
 62
     7
 10
-46.44682468840489
 20
21.7095556805374
 11
-46.15451813719945
 21
21.94543149783401
  0
LINE
  8
0
  6
CONTINUOUS
 62
     7
 10
64.0
 20
0.0
 11
64.0
 21
31.49999999999997
  0
LINE
  8
0
  6
CONTINUOUS
 62
     7
 10
-47.44659090909087
 20
17.13181818181825
 11
-47.57187499999998
 21
17.42840909090909
  0
LINE
  8
0
  6
CONTINUOUS
 62
     7
 10
-44.2987322273487
 20
23.24525189266041
 11
-44.19718988314036
 21
23.31786031711203
  0
LINE
  8
0
  6
CONTINUOUS
 62
     7
 10
-42.78125774092
 20
24.47552136768261
 11
-42.7174276828331
 21
24.54417111290941
  0
LINE
  8
0
  6
CONTINUOUS
 62
     7
 10
-42.85152891315064
 20
24.40395717891036
 11
-42.78125774092
 21
24.47552136768261
  0
LINE
  8
0
  6
CONTINUOUS
 62
     7
 10
-64.0
 20
32.99999999999997
 11
-64.0
 21
31.49999999999997
  0
LINE
  8
0
  6
CONTINUOUS
 62
     7
 10
-42.16582092476479
 20
15.5387147335424
 11
-42.33963313087769
 21
15.4605407523512
  0
LINE
  8
0
  6
CONTINUOUS
 62
     7
 10
-65.0606601717798
 20
32.9594271796671
 11
-65.2472044184538
 21
32.77886076938985
  0
LINE
  8
0
  6
CONTINUOUS
 62
     7
 10
-45.32017442553049
 20
22.52782031876144
 11
-45.21753776203147
 21
22.5988555303736
  0
LINE
  8
0
  6
CONTINUOUS
 62
     7
 10
-44.60401585154811
 20
23.0283705470094
 11
-44.5021452115526
 21
23.10050700760924
  0
LINE
  8
0
  6
CONTINUOUS
 62
     7
 10
-43.10098911470617
 20
24.17177795132231
 11
-43.01139460004377
 21
24.25208547073032
  0
LINE
  8
0
  6
CONTINUOUS
 62
     7
 10
-48.06363636363636
 20
26.47272727272732
 11
-39.93636363636355
 21
26.47272727272732
  0
LINE
  8
0
  6
CONTINUOUS
 62
     7
 10
-47.85302726776958
 20
19.30302774218357
 11
-47.80563199286097
 21
19.5956326760171
  0
LINE
  8
0
  6
CONTINUOUS
 62
     7
 10
-40.3907981518073
 20
24.41446693425725
 11
-40.53770296636788
 21
24.14282879724871
  0
LINE
  8
0
  6
CONTINUOUS
 62
     7
 10
-40.26438973676377
 20
24.69170483481598
 11
-40.3907981518073
 21
24.41446693425725
  0
LINE
  8
0
  6
CONTINUOUS
 62
     7
 10
-42.92548854193517
 20
21.84031992693569
 11
-43.04418352642592
 21
21.75760763576262
  0
LINE
  8
0
  6
CONTINUOUS
 62
     7
 10
-40.53770296636788
 20
24.14282879724871
 11
-40.70510418044582
 21
23.8767904237906
  0
LINE
  8
0
  6
CONTINUOUS
 62
     7
 10
-40.07306210522843
 20
25.26297992658499
 11
-40.15847772123738
 21
24.97454249892528
  0
LINE
  8
0
  6
CONTINUOUS
 62
     7
 10
-42.13993585477355
 20
22.39815521759991
 11
-42.45081186547167
 21
22.1713151889944
  0
LINE
  8
0
  6
CONTINUOUS
 62
     7
 10
-54.00909090909089
 20
20.48295454545462
 11
-53.91065340909088
 21
20.50170454545464
  0
LINE
  8
0
  6
CONTINUOUS
 62
     7
 10
-40.89300179404065
 20
23.61635181388283
 11
-41.101395807153
 21
23.36151296752542
  0
LINE
  8
0
  6
CONTINUOUS
 62
     7
 10
-42.68812955140366
 20
22.0057883384917
 11
-42.80680388359448
 21
21.92304682784551
  0
LINE
  8
0
  6
CONTINUOUS
 62
     7
 10
-43.04418352642592
 20
21.75760763576262
 11
-43.16288883706648
 21
21.67490995432619
  0
LINE
  8
0
  6
CONTINUOUS
 62
     7
 10
-54.41098136697858
 20
20.44424507018722
 11
-54.3119986631016
 21
20.448136697861
  0
LINE
  8
0
  6
CONTINUOUS
 62
     7
 10
-42.56946554536268
 20
22.08854445887481
 11
-42.68812955140366
 21
22.0057883384917
  0
LINE
  8
0
  6
CONTINUOUS
 62
     7
 10
-43.63781334112809
 20
21.34426532594658
 11
-43.75657028251828
 21
21.26164069319331
  0
LINE
  8
0
  6
CONTINUOUS
 62
     7
 10
-54.5086480614973
 20
20.44425133689837
 11
-54.41098136697858
 21
20.44424507018722
  0
LINE
  8
0
  6
CONTINUOUS
 62
     7
 10
-50.2919034090909
 20
22.97670454545458
 11
-52.31008522727268
 21
22.97670454545458
  0
LINE
  8
0
  6
CONTINUOUS
 62
     7
 10
-54.11008522727268
 20
20.46761363636368
 11
-54.00909090909089
 21
20.48295454545462
  0
LINE
  8
0
  6
CONTINUOUS
 62
     7
 10
-53.91065340909088
 20
20.50170454545464
 11
-53.81477272727258
 21
20.52386363636371
  0
LINE
  8
0
  6
CONTINUOUS
 62
     7
 10
-53.06690340909087
 20
20.87670454545465
 11
-52.99659090909087
 21
20.93295454545446
  0
LINE
  8
0
  6
CONTINUOUS
 62
     7
 10
-40.70510418044582
 20
23.8767904237906
 11
-40.89300179404065
 21
23.61635181388283
  0
LINE
  8
0
  6
CONTINUOUS
 62
     7
 10
-43.28160447385709
 20
21.59222688262635
 11
-43.40033043679747
 21
21.5095584206631
  0
LINE
  8
0
  6
CONTINUOUS
 62
     7
 10
-42.00909090909089
 20
19.16363636363644
 11
-39.93636363636355
 21
19.16363636363644
  0
LINE
  8
0
  6
CONTINUOUS
 62
     7
 10
-43.40033043679747
 20
21.5095584206631
 11
-43.51906672588785
 21
21.42690456843649
  0
LINE
  8
0
  6
CONTINUOUS
 62
     7
 10
-54.70003342245988
 20
20.45595755347601
 11
-54.60499874665766
 21
20.44815549799472
  0
LINE
  8
0
  6
CONTINUOUS
 62
     7
 10
-43.87533755005851
 20
21.17903067017657
 11
-43.99411514374857
 21
21.09643525689653
  0
LINE
  8
0
  6
CONTINUOUS
 62
     7
 10
-54.88615474598929
 20
20.4832553475936
 11
-54.79375208890366
 21
20.46765750334228
  0
LINE
  8
0
  6
CONTINUOUS
 62
     7
 10
-44.1129030635885
 20
21.01385445335313
 11
-44.23170130957838
 21
20.93128825954632
  0
LINE
  8
0
  6
CONTINUOUS
 62
     7
 10
-39.93636363636355
 20
26.47272727272732
 11
-39.93979365430395
 21
26.16189079086623
  0
LINE
  8
0
  6
CONTINUOUS
 62
     7
 10
-44.54762794109579
 20
20.7047751149077
 11
-44.72888231693067
 21
20.55780187479872
  0
LINE
  8
0
  6
CONTINUOUS
 62
     7
 10
-41.101395807153
 20
23.36151296752542
 11
-41.33028621978241
 21
23.11227388471848
  0
LINE
  8
0
  6
CONTINUOUS
 62
     7
 10
-44.23170130957838
 20
20.93128825954632
 11
-44.35050988171818
 21
20.84873667547621
  0
LINE
  8
0
  6
CONTINUOUS
 62
     7
 10
-41.84955624359271
 20
22.63059500975573
 11
-42.13993585477355
 21
22.39815521759991
  0
LINE
  8
0
  6
CONTINUOUS
 62
     7
 10
-53.45681818181808
 20
20.64659090909088
 11
-53.37372159090897
 21
20.68579545454552
  0
LINE
  8
0
  6
CONTINUOUS
 62
     7
 10
-39.93979365430395
 20
26.16189079086623
 11
-39.96372007176168
 21
25.85665407255533
  0
LINE
  8
0
  6
CONTINUOUS
 62
     7
 10
-40.00814288873639
 20
25.55701711779501
 11
-40.07306210522843
 21
25.26297992658499
  0
LINE
  8
0
  6
CONTINUOUS
 62
     7
 10
-41.33028621978241
 20
23.11227388471848
 11
-41.579673031929
 21
22.8686345654619
  0
LINE
  8
0
  6
CONTINUOUS
 62
     7
 10
-26.3181818181818
 20
15.18181818181819
 11
-28.49999999999997
 21
15.18181818181819
  0
LINE
  8
0
  6
CONTINUOUS
 62
     7
 10
-26.3181818181818
 20
19.65454545454553
 11
-26.3181818181818
 21
15.18181818181819
  0
LINE
  8
0
  6
CONTINUOUS
 62
     7
 10
-34.32729956205627
 20
15.90197468227622
 11
-34.38221560496324
 21
15.79556322632825
  0
LINE
  8
0
  6
CONTINUOUS
 62
     7
 10
-58.58281249999997
 20
21.50397727272729
 11
-58.6260442782951
 21
21.70084036777159
  0
LINE
  8
0
  6
CONTINUOUS
 62
     7
 10
-55.00932645533557
 20
26.45509167499421
 11
-54.85208978570078
 21
26.47016973405552
  0
LINE
  8
0
  6
CONTINUOUS
 62
     7
 10
-52.28812472734798
 20
25.96187908121861
 11
-52.14741353111727
 21
25.88553345715305
  0
LINE
  8
0
  6
CONTINUOUS
 62
     7
 10
-52.43266659120138
 20
26.03317110340192
 11
-52.28812472734798
 21
25.96187908121861
  0
LINE
  8
0
  6
CONTINUOUS
 62
     7
 10
-58.64822290554178
 20
23.21352433495061
 11
-58.61053578405828
 21
23.39483223170102
  0
LINE
  8
0
  6
CONTINUOUS
 62
     7
 10
-55.62951329037169
 20
26.33972996218459
 11
-55.47578055813809
 21
26.37682781187167
  0
LINE
  8
0
  6
CONTINUOUS
 62
     7
 10
-55.91080930948036
 20
18.79861657827142
 11
-56.14578350304547
 21
18.86700408396868
  0
LINE
  8
0
  6
CONTINUOUS
 62
     7
 10
-54.37512387069457
 20
26.48237422530092
 11
-54.21438326365857
 21
26.47543249373641
  0
LINE
  8
0
  6
CONTINUOUS
 62
     7
 10
-58.11187369262338
 20
24.58757544389667
 11
-58.02297625981378
 21
24.72402377350286
  0
LINE
  8
0
  6
CONTINUOUS
 62
     7
 10
-56.99030172538019
 20
25.73862532519333
 11
-56.8497159283157
 21
25.8276440070741
  0
LINE
  8
0
  6
CONTINUOUS
 62
     7
 10
-51.7482639481619
 20
25.62617497366199
 11
-51.62287542242239
 21
25.52961494206701
  0
LINE
  8
0
  6
CONTINUOUS
 62
     7
 10
-53.89027409653557
 20
26.44503418763833
 11
-53.72690553644868
 21
26.4215776131046
  0
LINE
  8
0
  6
CONTINUOUS
 62
     7
 10
-51.62287542242239
 20
25.52961494206701
 11
-51.50131756430559
 21
25.42800130858974
  0
LINE
  8
0
  6
CONTINUOUS
 62
     7
 10
-58.56385767371059
 20
23.5744117730855
 11
-58.5081885744986
 21
23.75226295910404
  0
LINE
  8
0
  6
CONTINUOUS
 62
     7
 10
-34.20610831234255
 20
16.09846004121829
 11
-34.26859713118269
 21
16.00294028723953
  0
LINE
  8
0
  6
CONTINUOUS
 62
     7
 10
-57.92890999057867
 20
24.85572913833617
 11
-57.82967488491808
 21
24.98269153839722
  0
LINE
  8
0
  6
CONTINUOUS
 62
     7
 10
-56.39694551856919
 20
26.06624226408133
 11
-56.23568437580278
 21
26.1362890868721
  0
LINE
  8
0
  6
CONTINUOUS
 62
     7
 10
-54.21438326365857
 20
26.47543249373641
 11
-54.05276667227218
 21
26.46298581451562
  0
LINE
  8
0
  6
CONTINUOUS
 62
     7
 10
-33.66266771739745
 20
16.61461449149881
 11
-33.75166125200369
 21
16.5572156944126
  0
LINE
  8
0
  6
CONTINUOUS
 62
     7
 10
-55.18776525078717
 20
18.68846188209578
 11
-55.43180018335128
 21
18.70934547733505
  0
LINE
  8
0
  6
CONTINUOUS
 62
     7
 10
-55.3211718415543
 20
26.40842071390231
 11
-55.16568714062009
 21
26.4345086682764
  0
LINE
  8
0
  6
CONTINUOUS
 62
     7
 10
-53.92228689297257
 20
18.8215634581918
 11
-54.1814230572015
 21
18.76327386933385
  0
LINE
  8
0
  6
CONTINUOUS
 62
     7
 10
-53.66013048241069
 20
18.89568768386929
 11
-53.92228689297257
 21
18.8215634581918
  0
LINE
  8
0
  6
CONTINUOUS
 62
     7
 10
-58.6260442782951
 20
21.70084036777159
 11
-58.66028506772597
 21
21.89597510744995
  0
LINE
  8
0
  6
CONTINUOUS
 62
     7
 10
-28.49999999999997
 20
26.4181818181819
 11
-26.3181818181818
 21
26.4181818181819
  0
LINE
  8
0
  6
CONTINUOUS
 62
     7
 10
-21.68181818181808
 20
21.5636363636365
 11
-21.68181818181808
 21
26.4181818181819
  0
LINE
  8
0
  6
CONTINUOUS
 62
     7
 10
-56.60667115117668
 20
19.05128300582171
 11
-56.83258460574287
 21
19.16717442197735
  0
LINE
  8
0
  6
CONTINUOUS
 62
     7
 10
-58.68553486829251
 20
22.0893814917622
 11
-58.70179367999476
 21
22.28105952070858
  0
LINE
  8
0
  6
CONTINUOUS
 62
     7
 10
-57.50095654938328
 20
25.33512094994489
 11
-57.38104609802078
 21
25.44311149091583
  0
LINE
  8
0
  6
CONTINUOUS
 62
     7
 10
-19.49999999999996
 20
15.18181818181819
 11
-21.68181818181808
 21
15.18181818181819
  0
LINE
  8
0
  6
CONTINUOUS
 62
     7
 10
-34.52424540588495
 20
15.44365375257611
 11
-34.56401589692582
 21
15.31545889268948
  0
LINE
  8
0
  6
CONTINUOUS
 62
     7
 10
-19.49999999999996
 20
26.4181818181819
 11
-19.49999999999996
 21
15.18181818181819
  0
LINE
  8
0
  6
CONTINUOUS
 62
     7
 10
-56.99978194663119
 20
19.2647773240035
 11
-57.15927154118666
 21
19.36883986284915
  0
LINE
  8
0
  6
CONTINUOUS
 62
     7
 10
-34.38221560496324
 20
15.79556322632825
 11
-34.43334525990377
 21
15.6837059193955
  0
LINE
  8
0
  6
CONTINUOUS
 62
     7
 10
-21.68181818181808
 20
19.65454545454553
 11
-26.3181818181818
 21
19.65454545454553
  0
LINE
  8
0
  6
CONTINUOUS
 62
     7
 10
-33.40563852473088
 20
16.74215887623082
 11
-33.49093476285203
 21
16.70516846877151
  0
LINE
  8
0
  6
CONTINUOUS
 62
     7
 10
-55.67281486958228
 20
18.74606370939341
 11
-55.91080930948036
 21
18.79861657827142
  0
LINE
  8
0
  6
CONTINUOUS
 62
     7
 10
-54.1814230572015
 20
18.76327386933385
 11
-54.43753897509726
 21
18.7208189172951
  0
LINE
  8
0
  6
CONTINUOUS
 62
     7
 10
-33.91828915731615
 20
16.4260805472865
 11
-33.99592352802261
 21
16.3523441972464
  0
LINE
  8
0
  6
CONTINUOUS
 62
     7
 10
-56.3777374502776
 20
18.95122622648537
 11
-56.60667115117668
 21
19.05128300582171
  0
LINE
  8
0
  6
CONTINUOUS
 62
     7
 10
-57.59149384685499
 20
19.71978530030255
 11
-57.72015245607847
 21
19.84968638642576
  0
LINE
  8
0
  6
CONTINUOUS
 62
     7
 10
-56.83258460574287
 20
19.16717442197735
 11
-56.99978194663119
 21
19.2647773240035
  0
LINE
  8
0
  6
CONTINUOUS
 62
     7
 10
-34.06977151076251
 20
16.2731619962217
 11
-34.13983310553576
 21
16.18853394421232
  0
LINE
  8
0
  6
CONTINUOUS
 62
     7
 10
-57.4551274912985
 20
19.59634385099862
 11
-57.59149384685499
 21
19.71978530030255
  0
LINE
  8
0
  6
CONTINUOUS
 62
     7
 10
-55.16568714062009
 20
26.4345086682764
 11
-55.00932645533557
 21
26.45509167499421
  0
LINE
  8
0
  6
CONTINUOUS
 62
     7
 10
-58.70179367999476
 20
22.28105952070858
 11
-58.70906150283278
 21
22.47100919428901
  0
LINE
  8
0
  6
CONTINUOUS
 62
     7
 10
-53.5517183316131
 20
26.3907144059799
 11
-53.38036179440017
 21
26.3547975969729
  0
LINE
  8
0
  6
CONTINUOUS
 62
     7
 10
-52.88927618849829
 20
26.21672555865789
 11
-52.73324232177659
 21
26.16059434212148
  0
LINE
  8
0
  6
CONTINUOUS
 62
     7
 10
-58.70733833680647
 20
22.65923051250329
 11
-58.69662418191576
 21
22.84572347535169
  0
LINE
  8
0
  6
CONTINUOUS
 62
     7
 10
-57.12571868601918
 20
25.64486367853996
 11
-56.99030172538019
 21
25.73862532519333
  0
LINE
  8
0
  6
CONTINUOUS
 62
     7
 10
-52.58103912267759
 20
26.09940952370287
 11
-52.43266659120138
 21
26.03317110340192
  0
LINE
  8
0
  6
CONTINUOUS
 62
     7
 10
-57.38104609802078
 20
25.44311149091583
 11
-57.25596681023271
 21
25.54635906711422
  0
LINE
  8
0
  6
CONTINUOUS
 62
     7
 10
-56.23568437580278
 20
26.1362890868721
 11
-56.08545558097039
 21
26.1954067271849
  0
LINE
  8
0
  6
CONTINUOUS
 62
     7
 10
-52.01053300250938
 20
25.80413423120503
 11
-51.87748314152429
 21
25.71768140337472
  0
LINE
  8
0
  6
CONTINUOUS
 62
     7
 10
-55.43180018335128
 20
18.70934547733505
 11
-55.67281486958228
 21
18.74606370939341
  0
LINE
  8
0
  6
CONTINUOUS
 62
     7
 10
-57.82967488491808
 20
24.98269153839722
 11
-57.72527094283186
 21
25.10491097368561
  0
LINE
  8
0
  6
CONTINUOUS
 62
     7
 10
-57.61569816432038
 20
25.22238744420152
 11
-57.50095654938328
 21
25.33512094994489
  0
LINE
  8
0
  6
CONTINUOUS
 62
     7
 10
-58.66028506772597
 20
21.89597510744995
 11
-58.68553486829251
 21
22.0893814917622
  0
LINE
  8
0
  6
CONTINUOUS
 62
     7
 10
-51.87748314152429
 20
25.71768140337472
 11
-51.7482639481619
 21
25.62617497366199
  0
LINE
  8
0
  6
CONTINUOUS
 62
     7
 10
-54.53498849338029
 20
26.48381100920883
 11
-54.37512387069457
 21
26.48237422530092
  0
LINE
  8
0
  6
CONTINUOUS
 62
     7
 10
-52.14741353111727
 20
25.88553345715305
 11
-52.01053300250938
 21
25.80413423120503
  0
LINE
  8
0
  6
CONTINUOUS
 62
     7
 10
-53.06163102321499
 20
24.20229174795174
 11
-53.15091354126019
 21
24.26674551307067
  0
LINE
  8
0
  6
CONTINUOUS
 62
     7
 10
-53.21283592481016
 20
26.31382718608366
 11
-53.04914072284278
 21
26.2678031733119
  0
LINE
  8
0
  6
CONTINUOUS
 62
     7
 10
-58.5081885744986
 20
23.75226295910404
 11
-58.44352848642217
 21
23.92838578975653
  0
LINE
  8
0
  6
CONTINUOUS
 62
     7
 10
-57.72527094283186
 20
25.10491097368561
 11
-57.61569816432038
 21
25.22238744420152
  0
LINE
  8
0
  6
CONTINUOUS
 62
     7
 10
-56.55303782491019
 20
25.99145247651813
 11
-56.39694551856919
 21
26.06624226408133
  0
LINE
  8
0
  6
CONTINUOUS
 62
     7
 10
-55.93435080178777
 20
26.2490194198412
 11
-55.7823700382549
 21
26.29712716484111
  0
LINE
  8
0
  6
CONTINUOUS
 62
     7
 10
-58.61053578405828
 20
23.39483223170102
 11
-58.56385767371059
 21
23.5744117730855
  0
LINE
  8
0
  6
CONTINUOUS
 62
     7
 10
-58.53123135410618
 20
21.30947981840986
 11
-58.58281249999997
 21
21.50397727272729
  0
LINE
  8
0
  6
CONTINUOUS
 62
     7
 10
-56.14149376361657
 20
23.92242502363273
 11
-56.23382300016097
 21
23.80376019280583
  0
LINE
  8
0
  6
CONTINUOUS
 62
     7
 10
-52.33291315109237
 20
23.08425624268445
 11
-52.36048783164249
 21
23.18872951619205
  0
LINE
  8
0
  6
CONTINUOUS
 62
     7
 10
-53.65104455228248
 20
24.53598614904412
 11
-53.75282100443807
 21
24.57429644825415
  0
LINE
  8
0
  6
CONTINUOUS
 62
     7
 10
-55.67627864435359
 20
24.31814705659013
 11
-55.80696715013209
 21
24.23105714190332
  0
LINE
  8
0
  6
CONTINUOUS
 62
     7
 10
-52.82226400946161
 20
23.9904599102615
 11
-52.89730625731559
 21
24.06414894654712
  0
LINE
  8
0
  6
CONTINUOUS
 62
     7
 10
-58.44352848642217
 20
23.92838578975653
 11
-58.3698774094816
 21
24.10278026504314
  0
LINE
  8
0
  6
CONTINUOUS
 62
     7
 10
-51.71008522727266
 20
15.12215909090914
 11
-58.09190340909087
 21
15.12215909090914
  0
LINE
  8
0
  6
CONTINUOUS
 62
     7
 10
-54.69397713171567
 20
26.4797428454604
 11
-54.53498849338029
 21
26.48381100920883
  0
LINE
  8
0
  6
CONTINUOUS
 62
     7
 10
-58.676919038161
 20
23.03048808283409
 11
-58.64822290554178
 21
23.21352433495061
  0
LINE
  8
0
  6
CONTINUOUS
 62
     7
 10
-58.02297625981378
 20
24.72402377350286
 11
-57.92890999057867
 21
24.85572913833617
  0
LINE
  8
0
  6
CONTINUOUS
 62
     7
 10
-56.55162192325538
 20
23.09203010314581
 11
-56.58641225594879
 21
22.9260028981087
  0
LINE
  8
0
  6
CONTINUOUS
 62
     7
 10
-58.3698774094816
 20
24.10278026504314
 11
-58.28723534367666
 21
24.27544638496365
  0
LINE
  8
0
  6
CONTINUOUS
 62
     7
 10
-52.36048783164249
 20
23.18872951619205
 11
-52.39280926892309
 21
23.29012436597744
  0
LINE
  8
0
  6
CONTINUOUS
 62
     7
 10
-54.87898885583298
 20
24.63519069449871
 11
-55.05762644815407
 21
24.58756942498713
  0
LINE
  8
0
  6
CONTINUOUS
 62
     7
 10
-58.19560228900758
 20
24.44638414951822
 11
-58.11187369262338
 21
24.58757544389667
  0
LINE
  8
0
  6
CONTINUOUS
 62
     7
 10
-55.92806583860207
 20
24.13607349818153
 11
-56.03957470976359
 21
24.03319612542465
  0
LINE
  8
0
  6
CONTINUOUS
 62
     7
 10
-56.8497159283157
 20
25.8276440070741
 11
-56.70396129482569
 21
25.91191972418233
  0
LINE
  8
0
  6
CONTINUOUS
 62
     7
 10
-52.89730625731559
 20
24.06414894654712
 11
-52.97709526190008
 21
24.13475955911054
  0
LINE
  8
0
  6
CONTINUOUS
 62
     7
 10
-56.70396129482569
 20
25.91191972418233
 11
-56.55303782491019
 21
25.99145247651813
  0
LINE
  8
0
  6
CONTINUOUS
 62
     7
 10
-56.58641225594879
 20
22.9260028981087
 11
-56.61188084332269
 21
22.75085286154593
  0
LINE
  8
0
  6
CONTINUOUS
 62
     7
 10
-55.80696715013209
 20
24.23105714190332
 11
-55.92806583860207
 21
24.13607349818153
  0
LINE
  8
0
  6
CONTINUOUS
 62
     7
 10
-56.03957470976359
 20
24.03319612542465
 11
-56.14149376361657
 21
23.92242502363273
  0
LINE
  8
0
  6
CONTINUOUS
 62
     7
 10
-58.28723534367666
 20
24.27544638496365
 11
-58.19560228900758
 21
24.44638414951822
  0
LINE
  8
0
  6
CONTINUOUS
 62
     7
 10
-52.80099431818178
 20
21.12215909090914
 11
-50.72826704545447
 21
21.12215909090914
  0
LINE
  8
0
  6
CONTINUOUS
 62
     7
 10
-55.22667422316677
 20
24.53205442644041
 11
-55.38613218087087
 21
24.4686456988587
  0
LINE
  8
0
  6
CONTINUOUS
 62
     7
 10
-53.34631763924111
 20
24.38828079277222
 11
-53.44779286968387
 21
24.44297832130321
  0
LINE
  8
0
  6
CONTINUOUS
 62
     7
 10
-55.47578055813809
 20
26.37682781187167
 11
-55.3211718415543
 21
26.40842071390231
  0
LINE
  8
0
  6
CONTINUOUS
 62
     7
 10
-54.85208978570078
 20
26.47016973405552
 11
-54.69397713171567
 21
26.4797428454604
  0
LINE
  8
0
  6
CONTINUOUS
 62
     7
 10
-56.08545558097039
 20
26.1954067271849
 11
-55.93435080178777
 21
26.2490194198412
  0
LINE
  8
0
  6
CONTINUOUS
 62
     7
 10
-54.16093088543697
 20
24.67291354735662
 11
-54.26320937378068
 21
24.68391179769797
  0
LINE
  8
0
  6
CONTINUOUS
 62
     7
 10
-58.69662418191576
 20
22.84572347535169
 11
-58.676919038161
 21
23.03048808283409
  0
LINE
  8
0
  6
CONTINUOUS
 62
     7
 10
-54.05276667227218
 20
26.46298581451562
 11
-53.89027409653557
 21
26.44503418763833
  0
LINE
  8
0
  6
CONTINUOUS
 62
     7
 10
-52.68641978394459
 20
23.83384656652371
 11
-52.7519685183378
 21
23.91369245025371
  0
LINE
  8
0
  6
CONTINUOUS
 62
     7
 10
-56.61749110603667
 20
22.2566407511755
 11
-56.5957626938054
 21
22.10231604749141
  0
LINE
  8
0
  6
CONTINUOUS
 62
     7
 10
-54.05875280433087
 20
24.65645288724166
 11
-54.16093088543697
 21
24.67291354735662
  0
LINE
  8
0
  6
CONTINUOUS
 62
     7
 10
-53.15091354126019
 20
24.26674551307067
 11
-53.24494281603587
 21
24.3281208544675
  0
LINE
  8
0
  6
CONTINUOUS
 62
     7
 10
-53.72690553644868
 20
26.4215776131046
 11
-53.5517183316131
 21
26.3907144059799
  0
LINE
  8
0
  6
CONTINUOUS
 62
     7
 10
-52.73324232177659
 20
26.16059434212148
 11
-52.58103912267759
 21
26.09940952370287
  0
LINE
  8
0
  6
CONTINUOUS
 62
     7
 10
-56.23382300016097
 20
23.80376019280583
 11
-56.316562419397
 21
23.67720163294396
  0
LINE
  8
0
  6
CONTINUOUS
 62
     7
 10
-53.38036179440017
 20
26.3547975969729
 11
-53.21283592481016
 21
26.31382718608366
  0
LINE
  8
0
  6
CONTINUOUS
 62
     7
 10
-58.70906150283278
 20
22.47100919428901
 11
-58.70733833680647
 21
22.65923051250329
  0
LINE
  8
0
  6
CONTINUOUS
 62
     7
 10
-52.97709526190008
 20
24.13475955911054
 11
-53.06163102321499
 21
24.20229174795174
  0
LINE
  8
0
  6
CONTINUOUS
 62
     7
 10
-56.45978195770379
 20
21.67057993575716
 11
-56.39085654586726
 21
21.53708056495179
  0
LINE
  8
0
  6
CONTINUOUS
 62
     7
 10
-58.09190340909087
 20
16.97670454545458
 11
-53.2919034090909
 21
16.97670454545458
  0
LINE
  8
0
  6
CONTINUOUS
 62
     7
 10
-57.25596681023271
 20
25.54635906711422
 11
-57.12571868601918
 21
25.64486367853996
  0
LINE
  8
0
  6
CONTINUOUS
 62
     7
 10
-56.51690811963888
 20
21.80928563978224
 11
-56.45978195770379
 21
21.67057993575716
  0
LINE
  8
0
  6
CONTINUOUS
 62
     7
 10
-53.04914072284278
 20
26.2678031733119
 11
-52.88927618849829
 21
26.21672555865789
  0
LINE
  8
0
  6
CONTINUOUS
 62
     7
 10
-55.7823700382549
 20
26.29712716484111
 11
-55.62951329037169
 21
26.33972996218459
  0
LINE
  8
0
  6
CONTINUOUS
 62
     7
 10
-52.39280926892309
 20
23.29012436597744
 11
-52.42987746293398
 21
23.38844079204072
  0
LINE
  8
0
  6
CONTINUOUS
 62
     7
 10
-53.75282100443807
 20
24.57429644825415
 11
-53.8546978638314
 21
24.60714433769023
  0
LINE
  8
0
  6
CONTINUOUS
 62
     7
 10
-56.316562419397
 20
23.67720163294396
 11
-56.38971202132436
 21
23.54274934404693
  0
LINE
  8
0
  6
CONTINUOUS
 62
     7
 10
-53.54936850736438
 20
24.49221344006053
 11
-53.65104455228248
 21
24.53598614904412
  0
LINE
  8
0
  6
CONTINUOUS
 62
     7
 10
-53.2919034090909
 20
16.97670454545458
 11
-52.85553977272728
 21
19.21306818181817
  0
LINE
  8
0
  6
CONTINUOUS
 62
     7
 10
-56.56223503167279
 20
21.95319767702697
 11
-56.51690811963888
 21
21.80928563978224
  0
LINE
  8
0
  6
CONTINUOUS
 62
     7
 10
-54.67332739953176
 20
24.67328070132663
 11
-54.77610792406357
 21
24.6569669027995
  0
LINE
  8
0
  6
CONTINUOUS
 62
     7
 10
-58.09190340909087
 20
15.12215909090914
 11
-58.09190340909087
 21
16.97670454545458
  0
LINE
  8
0
  6
CONTINUOUS
 62
     7
 10
-53.24494281603587
 20
24.3281208544675
 11
-53.34631763924111
 21
24.38828079277222
  0
LINE
  8
0
  6
CONTINUOUS
 62
     7
 10
-53.44779286968387
 20
24.44297832130321
 11
-53.54936850736438
 21
24.49221344006053
  0
LINE
  8
0
  6
CONTINUOUS
 62
     7
 10
-54.36558826936199
 20
24.68944763826575
 11
-54.46806757218098
 21
24.6895210690598
  0
LINE
  8
0
  6
CONTINUOUS
 62
     7
 10
-51.50131756430559
 20
25.42800130858974
 11
-51.38359037381157
 21
25.32133407323012
  0
LINE
  8
0
  6
CONTINUOUS
 62
     7
 10
-56.11328481094998
 20
21.16782045185378
 11
-55.99716239950828
 21
21.05514641392708
  0
LINE
  8
0
  6
CONTINUOUS
 62
     7
 10
-53.8546978638314
 20
24.60714433769023
 11
-53.95667513046229
 21
24.63452981735281
  0
LINE
  8
0
  6
CONTINUOUS
 62
     7
 10
-56.39085654586726
 20
21.53708056495179
 11
-56.3101318841295
 21
21.40878752736608
  0
LINE
  8
0
  6
CONTINUOUS
 62
     7
 10
-55.15546666109619
 20
20.55343624665784
 11
-55.0670120320855
 21
20.52614471925141
  0
LINE
  8
0
  6
CONTINUOUS
 62
     7
 10
-52.7519685183378
 20
23.91369245025371
 11
-52.82226400946161
 21
23.9904599102615
  0
LINE
  8
0
  6
CONTINUOUS
 62
     7
 10
-55.72951982692101
 20
20.84541733773288
 11
-55.57799966577526
 21
20.74836229946531
  0
LINE
  8
0
  6
CONTINUOUS
 62
     7
 10
-53.95667513046229
 20
24.63452981735281
 11
-54.05875280433087
 21
24.65645288724166
  0
LINE
  8
0
  6
CONTINUOUS
 62
     7
 10
-50.72826704545447
 20
21.12215909090914
 11
-51.71008522727266
 21
15.12215909090914
  0
LINE
  8
0
  6
CONTINUOUS
 62
     7
 10
-52.6256178062817
 20
23.75092225907138
 11
-52.68641978394459
 21
23.83384656652371
  0
LINE
  8
0
  6
CONTINUOUS
 62
     7
 10
-55.24260528074859
 20
20.58462566844921
 11
-55.15546666109619
 21
20.55343624665784
  0
LINE
  8
0
  6
CONTINUOUS
 62
     7
 10
-52.31008522727268
 20
22.97670454545458
 11
-52.33291315109237
 21
23.08425624268445
  0
LINE
  8
0
  6
CONTINUOUS
 62
     7
 10
-55.32842789104267
 20
20.61971298462572
 11
-55.24260528074859
 21
20.58462566844921
  0
LINE
  8
0
  6
CONTINUOUS
 62
     7
 10
-56.21760797249037
 20
21.28570082300013
 11
-56.11328481094998
 21
21.16782045185378
  0
LINE
  8
0
  6
CONTINUOUS
 62
     7
 10
-54.46806757218098
 20
24.6895210690598
 11
-54.57064728223757
 21
24.68413209008002
  0
LINE
  8
0
  6
CONTINUOUS
 62
     7
 10
-56.62742026836659
 20
22.41617178807936
 11
-56.61749110603667
 21
22.2566407511755
  0
LINE
  8
0
  6
CONTINUOUS
 62
     7
 10
-52.51825412114697
 20
23.57583837300053
 11
-52.56956258534917
 21
23.66491952789707
  0
LINE
  8
0
  6
CONTINUOUS
 62
     7
 10
-52.56956258534917
 20
23.66491952789707
 11
-52.6256178062817
 21
23.75092225907138
  0
LINE
  8
0
  6
CONTINUOUS
 62
     7
 10
-54.77610792406357
 20
24.6569669027995
 11
-54.87898885583298
 21
24.63519069449871
  0
LINE
  8
0
  6
CONTINUOUS
 62
     7
 10
-55.49612508355606
 20
20.70158130013377
 11
-55.41293449197859
 21
20.65869819518728
  0
LINE
  8
0
  6
CONTINUOUS
 62
     7
 10
-55.0670120320855
 20
20.52614471925141
 11
-54.97724139371648
 21
20.50275108623001
  0
LINE
  8
0
  6
CONTINUOUS
 62
     7
 10
-56.3101318841295
 20
21.40878752736608
 11
-56.21760797249037
 21
21.28570082300013
  0
LINE
  8
0
  6
CONTINUOUS
 62
     7
 10
-56.38971202132436
 20
23.54274934404693
 11
-56.45327180594328
 21
23.40040332611493
  0
LINE
  8
0
  6
CONTINUOUS
 62
     7
 10
-56.61188084332269
 20
22.75085286154593
 11
-56.62555018079529
 21
22.58090915820271
  0
LINE
  8
0
  6
CONTINUOUS
 62
     7
 10
-56.62555018079529
 20
22.58090915820271
 11
-56.62742026836659
 21
22.41617178807936
  0
LINE
  8
0
  6
CONTINUOUS
 62
     7
 10
-55.41293449197859
 20
20.65869819518728
 11
-55.32842789104267
 21
20.61971298462572
  0
LINE
  8
0
  6
CONTINUOUS
 62
     7
 10
-52.42987746293398
 20
23.38844079204072
 11
-52.4716924136753
 21
23.48367879438162
  0
LINE
  8
0
  6
CONTINUOUS
 62
     7
 10
-52.4716924136753
 20
23.48367879438162
 11
-52.51825412114697
 21
23.57583837300053
  0
LINE
  8
0
  6
CONTINUOUS
 62
     7
 10
-54.57064728223757
 20
24.68413209008002
 11
-54.67332739953176
 21
24.67328070132663
  0
LINE
  8
0
  6
CONTINUOUS
 62
     7
 10
-55.8692407381653
 20
20.94767870922021
 11
-55.72951982692101
 21
20.84541733773288
  0
LINE
  8
0
  6
CONTINUOUS
 62
     7
 10
-54.26320937378068
 20
24.68391179769797
 11
-54.36558826936199
 21
24.68944763826575
  0
LINE
  8
0
  6
CONTINUOUS
 62
     7
 10
-55.99716239950828
 20
21.05514641392708
 11
-55.8692407381653
 21
20.94767870922021
  0
LINE
  8
0
  6
CONTINUOUS
 62
     7
 10
-55.57799966577526
 20
20.74836229946531
 11
-55.49612508355606
 21
20.70158130013377
  0
LINE
  8
0
  6
CONTINUOUS
 62
     7
 10
-54.97724139371648
 20
20.50275108623001
 11
-54.88615474598929
 21
20.4832553475936
  0
LINE
  8
0
  6
CONTINUOUS
 62
     7
 10
-55.38613218087087
 20
24.4686456988587
 11
-55.53600032126649
 21
24.39734324224191
  0
LINE
  8
0
  6
CONTINUOUS
 62
     7
 10
-55.53600032126649
 20
24.39734324224191
 11
-55.67627864435359
 21
24.31814705659013
  0
LINE
  8
0
  6
CONTINUOUS
 62
     7
 10
-56.50724177325358
 20
23.25016357914777
 11
-56.55162192325538
 21
23.09203010314581
  0
LINE
  8
0
  6
CONTINUOUS
 62
     7
 10
-56.45327180594328
 20
23.40040332611493
 11
-56.50724177325358
 21
23.25016357914777
  0
LINE
  8
0
  6
CONTINUOUS
 62
     7
 10
-56.5957626938054
 20
22.10231604749141
 11
-56.56223503167279
 21
21.95319767702697
  0
LINE
  8
0
  6
CONTINUOUS
 62
     7
 10
-55.05762644815407
 20
24.58756942498713
 11
-55.22667422316677
 21
24.53205442644041
  0
ENDSEC
  0
EOF
