  0
SECTION
  2
HEADER
  9
$ACADVER
  1
AC1004
  9
$INSBASE
 10
0.0
 20
0.0
  9
$EXTMIN
 10
-65.5211729248523
 20
-121.0256179045009
  9
$EXTMAX
 10
185.4772077938642
 20
55.9726623393186
  9
$LIMMIN
 10
0.0
 20
0.0
  9
$LIMMAX
 10
12.0
 20
9.0
  9
$ORTHOMODE
 70
     0
  9
$REGENMODE
 70
     1
  9
$FILLMODE
 70
     1
  9
$QTEXTMODE
 70
     0
  9
$DRAGMODE
 70
     2
  9
$LTSCALE
 40
1.0
  9
$OSMODE
 70
    37
  9
$ATTMODE
 70
     1
  9
$TEXTSIZE
 40
0.2
  9
$TRACEWID
 40
0.05
  9
$TEXTSTYLE
  7
STANDARD
  9
$CLAYER
  8
0
  9
$CELTYPE
  6
BYLAYER
  9
$CECOLOR
 62
   256
  9
$DIMSCALE
 40
1.0
  9
$DIMASZ
 40
2.5
  9
$DIMEXO
 40
0.0625
  9
$DIMDLI
 40
0.38
  9
$DIMRND
 40
0.0
  9
$DIMDLE
 40
0.0
  9
$DIMEXE
 40
1.25
  9
$DIMTP
 40
0.0
  9
$DIMTM
 40
0.0
  9
$DIMTXT
 40
4.0
  9
$DIMCEN
 40
0.09
  9
$DIMTSZ
 40
0.0
  9
$DIMTOL
 70
     0
  9
$DIMLIM
 70
     0
  9
$DIMTIH
 70
     1
  9
$DIMTOH
 70
     1
  9
$DIMSE1
 70
     0
  9
$DIMSE2
 70
     0
  9
$DIMTAD
 70
     1
  9
$DIMZIN
 70
     0
  9
$DIMBLK
  1

  9
$DIMASO
 70
     1
  9
$DIMSHO
 70
     1
  9
$DIMPOST
  1

  9
$DIMAPOST
  1

  9
$DIMALT
 70
     0
  9
$DIMALTD
 70
     2
  9
$DIMALTF
 40
25.4
  9
$DIMLFAC
 40
1.0
  9
$DIMTOFL
 70
     0
  9
$DIMTVP
 40
0.0
  9
$DIMTIX
 70
     0
  9
$DIMSOXD
 70
     0
  9
$DIMSAH
 70
     0
  9
$DIMBLK1
  1

  9
$DIMBLK2
  1

  9
$LUNITS
 70
     2
  9
$LUPREC
 70
     4
  9
$SKETCHINC
 40
0.1
  9
$FILLETRAD
 40
0.0
  9
$AUNITS
 70
     0
  9
$AUPREC
 70
     0
  9
$MENU
  1
.
  9
$ELEVATION
 40
0.0
  9
$THICKNESS
 40
0.0
  9
$LIMCHECK
 70
     0
  9
$CHAMFERA
 40
0.0
  9
$CHAMFERB
 40
0.0
  9
$SKPOLY
 70
     0
  9
$TDCREATE
 40
2460334.836266099
  9
$TDUPDATE
 40
2460334.836266377
  9
$TDINDWG
 40
0.0000000116
  9
$TDUSRTIMER
 40
0.0000000116
  9
$USRTIMER
 70
     1
  9
$ANGBASE
 50
0.0
  9
$ANGDIR
 70
     0
  9
$PDMODE
 70
     0
  9
$PDSIZE
 40
0.0
  9
$PLINEWID
 40
0.0
  9
$COORDS
 70
     1
  9
$SPLFRAME
 70
     0
  9
$SPLINETYPE
 70
     6
  9
$SPLINESEGS
 70
     8
  9
$ATTDIA
 70
     0
  9
$ATTREQ
 70
     1
  9
$SURFTAB1
 70
     6
  9
$SURFTAB2
 70
     6
  9
$SURFTYPE
 70
     6
  9
$SURFU
 70
     6
  9
$SURFV
 70
     6
  9
$UCSNAME
  2

  9
$UCSORG
 10
0.0
 20
0.0
 30
0.0
  9
$UCSXDIR
 10
1.0
 20
0.0
 30
0.0
  9
$UCSYDIR
 10
0.0
 20
1.0
 30
0.0
  9
$USERI1
 70
     0
  9
$USERI2
 70
     0
  9
$USERI3
 70
     0
  9
$USERI4
 70
     0
  9
$USERI5
 70
     0
  9
$USERR1
 40
0.0
  9
$USERR2
 40
0.0
  9
$USERR3
 40
0.0
  9
$USERR4
 40
0.0
  9
$USERR5
 40
0.0
  9
$WORLDVIEW
 70
     1
  0
ENDSEC
  0
SECTION
  2
TABLES
  0
TABLE
  2
LTYPE
 70
     2
  0
LTYPE
  2
CONTINUOUS
 70
     0
  3
Solid line
 72
    65
 73
     0
 40
0.0
  0
LTYPE
  2
CENTER
 70
     0
  3

 72
    65
 73
     0
 40
0.0
  0
ENDTAB
  0
TABLE
  2
LAYER
 70
     1
  0
LAYER
  2
0
 70
     0
 62
     7
  6
CONTINUOUS
  0
ENDTAB
  0
TABLE
  2
STYLE
 70
     3
  0
STYLE
  2
STANDARD
 70
     0
 40
0.0
 41
1.0
 50
0.0
 71
     0
 42
0.2
  3
txt
  4

  0
STYLE
  2
HG丸ｺﾞｼｯｸM-PRO
 70
     0
 40
0.0
 41
1.0
 50
0.0
 71
     0
 42
0.2
  3
HGRSMP.TTF
  4

  0
STYLE
  2
MTXPL_HG丸ｺﾞｼｯｸM-PRO
 70
     0
 40
0.2
 41
1.0
 50
0.0
 71
     0
 42
0.2
  3
txt.shx
  4

  0
ENDTAB
  0
TABLE
  2
VIEW
 70
     0
  0
ENDTAB
  0
ENDSEC
  0
SECTION
  2
BLOCKS
  0
ENDSEC
  0
SECTION
  2
ENTITIES
  0
LINE
  8
0
  6
CONTINUOUS
 62
     7
 10
50.33896456671471
 20
24.76805761424522
 11
50.33896456671471
 21
35.72720779386401
  0
LINE
  8
0
  6
CONTINUOUS
 62
     7
 10
50.33896456671471
 20
24.76805761424522
 11
50.33396456671502
 21
24.76807971512762
  0
ARC
  8
0
  6
CONTINUOUS
 62
     7
 10
50.30229492251642
 20
26.97787809086816
 40
2.210025300259988
 50
249.6360783115904
 51
270.821076147369
  0
LINE
  8
0
  6
CONTINUOUS
 62
     7
 10
49.5332463724415
 20
24.90597651130005
 11
49.42888183318566
 21
24.96883360211816
  0
LINE
  8
0
  6
CONTINUOUS
 62
     7
 10
49.42888183318566
 20
24.96883360211816
 11
49.36080430793771
 21
25.05185572567964
  0
LINE
  8
0
  6
CONTINUOUS
 62
     7
 10
49.36080430793771
 20
25.05185572567964
 11
49.34033503196006
 21
25.15470485032462
  0
LINE
  8
0
  6
CONTINUOUS
 62
     7
 10
49.34033503196006
 20
25.15470485032462
 11
49.34033503196006
 21
34.779543750107
  0
LINE
  8
0
  6
CONTINUOUS
 62
     7
 10
50.94103543328493
 20
24.76803938808408
 11
50.94103543328493
 21
35.72720779386407
  0
LINE
  8
0
  6
CONTINUOUS
 62
     7
 10
50.94103543328493
 20
24.76803938808408
 11
50.93603543328523
 21
24.76805761424522
  0
LINE
  8
0
  6
CONTINUOUS
 62
     7
 10
50.93603543328523
 20
24.76805761424522
 11
50.33896456671471
 21
24.76805761424522
  0
LINE
  8
0
  6
CONTINUOUS
 62
     7
 10
51.93966496803959
 20
24.95090062953103
 11
51.93966496803959
 21
34.779543750107
  0
LINE
  8
0
  6
CONTINUOUS
 62
     7
 10
51.93966496803959
 20
24.95090062953103
 11
51.93466496803978
 21
24.97445035505136
  0
LINE
  8
0
  6
CONTINUOUS
 62
     7
 10
51.93466496803978
 20
24.97445035505136
 11
51.8270607323556
 21
24.92461267328294
  0
LINE
  8
0
  6
CONTINUOUS
 62
     7
 10
51.8270607323556
 20
24.92461267328294
 11
51.71684427931872
 21
24.87545016442377
  0
ARC
  8
0
  6
CONTINUOUS
 62
     7
 10
51.01539703113256
 20
27.08640858063161
 40
2.319561458592578
 50
268.1628700375028
 51
287.602117285595
  0
LINE
  8
0
  6
CONTINUOUS
 62
     7
 10
56.27103543328504
 20
24.76803938808408
 11
56.27103543328504
 21
35.72720779386401
  0
LINE
  8
0
  6
CONTINUOUS
 62
     7
 10
56.27103543328504
 20
24.76803938808408
 11
56.26603543328529
 21
24.76805761424522
  0
LINE
  8
0
  6
CONTINUOUS
 62
     7
 10
56.26603543328529
 20
24.76805761424522
 11
55.66896456671477
 21
24.76805761424522
  0
LINE
  8
0
  6
CONTINUOUS
 62
     7
 10
55.66896456671477
 20
24.76805761424522
 11
55.66896456671477
 21
35.72720779386401
  0
LINE
  8
0
  6
CONTINUOUS
 62
     7
 10
60.99896456671466
 20
24.76805761424522
 11
60.99896456671466
 21
35.72720779386401
  0
LINE
  8
0
  6
CONTINUOUS
 62
     7
 10
60.99896456671466
 20
24.76805761424522
 11
60.99396456671491
 21
24.76807971512762
  0
ARC
  8
0
  6
CONTINUOUS
 62
     7
 10
60.96229492251637
 20
26.97787809086888
 40
2.21002530026071
 50
249.6360783115935
 51
270.8210761473648
  0
LINE
  8
0
  6
CONTINUOUS
 62
     7
 10
60.19324637244144
 20
24.90597651130005
 11
60.08888183318561
 21
24.96883360211816
  0
LINE
  8
0
  6
CONTINUOUS
 62
     7
 10
60.08888183318561
 20
24.96883360211816
 11
60.02080430793766
 21
25.05185572567964
  0
LINE
  8
0
  6
CONTINUOUS
 62
     7
 10
60.02080430793766
 20
25.05185572567964
 11
60.00033503196023
 21
25.15470485032467
  0
LINE
  8
0
  6
CONTINUOUS
 62
     7
 10
60.00033503196023
 20
25.15470485032467
 11
60.00033503196023
 21
34.779543750107
  0
LINE
  8
0
  6
CONTINUOUS
 62
     7
 10
61.60103543328499
 20
24.76803938808408
 11
61.60103543328499
 21
35.72720779386401
  0
LINE
  8
0
  6
CONTINUOUS
 62
     7
 10
61.60103543328499
 20
24.76803938808408
 11
61.59603543328518
 21
24.76805761424522
  0
LINE
  8
0
  6
CONTINUOUS
 62
     7
 10
61.59603543328518
 20
24.76805761424522
 11
60.99896456671466
 21
24.76805761424522
  0
LINE
  8
0
  6
CONTINUOUS
 62
     7
 10
62.59966496803953
 20
24.95090062953798
 11
62.59966496803953
 21
34.779543750107
  0
LINE
  8
0
  6
CONTINUOUS
 62
     7
 10
62.59966496803953
 20
24.95090062953798
 11
62.59466496803978
 21
24.97445035505125
  0
LINE
  8
0
  6
CONTINUOUS
 62
     7
 10
62.59466496803978
 20
24.97445035505125
 11
62.4870607323556
 21
24.92461267328294
  0
LINE
  8
0
  6
CONTINUOUS
 62
     7
 10
62.4870607323556
 20
24.92461267328294
 11
62.37684427931867
 21
24.87545016442377
  0
ARC
  8
0
  6
CONTINUOUS
 62
     7
 10
61.67539703113262
 20
27.08640858063177
 40
2.319561458592745
 50
268.1628700375031
 51
287.6021172855936
  0
LINE
  8
0
  6
CONTINUOUS
 62
     7
 10
45.61103543328488
 20
24.76803938808408
 11
45.61103543328488
 21
35.72720779386407
  0
LINE
  8
0
  6
CONTINUOUS
 62
     7
 10
45.61103543328488
 20
24.76803938808408
 11
45.60603543328517
 21
24.76805761424522
  0
LINE
  8
0
  6
CONTINUOUS
 62
     7
 10
45.60603543328517
 20
24.76805761424522
 11
45.00896456671472
 21
24.76805761424522
  0
LINE
  8
0
  6
CONTINUOUS
 62
     7
 10
45.00896456671472
 20
24.76805761424522
 11
45.00896456671472
 21
35.72720779386401
  0
LINE
  8
0
  6
CONTINUOUS
 62
     7
 10
55.66896456671477
 20
24.76805761424522
 11
55.66396456671491
 21
24.76807971512762
  0
ARC
  8
0
  6
CONTINUOUS
 62
     7
 10
55.63229492251648
 20
26.97787809086899
 40
2.210025300260765
 50
249.6360783115942
 51
270.8210761473654
  0
LINE
  8
0
  6
CONTINUOUS
 62
     7
 10
54.86324637244133
 20
24.90597651130005
 11
54.75888183318555
 21
24.96883360211816
  0
LINE
  8
0
  6
CONTINUOUS
 62
     7
 10
54.75888183318555
 20
24.96883360211816
 11
54.6908043079376
 21
25.05185572567964
  0
LINE
  8
0
  6
CONTINUOUS
 62
     7
 10
54.6908043079376
 20
25.05185572567964
 11
54.67033503196017
 21
25.15470485032467
  0
LINE
  8
0
  6
CONTINUOUS
 62
     7
 10
54.67033503196017
 20
25.15470485032467
 11
54.67033503196017
 21
34.779543750107
  0
LINE
  8
0
  6
CONTINUOUS
 62
     7
 10
39.67896456671465
 20
24.76805761424522
 11
39.67896456671465
 21
35.72720779386401
  0
LINE
  8
0
  6
CONTINUOUS
 62
     7
 10
39.67896456671465
 20
24.76805761424522
 11
39.67396456671496
 21
24.76807971512762
  0
ARC
  8
0
  6
CONTINUOUS
 62
     7
 10
39.64229492251636
 20
26.9778780908686
 40
2.210025300260432
 50
249.6360783115913
 51
270.8210761473658
  0
LINE
  8
0
  6
CONTINUOUS
 62
     7
 10
38.87324637244139
 20
24.90597651130005
 11
38.76888183318561
 21
24.96883360211827
  0
LINE
  8
0
  6
CONTINUOUS
 62
     7
 10
38.76888183318561
 20
24.96883360211827
 11
38.70080430793754
 21
25.05185572567997
  0
LINE
  8
0
  6
CONTINUOUS
 62
     7
 10
38.70080430793754
 20
25.05185572567997
 11
38.68033503196017
 21
25.15470485032462
  0
LINE
  8
0
  6
CONTINUOUS
 62
     7
 10
38.68033503196017
 20
25.15470485032462
 11
38.68033503196017
 21
34.779543750107
  0
LINE
  8
0
  6
CONTINUOUS
 62
     7
 10
40.28103543328498
 20
24.76803938808408
 11
40.28103543328498
 21
35.72720779386407
  0
LINE
  8
0
  6
CONTINUOUS
 62
     7
 10
40.28103543328498
 20
24.76803938808408
 11
40.27603543328517
 21
24.76805761424522
  0
LINE
  8
0
  6
CONTINUOUS
 62
     7
 10
40.27603543328517
 20
24.76805761424522
 11
39.67896456671465
 21
24.76805761424522
  0
LINE
  8
0
  6
CONTINUOUS
 62
     7
 10
45.00896456671472
 20
24.76805761424522
 11
45.00396456671501
 21
24.76807971512762
  0
ARC
  8
0
  6
CONTINUOUS
 62
     7
 10
44.97229492251636
 20
26.9778780908686
 40
2.210025300260376
 50
249.6360783115921
 51
270.8210761473681
  0
LINE
  8
0
  6
CONTINUOUS
 62
     7
 10
44.20324637244138
 20
24.90597651130005
 11
44.09888183318572
 21
24.96883360211816
  0
LINE
  8
0
  6
CONTINUOUS
 62
     7
 10
44.09888183318572
 20
24.96883360211816
 11
44.03080430793765
 21
25.05185572567964
  0
LINE
  8
0
  6
CONTINUOUS
 62
     7
 10
44.03080430793765
 20
25.05185572567964
 11
44.01033503196022
 21
25.15470485032462
  0
LINE
  8
0
  6
CONTINUOUS
 62
     7
 10
44.01033503196022
 20
25.15470485032462
 11
44.01033503196022
 21
34.779543750107
  0
LINE
  8
0
  6
CONTINUOUS
 62
     7
 10
41.27966496803948
 20
24.95090062953548
 11
41.27966496803948
 21
34.779543750107
  0
LINE
  8
0
  6
CONTINUOUS
 62
     7
 10
41.27966496803948
 20
24.95090062953548
 11
41.27466496803983
 21
24.97445035505147
  0
LINE
  8
0
  6
CONTINUOUS
 62
     7
 10
41.27466496803983
 20
24.97445035505147
 11
41.16706073235549
 21
24.92461267328294
  0
LINE
  8
0
  6
CONTINUOUS
 62
     7
 10
41.16706073235549
 20
24.92461267328294
 11
41.05684427931855
 21
24.87545016442355
  0
ARC
  8
0
  6
CONTINUOUS
 62
     7
 10
40.35539703113211
 20
27.08640858063726
 40
2.31956145859824
 50
268.1628700375205
 51
287.6021172855589
  0
LINE
  8
0
  6
CONTINUOUS
 62
     7
 10
57.26966496803948
 20
24.95090062953509
 11
57.26966496803948
 21
34.779543750107
  0
LINE
  8
0
  6
CONTINUOUS
 62
     7
 10
57.26966496803948
 20
24.95090062953509
 11
57.26466496803983
 21
24.97445035505125
  0
LINE
  8
0
  6
CONTINUOUS
 62
     7
 10
57.26466496803983
 20
24.97445035505125
 11
57.1570607323556
 21
24.92461267328294
  0
LINE
  8
0
  6
CONTINUOUS
 62
     7
 10
57.1570607323556
 20
24.92461267328294
 11
57.04684427931878
 21
24.87545016442377
  0
ARC
  8
0
  6
CONTINUOUS
 62
     7
 10
56.34539703113261
 20
27.08640858063188
 40
2.319561458592856
 50
268.1628700375034
 51
287.6021172855933
  0
LINE
  8
0
  6
CONTINUOUS
 62
     7
 10
46.60966496803953
 20
24.95090062953548
 11
46.60966496803953
 21
34.779543750107
  0
LINE
  8
0
  6
CONTINUOUS
 62
     7
 10
46.60966496803953
 20
24.95090062953548
 11
46.60466496803988
 21
24.97445035505147
  0
LINE
  8
0
  6
CONTINUOUS
 62
     7
 10
46.60466496803988
 20
24.97445035505147
 11
46.49706073235554
 21
24.92461267328294
  0
LINE
  8
0
  6
CONTINUOUS
 62
     7
 10
46.49706073235554
 20
24.92461267328294
 11
46.3868442793186
 21
24.87545016442366
  0
ARC
  8
0
  6
CONTINUOUS
 62
     7
 10
45.68539703113206
 20
27.08640858063566
 40
2.319561458596575
 50
268.162870037518
 51
287.6021172855719
  0
LINE
  8
0
  6
CONTINUOUS
 62
     7
 10
34.95103543328498
 20
24.76803938808408
 11
34.95103543328498
 21
35.72720779386401
  0
LINE
  8
0
  6
CONTINUOUS
 62
     7
 10
34.95103543328498
 20
24.76803938808408
 11
34.94603543328534
 21
24.76805761424522
  0
LINE
  8
0
  6
CONTINUOUS
 62
     7
 10
34.94603543328534
 20
24.76805761424522
 11
34.34896456671471
 21
24.76805761424522
  0
LINE
  8
0
  6
CONTINUOUS
 62
     7
 10
34.34896456671471
 20
24.76805761424522
 11
34.34896456671471
 21
35.72720779386401
  0
LINE
  8
0
  6
CONTINUOUS
 62
     7
 10
19.95966496803947
 20
24.44292671493187
 11
19.95966496803947
 21
34.779543750107
  0
LINE
  8
0
  6
CONTINUOUS
 62
     7
 10
19.95215630838482
 20
24.32760627482056
 11
19.95966496803947
 21
24.44292671493187
  0
ARC
  8
0
  6
CONTINUOUS
 62
     7
 10
18.43728383877313
 20
24.44567013278198
 40
1.519466246332646
 50
326.3216649333726
 51
355.5435758404472
  0
LINE
  8
0
  6
CONTINUOUS
 62
     7
 10
19.70172873983239
 20
23.60308081055596
 11
19.61541484787161
 21
23.49375630601785
  0
LINE
  8
0
  6
CONTINUOUS
 62
     7
 10
19.61541484787161
 20
23.49375630601785
 11
19.52335069539468
 21
23.40272651819697
  0
LINE
  8
0
  6
CONTINUOUS
 62
     7
 10
19.52335069539468
 20
23.40272651819697
 11
19.4127251787084
 21
23.31931719026842
  0
LINE
  8
0
  6
CONTINUOUS
 62
     7
 10
19.4127251787084
 20
23.31931719026842
 11
19.30704106169373
 21
23.26074301174769
  0
LINE
  8
0
  6
CONTINUOUS
 62
     7
 10
19.30704106169373
 20
23.26074301174769
 11
19.20634223815221
 21
23.22117722086015
  0
LINE
  8
0
  6
CONTINUOUS
 62
     7
 10
19.20634223815221
 20
23.22117722086015
 11
19.10459798253722
 21
23.19563193326529
  0
LINE
  8
0
  6
CONTINUOUS
 62
     7
 10
19.10459798253722
 20
23.19563193326529
 11
18.99709258721405
 21
23.18337443170654
  0
LINE
  8
0
  6
CONTINUOUS
 62
     7
 10
18.99709258721405
 20
23.18337443170654
 11
18.96103543328503
 21
23.18254849295265
  0
LINE
  8
0
  6
CONTINUOUS
 62
     7
 10
18.96103543328503
 20
23.18254849295265
 11
18.96103543328503
 21
35.72720779386407
  0
LINE
  8
0
  6
CONTINUOUS
 62
     7
 10
34.34896456671471
 20
24.76805761424522
 11
34.34396456671496
 21
24.76807971512762
  0
ARC
  8
0
  6
CONTINUOUS
 62
     7
 10
34.31229492251641
 20
26.9778780908686
 40
2.210025300260432
 50
249.6360783115913
 51
270.8210761473658
  0
LINE
  8
0
  6
CONTINUOUS
 62
     7
 10
33.54324637244138
 20
24.90597651130005
 11
33.43888183318555
 21
24.96883360211832
  0
LINE
  8
0
  6
CONTINUOUS
 62
     7
 10
33.43888183318555
 20
24.96883360211832
 11
33.3708043079377
 21
25.05185572568003
  0
LINE
  8
0
  6
CONTINUOUS
 62
     7
 10
33.3708043079377
 20
25.05185572568003
 11
33.35033503196016
 21
25.15470485032445
  0
LINE
  8
0
  6
CONTINUOUS
 62
     7
 10
33.35033503196016
 20
25.15470485032462
 11
33.35033503196016
 21
34.779543750107
  0
LINE
  8
0
  6
CONTINUOUS
 62
     7
 10
29.62103543328498
 20
24.76803938808408
 11
29.62103543328498
 21
35.72720779386401
  0
LINE
  8
0
  6
CONTINUOUS
 62
     7
 10
29.62103543328498
 20
24.76803938808408
 11
29.61603543328523
 21
24.76805761424522
  0
LINE
  8
0
  6
CONTINUOUS
 62
     7
 10
29.61603543328523
 20
24.76805761424522
 11
29.01896456671471
 21
24.76805761424522
  0
LINE
  8
0
  6
CONTINUOUS
 62
     7
 10
29.01896456671471
 20
24.76805761424522
 11
29.01896456671471
 21
35.72720779386401
  0
LINE
  8
0
  6
CONTINUOUS
 62
     7
 10
30.61966496803958
 20
24.95090062953847
 11
30.61966496803958
 21
34.779543750107
  0
LINE
  8
0
  6
CONTINUOUS
 62
     7
 10
30.61966496803958
 20
24.95090062953847
 11
30.61466496803988
 21
24.97445035505158
  0
LINE
  8
0
  6
CONTINUOUS
 62
     7
 10
30.61466496803988
 20
24.97445035505158
 11
30.50706073235548
 21
24.92461267328294
  0
LINE
  8
0
  6
CONTINUOUS
 62
     7
 10
30.50706073235548
 20
24.92461267328294
 11
30.39684427931832
 21
24.87545016442355
  0
ARC
  8
0
  6
CONTINUOUS
 62
     7
 10
29.69539703113205
 20
27.08640858063699
 40
2.319561458597963
 50
268.1628700375201
 51
287.6021172855558
  0
LINE
  8
0
  6
CONTINUOUS
 62
     7
 10
35.94966496803947
 20
24.95090062953548
 11
35.94966496803947
 21
34.779543750107
  0
LINE
  8
0
  6
CONTINUOUS
 62
     7
 10
35.94966496803947
 20
24.95090062953548
 11
35.94466496803977
 21
24.97445035505147
  0
LINE
  8
0
  6
CONTINUOUS
 62
     7
 10
35.94466496803977
 20
24.97445035505147
 11
35.83706073235548
 21
24.92461267328294
  0
LINE
  8
0
  6
CONTINUOUS
 62
     7
 10
35.83706073235548
 20
24.92461267328294
 11
35.72684427931838
 21
24.87545016442355
  0
ARC
  8
0
  6
CONTINUOUS
 62
     7
 10
35.02539703113211
 20
27.08640858063715
 40
2.319561458598129
 50
268.1628700375206
 51
287.6021172855554
  0
LINE
  8
0
  6
CONTINUOUS
 62
     7
 10
18.35896456671471
 20
23.18254849295265
 11
18.35896456671471
 21
35.72720779386407
  0
LINE
  8
0
  6
CONTINUOUS
 62
     7
 10
18.35896456671471
 20
23.18254849295265
 11
18.24110351687908
 21
23.19135144216211
  0
LINE
  8
0
  6
CONTINUOUS
 62
     7
 10
18.24110351687908
 20
23.19135144216211
 11
18.10967361426113
 21
23.22246963481145
  0
LINE
  8
0
  6
CONTINUOUS
 62
     7
 10
18.10967361426113
 20
23.22246963481145
 11
18.00354190366588
 21
23.26521748945154
  0
LINE
  8
0
  6
CONTINUOUS
 62
     7
 10
18.00354190366588
 20
23.26521748945154
 11
17.90177215314681
 21
23.32289141249999
  0
ARC
  8
0
  6
CONTINUOUS
 62
     7
 10
18.52140041089673
 20
24.23761883648406
 40
1.104837290278826
 50
205.4875379137195
 51
235.8866349360898
  0
ARC
  8
0
  6
CONTINUOUS
 62
     7
 10
18.97335558203994
 20
24.46696836448459
 40
1.61154901331978
 50
184.9609694267216
 51
205.933593090773
  0
LINE
  8
0
  6
CONTINUOUS
 62
     7
 10
17.36033503196016
 20
24.44292671493187
 11
17.36784369161487
 21
24.32760627482056
  0
LINE
  8
0
  6
CONTINUOUS
 62
     7
 10
17.36033503196016
 20
24.44292671493187
 11
17.36033503196016
 21
34.779543750107
  0
LINE
  8
0
  6
CONTINUOUS
 62
     7
 10
29.01896456671471
 20
24.76805761424522
 11
29.01396456671501
 21
24.76807971512762
  0
ARC
  8
0
  6
CONTINUOUS
 62
     7
 10
28.98229492251642
 20
26.97787809086849
 40
2.210025300260321
 50
249.6360783115909
 51
270.8210761473665
  0
LINE
  8
0
  6
CONTINUOUS
 62
     7
 10
28.21324637244138
 20
24.90597651130005
 11
28.10888183318561
 21
24.96883360211832
  0
LINE
  8
0
  6
CONTINUOUS
 62
     7
 10
28.10888183318561
 20
24.96883360211832
 11
28.04080430793771
 21
25.05185572568003
  0
LINE
  8
0
  6
CONTINUOUS
 62
     7
 10
28.04080430793771
 20
25.05185572568003
 11
28.02033503196011
 21
25.15470485032445
  0
LINE
  8
0
  6
CONTINUOUS
 62
     7
 10
28.02033503196011
 20
25.15470485032445
 11
28.02033503196011
 21
34.779543750107
  0
LINE
  8
0
  6
CONTINUOUS
 62
     7
 10
23.68896456671465
 20
24.76805761424522
 11
23.68896456671465
 21
35.72720779386401
  0
LINE
  8
0
  6
CONTINUOUS
 62
     7
 10
23.68896456671465
 20
24.76805761424522
 11
23.68396456671501
 21
24.76807971512762
  0
ARC
  8
0
  6
CONTINUOUS
 62
     7
 10
23.65229492251647
 20
26.97787809086966
 40
2.210025300261431
 50
249.6360783115992
 51
270.821076147364
  0
LINE
  8
0
  6
CONTINUOUS
 62
     7
 10
22.88324637244143
 20
24.90597651129994
 11
22.7788818331856
 21
24.96883360211832
  0
LINE
  8
0
  6
CONTINUOUS
 62
     7
 10
22.7788818331856
 20
24.96883360211832
 11
22.71080430793765
 21
25.05185572567997
  0
LINE
  8
0
  6
CONTINUOUS
 62
     7
 10
22.71080430793765
 20
25.05185572567997
 11
22.69033503196022
 21
25.15470485032445
  0
LINE
  8
0
  6
CONTINUOUS
 62
     7
 10
22.69033503196022
 20
25.15470485032445
 11
22.69033503196022
 21
34.779543750107
  0
LINE
  8
0
  6
CONTINUOUS
 62
     7
 10
25.28966496803953
 20
24.95090062953886
 11
25.28966496803953
 21
34.779543750107
  0
LINE
  8
0
  6
CONTINUOUS
 62
     7
 10
25.28966496803953
 20
24.95090062953886
 11
25.28466496803983
 21
24.97445035505158
  0
LINE
  8
0
  6
CONTINUOUS
 62
     7
 10
25.28466496803983
 20
24.97445035505158
 11
25.17706073235543
 21
24.92461267328294
  0
LINE
  8
0
  6
CONTINUOUS
 62
     7
 10
25.17706073235543
 20
24.92461267328294
 11
25.06684427931821
 21
24.87545016442349
  0
ARC
  8
0
  6
CONTINUOUS
 62
     7
 10
24.36539703113222
 20
27.08640858063649
 40
2.319561458597463
 50
268.1628700375172
 51
287.6021172855537
  0
LINE
  8
0
  6
CONTINUOUS
 62
     7
 10
24.29103543328498
 20
24.76803938808408
 11
24.29103543328498
 21
35.72720779386401
  0
LINE
  8
0
  6
CONTINUOUS
 62
     7
 10
24.29103543328498
 20
24.76803938808408
 11
24.28603543328517
 21
24.76805761424522
  0
LINE
  8
0
  6
CONTINUOUS
 62
     7
 10
24.28603543328517
 20
24.76805761424522
 11
23.68896456671465
 21
24.76805761424522
  0
LINE
  8
0
  6
CONTINUOUS
 62
     7
 10
18.96103543328503
 20
23.18254849295265
 11
18.35896456671471
 21
23.18254849295265
  0
LINE
  8
0
  6
CONTINUOUS
 62
     7
 10
-22.68033503196038
 20
24.95090062953975
 11
-22.68033503196038
 21
34.779543750107
  0
LINE
  8
0
  6
CONTINUOUS
 62
     7
 10
-22.68033503196038
 20
24.95090062953975
 11
-22.68533503196013
 21
24.97445035505164
  0
LINE
  8
0
  6
CONTINUOUS
 62
     7
 10
-22.68533503196013
 20
24.97445035505175
 11
-22.79293926764481
 21
24.92461267328283
  0
LINE
  8
0
  6
CONTINUOUS
 62
     7
 10
-22.79293926764481
 20
24.92461267328283
 11
-22.90315572068208
 21
24.87545016442338
  0
ARC
  8
0
  6
CONTINUOUS
 62
     7
 10
-23.60460296886813
 20
27.0864085806391
 40
2.319561458600017
 50
268.1628700375269
 51
287.6021172855341
  0
LINE
  8
0
  6
CONTINUOUS
 62
     7
 10
-23.67896456671503
 20
24.76803938808408
 11
-23.67896456671503
 21
35.72720779386401
  0
LINE
  8
0
  6
CONTINUOUS
 62
     7
 10
-28.01033503196049
 20
24.95090062953936
 11
-28.01033503196049
 21
34.779543750107
  0
LINE
  8
0
  6
CONTINUOUS
 62
     7
 10
-28.01033503196049
 20
24.95090062953936
 11
-28.01533503195991
 21
24.97445035504975
  0
LINE
  8
0
  6
CONTINUOUS
 62
     7
 10
-28.01533503195991
 20
24.97445035504975
 11
-28.12293926764481
 21
24.92461267328283
  0
LINE
  8
0
  6
CONTINUOUS
 62
     7
 10
-28.12293926764481
 20
24.92461267328283
 11
-28.23315572068208
 21
24.87545016442338
  0
ARC
  8
0
  6
CONTINUOUS
 62
     7
 10
-28.93460296886807
 20
27.08640858063927
 40
2.319561458600239
 50
268.1628700375284
 51
287.602117285533
  0
LINE
  8
0
  6
CONTINUOUS
 62
     7
 10
-29.00896456671503
 20
24.76803938808408
 11
-29.00896456671503
 21
35.72720779386401
  0
LINE
  8
0
  6
CONTINUOUS
 62
     7
 10
-39.66896456671503
 20
24.76803938808408
 11
-39.66896456671503
 21
35.72720779386401
  0
LINE
  8
0
  6
CONTINUOUS
 62
     7
 10
-39.66896456671503
 20
24.76803938808408
 11
-39.67396456671479
 21
24.76805761424522
  0
LINE
  8
0
  6
CONTINUOUS
 62
     7
 10
-39.67396456671479
 20
24.76805761424522
 11
-40.27103543328531
 21
24.76805761424522
  0
LINE
  8
0
  6
CONTINUOUS
 62
     7
 10
-40.27103543328531
 20
24.76805761424522
 11
-40.27103543328531
 21
35.72720779386401
  0
LINE
  8
0
  6
CONTINUOUS
 62
     7
 10
-40.27103543328531
 20
24.76805761424522
 11
-40.276035433285
 21
24.76807971512762
  0
ARC
  8
0
  6
CONTINUOUS
 62
     7
 10
-40.30770507748349
 20
26.97787809086943
 40
2.21002530026132
 50
249.6360783115997
 51
270.8210761473653
  0
LINE
  8
0
  6
CONTINUOUS
 62
     7
 10
-41.07675362755864
 20
24.90597651129994
 11
-41.1811181668143
 21
24.96883360211816
  0
LINE
  8
0
  6
CONTINUOUS
 62
     7
 10
-41.1811181668143
 20
24.96883360211816
 11
-41.24919569206232
 21
25.05185572567964
  0
LINE
  8
0
  6
CONTINUOUS
 62
     7
 10
-41.24919569206232
 20
25.05185572567964
 11
-41.2696649680398
 21
25.15470485032434
  0
LINE
  8
0
  6
CONTINUOUS
 62
     7
 10
-41.2696649680398
 20
25.15470485032434
 11
-41.2696649680398
 21
34.779543750107
  0
LINE
  8
0
  6
CONTINUOUS
 62
     7
 10
-24.2810354332853
 20
24.76805761424522
 11
-24.2810354332853
 21
35.72720779386401
  0
LINE
  8
0
  6
CONTINUOUS
 62
     7
 10
-24.2810354332853
 20
24.76805761424522
 11
-24.28603543328511
 21
24.76807971512762
  0
ARC
  8
0
  6
CONTINUOUS
 62
     7
 10
-24.31770507748348
 20
26.97787809086966
 40
2.210025300261487
 50
249.6360783116005
 51
270.8210761473646
  0
LINE
  8
0
  6
CONTINUOUS
 62
     7
 10
-25.08675362755863
 20
24.90597651129994
 11
-25.19111816681441
 21
24.96883360211816
  0
LINE
  8
0
  6
CONTINUOUS
 62
     7
 10
-25.19111816681441
 20
24.96883360211816
 11
-25.25919569206231
 21
25.05185572567964
  0
LINE
  8
0
  6
CONTINUOUS
 62
     7
 10
-25.25919569206231
 20
25.05185572567964
 11
-25.27966496803991
 21
25.15470485032445
  0
LINE
  8
0
  6
CONTINUOUS
 62
     7
 10
-25.27966496803991
 20
25.15470485032434
 11
-25.27966496803991
 21
34.779543750107
  0
LINE
  8
0
  6
CONTINUOUS
 62
     7
 10
-23.67896456671503
 20
24.76803938808408
 11
-23.68396456671479
 21
24.76805761424522
  0
LINE
  8
0
  6
CONTINUOUS
 62
     7
 10
-23.68396456671479
 20
24.76805761424522
 11
-24.2810354332853
 21
24.76805761424522
  0
LINE
  8
0
  6
CONTINUOUS
 62
     7
 10
-29.6110354332853
 20
24.76805761424522
 11
-29.6110354332853
 21
35.72720779386401
  0
LINE
  8
0
  6
CONTINUOUS
 62
     7
 10
-29.6110354332853
 20
24.76805761424522
 11
-29.616035433285
 21
24.76807971512762
  0
ARC
  8
0
  6
CONTINUOUS
 62
     7
 10
-29.64770507748354
 20
26.97787809086966
 40
2.210025300261431
 50
249.6360783115998
 51
270.8210761473647
  0
LINE
  8
0
  6
CONTINUOUS
 62
     7
 10
-30.41675362755858
 20
24.90597651129994
 11
-30.5211181668143
 21
24.96883360211816
  0
LINE
  8
0
  6
CONTINUOUS
 62
     7
 10
-30.5211181668143
 20
24.96883360211816
 11
-30.58919569206231
 21
25.05185572567964
  0
LINE
  8
0
  6
CONTINUOUS
 62
     7
 10
-30.58919569206231
 20
25.05185572567964
 11
-30.60966496803979
 21
25.15470485032434
  0
LINE
  8
0
  6
CONTINUOUS
 62
     7
 10
-30.60966496803979
 20
25.15470485032434
 11
-30.60966496803979
 21
34.779543750107
  0
LINE
  8
0
  6
CONTINUOUS
 62
     7
 10
-29.00896456671503
 20
24.76803938808408
 11
-29.01396456671479
 21
24.76805761424522
  0
LINE
  8
0
  6
CONTINUOUS
 62
     7
 10
-29.01396456671479
 20
24.76805761424522
 11
-29.6110354332853
 21
24.76805761424522
  0
LINE
  8
0
  6
CONTINUOUS
 62
     7
 10
-18.9510354332853
 20
23.18254849295265
 11
-18.9510354332853
 21
35.72720779386407
  0
LINE
  8
0
  6
CONTINUOUS
 62
     7
 10
-18.9510354332853
 20
23.18254849295265
 11
-19.06889648312093
 21
23.19135144216211
  0
LINE
  8
0
  6
CONTINUOUS
 62
     7
 10
-19.06889648312093
 20
23.19135144216211
 11
-19.20032638573888
 21
23.22246963481145
  0
LINE
  8
0
  6
CONTINUOUS
 62
     7
 10
-19.20032638573888
 20
23.22246963481145
 11
-19.30645809633419
 21
23.26521748945154
  0
LINE
  8
0
  6
CONTINUOUS
 62
     7
 10
-19.30645809633419
 20
23.26521748945154
 11
-19.4082278468532
 21
23.32289141249999
  0
ARC
  8
0
  6
CONTINUOUS
 62
     7
 10
-18.78859958910323
 20
24.23761883648406
 40
1.104837290278882
 50
205.4875379137202
 51
235.886634936089
  0
ARC
  8
0
  6
CONTINUOUS
 62
     7
 10
-18.33664441796001
 20
24.46696836448459
 40
1.61154901331978
 50
184.9609694267216
 51
205.9335930907728
  0
LINE
  8
0
  6
CONTINUOUS
 62
     7
 10
-19.94966496803985
 20
24.44292671493187
 11
-19.94215630838514
 21
24.32760627482056
  0
LINE
  8
0
  6
CONTINUOUS
 62
     7
 10
-19.94966496803985
 20
24.44292671493187
 11
-19.94966496803985
 21
34.779543750107
  0
LINE
  8
0
  6
CONTINUOUS
 62
     7
 10
-33.34033503196049
 20
24.95090062953936
 11
-33.34033503196049
 21
34.779543750107
  0
LINE
  8
0
  6
CONTINUOUS
 62
     7
 10
-33.34033503196049
 20
24.95090062953936
 11
-33.34533503195991
 21
24.97445035504975
  0
LINE
  8
0
  6
CONTINUOUS
 62
     7
 10
-33.34533503195991
 20
24.97445035504975
 11
-33.4529392676447
 21
24.92461267328283
  0
LINE
  8
0
  6
CONTINUOUS
 62
     7
 10
-33.4529392676447
 20
24.92461267328283
 11
-33.56315572068213
 21
24.87545016442338
  0
ARC
  8
0
  6
CONTINUOUS
 62
     7
 10
-34.26460296886818
 20
27.08640858063949
 40
2.31956145860035
 50
268.162870037529
 51
287.6021172855314
  0
LINE
  8
0
  6
CONTINUOUS
 62
     7
 10
-34.33896456671498
 20
24.76803938808408
 11
-34.33896456671498
 21
35.72720779386401
  0
LINE
  8
0
  6
CONTINUOUS
 62
     7
 10
-38.67033503196055
 20
24.95090062953975
 11
-38.67033503196055
 21
34.779543750107
  0
LINE
  8
0
  6
CONTINUOUS
 62
     7
 10
-38.67033503196055
 20
24.95090062953975
 11
-38.67533503195991
 21
24.97445035504986
  0
LINE
  8
0
  6
CONTINUOUS
 62
     7
 10
-38.67533503195991
 20
24.97445035504986
 11
-38.78293926764481
 21
24.92461267328283
  0
LINE
  8
0
  6
CONTINUOUS
 62
     7
 10
-38.78293926764481
 20
24.92461267328283
 11
-38.89315572068236
 21
24.87545016442338
  0
ARC
  8
0
  6
CONTINUOUS
 62
     7
 10
-39.59460296886819
 20
27.08640858063849
 40
2.319561458599462
 50
268.162870037529
 51
287.6021172855337
  0
LINE
  8
0
  6
CONTINUOUS
 62
     7
 10
-18.34896456671498
 20
23.18254849295265
 11
-18.34896456671498
 21
35.72720779386407
  0
LINE
  8
0
  6
CONTINUOUS
 62
     7
 10
-18.34896456671498
 20
23.18254849295265
 11
-18.9510354332853
 21
23.18254849295265
  0
LINE
  8
0
  6
CONTINUOUS
 62
     7
 10
-44.00033503196049
 20
24.95090062953975
 11
-44.00033503196049
 21
34.779543750107
  0
LINE
  8
0
  6
CONTINUOUS
 62
     7
 10
-44.00033503196049
 20
24.95090062953975
 11
-44.00533503195991
 21
24.97445035504986
  0
LINE
  8
0
  6
CONTINUOUS
 62
     7
 10
-44.00533503195991
 20
24.97445035504986
 11
-44.11293926764493
 21
24.92461267328283
  0
LINE
  8
0
  6
CONTINUOUS
 62
     7
 10
-44.11293926764493
 20
24.92461267328283
 11
-44.22315572068231
 21
24.87545016442327
  0
ARC
  8
0
  6
CONTINUOUS
 62
     7
 10
-44.9246029688683
 20
27.08640858064043
 40
2.31956145860146
 50
268.1628700375327
 51
287.6021172855201
  0
LINE
  8
0
  6
CONTINUOUS
 62
     7
 10
-44.99896456671504
 20
24.76803938808408
 11
-44.99896456671504
 21
35.72720779386401
  0
LINE
  8
0
  6
CONTINUOUS
 62
     7
 10
-34.94103543328531
 20
24.76805761424522
 11
-34.94103543328531
 21
35.72720779386401
  0
LINE
  8
0
  6
CONTINUOUS
 62
     7
 10
-34.94103543328531
 20
24.76805761424522
 11
-34.946035433285
 21
24.76807971512762
  0
ARC
  8
0
  6
CONTINUOUS
 62
     7
 10
-34.9777050774836
 20
26.97787809086943
 40
2.210025300261265
 50
249.6360783115994
 51
270.8210761473654
  0
LINE
  8
0
  6
CONTINUOUS
 62
     7
 10
-35.74675362755858
 20
24.90597651129994
 11
-35.85111816681435
 21
24.96883360211816
  0
LINE
  8
0
  6
CONTINUOUS
 62
     7
 10
-35.85111816681435
 20
24.96883360211816
 11
-35.91919569206242
 21
25.05185572567964
  0
LINE
  8
0
  6
CONTINUOUS
 62
     7
 10
-35.91919569206242
 20
25.05185572567964
 11
-35.9396649680398
 21
25.15470485032445
  0
LINE
  8
0
  6
CONTINUOUS
 62
     7
 10
-35.9396649680398
 20
25.15470485032445
 11
-35.9396649680398
 21
34.779543750107
  0
LINE
  8
0
  6
CONTINUOUS
 62
     7
 10
-45.6010354332853
 20
24.76805761424522
 11
-45.6010354332853
 21
35.72720779386401
  0
LINE
  8
0
  6
CONTINUOUS
 62
     7
 10
-45.6010354332853
 20
24.76805761424522
 11
-45.60603543328511
 21
24.76807971512762
  0
ARC
  8
0
  6
CONTINUOUS
 62
     7
 10
-45.63770507748352
 20
26.97787809086988
 40
2.210025300261736
 50
249.6360783116015
 51
270.821076147363
  0
LINE
  8
0
  6
CONTINUOUS
 62
     7
 10
-46.40675362755861
 20
24.90597651129994
 11
-46.51111816681441
 21
24.96883360211816
  0
LINE
  8
0
  6
CONTINUOUS
 62
     7
 10
-46.51111816681441
 20
24.96883360211816
 11
-46.57919569206231
 21
25.05185572567964
  0
LINE
  8
0
  6
CONTINUOUS
 62
     7
 10
-46.57919569206231
 20
25.05185572567964
 11
-46.59966496803991
 21
25.15470485032434
  0
LINE
  8
0
  6
CONTINUOUS
 62
     7
 10
-46.59966496803991
 20
25.15470485032434
 11
-46.59966496803991
 21
34.779543750107
  0
LINE
  8
0
  6
CONTINUOUS
 62
     7
 10
-17.35033503196054
 20
24.44292671493187
 11
-17.35033503196054
 21
34.779543750107
  0
LINE
  8
0
  6
CONTINUOUS
 62
     7
 10
-17.35784369161519
 20
24.32760627482056
 11
-17.35033503196054
 21
24.44292671493187
  0
ARC
  8
0
  6
CONTINUOUS
 62
     7
 10
-18.87271616122754
 20
24.44567013278231
 40
1.519466246333367
 50
326.3216649333756
 51
355.5435758404372
  0
LINE
  8
0
  6
CONTINUOUS
 62
     7
 10
-17.60827126016762
 20
23.60308081055607
 11
-17.6945851521284
 21
23.49375630601785
  0
LINE
  8
0
  6
CONTINUOUS
 62
     7
 10
-17.6945851521284
 20
23.49375630601785
 11
-17.78664930460533
 21
23.40272651819697
  0
LINE
  8
0
  6
CONTINUOUS
 62
     7
 10
-17.78664930460533
 20
23.40272651819697
 11
-17.89727482129161
 21
23.31931719026842
  0
LINE
  8
0
  6
CONTINUOUS
 62
     7
 10
-17.89727482129161
 20
23.31931719026842
 11
-18.00295893830623
 21
23.26074301174769
  0
LINE
  8
0
  6
CONTINUOUS
 62
     7
 10
-18.00295893830623
 20
23.26074301174769
 11
-18.1036577618478
 21
23.22117722086015
  0
LINE
  8
0
  6
CONTINUOUS
 62
     7
 10
-18.1036577618478
 20
23.22117722086015
 11
-18.20540201746279
 21
23.19563193326529
  0
LINE
  8
0
  6
CONTINUOUS
 62
     7
 10
-18.20540201746279
 20
23.19563193326529
 11
-18.3129074127859
 21
23.18337443170654
  0
LINE
  8
0
  6
CONTINUOUS
 62
     7
 10
-18.3129074127859
 20
23.18337443170654
 11
-18.34896456671498
 21
23.18254849295265
  0
LINE
  8
0
  6
CONTINUOUS
 62
     7
 10
-44.99896456671504
 20
24.76803938808408
 11
-45.00396456671479
 21
24.76805761424522
  0
LINE
  8
0
  6
CONTINUOUS
 62
     7
 10
-45.00396456671479
 20
24.76805761424522
 11
-45.6010354332853
 21
24.76805761424522
  0
LINE
  8
0
  6
CONTINUOUS
 62
     7
 10
-34.33896456671498
 20
24.76803938808408
 11
-34.34396456671485
 21
24.76805761424522
  0
LINE
  8
0
  6
CONTINUOUS
 62
     7
 10
-34.34396456671485
 20
24.76805761424522
 11
-34.94103543328531
 21
24.76805761424522
  0
LINE
  8
0
  6
CONTINUOUS
 62
     7
 10
-59.99033503196052
 20
24.95090062953975
 11
-59.99033503196052
 21
34.779543750107
  0
LINE
  8
0
  6
CONTINUOUS
 62
     7
 10
-59.99033503196052
 20
24.95090062953975
 11
-59.99533503196
 21
24.97445035504986
  0
LINE
  8
0
  6
CONTINUOUS
 62
     7
 10
-59.99533503196
 20
24.97445035504986
 11
-60.1029392676449
 21
24.92461267328283
  0
LINE
  8
0
  6
CONTINUOUS
 62
     7
 10
-60.1029392676449
 20
24.92461267328283
 11
-60.21315572068231
 21
24.87545016442338
  0
ARC
  8
0
  6
CONTINUOUS
 62
     7
 10
-60.91460296886819
 20
27.08640858063793
 40
2.319561458598907
 50
268.1628700375272
 51
287.6021172855378
  0
LINE
  8
0
  6
CONTINUOUS
 62
     7
 10
-60.98896456671513
 20
24.76803938808408
 11
-60.98896456671513
 21
35.72720779386401
  0
LINE
  8
0
  6
CONTINUOUS
 62
     7
 10
-49.33033503196052
 20
24.95090062953975
 11
-49.33033503196052
 21
34.779543750107
  0
LINE
  8
0
  6
CONTINUOUS
 62
     7
 10
-49.33033503196052
 20
24.95090062953975
 11
-49.33533503196
 21
24.97445035504986
  0
LINE
  8
0
  6
CONTINUOUS
 62
     7
 10
-49.33533503196
 20
24.97445035504986
 11
-49.4429392676449
 21
24.92461267328283
  0
LINE
  8
0
  6
CONTINUOUS
 62
     7
 10
-49.4429392676449
 20
24.92461267328283
 11
-49.55315572068242
 21
24.87545016442338
  0
ARC
  8
0
  6
CONTINUOUS
 62
     7
 10
-50.25460296886822
 20
27.08640858063827
 40
2.319561458599156
 50
268.1628700375278
 51
287.6021172855359
  0
LINE
  8
0
  6
CONTINUOUS
 62
     7
 10
-50.32896456671512
 20
24.76803938808408
 11
-50.32896456671512
 21
35.72720779386401
  0
LINE
  8
0
  6
CONTINUOUS
 62
     7
 10
-55.6589645667151
 20
24.76803938808408
 11
-55.6589645667151
 21
35.72720779386401
  0
LINE
  8
0
  6
CONTINUOUS
 62
     7
 10
-55.6589645667151
 20
24.76803938808408
 11
-55.66396456671482
 21
24.76805761424522
  0
LINE
  8
0
  6
CONTINUOUS
 62
     7
 10
-55.66396456671482
 20
24.76805761424522
 11
-56.26103543328531
 21
24.76805761424522
  0
LINE
  8
0
  6
CONTINUOUS
 62
     7
 10
-56.26103543328531
 20
24.76805761424522
 11
-56.26103543328531
 21
35.72720779386401
  0
LINE
  8
0
  6
CONTINUOUS
 62
     7
 10
-50.32896456671512
 20
24.76803938808408
 11
-50.33396456671479
 21
24.76805761424522
  0
LINE
  8
0
  6
CONTINUOUS
 62
     7
 10
-50.33396456671479
 20
24.76805761424522
 11
-50.93103543328531
 21
24.76805761424522
  0
LINE
  8
0
  6
CONTINUOUS
 62
     7
 10
-50.93103543328531
 20
24.76805761424522
 11
-50.93103543328531
 21
35.72720779386401
  0
LINE
  8
0
  6
CONTINUOUS
 62
     7
 10
-56.26103543328531
 20
24.76805761424522
 11
-56.26603543328501
 21
24.76807971512762
  0
ARC
  8
0
  6
CONTINUOUS
 62
     7
 10
-56.29770507748361
 20
26.97787809086927
 40
2.210025300261098
 50
249.6360783115985
 51
270.8210761473665
  0
LINE
  8
0
  6
CONTINUOUS
 62
     7
 10
-57.06675362755853
 20
24.90597651129994
 11
-57.1711181668143
 21
24.96883360211816
  0
LINE
  8
0
  6
CONTINUOUS
 62
     7
 10
-57.1711181668143
 20
24.96883360211816
 11
-57.23919569206232
 21
25.05185572567964
  0
LINE
  8
0
  6
CONTINUOUS
 62
     7
 10
-57.23919569206232
 20
25.05185572567964
 11
-57.25966496803991
 21
25.15470485032423
  0
LINE
  8
0
  6
CONTINUOUS
 62
     7
 10
-57.25966496803991
 20
25.15470485032423
 11
-57.25966496803991
 21
34.779543750107
  0
LINE
  8
0
  6
CONTINUOUS
 62
     7
 10
-54.66033503196049
 20
24.95090062953975
 11
-54.66033503196049
 21
34.779543750107
  0
LINE
  8
0
  6
CONTINUOUS
 62
     7
 10
-54.66033503196049
 20
24.95090062953975
 11
-54.66533503196003
 21
24.97445035504986
  0
LINE
  8
0
  6
CONTINUOUS
 62
     7
 10
-54.66533503196003
 20
24.97445035504986
 11
-54.77293926764492
 21
24.92461267328283
  0
LINE
  8
0
  6
CONTINUOUS
 62
     7
 10
-54.77293926764492
 20
24.92461267328283
 11
-54.88315572068239
 21
24.87545016442338
  0
ARC
  8
0
  6
CONTINUOUS
 62
     7
 10
-55.58460296886822
 20
27.08640858063827
 40
2.31956145859924
 50
268.162870037528
 51
287.6021172855355
  0
LINE
  8
0
  6
CONTINUOUS
 62
     7
 10
-61.59103543328531
 20
24.76805761424522
 11
-61.59103543328531
 21
35.72720779386401
  0
LINE
  8
0
  6
CONTINUOUS
 62
     7
 10
-61.59103543328531
 20
24.76805761424522
 11
-61.59603543328501
 21
24.76807971512762
  0
ARC
  8
0
  6
CONTINUOUS
 62
     7
 10
-61.62770507748353
 20
26.97787809086943
 40
2.210025300261237
 50
249.6360783115992
 51
270.8210761473661
  0
LINE
  8
0
  6
CONTINUOUS
 62
     7
 10
-62.3967536275585
 20
24.90597651129994
 11
-62.50111816681439
 21
24.96883360211816
  0
LINE
  8
0
  6
CONTINUOUS
 62
     7
 10
-62.50111816681439
 20
24.96883360211816
 11
-62.56919569206229
 21
25.05185572567964
  0
LINE
  8
0
  6
CONTINUOUS
 62
     7
 10
-62.56919569206229
 20
25.05185572567964
 11
-62.58966496803991
 21
25.15470485032423
  0
LINE
  8
0
  6
CONTINUOUS
 62
     7
 10
-62.58966496803991
 20
25.15470485032423
 11
-62.58966496803991
 21
34.779543750107
  0
LINE
  8
0
  6
CONTINUOUS
 62
     7
 10
-60.98896456671513
 20
24.76803938808408
 11
-60.99396456671479
 21
24.76805761424522
  0
LINE
  8
0
  6
CONTINUOUS
 62
     7
 10
-60.99396456671479
 20
24.76805761424522
 11
-61.59103543328531
 21
24.76805761424522
  0
LINE
  8
0
  6
CONTINUOUS
 62
     7
 10
-50.93103543328531
 20
24.76805761424522
 11
-50.93603543328509
 21
24.76807971512762
  0
ARC
  8
0
  6
CONTINUOUS
 62
     7
 10
-50.96770507748352
 20
26.97787809086988
 40
2.210025300261764
 50
249.6360783116013
 51
270.8210761473624
  0
LINE
  8
0
  6
CONTINUOUS
 62
     7
 10
-51.73675362755861
 20
24.90597651129994
 11
-51.84111816681433
 21
24.96883360211816
  0
LINE
  8
0
  6
CONTINUOUS
 62
     7
 10
-51.84111816681433
 20
24.96883360211816
 11
-51.90919569206231
 21
25.05185572567964
  0
LINE
  8
0
  6
CONTINUOUS
 62
     7
 10
-51.90919569206231
 20
25.05185572567964
 11
-51.92966496803991
 21
25.15470485032423
  0
LINE
  8
0
  6
CONTINUOUS
 62
     7
 10
-51.92966496803991
 20
25.15470485032423
 11
-51.92966496803991
 21
34.779543750107
  0
LINE
  8
0
  6
CONTINUOUS
 62
     7
 10
49.34033503196006
 20
25.15470485032462
 11
49.33533503196035
 21
25.23390613329623
  0
LINE
  8
0
  6
CONTINUOUS
 62
     7
 10
49.33533503196035
 20
25.23390613329623
 11
49.31591637824839
 21
25.35609176916503
  0
LINE
  8
0
  6
CONTINUOUS
 62
     7
 10
49.31138833107529
 20
25.88040681095349
 11
49.31591637824839
 21
25.35609176916503
  0
LINE
  8
0
  6
CONTINUOUS
 62
     7
 10
49.31138833107529
 20
25.88040681095355
 11
49.31138833107529
 21
34.22720779386401
  0
LINE
  8
0
  6
CONTINUOUS
 62
     7
 10
60.00033503196023
 20
25.15470485032467
 11
59.99533503196042
 21
25.23390613329646
  0
LINE
  8
0
  6
CONTINUOUS
 62
     7
 10
59.99533503196042
 20
25.23390613329646
 11
59.97591637824961
 21
25.35609176915787
  0
LINE
  8
0
  6
CONTINUOUS
 62
     7
 10
59.97138833107529
 20
25.88040681095349
 11
59.97591637824961
 21
25.35609176915787
  0
LINE
  8
0
  6
CONTINUOUS
 62
     7
 10
59.97138833107529
 20
25.88040681095355
 11
59.97138833107529
 21
34.22720779386401
  0
LINE
  8
0
  6
CONTINUOUS
 62
     7
 10
44.01033503196022
 20
25.15470485032462
 11
44.00533503196036
 21
25.23390613329623
  0
LINE
  8
0
  6
CONTINUOUS
 62
     7
 10
44.00533503196036
 20
25.23390613329623
 11
43.98591637824839
 21
25.35609176916503
  0
LINE
  8
0
  6
CONTINUOUS
 62
     7
 10
43.98138833107534
 20
25.88040681095349
 11
43.98591637824845
 21
25.35609176916503
  0
LINE
  8
0
  6
CONTINUOUS
 62
     7
 10
43.98138833107534
 20
25.88040681095355
 11
43.98138833107534
 21
34.22720779386401
  0
LINE
  8
0
  6
CONTINUOUS
 62
     7
 10
54.67033503196017
 20
25.15470485032467
 11
54.66533503196042
 21
25.23390613329623
  0
LINE
  8
0
  6
CONTINUOUS
 62
     7
 10
54.66533503196042
 20
25.23390613329623
 11
54.64591637824839
 21
25.35609176916503
  0
LINE
  8
0
  6
CONTINUOUS
 62
     7
 10
54.6413883310754
 20
25.88040681095349
 11
54.64591637824839
 21
25.35609176916503
  0
LINE
  8
0
  6
CONTINUOUS
 62
     7
 10
54.6413883310754
 20
25.88040681095355
 11
54.6413883310754
 21
34.22720779386401
  0
LINE
  8
0
  6
CONTINUOUS
 62
     7
 10
38.68033503196017
 20
25.15470485032462
 11
38.6753350319603
 21
25.23390613329623
  0
LINE
  8
0
  6
CONTINUOUS
 62
     7
 10
38.6753350319603
 20
25.23390613329623
 11
38.65591637824839
 21
25.35609176916476
  0
LINE
  8
0
  6
CONTINUOUS
 62
     7
 10
38.65138833107529
 20
25.88040681095349
 11
38.65591637824839
 21
25.35609176916476
  0
LINE
  8
0
  6
CONTINUOUS
 62
     7
 10
38.65138833107529
 20
25.88040681095355
 11
38.65138833107529
 21
34.22720779386401
  0
LINE
  8
0
  6
CONTINUOUS
 62
     7
 10
33.35033503196016
 20
25.15470485032445
 11
33.34533503196041
 21
25.23390613329596
  0
LINE
  8
0
  6
CONTINUOUS
 62
     7
 10
33.34533503196041
 20
25.23390613329596
 11
33.32591637824945
 21
25.35609176915748
  0
LINE
  8
0
  6
CONTINUOUS
 62
     7
 10
33.3213883310754
 20
25.88040681095349
 11
33.32591637824961
 21
25.35609176915748
  0
LINE
  8
0
  6
CONTINUOUS
 62
     7
 10
33.3213883310754
 20
25.88040681095355
 11
33.3213883310754
 21
34.22720779386401
  0
LINE
  8
0
  6
CONTINUOUS
 62
     7
 10
22.69033503196022
 20
25.15470485032445
 11
22.68533503196041
 21
25.23390613329568
  0
LINE
  8
0
  6
CONTINUOUS
 62
     7
 10
22.68533503196041
 20
25.23390613329568
 11
22.66591637824822
 21
25.35609176916609
  0
LINE
  8
0
  6
CONTINUOUS
 62
     7
 10
22.66138833107528
 20
25.88040681095349
 11
22.66591637824822
 21
25.35609176916598
  0
LINE
  8
0
  6
CONTINUOUS
 62
     7
 10
22.66138833107528
 20
25.88040681095355
 11
22.66138833107528
 21
34.22720779386401
  0
LINE
  8
0
  6
CONTINUOUS
 62
     7
 10
28.02033503196011
 20
25.15470485032445
 11
28.01533503196035
 21
25.23390613329574
  0
LINE
  8
0
  6
CONTINUOUS
 62
     7
 10
28.01533503196035
 20
25.23390613329574
 11
27.99591637824961
 21
25.35609176915726
  0
LINE
  8
0
  6
CONTINUOUS
 62
     7
 10
27.99138833107529
 20
25.88040681095349
 11
27.99591637824961
 21
25.35609176915726
  0
LINE
  8
0
  6
CONTINUOUS
 62
     7
 10
27.99138833107529
 20
25.88040681095355
 11
27.99138833107534
 21
34.22720779386401
  0
LINE
  8
0
  6
CONTINUOUS
 62
     7
 10
17.33138833107528
 20
25.88040681095355
 11
17.36033503196016
 21
24.44292671493187
  0
LINE
  8
0
  6
CONTINUOUS
 62
     7
 10
17.33138833107528
 20
25.88040681095355
 11
17.33138833107528
 21
34.22720779386401
  0
LINE
  8
0
  6
CONTINUOUS
 62
     7
 10
-41.2696649680398
 20
25.15470485032434
 11
-41.27466496803961
 21
25.23390613329546
  0
LINE
  8
0
  6
CONTINUOUS
 62
     7
 10
-41.27466496803961
 20
25.23390613329535
 11
-41.29408362175152
 21
25.35609176916387
  0
LINE
  8
0
  6
CONTINUOUS
 62
     7
 10
-41.29861166892474
 20
25.88040681095349
 11
-41.29408362175152
 21
25.35609176916387
  0
LINE
  8
0
  6
CONTINUOUS
 62
     7
 10
-41.29861166892474
 20
25.88040681095349
 11
-41.29861166892474
 21
34.22720779386401
  0
LINE
  8
0
  6
CONTINUOUS
 62
     7
 10
-35.9396649680398
 20
25.15470485032445
 11
-35.94466496803961
 21
25.23390613329568
  0
LINE
  8
0
  6
CONTINUOUS
 62
     7
 10
-35.94466496803961
 20
25.23390613329568
 11
-35.96408362175163
 21
25.35609176916409
  0
LINE
  8
0
  6
CONTINUOUS
 62
     7
 10
-35.96861166892473
 20
25.88040681095349
 11
-35.96408362175152
 21
25.35609176916409
  0
LINE
  8
0
  6
CONTINUOUS
 62
     7
 10
-35.96861166892473
 20
25.88040681095349
 11
-35.96861166892473
 21
34.22720779386401
  0
LINE
  8
0
  6
CONTINUOUS
 62
     7
 10
-30.60966496803979
 20
25.15470485032434
 11
-30.61466496803961
 21
25.23390613329546
  0
LINE
  8
0
  6
CONTINUOUS
 62
     7
 10
-30.61466496803961
 20
25.23390613329535
 11
-30.63408362175169
 21
25.35609176916448
  0
LINE
  8
0
  6
CONTINUOUS
 62
     7
 10
-30.63861166892467
 20
25.88040681095349
 11
-30.63408362175157
 21
25.35609176916437
  0
LINE
  8
0
  6
CONTINUOUS
 62
     7
 10
-30.63861166892467
 20
25.88040681095349
 11
-30.63861166892462
 21
34.22720779386401
  0
LINE
  8
0
  6
CONTINUOUS
 62
     7
 10
-19.97861166892473
 20
25.88040681095349
 11
-19.94966496803985
 21
24.44292671493187
  0
LINE
  8
0
  6
CONTINUOUS
 62
     7
 10
-19.97861166892473
 20
25.88040681095355
 11
-19.97861166892473
 21
34.22720779386401
  0
LINE
  8
0
  6
CONTINUOUS
 62
     7
 10
-25.27966496803991
 20
25.15470485032445
 11
-25.2846649680396
 21
25.23390613329535
  0
LINE
  8
0
  6
CONTINUOUS
 62
     7
 10
-25.2846649680396
 20
25.23390613329535
 11
-25.30408362175152
 21
25.35609176916409
  0
LINE
  8
0
  6
CONTINUOUS
 62
     7
 10
-25.30861166892473
 20
25.88040681095349
 11
-25.30408362175152
 21
25.35609176916409
  0
LINE
  8
0
  6
CONTINUOUS
 62
     7
 10
-25.30861166892456
 20
25.88040681095349
 11
-25.30861166892456
 21
34.22720779386401
  0
LINE
  8
0
  6
CONTINUOUS
 62
     7
 10
-46.59966496803991
 20
25.15470485032434
 11
-46.60466496803961
 21
25.23390613329546
  0
LINE
  8
0
  6
CONTINUOUS
 62
     7
 10
-46.60466496803961
 20
25.23390613329535
 11
-46.62408362175141
 21
25.3560917691637
  0
LINE
  8
0
  6
CONTINUOUS
 62
     7
 10
-46.62861166892471
 20
25.88040681095349
 11
-46.62408362175141
 21
25.3560917691637
  0
LINE
  8
0
  6
CONTINUOUS
 62
     7
 10
-46.62861166892471
 20
25.88040681095349
 11
-46.62861166892471
 21
34.22720779386401
  0
LINE
  8
0
  6
CONTINUOUS
 62
     7
 10
-57.25966496803991
 20
25.15470485032423
 11
-57.26466496803961
 21
25.23390613329518
  0
LINE
  8
0
  6
CONTINUOUS
 62
     7
 10
-57.26466496803961
 20
25.23390613329518
 11
-57.28408362175172
 21
25.35609176916459
  0
LINE
  8
0
  6
CONTINUOUS
 62
     7
 10
-57.28861166892471
 20
25.88040681095349
 11
-57.28408362175172
 21
25.35609176916459
  0
LINE
  8
0
  6
CONTINUOUS
 62
     7
 10
-57.28861166892471
 20
25.88040681095349
 11
-57.28861166892471
 21
34.22720779386401
  0
LINE
  8
0
  6
CONTINUOUS
 62
     7
 10
-51.92966496803991
 20
25.15470485032423
 11
-51.93466496803961
 21
25.23390613329518
  0
LINE
  8
0
  6
CONTINUOUS
 62
     7
 10
-51.93466496803961
 20
25.23390613329518
 11
-51.95408362175169
 21
25.35609176916459
  0
LINE
  8
0
  6
CONTINUOUS
 62
     7
 10
-51.95861166892471
 20
25.88040681095349
 11
-51.95408362175169
 21
25.35609176916459
  0
LINE
  8
0
  6
CONTINUOUS
 62
     7
 10
-51.95861166892471
 20
25.88040681095349
 11
-51.95861166892471
 21
34.22720779386401
  0
LINE
  8
0
  6
CONTINUOUS
 62
     7
 10
-62.58966496803991
 20
25.15470485032423
 11
-62.59466496803962
 21
25.23390613329518
  0
LINE
  8
0
  6
CONTINUOUS
 62
     7
 10
-62.59466496803962
 20
25.23390613329518
 11
-62.61408362175172
 21
25.35609176916465
  0
LINE
  8
0
  6
CONTINUOUS
 62
     7
 10
-62.61861166892471
 20
25.88040681095349
 11
-62.61408362175172
 21
25.35609176916465
  0
LINE
  8
0
  6
CONTINUOUS
 62
     7
 10
-62.61861166892471
 20
25.88040681095349
 11
-62.61861166892471
 21
34.22720779386401
  0
LINE
  8
0
  6
CONTINUOUS
 62
     7
 10
30.64861166892441
 20
25.88040681095355
 11
30.64861166892441
 21
34.22720779386401
  0
LINE
  8
0
  6
CONTINUOUS
 62
     7
 10
30.63859236666833
 20
25.07958453046177
 11
30.64861166892441
 21
25.88040681095355
  0
LINE
  8
0
  6
CONTINUOUS
 62
     7
 10
30.63859236666833
 20
25.07958453046177
 11
30.61966496803958
 21
24.95090062953847
  0
LINE
  8
0
  6
CONTINUOUS
 62
     7
 10
41.30861166892441
 20
25.88040681095355
 11
41.30861166892441
 21
34.22720779386401
  0
LINE
  8
0
  6
CONTINUOUS
 62
     7
 10
41.29859236666827
 20
25.07958453046166
 11
41.30861166892441
 21
25.88040681095355
  0
LINE
  8
0
  6
CONTINUOUS
 62
     7
 10
41.29859236666827
 20
25.07958453046166
 11
41.27966496803948
 21
24.95090062953548
  0
LINE
  8
0
  6
CONTINUOUS
 62
     7
 10
62.62861166892441
 20
25.88040681095355
 11
62.62861166892441
 21
34.22720779386401
  0
LINE
  8
0
  6
CONTINUOUS
 62
     7
 10
62.61859236666828
 20
25.07958453046116
 11
62.62861166892441
 21
25.88040681095355
  0
LINE
  8
0
  6
CONTINUOUS
 62
     7
 10
62.61859236666828
 20
25.07958453046116
 11
62.59966496803953
 21
24.95090062953798
  0
LINE
  8
0
  6
CONTINUOUS
 62
     7
 10
25.3186116689244
 20
25.88040681095355
 11
25.3186116689244
 21
34.22720779386401
  0
LINE
  8
0
  6
CONTINUOUS
 62
     7
 10
25.30859236666827
 20
25.079584530462
 11
25.3186116689244
 21
25.88040681095355
  0
LINE
  8
0
  6
CONTINUOUS
 62
     7
 10
25.30859236666827
 20
25.079584530462
 11
25.28966496803953
 21
24.95090062953886
  0
LINE
  8
0
  6
CONTINUOUS
 62
     7
 10
46.63861166892441
 20
25.88040681095355
 11
46.63861166892441
 21
34.22720779386401
  0
LINE
  8
0
  6
CONTINUOUS
 62
     7
 10
46.62859236666827
 20
25.07958453046166
 11
46.63861166892441
 21
25.88040681095355
  0
LINE
  8
0
  6
CONTINUOUS
 62
     7
 10
46.62859236666827
 20
25.07958453046166
 11
46.60966496803953
 21
24.95090062953548
  0
LINE
  8
0
  6
CONTINUOUS
 62
     7
 10
35.97861166892435
 20
25.88040681095355
 11
35.97861166892435
 21
34.22720779386401
  0
LINE
  8
0
  6
CONTINUOUS
 62
     7
 10
35.96859236666844
 20
25.07958453046166
 11
35.97861166892435
 21
25.88040681095355
  0
LINE
  8
0
  6
CONTINUOUS
 62
     7
 10
35.96859236666844
 20
25.07958453046166
 11
35.94966496803947
 21
24.95090062953548
  0
LINE
  8
0
  6
CONTINUOUS
 62
     7
 10
51.96861166892436
 20
25.88040681095355
 11
51.96861166892436
 21
34.22720779386401
  0
LINE
  8
0
  6
CONTINUOUS
 62
     7
 10
51.95859236666833
 20
25.07958453046161
 11
51.96861166892436
 21
25.88040681095355
  0
LINE
  8
0
  6
CONTINUOUS
 62
     7
 10
51.95859236666833
 20
25.07958453046161
 11
51.93966496803959
 21
24.95090062953103
  0
LINE
  8
0
  6
CONTINUOUS
 62
     7
 10
57.29861166892442
 20
25.88040681095355
 11
57.29861166892442
 21
34.22720779386401
  0
LINE
  8
0
  6
CONTINUOUS
 62
     7
 10
57.28859236666839
 20
25.07958453046122
 11
57.29861166892442
 21
25.88040681095355
  0
LINE
  8
0
  6
CONTINUOUS
 62
     7
 10
57.28859236666839
 20
25.07958453046122
 11
57.26966496803948
 21
24.95090062953509
  0
LINE
  8
0
  6
CONTINUOUS
 62
     7
 10
-17.3213883310756
 20
25.88040681095355
 11
-17.3213883310756
 21
34.22720779386401
  0
LINE
  8
0
  6
CONTINUOUS
 62
     7
 10
-17.35033503196054
 20
24.44292671493187
 11
-17.3213883310756
 21
25.88040681095349
  0
LINE
  8
0
  6
CONTINUOUS
 62
     7
 10
19.98861166892441
 20
25.88040681095355
 11
19.98861166892441
 21
34.22720779386401
  0
LINE
  8
0
  6
CONTINUOUS
 62
     7
 10
19.95966496803947
 20
24.44292671493187
 11
19.98861166892441
 21
25.88040681095355
  0
LINE
  8
0
  6
CONTINUOUS
 62
     7
 10
-43.97138833107561
 20
25.88040681095349
 11
-43.97138833107561
 21
34.22720779386401
  0
LINE
  8
0
  6
CONTINUOUS
 62
     7
 10
-43.98140763333169
 20
25.07958453046249
 11
-43.97138833107561
 21
25.88040681095349
  0
LINE
  8
0
  6
CONTINUOUS
 62
     7
 10
-43.98140763333169
 20
25.07958453046249
 11
-44.00033503196049
 21
24.95090062953975
  0
LINE
  8
0
  6
CONTINUOUS
 62
     7
 10
-27.98138833107561
 20
25.88040681095349
 11
-27.98138833107561
 21
34.22720779386401
  0
LINE
  8
0
  6
CONTINUOUS
 62
     7
 10
-27.99140763333169
 20
25.07958453046227
 11
-27.98138833107561
 21
25.88040681095349
  0
LINE
  8
0
  6
CONTINUOUS
 62
     7
 10
-27.99140763333169
 20
25.07958453046227
 11
-28.01033503196049
 21
24.95090062953936
  0
LINE
  8
0
  6
CONTINUOUS
 62
     7
 10
-22.65138833107561
 20
25.88040681095355
 11
-22.65138833107561
 21
34.22720779386401
  0
LINE
  8
0
  6
CONTINUOUS
 62
     7
 10
-22.66140763333169
 20
25.07958453046216
 11
-22.65138833107561
 21
25.88040681095355
  0
LINE
  8
0
  6
CONTINUOUS
 62
     7
 10
-22.66140763333169
 20
25.07958453046216
 11
-22.68033503196038
 21
24.95090062953975
  0
LINE
  8
0
  6
CONTINUOUS
 62
     7
 10
-59.96138833107562
 20
25.88040681095349
 11
-59.96138833107562
 21
34.22720779386401
  0
LINE
  8
0
  6
CONTINUOUS
 62
     7
 10
-59.97140763333169
 20
25.07958453046249
 11
-59.96138833107562
 21
25.88040681095349
  0
LINE
  8
0
  6
CONTINUOUS
 62
     7
 10
-59.97140763333169
 20
25.07958453046249
 11
-59.99033503196052
 21
24.95090062953975
  0
LINE
  8
0
  6
CONTINUOUS
 62
     7
 10
-38.64138833107567
 20
25.88040681095349
 11
-38.64138833107567
 21
34.22720779386401
  0
LINE
  8
0
  6
CONTINUOUS
 62
     7
 10
-38.65140763333169
 20
25.07958453046249
 11
-38.64138833107567
 21
25.88040681095349
  0
LINE
  8
0
  6
CONTINUOUS
 62
     7
 10
-38.65140763333169
 20
25.07958453046249
 11
-38.67033503196055
 21
24.95090062953975
  0
LINE
  8
0
  6
CONTINUOUS
 62
     7
 10
-49.30138833107561
 20
25.88040681095349
 11
-49.30138833107561
 21
34.22720779386401
  0
LINE
  8
0
  6
CONTINUOUS
 62
     7
 10
-49.31140763333169
 20
25.07958453046249
 11
-49.30138833107561
 21
25.88040681095349
  0
LINE
  8
0
  6
CONTINUOUS
 62
     7
 10
-49.31140763333169
 20
25.07958453046249
 11
-49.33033503196052
 21
24.95090062953975
  0
LINE
  8
0
  6
CONTINUOUS
 62
     7
 10
-54.63138833107561
 20
25.88040681095349
 11
-54.63138833107561
 21
34.22720779386401
  0
LINE
  8
0
  6
CONTINUOUS
 62
     7
 10
-54.64140763333172
 20
25.07958453046249
 11
-54.63138833107561
 21
25.88040681095349
  0
LINE
  8
0
  6
CONTINUOUS
 62
     7
 10
-54.64140763333172
 20
25.07958453046249
 11
-54.66033503196049
 21
24.95090062953975
  0
LINE
  8
0
  6
CONTINUOUS
 62
     7
 10
-33.31138833107561
 20
25.88040681095349
 11
-33.31138833107561
 21
34.22720779386401
  0
LINE
  8
0
  6
CONTINUOUS
 62
     7
 10
-33.32140763333175
 20
25.07958453046227
 11
-33.31138833107561
 21
25.88040681095349
  0
LINE
  8
0
  6
CONTINUOUS
 62
     7
 10
-33.32140763333175
 20
25.07958453046227
 11
-33.34033503196049
 21
24.95090062953936
  0
LINE
  8
0
  6
CONTINUOUS
 62
     7
 10
51.93466496803978
 20
24.97445035505136
 11
51.93466496803978
 21
0.0
  0
LINE
  8
0
  6
CONTINUOUS
 62
     7
 10
51.93466496803978
 20
0.0
 11
50.93603543328523
 21
0.0
  0
LINE
  8
0
  6
CONTINUOUS
 62
     7
 10
50.93603543328523
 20
24.76805761424522
 11
50.93603543328523
 21
0.0
  0
LINE
  8
0
  6
CONTINUOUS
 62
     7
 10
34.34396456671496
 20
0.0
 11
33.34533503196041
 21
0.0
  0
LINE
  8
0
  6
CONTINUOUS
 62
     7
 10
33.34533503196041
 20
25.23390613329596
 11
33.34533503196041
 21
0.0
  0
LINE
  8
0
  6
CONTINUOUS
 62
     7
 10
34.34396456671496
 20
24.76807971512762
 11
34.34396456671496
 21
0.0000000000000035
  0
LINE
  8
0
  6
CONTINUOUS
 62
     7
 10
34.94603543328534
 20
24.76805761424522
 11
34.94603543328534
 21
0.0
  0
LINE
  8
0
  6
CONTINUOUS
 62
     7
 10
34.94603543328534
 20
0.0
 11
34.34396456671496
 21
0.0
  0
LINE
  8
0
  6
CONTINUOUS
 62
     7
 10
35.94466496803977
 20
24.97445035505147
 11
35.94466496803977
 21
0.0
  0
LINE
  8
0
  6
CONTINUOUS
 62
     7
 10
35.94466496803977
 20
0.0
 11
34.94603543328534
 21
0.0
  0
LINE
  8
0
  6
CONTINUOUS
 62
     7
 10
45.60603543328517
 20
24.76805761424522
 11
45.60603543328517
 21
0.0
  0
LINE
  8
0
  6
CONTINUOUS
 62
     7
 10
45.60603543328517
 20
0.0
 11
45.00396456671501
 21
0.0
  0
LINE
  8
0
  6
CONTINUOUS
 62
     7
 10
45.00396456671501
 20
24.76807971512762
 11
45.00396456671501
 21
0.0000000000000035
  0
LINE
  8
0
  6
CONTINUOUS
 62
     7
 10
41.27466496803983
 20
24.97445035505147
 11
41.27466496803983
 21
0.0
  0
LINE
  8
0
  6
CONTINUOUS
 62
     7
 10
41.27466496803983
 20
0.0
 11
40.27603543328517
 21
0.0
  0
LINE
  8
0
  6
CONTINUOUS
 62
     7
 10
40.27603543328517
 20
24.76805761424522
 11
40.27603543328517
 21
0.0
  0
LINE
  8
0
  6
CONTINUOUS
 62
     7
 10
25.28466496803983
 20
24.97445035505158
 11
25.28466496803983
 21
0.0
  0
LINE
  8
0
  6
CONTINUOUS
 62
     7
 10
24.28603543328517
 20
24.76805761424522
 11
24.28603543328517
 21
0.0
  0
LINE
  8
0
  6
CONTINUOUS
 62
     7
 10
25.28466496803983
 20
0.0
 11
24.28603543328517
 21
0.0
  0
LINE
  8
0
  6
CONTINUOUS
 62
     7
 10
23.68396456671501
 20
24.76807971512762
 11
23.68396456671501
 21
0.0000000000000035
  0
LINE
  8
0
  6
CONTINUOUS
 62
     7
 10
24.28603543328517
 20
0.0
 11
23.68396456671501
 21
0.0
  0
LINE
  8
0
  6
CONTINUOUS
 62
     7
 10
44.00533503196036
 20
25.23390613329623
 11
44.00533503196036
 21
0.0000000000000035
  0
LINE
  8
0
  6
CONTINUOUS
 62
     7
 10
45.00396456671501
 20
0.0
 11
44.00533503196047
 21
0.0
  0
LINE
  8
0
  6
CONTINUOUS
 62
     7
 10
28.01533503196035
 20
25.23390613329574
 11
28.01533503196035
 21
0.0
  0
LINE
  8
0
  6
CONTINUOUS
 62
     7
 10
29.01396456671501
 20
24.76807971512762
 11
29.01396456671501
 21
0.0000000000000035
  0
LINE
  8
0
  6
CONTINUOUS
 62
     7
 10
29.01396456671501
 20
0.0
 11
28.01533503196035
 21
0.0
  0
LINE
  8
0
  6
CONTINUOUS
 62
     7
 10
29.61603543328523
 20
24.76805761424522
 11
29.61603543328523
 21
0.0
  0
LINE
  8
0
  6
CONTINUOUS
 62
     7
 10
29.61603543328523
 20
0.0
 11
29.01396456671501
 21
0.0
  0
LINE
  8
0
  6
CONTINUOUS
 62
     7
 10
62.59466496803978
 20
24.97445035505125
 11
62.59466496803978
 21
0.0
  0
LINE
  8
0
  6
CONTINUOUS
 62
     7
 10
61.59603543328518
 20
24.76805761424522
 11
61.59603543328518
 21
0.0
  0
LINE
  8
0
  6
CONTINUOUS
 62
     7
 10
62.59466496803978
 20
0.0
 11
61.59603543328518
 21
0.0
  0
LINE
  8
0
  6
CONTINUOUS
 62
     7
 10
60.99396456671491
 20
24.76807971512762
 11
60.99396456671491
 21
0.0000000000000035
  0
LINE
  8
0
  6
CONTINUOUS
 62
     7
 10
61.59603543328518
 20
0.0
 11
60.99396456671491
 21
0.0
  0
LINE
  8
0
  6
CONTINUOUS
 62
     7
 10
59.99533503196042
 20
25.23390613329646
 11
59.99533503196042
 21
0.0000000000000035
  0
LINE
  8
0
  6
CONTINUOUS
 62
     7
 10
60.99396456671491
 20
0.0
 11
59.99533503196042
 21
0.0
  0
LINE
  8
0
  6
CONTINUOUS
 62
     7
 10
22.68533503196041
 20
25.23390613329568
 11
22.68533503196041
 21
0.0
  0
LINE
  8
0
  6
CONTINUOUS
 62
     7
 10
23.68396456671501
 20
0.0
 11
22.6853350319603
 21
0.0
  0
LINE
  8
0
  6
CONTINUOUS
 62
     7
 10
49.33533503196035
 20
25.23390613329623
 11
49.33533503196035
 21
0.0000000000000035
  0
LINE
  8
0
  6
CONTINUOUS
 62
     7
 10
50.33396456671502
 20
24.76807971512762
 11
50.33396456671502
 21
0.0000000000000035
  0
LINE
  8
0
  6
CONTINUOUS
 62
     7
 10
50.33396456671502
 20
0.0
 11
49.33533503196035
 21
0.0
  0
LINE
  8
0
  6
CONTINUOUS
 62
     7
 10
30.61466496803988
 20
24.97445035505158
 11
30.61466496803977
 21
0.0
  0
LINE
  8
0
  6
CONTINUOUS
 62
     7
 10
30.61466496803977
 20
0.0
 11
29.61603543328523
 21
0.0
  0
LINE
  8
0
  6
CONTINUOUS
 62
     7
 10
39.67396456671496
 20
24.76807971512762
 11
39.67396456671496
 21
0.0000000000000035
  0
LINE
  8
0
  6
CONTINUOUS
 62
     7
 10
40.27603543328517
 20
0.0
 11
39.67396456671496
 21
0.0
  0
LINE
  8
0
  6
CONTINUOUS
 62
     7
 10
46.60466496803988
 20
24.97445035505147
 11
46.60466496803988
 21
0.0
  0
LINE
  8
0
  6
CONTINUOUS
 62
     7
 10
46.60466496803978
 20
0.0
 11
45.60603543328517
 21
0.0
  0
LINE
  8
0
  6
CONTINUOUS
 62
     7
 10
54.66533503196042
 20
25.23390613329623
 11
54.66533503196042
 21
0.0000000000000035
  0
LINE
  8
0
  6
CONTINUOUS
 62
     7
 10
55.66396456671491
 20
24.76807971512762
 11
55.66396456671491
 21
0.0000000000000035
  0
LINE
  8
0
  6
CONTINUOUS
 62
     7
 10
55.66396456671491
 20
0.0
 11
54.66533503196042
 21
0.0
  0
LINE
  8
0
  6
CONTINUOUS
 62
     7
 10
38.6753350319603
 20
25.23390613329623
 11
38.67533503196041
 21
0.0000000000000035
  0
LINE
  8
0
  6
CONTINUOUS
 62
     7
 10
39.67396456671496
 20
0.0
 11
38.67533503196041
 21
0.0
  0
LINE
  8
0
  6
CONTINUOUS
 62
     7
 10
50.93603543328523
 20
0.0
 11
50.33396456671502
 21
0.0
  0
LINE
  8
0
  6
CONTINUOUS
 62
     7
 10
56.26603543328529
 20
24.76805761424522
 11
56.26603543328529
 21
0.0
  0
LINE
  8
0
  6
CONTINUOUS
 62
     7
 10
56.26603543328529
 20
0.0
 11
55.66396456671496
 21
0.0
  0
LINE
  8
0
  6
CONTINUOUS
 62
     7
 10
57.26466496803983
 20
24.97445035505125
 11
57.26466496803983
 21
0.0
  0
LINE
  8
0
  6
CONTINUOUS
 62
     7
 10
57.26466496803983
 20
0.0
 11
56.26603543328529
 21
0.0
  0
LINE
  8
0
  6
CONTINUOUS
 62
     7
 10
-25.2846649680396
 20
25.23390613329535
 11
-25.2846649680396
 21
0.0
  0
LINE
  8
0
  6
CONTINUOUS
 62
     7
 10
-24.286035433285
 20
24.76807971512762
 11
-24.286035433285
 21
0.0000000000000035
  0
LINE
  8
0
  6
CONTINUOUS
 62
     7
 10
-24.286035433285
 20
0.0
 11
-25.28466496803955
 21
0.0
  0
LINE
  8
0
  6
CONTINUOUS
 62
     7
 10
-38.67533503195991
 20
24.97445035504986
 11
-38.67533503196024
 21
0.0
  0
LINE
  8
0
  6
CONTINUOUS
 62
     7
 10
-39.67396456671479
 20
24.76805761424522
 11
-39.67396456671479
 21
0.0
  0
LINE
  8
0
  6
CONTINUOUS
 62
     7
 10
-38.67533503196013
 20
0.0
 11
-39.67396456671474
 21
0.0
  0
LINE
  8
0
  6
CONTINUOUS
 62
     7
 10
-44.00533503195991
 20
24.97445035504986
 11
-44.00533503196008
 21
0.0
  0
LINE
  8
0
  6
CONTINUOUS
 62
     7
 10
-45.00396456671479
 20
24.76805761424522
 11
-45.00396456671479
 21
0.0
  0
LINE
  8
0
  6
CONTINUOUS
 62
     7
 10
-44.00533503196024
 20
0.0
 11
-45.00396456671468
 21
0.0
  0
LINE
  8
0
  6
CONTINUOUS
 62
     7
 10
-45.60603543328511
 20
24.76807971512762
 11
-45.60603543328511
 21
0.0000000000000035
  0
LINE
  8
0
  6
CONTINUOUS
 62
     7
 10
-45.00396456671479
 20
0.0
 11
-45.60603543328511
 21
0.0
  0
LINE
  8
0
  6
CONTINUOUS
 62
     7
 10
-23.68396456671479
 20
24.76805761424522
 11
-23.68396456671479
 21
0.0
  0
LINE
  8
0
  6
CONTINUOUS
 62
     7
 10
-23.68396456671479
 20
0.0
 11
-24.28603543328511
 21
0.0
  0
LINE
  8
0
  6
CONTINUOUS
 62
     7
 10
-55.66396456671482
 20
24.76805761424522
 11
-55.66396456671482
 21
0.0
  0
LINE
  8
0
  6
CONTINUOUS
 62
     7
 10
-56.26603543328501
 20
24.76807971512762
 11
-56.26603543328501
 21
0.0000000000000035
  0
LINE
  8
0
  6
CONTINUOUS
 62
     7
 10
-55.66396456671482
 20
0.0
 11
-56.26603543328501
 21
0.0
  0
LINE
  8
0
  6
CONTINUOUS
 62
     7
 10
-30.61466496803961
 20
25.23390613329535
 11
-30.61466496803961
 21
0.0
  0
LINE
  8
0
  6
CONTINUOUS
 62
     7
 10
-29.616035433285
 20
24.76807971512762
 11
-29.616035433285
 21
0.0000000000000035
  0
LINE
  8
0
  6
CONTINUOUS
 62
     7
 10
-29.616035433285
 20
0.0
 11
-30.61466496803961
 21
0.0
  0
LINE
  8
0
  6
CONTINUOUS
 62
     7
 10
-60.99396456671479
 20
24.76805761424522
 11
-60.99396456671479
 21
0.0
  0
LINE
  8
0
  6
CONTINUOUS
 62
     7
 10
-61.59603543328501
 20
24.76807971512762
 11
-61.59603543328501
 21
0.0000000000000035
  0
LINE
  8
0
  6
CONTINUOUS
 62
     7
 10
-60.99396456671479
 20
0.0
 11
-61.5960354332849
 21
0.0
  0
LINE
  8
0
  6
CONTINUOUS
 62
     7
 10
-49.33533503196
 20
24.97445035504986
 11
-49.33533503196019
 21
0.0
  0
LINE
  8
0
  6
CONTINUOUS
 62
     7
 10
-50.33396456671479
 20
24.76805761424522
 11
-50.33396456671479
 21
0.0
  0
LINE
  8
0
  6
CONTINUOUS
 62
     7
 10
-49.33533503196019
 20
0.0
 11
-50.33396456671479
 21
0.0
  0
LINE
  8
0
  6
CONTINUOUS
 62
     7
 10
-40.276035433285
 20
24.76807971512762
 11
-40.276035433285
 21
0.0000000000000035
  0
LINE
  8
0
  6
CONTINUOUS
 62
     7
 10
-39.67396456671479
 20
0.0
 11
-40.276035433285
 21
0.0
  0
LINE
  8
0
  6
CONTINUOUS
 62
     7
 10
-62.59466496803962
 20
25.23390613329518
 11
-62.59466496803962
 21
0.0
  0
LINE
  8
0
  6
CONTINUOUS
 62
     7
 10
-61.59603543328501
 20
0.0
 11
-62.5946649680395
 21
0.0
  0
LINE
  8
0
  6
CONTINUOUS
 62
     7
 10
-50.93603543328509
 20
24.76807971512762
 11
-50.93603543328509
 21
0.0000000000000035
  0
LINE
  8
0
  6
CONTINUOUS
 62
     7
 10
-50.33396456671479
 20
0.0
 11
-50.93603543328509
 21
0.0
  0
LINE
  8
0
  6
CONTINUOUS
 62
     7
 10
-59.99533503196
 20
24.97445035504986
 11
-59.9953350319602
 21
0.0
  0
LINE
  8
0
  6
CONTINUOUS
 62
     7
 10
-59.9953350319602
 20
0.0
 11
-60.99396456671479
 21
0.0
  0
LINE
  8
0
  6
CONTINUOUS
 62
     7
 10
-54.66533503196003
 20
24.97445035504986
 11
-54.66533503196022
 21
0.0
  0
LINE
  8
0
  6
CONTINUOUS
 62
     7
 10
-54.66533503196022
 20
0.0
 11
-55.66396456671471
 21
0.0
  0
LINE
  8
0
  6
CONTINUOUS
 62
     7
 10
-46.60466496803961
 20
25.23390613329535
 11
-46.60466496803961
 21
0.0
  0
LINE
  8
0
  6
CONTINUOUS
 62
     7
 10
-45.60603543328511
 20
0.0
 11
-46.60466496803953
 21
0.0
  0
LINE
  8
0
  6
CONTINUOUS
 62
     7
 10
-29.01396456671479
 20
24.76805761424522
 11
-29.01396456671479
 21
0.0
  0
LINE
  8
0
  6
CONTINUOUS
 62
     7
 10
-29.01396456671479
 20
0.0
 11
-29.616035433285
 21
0.0
  0
LINE
  8
0
  6
CONTINUOUS
 62
     7
 10
-35.94466496803961
 20
25.23390613329568
 11
-35.94466496803961
 21
0.0
  0
LINE
  8
0
  6
CONTINUOUS
 62
     7
 10
-34.946035433285
 20
24.76807971512762
 11
-34.946035433285
 21
0.0000000000000035
  0
LINE
  8
0
  6
CONTINUOUS
 62
     7
 10
-34.946035433285
 20
0.0
 11
-35.9446649680395
 21
0.0
  0
LINE
  8
0
  6
CONTINUOUS
 62
     7
 10
-33.34533503195991
 20
24.97445035504975
 11
-33.34533503196008
 21
0.0
  0
LINE
  8
0
  6
CONTINUOUS
 62
     7
 10
-34.34396456671485
 20
24.76805761424522
 11
-34.34396456671485
 21
0.0
  0
LINE
  8
0
  6
CONTINUOUS
 62
     7
 10
-33.34533503196019
 20
0.0
 11
-34.34396456671473
 21
0.0
  0
LINE
  8
0
  6
CONTINUOUS
 62
     7
 10
-41.27466496803961
 20
25.23390613329535
 11
-41.27466496803961
 21
0.0
  0
LINE
  8
0
  6
CONTINUOUS
 62
     7
 10
-40.276035433285
 20
0.0
 11
-41.27466496803961
 21
0.0
  0
LINE
  8
0
  6
CONTINUOUS
 62
     7
 10
-51.93466496803961
 20
25.23390613329518
 11
-51.93466496803961
 21
0.0
  0
LINE
  8
0
  6
CONTINUOUS
 62
     7
 10
-50.93603543328509
 20
0.0
 11
-51.93466496803961
 21
0.0
  0
LINE
  8
0
  6
CONTINUOUS
 62
     7
 10
-34.34396456671485
 20
0.0
 11
-34.946035433285
 21
0.0
  0
LINE
  8
0
  6
CONTINUOUS
 62
     7
 10
-28.01533503195991
 20
24.97445035504975
 11
-28.01533503196019
 21
0.0
  0
LINE
  8
0
  6
CONTINUOUS
 62
     7
 10
-28.01533503196019
 20
0.0
 11
-29.01396456671479
 21
0.0
  0
LINE
  8
0
  6
CONTINUOUS
 62
     7
 10
-22.68533503196013
 20
24.97445035505175
 11
-22.68533503196024
 21
0.0
  0
LINE
  8
0
  6
CONTINUOUS
 62
     7
 10
-22.68533503196024
 20
0.0
 11
-23.68396456671467
 21
0.0
  0
LINE
  8
0
  6
CONTINUOUS
 62
     7
 10
-57.26466496803961
 20
25.23390613329518
 11
-57.26466496803961
 21
0.0
  0
LINE
  8
0
  6
CONTINUOUS
 62
     7
 10
-56.26603543328501
 20
0.0
 11
-57.26466496803953
 21
0.0
  0
LINE
  8
0
  6
CONTINUOUS
 62
     7
 10
65.50000000000011
 20
32.72720779386368
 11
65.50000000000011
 21
25.84421917411656
  0
ARC
  8
0
  6
CONTINUOUS
 62
     7
 10
66.5483838622118
 20
-153.936216668956
 40
179.8346805819853
 50
90.3642216380069
 51
90.81194865523564
  0
LINE
  8
0
  6
CONTINUOUS
 62
     7
 10
65.40520645277859
 20
25.89483038753876
 11
65.49982262408909
 21
25.84792900014149
  0
LINE
  8
0
  6
CONTINUOUS
 62
     7
 10
65.49982262408909
 20
25.84792900014149
 11
65.50000000000011
 21
25.84421917411656
  0
LINE
  8
0
  6
CONTINUOUS
 62
     7
 10
64.00000000000011
 20
25.88040681095338
 11
64.00000000000011
 21
34.22720779386368
  0
LINE
  8
0
  6
CONTINUOUS
 62
     7
 10
62.62861166892441
 20
25.88040681095355
 11
64.00000000000011
 21
25.88040681095327
  0
LINE
  8
0
  6
CONTINUOUS
 62
     7
 10
-13.4999999999999
 20
25.88040681095349
 11
-13.4999999999999
 21
34.22642497510697
  0
LINE
  8
0
  6
CONTINUOUS
 62
     7
 10
-13.4999999999999
 20
34.22642497510692
 11
-13.4967794026794
 21
34.22642151720179
  0
ARC
  8
0
  6
CONTINUOUS
 62
     7
 10
-13.8708360928711
 20
32.4453718043094
 40
1.882886053256982
 50
17.98152007775721
 51
58.76589015140357
  0
LINE
  8
0
  6
CONTINUOUS
 62
     7
 10
-12.89449162518241
 20
34.05534427921797
 11
-13.03959795672738
 21
34.12698631873451
  0
LINE
  8
0
  6
CONTINUOUS
 62
     7
 10
-13.03959795672738
 20
34.12698631873451
 11
-13.1886610558552
 21
34.17972050430657
  0
LINE
  8
0
  6
CONTINUOUS
 62
     7
 10
-13.1886610558552
 20
34.17972050430657
 11
-13.34092835136891
 21
34.2130535280395
  0
LINE
  8
0
  6
CONTINUOUS
 62
     7
 10
-13.34092835136891
 20
34.2130535280395
 11
-13.49449138196174
 21
34.22637532542583
  0
LINE
  8
0
  6
CONTINUOUS
 62
     7
 10
-13.49449138196174
 20
34.22637532542583
 11
-13.49677940267929
 21
34.22642151720179
  0
LINE
  8
0
  6
CONTINUOUS
 62
     7
 10
-12.07991747035631
 20
33.02663798866867
 11
-11.99999999999984
 21
32.52024088098548
  0
LINE
  8
0
  6
CONTINUOUS
 62
     7
 10
-11.9999999999999
 20
32.52024088098548
 11
-11.9999999999999
 21
26.65680707901985
  0
LINE
  8
0
  6
CONTINUOUS
 62
     7
 10
-13.4999999999999
 20
25.88040681095338
 11
-13.20736451697568
 21
25.89532512439913
  0
LINE
  8
0
  6
CONTINUOUS
 62
     7
 10
-13.20736451697568
 20
25.89532512439913
 11
-12.92597485145225
 21
25.93950676231693
  0
LINE
  8
0
  6
CONTINUOUS
 62
     7
 10
-12.92597485145225
 20
25.93950676231693
 11
-12.66664465047051
 21
26.0112538491391
  0
LINE
  8
0
  6
CONTINUOUS
 62
     7
 10
-12.66664465047051
 20
26.0112538491391
 11
-12.4393398282201
 21
26.10780918455507
  0
LINE
  8
0
  6
CONTINUOUS
 62
     7
 10
-12.4393398282201
 20
26.10780918455507
 11
-12.25279558154607
 21
26.22546220117367
  0
LINE
  8
0
  6
CONTINUOUS
 62
     7
 10
-12.25279558154607
 20
26.22546220117367
 11
-12.11418070123288
 21
26.35969155954698
  0
LINE
  8
0
  6
CONTINUOUS
 62
     7
 10
-12.11418070123288
 20
26.35969155954698
 11
-12.02882207939504
 21
26.50533890070939
  0
LINE
  8
0
  6
CONTINUOUS
 62
     7
 10
-12.02882207939504
 20
26.50533890070939
 11
-11.9999999999999
 21
26.65680707901985
  0
LINE
  8
0
  6
CONTINUOUS
 62
     7
 10
13.50000000000012
 20
34.22642497510692
 11
13.50000000000012
 21
25.88040681095338
  0
LINE
  8
0
  6
CONTINUOUS
 62
     7
 10
13.50000000000012
 20
34.22642497510692
 11
13.66559582645022
 21
34.22642497510692
  0
LINE
  8
0
  6
CONTINUOUS
 62
     7
 10
13.4999999999999
 20
25.88040681095349
 11
17.33138833107528
 21
25.88040681095355
  0
LINE
  8
0
  6
CONTINUOUS
 62
     7
 10
13.49677940267951
 20
34.22642151720179
 11
13.34092835136907
 21
34.2130535280395
  0
LINE
  8
0
  6
CONTINUOUS
 62
     7
 10
13.34092835136907
 20
34.2130535280395
 11
13.19172593019119
 21
34.18059302742326
  0
LINE
  8
0
  6
CONTINUOUS
 62
     7
 10
13.19172593019119
 20
34.18059302742326
 11
13.04262152126356
 21
34.12826054441448
  0
LINE
  8
0
  6
CONTINUOUS
 62
     7
 10
13.04262152126356
 20
34.12826054441448
 11
12.89449162518258
 21
34.05534427921797
  0
ARC
  8
0
  6
CONTINUOUS
 62
     7
 10
13.86497664866271
 20
32.45001156578253
 40
1.875882272858509
 50
121.1545667071329
 51
162.0980230637105
  0
LINE
  8
0
  6
CONTINUOUS
 62
     7
 10
13.50000000000012
 20
34.22642497510692
 11
13.49677940267951
 21
34.22642151720179
  0
LINE
  8
0
  6
CONTINUOUS
 62
     7
 10
12.00000000000012
 20
26.65680707901985
 11
12.02882207939515
 21
26.50533890070939
  0
LINE
  8
0
  6
CONTINUOUS
 62
     7
 10
12.02882207939515
 20
26.50533890070939
 11
12.11418070123316
 21
26.35969155954704
  0
LINE
  8
0
  6
CONTINUOUS
 62
     7
 10
12.11418070123316
 20
26.35969155954704
 11
12.25279558154629
 21
26.22546220117378
  0
LINE
  8
0
  6
CONTINUOUS
 62
     7
 10
12.25279558154629
 20
26.22546220117378
 11
12.43933982822015
 21
26.10780918455507
  0
LINE
  8
0
  6
CONTINUOUS
 62
     7
 10
12.43933982822015
 20
26.10780918455507
 11
12.66664465047057
 21
26.0112538491391
  0
LINE
  8
0
  6
CONTINUOUS
 62
     7
 10
12.66664465047057
 20
26.0112538491391
 11
12.92597485145241
 21
25.93950676231693
  0
LINE
  8
0
  6
CONTINUOUS
 62
     7
 10
12.92597485145241
 20
25.93950676231693
 11
13.20736451697579
 21
25.89532512439913
  0
LINE
  8
0
  6
CONTINUOUS
 62
     7
 10
13.20736451697579
 20
25.89532512439913
 11
13.4999999999999
 21
25.88040681095349
  0
LINE
  8
0
  6
CONTINUOUS
 62
     7
 10
12.00000000000012
 20
26.65680707901985
 11
12.00000000000012
 21
32.52024088098548
  0
LINE
  8
0
  6
CONTINUOUS
 62
     7
 10
12.00000000000012
 20
32.52024088098548
 11
12.07991747035658
 21
33.02663798866867
  0
LINE
  8
0
  6
CONTINUOUS
 62
     7
 10
-13.66559582645116
 20
34.22642497510692
 11
-13.49999999999985
 21
34.22642497510692
  0
LINE
  8
0
  6
CONTINUOUS
 62
     7
 10
-17.3213883310756
 20
25.88040681095349
 11
-13.4999999999999
 21
25.88040681095338
  0
LINE
  8
0
  6
CONTINUOUS
 62
     7
 10
30.64861166892441
 20
25.88040681095355
 11
33.32138833107528
 21
25.88040681095349
  0
LINE
  8
0
  6
CONTINUOUS
 62
     7
 10
-63.99999999999991
 20
34.22720779386368
 11
-63.99999999999991
 21
25.88040681095349
  0
LINE
  8
0
  6
CONTINUOUS
 62
     7
 10
-65.49999999999991
 20
25.84421917411656
 11
-65.40520645278083
 21
25.89483038753848
  0
ARC
  8
0
  6
CONTINUOUS
 62
     7
 10
-68.06170511374252
 20
-301.3704383608576
 40
327.2760503215836
 50
89.28890447416109
 51
89.5349252326227
  0
LINE
  8
0
  6
CONTINUOUS
 62
     7
 10
-65.49999999999991
 20
25.84421917411656
 11
-65.49999999999991
 21
32.72720779386368
  0
LINE
  8
0
  6
CONTINUOUS
 62
     7
 10
35.97861166892435
 20
25.88040681095355
 11
38.65138833107529
 21
25.88040681095349
  0
LINE
  8
0
  6
CONTINUOUS
 62
     7
 10
51.96861166892436
 20
25.88040681095355
 11
54.64138833107529
 21
25.88040681095349
  0
LINE
  8
0
  6
CONTINUOUS
 62
     7
 10
41.30861166892441
 20
25.88040681095355
 11
43.98138833107534
 21
25.88040681095349
  0
LINE
  8
0
  6
CONTINUOUS
 62
     7
 10
-63.99999999999991
 20
25.88040681095349
 11
-62.61861166892471
 21
25.88040681095349
  0
LINE
  8
0
  6
CONTINUOUS
 62
     7
 10
57.29861166892442
 20
25.88040681095355
 11
59.97138833107529
 21
25.88040681095349
  0
LINE
  8
0
  6
CONTINUOUS
 62
     7
 10
46.63861166892441
 20
25.88040681095355
 11
49.31138833107529
 21
25.88040681095349
  0
LINE
  8
0
  6
CONTINUOUS
 62
     7
 10
25.3186116689244
 20
25.88040681095355
 11
27.99138833107529
 21
25.88040681095349
  0
LINE
  8
0
  6
CONTINUOUS
 62
     7
 10
19.98861166892441
 20
25.88040681095355
 11
22.66138833107528
 21
25.88040681095349
  0
LINE
  8
0
  6
CONTINUOUS
 62
     7
 10
-59.96138833107562
 20
25.88040681095349
 11
-57.28861166892471
 21
25.88040681095349
  0
LINE
  8
0
  6
CONTINUOUS
 62
     7
 10
-49.30138833107561
 20
25.88040681095349
 11
-46.62861166892471
 21
25.88040681095349
  0
LINE
  8
0
  6
CONTINUOUS
 62
     7
 10
-33.31138833107561
 20
25.88040681095349
 11
-30.63861166892478
 21
25.88040681095355
  0
LINE
  8
0
  6
CONTINUOUS
 62
     7
 10
-54.63138833107561
 20
25.88040681095349
 11
-51.95861166892471
 21
25.88040681095349
  0
LINE
  8
0
  6
CONTINUOUS
 62
     7
 10
-27.98138833107561
 20
25.88040681095349
 11
-25.30861166892473
 21
25.88040681095355
  0
LINE
  8
0
  6
CONTINUOUS
 62
     7
 10
-43.97138833107561
 20
25.88040681095349
 11
-41.29861166892474
 21
25.88040681095349
  0
LINE
  8
0
  6
CONTINUOUS
 62
     7
 10
-22.65138833107561
 20
25.88040681095355
 11
-19.97861166892473
 21
25.88040681095349
  0
LINE
  8
0
  6
CONTINUOUS
 62
     7
 10
-38.64138833107567
 20
25.88040681095349
 11
-35.96861166892473
 21
25.88040681095349
  0
LINE
  8
0
  6
CONTINUOUS
 62
     7
 10
17.36784369161487
 20
24.32760627482056
 11
13.50000000000012
 21
24.32760627482056
  0
LINE
  8
0
  6
CONTINUOUS
 62
     7
 10
13.50000000000012
 20
24.32760627482056
 11
13.50000000000012
 21
25.88040681095349
  0
LINE
  8
0
  6
CONTINUOUS
 62
     7
 10
-19.94215630838514
 20
24.32760627482056
 11
-22.65638833107531
 21
24.32760627482056
  0
LINE
  8
0
  6
CONTINUOUS
 62
     7
 10
-22.66140763333169
 20
25.07958453046216
 11
-22.65638833107531
 21
24.32760627482056
  0
LINE
  8
0
  6
CONTINUOUS
 62
     7
 10
22.65638833107547
 20
24.32760627482056
 11
22.66591637824961
 21
25.35609176915649
  0
LINE
  8
0
  6
CONTINUOUS
 62
     7
 10
22.65638833107564
 20
24.32760627482056
 11
19.95215630838482
 21
24.32760627482056
  0
LINE
  8
0
  6
CONTINUOUS
 62
     7
 10
-13.4999999999999
 20
25.88040681095349
 11
-13.4999999999999
 21
24.32760627482056
  0
LINE
  8
0
  6
CONTINUOUS
 62
     7
 10
-13.4999999999999
 20
24.32760627482056
 11
-17.35784369161519
 21
24.32760627482056
  0
LINE
  8
0
  6
CONTINUOUS
 62
     7
 10
33.31638833107559
 20
24.32760627482056
 11
33.31638833107559
 21
0.0
  0
LINE
  8
0
  6
CONTINUOUS
 62
     7
 10
33.31638833107547
 20
24.32760627482056
 11
33.32591637824945
 21
25.35609176915748
  0
LINE
  8
0
  6
CONTINUOUS
 62
     7
 10
33.34533503196041
 20
0.0
 11
33.31638833107559
 21
0.0
  0
LINE
  8
0
  6
CONTINUOUS
 62
     7
 10
38.64638833107553
 20
24.32760627482056
 11
38.64638833107553
 21
0.0
  0
LINE
  8
0
  6
CONTINUOUS
 62
     7
 10
38.64638833107553
 20
24.32760627482056
 11
38.65591637824956
 21
25.3560917691571
  0
LINE
  8
0
  6
CONTINUOUS
 62
     7
 10
38.67533503196041
 20
0.0
 11
38.64638833107553
 21
0.0
  0
LINE
  8
0
  6
CONTINUOUS
 62
     7
 10
59.96638833107559
 20
24.32760627482056
 11
59.96638833107559
 21
0.0
  0
LINE
  8
0
  6
CONTINUOUS
 62
     7
 10
59.96638833107559
 20
24.32760627482056
 11
59.97591637824961
 21
25.35609176915787
  0
LINE
  8
0
  6
CONTINUOUS
 62
     7
 10
59.99533503196042
 20
0.0
 11
59.96638833107559
 21
0.0
  0
LINE
  8
0
  6
CONTINUOUS
 62
     7
 10
25.30859236666827
 20
25.079584530462
 11
25.31361166892459
 21
24.32760627482056
  0
LINE
  8
0
  6
CONTINUOUS
 62
     7
 10
25.31361166892459
 20
24.32760627482056
 11
25.31361166892459
 21
0.0
  0
LINE
  8
0
  6
CONTINUOUS
 62
     7
 10
25.31361166892459
 20
0.0
 11
25.28466496803983
 21
0.0
  0
LINE
  8
0
  6
CONTINUOUS
 62
     7
 10
41.29859236666827
 20
25.07958453046166
 11
41.30361166892471
 21
24.32760627482056
  0
LINE
  8
0
  6
CONTINUOUS
 62
     7
 10
41.3036116689246
 20
24.32760627482056
 11
41.3036116689246
 21
0.0
  0
LINE
  8
0
  6
CONTINUOUS
 62
     7
 10
41.3036116689246
 20
0.0
 11
41.27466496803983
 21
0.0
  0
LINE
  8
0
  6
CONTINUOUS
 62
     7
 10
62.61859236666828
 20
25.07958453046116
 11
62.62361166892455
 21
24.32760627482056
  0
LINE
  8
0
  6
CONTINUOUS
 62
     7
 10
62.62361166892455
 20
24.32760627482056
 11
62.62361166892472
 21
0.0
  0
LINE
  8
0
  6
CONTINUOUS
 62
     7
 10
62.62361166892472
 20
0.0
 11
62.59466496803978
 21
0.0
  0
LINE
  8
0
  6
CONTINUOUS
 62
     7
 10
43.97638833107559
 20
24.32760627482056
 11
43.97638833107559
 21
0.0
  0
LINE
  8
0
  6
CONTINUOUS
 62
     7
 10
43.97638833107559
 20
24.32760627482056
 11
43.98591637824961
 21
25.3560917691571
  0
LINE
  8
0
  6
CONTINUOUS
 62
     7
 10
44.00533503196036
 20
0.0
 11
43.97638833107559
 21
0.0
  0
LINE
  8
0
  6
CONTINUOUS
 62
     7
 10
46.62859236666827
 20
25.07958453046166
 11
46.63361166892466
 21
24.32760627482056
  0
LINE
  8
0
  6
CONTINUOUS
 62
     7
 10
46.63361166892466
 20
24.32760627482056
 11
46.63361166892466
 21
0.0
  0
LINE
  8
0
  6
CONTINUOUS
 62
     7
 10
46.63361166892466
 20
0.0
 11
46.60466496803988
 21
0.0
  0
LINE
  8
0
  6
CONTINUOUS
 62
     7
 10
49.30638833107547
 20
24.32760627482056
 11
49.30638833107547
 21
0.0
  0
LINE
  8
0
  6
CONTINUOUS
 62
     7
 10
49.30638833107559
 20
24.32760627482056
 11
49.31591637824961
 21
25.35609176915699
  0
LINE
  8
0
  6
CONTINUOUS
 62
     7
 10
49.33533503196035
 20
0.0
 11
49.30638833107547
 21
0.0
  0
LINE
  8
0
  6
CONTINUOUS
 62
     7
 10
51.95859236666833
 20
25.07958453046161
 11
51.9636116689246
 21
24.32760627482056
  0
LINE
  8
0
  6
CONTINUOUS
 62
     7
 10
51.96361166892466
 20
24.32760627482056
 11
51.96361166892466
 21
0.0
  0
LINE
  8
0
  6
CONTINUOUS
 62
     7
 10
51.96361166892466
 20
0.0
 11
51.93466496803978
 21
0.0
  0
LINE
  8
0
  6
CONTINUOUS
 62
     7
 10
54.63638833107554
 20
24.32760627482056
 11
54.63638833107554
 21
0.0
  0
LINE
  8
0
  6
CONTINUOUS
 62
     7
 10
54.63638833107559
 20
24.32760627482056
 11
54.64591637824956
 21
25.35609176915699
  0
LINE
  8
0
  6
CONTINUOUS
 62
     7
 10
54.66533503196042
 20
0.0
 11
54.63638833107554
 21
0.0
  0
LINE
  8
0
  6
CONTINUOUS
 62
     7
 10
27.98638833107558
 20
24.32760627482056
 11
27.98638833107558
 21
0.0
  0
LINE
  8
0
  6
CONTINUOUS
 62
     7
 10
27.98638833107547
 20
24.32760627482056
 11
27.99591637824961
 21
25.35609176915726
  0
LINE
  8
0
  6
CONTINUOUS
 62
     7
 10
28.01533503196035
 20
0.0
 11
27.98638833107558
 21
0.0
  0
LINE
  8
0
  6
CONTINUOUS
 62
     7
 10
22.65638833107564
 20
24.32760627482056
 11
22.65638833107564
 21
0.0
  0
LINE
  8
0
  6
CONTINUOUS
 62
     7
 10
22.68533503196041
 20
0.0
 11
22.65638833107564
 21
0.0
  0
LINE
  8
0
  6
CONTINUOUS
 62
     7
 10
35.96859236666828
 20
25.07958453046166
 11
35.97361166892471
 21
24.32760627482056
  0
LINE
  8
0
  6
CONTINUOUS
 62
     7
 10
35.97361166892471
 20
24.32760627482056
 11
35.97361166892471
 21
0.0
  0
LINE
  8
0
  6
CONTINUOUS
 62
     7
 10
35.97361166892471
 20
0.0
 11
35.94466496803977
 21
0.0
  0
LINE
  8
0
  6
CONTINUOUS
 62
     7
 10
30.63859236666833
 20
25.07958453046177
 11
30.64361166892465
 21
24.32760627482056
  0
LINE
  8
0
  6
CONTINUOUS
 62
     7
 10
30.64361166892465
 20
24.32760627482056
 11
30.64361166892465
 21
0.0
  0
LINE
  8
0
  6
CONTINUOUS
 62
     7
 10
30.64361166892465
 20
0.0
 11
30.61466496803977
 21
0.0
  0
LINE
  8
0
  6
CONTINUOUS
 62
     7
 10
57.28859236666828
 20
25.07958453046122
 11
57.2936116689246
 21
24.32760627482056
  0
LINE
  8
0
  6
CONTINUOUS
 62
     7
 10
57.29361166892471
 20
24.32760627482056
 11
57.29361166892471
 21
0.0
  0
LINE
  8
0
  6
CONTINUOUS
 62
     7
 10
57.29361166892471
 20
0.0
 11
57.26466496803983
 21
0.0
  0
LINE
  8
0
  6
CONTINUOUS
 62
     7
 10
-41.30361166892438
 20
24.32760627482056
 11
-41.30361166892438
 21
0.0
  0
LINE
  8
0
  6
CONTINUOUS
 62
     7
 10
-41.30361166892438
 20
24.32760627482056
 11
-41.29408362175041
 21
25.35609176915632
  0
LINE
  8
0
  6
CONTINUOUS
 62
     7
 10
-41.27466496803961
 20
0.0
 11
-41.30361166892438
 21
0.0
  0
LINE
  8
0
  6
CONTINUOUS
 62
     7
 10
-35.97361166892438
 20
24.32760627482056
 11
-35.97361166892438
 21
0.0
  0
LINE
  8
0
  6
CONTINUOUS
 62
     7
 10
-35.97361166892438
 20
24.32760627482056
 11
-35.96408362175041
 21
25.35609176915632
  0
LINE
  8
0
  6
CONTINUOUS
 62
     7
 10
-35.94466496803961
 20
0.0
 11
-35.97361166892438
 21
0.0
  0
LINE
  8
0
  6
CONTINUOUS
 62
     7
 10
-59.97140763333169
 20
25.07958453046249
 11
-59.9663883310754
 21
24.32760627482056
  0
LINE
  8
0
  6
CONTINUOUS
 62
     7
 10
-59.96638833107531
 20
24.32760627482056
 11
-59.96638833107531
 21
0.0
  0
LINE
  8
0
  6
CONTINUOUS
 62
     7
 10
-59.96638833107531
 20
0.0
 11
-59.9953350319602
 21
0.0
  0
LINE
  8
0
  6
CONTINUOUS
 62
     7
 10
-51.96361166892441
 20
24.32760627482056
 11
-51.96361166892441
 21
0.0
  0
LINE
  8
0
  6
CONTINUOUS
 62
     7
 10
-51.96361166892441
 20
24.32760627482056
 11
-51.95408362175041
 21
25.35609176915587
  0
LINE
  8
0
  6
CONTINUOUS
 62
     7
 10
-51.93466496803961
 20
0.0
 11
-51.96361166892441
 21
0.0
  0
LINE
  8
0
  6
CONTINUOUS
 62
     7
 10
-33.32140763333175
 20
25.07958453046227
 11
-33.31638833107531
 21
24.32760627482056
  0
LINE
  8
0
  6
CONTINUOUS
 62
     7
 10
-33.31638833107531
 20
24.32760627482056
 11
-33.31638833107531
 21
0.0
  0
LINE
  8
0
  6
CONTINUOUS
 62
     7
 10
-33.31638833107531
 20
0.0
 11
-33.34533503196008
 21
0.0
  0
LINE
  8
0
  6
CONTINUOUS
 62
     7
 10
-27.99140763333169
 20
25.07958453046227
 11
-27.98638833107531
 21
24.32760627482056
  0
LINE
  8
0
  6
CONTINUOUS
 62
     7
 10
-27.98638833107542
 20
24.32760627482056
 11
-27.98638833107542
 21
0.0
  0
LINE
  8
0
  6
CONTINUOUS
 62
     7
 10
-27.98638833107542
 20
0.0
 11
-28.01533503196019
 21
0.0
  0
LINE
  8
0
  6
CONTINUOUS
 62
     7
 10
-62.62361166892441
 20
24.32760627482056
 11
-62.62361166892441
 21
0.0
  0
LINE
  8
0
  6
CONTINUOUS
 62
     7
 10
-62.62361166892441
 20
24.32760627482056
 11
-62.61408362175042
 21
25.35609176915587
  0
LINE
  8
0
  6
CONTINUOUS
 62
     7
 10
-62.59466496803962
 20
0.0
 11
-62.62361166892441
 21
0.0
  0
LINE
  8
0
  6
CONTINUOUS
 62
     7
 10
-38.65140763333169
 20
25.07958453046249
 11
-38.64638833107531
 21
24.32760627482056
  0
LINE
  8
0
  6
CONTINUOUS
 62
     7
 10
-38.64638833107531
 20
24.32760627482056
 11
-38.64638833107531
 21
0.0
  0
LINE
  8
0
  6
CONTINUOUS
 62
     7
 10
-38.64638833107531
 20
0.0
 11
-38.67533503196013
 21
0.0
  0
LINE
  8
0
  6
CONTINUOUS
 62
     7
 10
-25.31361166892443
 20
24.32760627482056
 11
-25.31361166892443
 21
0.0
  0
LINE
  8
0
  6
CONTINUOUS
 62
     7
 10
-25.31361166892443
 20
24.32760627482056
 11
-25.3040836217504
 21
25.35609176915632
  0
LINE
  8
0
  6
CONTINUOUS
 62
     7
 10
-25.2846649680396
 20
0.0
 11
-25.31361166892443
 21
0.0
  0
LINE
  8
0
  6
CONTINUOUS
 62
     7
 10
-54.64140763333172
 20
25.07958453046249
 11
-54.63638833107531
 21
24.32760627482056
  0
LINE
  8
0
  6
CONTINUOUS
 62
     7
 10
-54.63638833107531
 20
24.32760627482056
 11
-54.63638833107531
 21
0.0
  0
LINE
  8
0
  6
CONTINUOUS
 62
     7
 10
-54.63638833107531
 20
0.0
 11
-54.66533503196022
 21
0.0
  0
LINE
  8
0
  6
CONTINUOUS
 62
     7
 10
-22.65638833107531
 20
24.32760627482056
 11
-22.65638833107531
 21
0.0
  0
LINE
  8
0
  6
CONTINUOUS
 62
     7
 10
-22.65638833107531
 20
0.0
 11
-22.68533503196013
 21
0.0
  0
LINE
  8
0
  6
CONTINUOUS
 62
     7
 10
-30.64361166892438
 20
24.32760627482056
 11
-30.64361166892438
 21
0.0
  0
LINE
  8
0
  6
CONTINUOUS
 62
     7
 10
-30.64361166892438
 20
24.32760627482056
 11
-30.63408362175041
 21
25.35609176915604
  0
LINE
  8
0
  6
CONTINUOUS
 62
     7
 10
-30.61466496803961
 20
0.0
 11
-30.64361166892438
 21
0.0
  0
LINE
  8
0
  6
CONTINUOUS
 62
     7
 10
-57.29361166892441
 20
24.32760627482056
 11
-57.29361166892441
 21
0.0
  0
LINE
  8
0
  6
CONTINUOUS
 62
     7
 10
-57.29361166892441
 20
24.32760627482056
 11
-57.28408362175041
 21
25.35609176915587
  0
LINE
  8
0
  6
CONTINUOUS
 62
     7
 10
-57.26466496803961
 20
0.0
 11
-57.29361166892441
 21
0.0
  0
LINE
  8
0
  6
CONTINUOUS
 62
     7
 10
-46.63361166892452
 20
24.32760627482056
 11
-46.63361166892452
 21
0.0
  0
LINE
  8
0
  6
CONTINUOUS
 62
     7
 10
-46.63361166892441
 20
24.32760627482056
 11
-46.62408362175041
 21
25.35609176915638
  0
LINE
  8
0
  6
CONTINUOUS
 62
     7
 10
-46.60466496803961
 20
0.0
 11
-46.63361166892452
 21
0.0
  0
LINE
  8
0
  6
CONTINUOUS
 62
     7
 10
-49.31140763333169
 20
25.07958453046249
 11
-49.3063883310754
 21
24.32760627482056
  0
LINE
  8
0
  6
CONTINUOUS
 62
     7
 10
-49.30638833107531
 20
24.32760627482056
 11
-49.3063883310754
 21
0.0
  0
LINE
  8
0
  6
CONTINUOUS
 62
     7
 10
-49.3063883310754
 20
0.0
 11
-49.33533503196019
 21
0.0
  0
LINE
  8
0
  6
CONTINUOUS
 62
     7
 10
-43.98140763333169
 20
25.07958453046249
 11
-43.97638833107531
 21
24.32760627482056
  0
LINE
  8
0
  6
CONTINUOUS
 62
     7
 10
-43.97638833107531
 20
24.32760627482056
 11
-43.97638833107531
 21
0.0
  0
LINE
  8
0
  6
CONTINUOUS
 62
     7
 10
-43.97638833107531
 20
0.0
 11
-44.00533503196008
 21
0.0
  0
LINE
  8
0
  6
CONTINUOUS
 62
     7
 10
64.00000000000017
 20
25.88040681095338
 11
64.00000000000011
 21
24.32760627482045
  0
LINE
  8
0
  6
CONTINUOUS
 62
     7
 10
65.50000000000011
 20
25.84421917411656
 11
65.49613335524823
 21
25.70993084849049
  0
LINE
  8
0
  6
CONTINUOUS
 62
     7
 10
65.49613335524823
 20
25.70993084849049
 11
65.48745922765109
 21
25.60683295691557
  0
LINE
  8
0
  6
CONTINUOUS
 62
     7
 10
65.48745922765109
 20
25.60683295691557
 11
65.473482246448
 21
25.50552472227075
  0
LINE
  8
0
  6
CONTINUOUS
 62
     7
 10
65.473482246448
 20
25.50552472227075
 11
65.43309433488919
 21
25.32523578273837
  0
LINE
  8
0
  6
CONTINUOUS
 62
     7
 10
65.43309433488919
 20
25.32523578273837
 11
65.37814625053551
 21
25.1674771512424
  0
LINE
  8
0
  6
CONTINUOUS
 62
     7
 10
65.37814625053551
 20
25.1674771512424
 11
65.31205281477837
 21
25.03086473198274
  0
LINE
  8
0
  6
CONTINUOUS
 62
     7
 10
65.31205281477837
 20
25.03086473198274
 11
65.22943231443439
 21
24.90120043985833
  0
ARC
  8
0
  6
CONTINUOUS
 62
     7
 10
64.0454097825613
 20
25.83464529227797
 40
1.507723001247796
 50
268.2740978313132
 51
321.7489032257279
  0
LINE
  8
0
  6
CONTINUOUS
 62
     7
 10
-63.99999999999991
 20
24.32760627482056
 11
-63.99999999999991
 21
25.88040681095338
  0
ARC
  8
0
  6
CONTINUOUS
 62
     7
 10
-64.03133630887692
 20
25.88523496952055
 40
1.557943874087558
 50
225.1744807590383
 51
271.15251862345
  0
LINE
  8
0
  6
CONTINUOUS
 62
     7
 10
-65.12960912203921
 20
24.78025264265937
 11
-65.2294323144395
 21
24.9012004398661
  0
LINE
  8
0
  6
CONTINUOUS
 62
     7
 10
-65.2294323144395
 20
24.9012004398661
 11
-65.31205281478219
 21
25.03086473199012
  0
LINE
  8
0
  6
CONTINUOUS
 62
     7
 10
-65.31205281478219
 20
25.03086473199012
 11
-65.37814625053808
 21
25.16747715124951
  0
LINE
  8
0
  6
CONTINUOUS
 62
     7
 10
-65.37814625053808
 20
25.16747715124951
 11
-65.43309433489041
 21
25.32523578274354
  0
ARC
  8
0
  6
CONTINUOUS
 62
     7
 10
-63.5972090686148
 20
25.82571651757026
 40
1.902880888773856
 50
179.4428758825622
 51
195.2488659840415
  0
ARC
  8
0
  6
CONTINUOUS
 62
     7
 10
-15.66686839901804
 20
16.65586793953405
 40
0.9828101485525598
 50
168.5964997966007
 51
255.4142666195666
  0
LINE
  8
0
  6
CONTINUOUS
 62
     7
 10
-15.91436789772721
 20
15.70473188920446
 11
-15.91436789772721
 21
15.00927734374996
  0
LINE
  8
0
  6
CONTINUOUS
 62
     7
 10
-15.91436789772721
 20
15.00927734374996
 11
-20.12800426136352
 21
15.00927734374996
  0
LINE
  8
0
  6
CONTINUOUS
 62
     7
 10
-20.12800426136352
 20
15.00927734374996
 11
-20.12800426136352
 21
15.82745916193179
  0
LINE
  8
0
  6
CONTINUOUS
 62
     7
 10
-20.12800426136352
 20
15.82745916193179
 11
-17.14164062499995
 21
15.82745916193179
  0
LINE
  8
0
  6
CONTINUOUS
 62
     7
 10
-17.14164062499995
 20
15.82745916193179
 11
-17.14164062499995
 21
16.85018643465902
  0
LINE
  8
0
  6
CONTINUOUS
 62
     7
 10
-17.14164062499995
 20
16.85018643465902
 11
-16.63027698863628
 21
16.85018643465902
  0
LINE
  8
0
  6
CONTINUOUS
 62
     7
 10
-15.91436789772721
 20
20.69905007102263
 11
-17.5916406249999
 21
20.69905007102263
  0
LINE
  8
0
  6
CONTINUOUS
 62
     7
 10
-17.5916406249999
 20
20.69905007102263
 11
-17.5916406249999
 21
18.96041370738638
  0
LINE
  8
0
  6
CONTINUOUS
 62
     7
 10
-17.5916406249999
 20
18.96041370738638
 11
-15.91436789772721
 21
18.96041370738638
  0
LINE
  8
0
  6
CONTINUOUS
 62
     7
 10
-15.91436789772721
 20
18.96041370738638
 11
-15.91436789772721
 21
18.14223188920461
  0
LINE
  8
0
  6
CONTINUOUS
 62
     7
 10
-15.91436789772721
 20
18.14223188920461
 11
-20.12800426136352
 21
18.14223188920461
  0
LINE
  8
0
  6
CONTINUOUS
 62
     7
 10
-20.12800426136352
 20
18.14223188920461
 11
-20.12800426136352
 21
18.96041370738638
  0
LINE
  8
0
  6
CONTINUOUS
 62
     7
 10
-20.12800426136352
 20
18.96041370738638
 11
-18.30754971590898
 21
18.96041370738638
  0
LINE
  8
0
  6
CONTINUOUS
 62
     7
 10
-18.30754971590898
 20
18.96041370738638
 11
-18.30754971590898
 21
20.69905007102263
  0
LINE
  8
0
  6
CONTINUOUS
 62
     7
 10
-20.12800426136352
 20
20.69905007102263
 11
-20.12800426136352
 21
21.51723188920457
  0
LINE
  8
0
  6
CONTINUOUS
 62
     7
 10
-20.12800426136352
 20
21.51723188920446
 11
-15.91436789772721
 21
21.51723188920446
  0
LINE
  8
0
  6
CONTINUOUS
 62
     7
 10
-15.91436789772721
 20
21.51723188920446
 11
-15.91436789772721
 21
20.69905007102263
  0
LINE
  8
0
  6
CONTINUOUS
 62
     7
 10
-18.30754971590898
 20
20.69905007102263
 11
-20.12800426136352
 21
20.69905007102263
  0
LINE
  8
0
  6
CONTINUOUS
 62
     7
 10
-15.87199573863635
 20
8.875949928977223
 11
-15.87199573863635
 21
6.4827681107954
  0
LINE
  8
0
  6
CONTINUOUS
 62
     7
 10
-15.87199573863635
 20
6.4827681107954
 11
-16.56745028409079
 21
6.4827681107954
  0
LINE
  8
0
  6
CONTINUOUS
 62
     7
 10
-16.56745028409079
 20
6.4827681107954
 11
-16.56745028409079
 21
8.282768110795368
  0
LINE
  8
0
  6
CONTINUOUS
 62
     7
 10
-16.56745028409079
 20
8.282768110795368
 11
-17.40608664772719
 21
8.44640447443179
  0
LINE
  8
0
  6
CONTINUOUS
 62
     7
 10
-17.40608664772719
 20
8.44640447443179
 11
-17.36047609667629
 21
8.344698043346476
  0
LINE
  8
0
  6
CONTINUOUS
 62
     7
 10
-17.36047609667629
 20
8.344698043346476
 11
-17.32080353443272
 21
8.24412420463605
  0
LINE
  8
0
  6
CONTINUOUS
 62
     7
 10
-17.32080353443272
 20
8.24412420463605
 11
-17.2870689609963
 21
8.144682958300509
  0
LINE
  8
0
  6
CONTINUOUS
 62
     7
 10
-17.2870689609963
 20
8.144682958300509
 11
-17.25927237636721
 21
8.04637430433991
  0
LINE
  8
0
  6
CONTINUOUS
 62
     7
 10
-17.25927237636721
 20
8.04637430433991
 11
-17.23741378054555
 21
7.949198242753974
  0
LINE
  8
0
  6
CONTINUOUS
 62
     7
 10
-17.23741378054555
 20
7.949198242753974
 11
-17.22149317353106
 21
7.853154773542981
  0
LINE
  8
0
  6
CONTINUOUS
 62
     7
 10
-17.22149317353106
 20
7.853154773542981
 11
-17.21151055532394
 21
7.758243896706817
  0
LINE
  8
0
  6
CONTINUOUS
 62
     7
 10
-17.21151055532394
 20
7.758243896706817
 11
-17.20746592592387
 21
7.664465612245652
  0
LINE
  8
0
  6
CONTINUOUS
 62
     7
 10
-17.20746592592387
 20
7.664465612245652
 11
-17.20935928533124
 21
7.571819920159261
  0
LINE
  8
0
  6
CONTINUOUS
 62
     7
 10
-17.20935928533124
 20
7.571819920159261
 11
-17.21719063354588
 21
7.480306820447757
  0
LINE
  8
0
  6
CONTINUOUS
 62
     7
 10
-17.21719063354588
 20
7.480306820447757
 11
-17.23095997056789
 21
7.389926313111139
  0
LINE
  8
0
  6
CONTINUOUS
 62
     7
 10
-17.23095997056789
 20
7.389926313111139
 11
-17.25066729639713
 21
7.300678398149351
  0
LINE
  8
0
  6
CONTINUOUS
 62
     7
 10
-17.25066729639713
 20
7.300678398149351
 11
-17.27631261103363
 21
7.212563075562506
  0
LINE
  8
0
  6
CONTINUOUS
 62
     7
 10
-17.27631261103363
 20
7.212563075562506
 11
-17.3078959144774
 21
7.125580345350491
  0
LINE
  8
0
  6
CONTINUOUS
 62
     7
 10
-17.3078959144774
 20
7.125580345350491
 11
-17.34541720672844
 21
7.03973020751314
  0
LINE
  8
0
  6
CONTINUOUS
 62
     7
 10
-17.34541720672844
 20
7.03973020751314
 11
-17.38887648778686
 21
6.955012662050841
  0
LINE
  8
0
  6
CONTINUOUS
 62
     7
 10
-17.38887648778686
 20
6.955012662050841
 11
-17.42547757604673
 21
6.892313659217774
  0
LINE
  8
0
  6
CONTINUOUS
 62
     7
 10
-17.42547757604673
 20
6.892313659217774
 11
-17.46450102811381
 21
6.832505061259486
  0
LINE
  8
0
  6
CONTINUOUS
 62
     7
 10
-17.46450102811381
 20
6.832505061259486
 11
-17.50594684398821
 21
6.775586868176086
  0
LINE
  8
0
  6
CONTINUOUS
 62
     7
 10
-17.50594684398821
 20
6.775586868176086
 11
-17.54981502366981
 21
6.721559079967521
  0
LINE
  8
0
  6
CONTINUOUS
 62
     7
 10
-17.54981502366981
 20
6.721559079967521
 11
-17.59610556715885
 21
6.670421696633843
  0
LINE
  8
0
  6
CONTINUOUS
 62
     7
 10
-17.59610556715885
 20
6.670421696633843
 11
-17.64481847445504
 21
6.622174718175056
  0
LINE
  8
0
  6
CONTINUOUS
 62
     7
 10
-17.64481847445504
 20
6.622174718175056
 11
-17.69595374555849
 21
6.576818144591156
  0
LINE
  8
0
  6
CONTINUOUS
 62
     7
 10
-17.69595374555849
 20
6.576818144591156
 11
-17.74951138046932
 21
6.53435197588198
  0
LINE
  8
0
  6
CONTINUOUS
 62
     7
 10
-17.74951138046932
 20
6.53435197588198
 11
-17.80549137918741
 21
6.494776212047859
  0
LINE
  8
0
  6
CONTINUOUS
 62
     7
 10
-17.80549137918741
 20
6.494776212047859
 11
-17.86389374171277
 21
6.458090853088461
  0
LINE
  8
0
  6
CONTINUOUS
 62
     7
 10
-17.86389374171277
 20
6.458090853088461
 11
-17.9247184680455
 21
6.424295899003951
  0
LINE
  8
0
  6
CONTINUOUS
 62
     7
 10
-17.9247184680455
 20
6.424295899003951
 11
-17.98796555818544
 21
6.393391349794386
  0
LINE
  8
0
  6
CONTINUOUS
 62
     7
 10
-17.98796555818544
 20
6.393391349794386
 11
-18.05363501213258
 21
6.36537720545971
  0
LINE
  8
0
  6
CONTINUOUS
 62
     7
 10
-18.05363501213258
 20
6.36537720545971
 11
-18.12172682988722
 21
6.340253465999812
  0
LINE
  8
0
  6
CONTINUOUS
 62
     7
 10
-18.12172682988722
 20
6.340253465999812
 11
-18.19224101144901
 21
6.318020131414692
  0
LINE
  8
0
  6
CONTINUOUS
 62
     7
 10
-18.19224101144901
 20
6.318020131414692
 11
-18.26517755681811
 21
6.298677201704572
  0
LINE
  8
0
  6
CONTINUOUS
 62
     7
 10
-18.26517755681811
 20
6.298677201704572
 11
-18.33900121745974
 21
6.282465284843886
  0
LINE
  8
0
  6
CONTINUOUS
 62
     7
 10
-18.33900121745974
 20
6.282465284843886
 11
-18.41217674483903
 21
6.269624988807232
  0
LINE
  8
0
  6
CONTINUOUS
 62
     7
 10
-18.41217674483903
 20
6.269624988807232
 11
-18.4847041389562
 21
6.260156313594778
  0
LINE
  8
0
  6
CONTINUOUS
 62
     7
 10
-18.4847041389562
 20
6.260156313594778
 11
-18.55658339981103
 21
6.254059259206357
  0
LINE
  8
0
  6
CONTINUOUS
 62
     7
 10
-18.55658339981103
 20
6.254059259206357
 11
-18.6278145274037
 21
6.251333825642136
  0
LINE
  8
0
  6
CONTINUOUS
 62
     7
 10
-18.6278145274037
 20
6.251333825642136
 11
-18.69839752173408
 21
6.251980012902059
  0
LINE
  8
0
  6
CONTINUOUS
 62
     7
 10
-18.69839752173408
 20
6.251980012902059
 11
-18.76833238280223
 21
6.25599782098607
  0
LINE
  8
0
  6
CONTINUOUS
 62
     7
 10
-18.76833238280223
 20
6.25599782098607
 11
-18.83761911060822
 21
6.26338724989417
  0
LINE
  8
0
  6
CONTINUOUS
 62
     7
 10
-18.83761911060822
 20
6.26338724989417
 11
-18.90625770515181
 21
6.274148299626414
  0
LINE
  8
0
  6
CONTINUOUS
 62
     7
 10
-18.90625770515181
 20
6.274148299626414
 11
-18.97424816643323
 21
6.28828097018258
  0
LINE
  8
0
  6
CONTINUOUS
 62
     7
 10
-18.97424816643323
 20
6.28828097018258
 11
-19.04159049445242
 21
6.305785261562946
  0
LINE
  8
0
  6
CONTINUOUS
 62
     7
 10
-19.04159049445242
 20
6.305785261562946
 11
-19.10828468920944
 21
6.326661173767567
  0
LINE
  8
0
  6
CONTINUOUS
 62
     7
 10
-19.10828468920944
 20
6.326661173767567
 11
-19.17433075070402
 21
6.350908706796054
  0
LINE
  8
0
  6
CONTINUOUS
 62
     7
 10
-19.17433075070402
 20
6.350908706796054
 11
-19.23972867893653
 21
6.378527860648853
  0
LINE
  8
0
  6
CONTINUOUS
 62
     7
 10
-19.23972867893653
 20
6.378527860648853
 11
-19.30447847390671
 21
6.409518635325795
  0
LINE
  8
0
  6
CONTINUOUS
 62
     7
 10
-19.30447847390671
 20
6.409518635325795
 11
-19.3685801356146
 21
6.443881030826659
  0
LINE
  8
0
  6
CONTINUOUS
 62
     7
 10
-19.3685801356146
 20
6.443881030826659
 11
-19.42152687100662
 21
6.475279254470722
  0
LINE
  8
0
  6
CONTINUOUS
 62
     7
 10
-19.42152687100662
 20
6.475279254470722
 11
-19.4726949946088
 21
6.508615791774252
  0
LINE
  8
0
  6
CONTINUOUS
 62
     7
 10
-19.4726949946088
 20
6.508615791774252
 11
-19.5220845064214
 21
6.543890642737471
  0
LINE
  8
0
  6
CONTINUOUS
 62
     7
 10
-19.5220845064214
 20
6.543890642737471
 11
-19.56969540644426
 21
6.581103807360266
  0
LINE
  8
0
  6
CONTINUOUS
 62
     7
 10
-19.56969540644426
 20
6.581103807360266
 11
-19.61552769467739
 21
6.620255285642584
  0
LINE
  8
0
  6
CONTINUOUS
 62
     7
 10
-19.61552769467739
 20
6.620255285642584
 11
-19.65958137112078
 21
6.661345077584368
  0
LINE
  8
0
  6
CONTINUOUS
 62
     7
 10
-19.65958137112078
 20
6.661345077584368
 11
-19.70185643577465
 21
6.704373183185785
  0
LINE
  8
0
  6
CONTINUOUS
 62
     7
 10
-19.70185643577465
 20
6.704373183185785
 11
-19.74235288863874
 21
6.749339602446669
  0
LINE
  8
0
  6
CONTINUOUS
 62
     7
 10
-19.74235288863874
 20
6.749339602446669
 11
-19.78107072971314
 21
6.796244335367296
  0
LINE
  8
0
  6
CONTINUOUS
 62
     7
 10
-19.78107072971314
 20
6.796244335367296
 11
-19.81800995899779
 21
6.845087381947279
  0
LINE
  8
0
  6
CONTINUOUS
 62
     7
 10
-19.81800995899779
 20
6.845087381947279
 11
-19.85317057649272
 21
6.89586874218695
  0
LINE
  8
0
  6
CONTINUOUS
 62
     7
 10
-19.85317057649272
 20
6.89586874218695
 11
-19.88655258219801
 21
6.948588416086032
  0
LINE
  8
0
  6
CONTINUOUS
 62
     7
 10
-19.88655258219801
 20
6.948588416086032
 11
-19.91815597611374
 21
7.003246403644969
  0
LINE
  8
0
  6
CONTINUOUS
 62
     7
 10
-19.91815597611374
 20
7.003246403644969
 11
-19.94798075823961
 21
7.059842704863151
  0
LINE
  8
0
  6
CONTINUOUS
 62
     7
 10
-19.94798075823961
 20
7.059842704863151
 11
-19.97602692857581
 21
7.118377319741076
  0
LINE
  8
0
  6
CONTINUOUS
 62
     7
 10
-19.97602692857581
 20
7.118377319741076
 11
-20.00229448712232
 21
7.178850248278468
  0
LINE
  8
0
  6
CONTINUOUS
 62
     7
 10
-20.00229448712232
 20
7.178850248278468
 11
-20.02446360223964
 21
7.235186046340547
  0
LINE
  8
0
  6
CONTINUOUS
 62
     7
 10
-20.02446360223964
 20
7.235186046340547
 11
-20.0445683619857
 21
7.291850338534022
  0
LINE
  8
0
  6
CONTINUOUS
 62
     7
 10
-20.0445683619857
 20
7.291850338534022
 11
-20.06260876636074
 21
7.348843124859005
  0
LINE
  8
0
  6
CONTINUOUS
 62
     7
 10
-20.06260876636074
 20
7.348843124859005
 11
-20.07858481536451
 21
7.406164405315163
  0
LINE
  8
0
  6
CONTINUOUS
 62
     7
 10
-20.07858481536451
 20
7.406164405315163
 11
-20.09249650899719
 21
7.463814179902772
  0
LINE
  8
0
  6
CONTINUOUS
 62
     7
 10
-20.09249650899719
 20
7.463814179902772
 11
-20.10434384725857
 21
7.521792448621667
  0
LINE
  8
0
  6
CONTINUOUS
 62
     7
 10
-20.10434384725857
 20
7.521792448621667
 11
-20.11412683014902
 21
7.580099211471958
  0
LINE
  8
0
  6
CONTINUOUS
 62
     7
 10
-20.11412683014902
 20
7.580099211471958
 11
-20.1218454576681
 21
7.638734468453645
  0
LINE
  8
0
  6
CONTINUOUS
 62
     7
 10
-20.1218454576681
 20
7.638734468453645
 11
-20.12749972981614
 21
7.697698219566784
  0
LINE
  8
0
  6
CONTINUOUS
 62
     7
 10
-20.12749972981614
 20
7.697698219566784
 11
-20.13108964659299
 21
7.756990464811097
  0
LINE
  8
0
  6
CONTINUOUS
 62
     7
 10
-20.13108964659299
 20
7.756990464811097
 11
-20.13261520799858
 21
7.816611204186863
  0
LINE
  8
0
  6
CONTINUOUS
 62
     7
 10
-20.13261520799858
 20
7.816611204186863
 11
-20.13207641403314
 21
7.876560437693969
  0
LINE
  8
0
  6
CONTINUOUS
 62
     7
 10
-20.13207641403314
 20
7.876560437693969
 11
-20.1294732646965
 21
7.936838165332471
  0
LINE
  8
0
  6
CONTINUOUS
 62
     7
 10
-20.1294732646965
 20
7.936838165332471
 11
-20.1248057599886
 21
7.99744438710237
  0
LINE
  8
0
  6
CONTINUOUS
 62
     7
 10
-20.1248057599886
 20
7.99744438710237
 11
-20.11807389990972
 21
8.058379103003555
  0
LINE
  8
0
  6
CONTINUOUS
 62
     7
 10
-20.11807389990972
 20
8.058379103003555
 11
-20.10927768445952
 21
8.119642313036302
  0
LINE
  8
0
  6
CONTINUOUS
 62
     7
 10
-20.10927768445952
 20
8.119642313036302
 11
-20.09770398178778
 21
8.185337514849566
  0
LINE
  8
0
  6
CONTINUOUS
 62
     7
 10
-20.09770398178778
 20
8.185337514849566
 11
-20.08423517841024
 21
8.249596216304388
  0
LINE
  8
0
  6
CONTINUOUS
 62
     7
 10
-20.08423517841024
 20
8.249596216304388
 11
-20.0688712743266
 21
8.312418417400657
  0
LINE
  8
0
  6
CONTINUOUS
 62
     7
 10
-20.0688712743266
 20
8.312418417400657
 11
-20.05161226953733
 21
8.373804118138372
  0
LINE
  8
0
  6
CONTINUOUS
 62
     7
 10
-20.05161226953733
 20
8.373804118138372
 11
-20.03245816404198
 21
8.433753318517534
  0
LINE
  8
0
  6
CONTINUOUS
 62
     7
 10
-20.03245816404198
 20
8.433753318517534
 11
-20.01140895784092
 21
8.492266018538253
  0
LINE
  8
0
  6
CONTINUOUS
 62
     7
 10
-20.01140895784092
 20
8.492266018538253
 11
-19.98846465093379
 21
8.549342218200362
  0
LINE
  8
0
  6
CONTINUOUS
 62
     7
 10
-19.98846465093379
 20
8.549342218200362
 11
-19.96362524332102
 21
8.604981917503974
  0
LINE
  8
0
  6
CONTINUOUS
 62
     7
 10
-19.96362524332102
 20
8.604981917503974
 11
-19.93689073500232
 21
8.659185116448976
  0
LINE
  8
0
  6
CONTINUOUS
 62
     7
 10
-19.93689073500232
 20
8.659185116448976
 11
-19.90826112597771
 21
8.71195181503559
  0
LINE
  8
0
  6
CONTINUOUS
 62
     7
 10
-19.90826112597771
 20
8.71195181503559
 11
-19.87773641624724
 21
8.763282013263485
  0
LINE
  8
0
  6
CONTINUOUS
 62
     7
 10
-19.87773641624724
 20
8.763282013263485
 11
-19.84531660581079
 21
8.813175711132882
  0
LINE
  8
0
  6
CONTINUOUS
 62
     7
 10
-19.84531660581079
 20
8.813175711132882
 11
-19.81100169466865
 21
8.861632908643779
  0
LINE
  8
0
  6
CONTINUOUS
 62
     7
 10
-19.81100169466865
 20
8.861632908643779
 11
-19.77479168282048
 21
8.908653605796069
  0
LINE
  8
0
  6
CONTINUOUS
 62
     7
 10
-19.77479168282048
 20
8.908653605796069
 11
-19.7366865702665
 21
8.954237802589859
  0
LINE
  8
0
  6
CONTINUOUS
 62
     7
 10
-19.7366865702665
 20
8.954237802589859
 11
-19.69668635700661
 21
8.998385499025153
  0
ARC
  8
0
  6
CONTINUOUS
 62
     7
 10
-18.7472642981602
 20
8.108164432683973
 40
1.301497519314465
 50
93.09129474181631
 51
136.8431818598012
  0
ARC
  8
0
  6
CONTINUOUS
 62
     7
 10
-18.65712888615212
 20
7.850926725230467
 40
0.8159289657624358
 50
101.3317437012834
 51
49.01529635800335
  0
LINE
  8
0
  6
CONTINUOUS
 62
     7
 10
-18.81745028409071
 20
9.407768110795356
 11
-18.81745028409071
 21
8.650949928977303
  0
LINE
  8
0
  6
CONTINUOUS
 62
     7
 10
-18.12199573863632
 20
8.466859019886252
 11
-18.12199573863632
 21
9.244131747159045
  0
LINE
  8
0
  6
CONTINUOUS
 62
     7
 10
-18.12199573863632
 20
9.244131747159045
 11
-15.87199573863635
 21
8.875949928977223
  0
LINE
  8
0
  6
CONTINUOUS
 62
     7
 10
-20.12845880681813
 20
10.60586825284088
 11
-20.12845880681813
 21
13.65359552556816
  0
LINE
  8
0
  6
CONTINUOUS
 62
     7
 10
-17.387549715909
 20
12.87632279829542
 11
-17.387549715909
 21
13.65359552556816
  0
LINE
  8
0
  6
CONTINUOUS
 62
     7
 10
-19.45345880681809
 20
12.65132279829539
 11
-19.45345880681809
 21
10.60586825284088
  0
LINE
  8
0
  6
CONTINUOUS
 62
     7
 10
-19.45345880681809
 20
10.60586825284088
 11
-20.12845880681813
 21
10.60586825284088
  0
LINE
  8
0
  6
CONTINUOUS
 62
     7
 10
-17.387549715909
 20
13.65359552556811
 11
-16.76015943377729
 21
13.5345712308973
  0
LINE
  8
0
  6
CONTINUOUS
 62
     7
 10
-16.76015943377729
 20
13.5345712308973
 11
-16.26889767829143
 21
13.17749834688475
  0
LINE
  8
0
  6
CONTINUOUS
 62
     7
 10
-16.26889767829143
 20
13.17749834688475
 11
-15.97265943377735
 21
12.68570759453369
  0
LINE
  8
0
  6
CONTINUOUS
 62
     7
 10
-15.97265943377735
 20
12.68570759453369
 11
-15.87391335227262
 21
12.09905007102269
  0
LINE
  8
0
  6
CONTINUOUS
 62
     7
 10
-15.87391335227262
 20
12.09905007102269
 11
-15.93527698863628
 21
11.62348188920448
  0
LINE
  8
0
  6
CONTINUOUS
 62
     7
 10
-15.93527698863628
 20
11.62348188920448
 11
-16.11936789772722
 21
11.23995916193177
  0
LINE
  8
0
  6
CONTINUOUS
 62
     7
 10
-16.11936789772722
 20
11.23995916193177
 11
-16.42618607954527
 21
10.94848188920444
  0
LINE
  8
0
  6
CONTINUOUS
 62
     7
 10
-16.42618607954527
 20
10.94848188920444
 11
-16.85573153409081
 21
10.74905007102267
  0
LINE
  8
0
  6
CONTINUOUS
 62
     7
 10
-16.85573153409081
 20
10.74905007102267
 11
-17.32773091948758
 21
10.67727807221247
  0
LINE
  8
0
  6
CONTINUOUS
 62
     7
 10
-17.32773091948758
 20
10.67727807221247
 11
-17.7619108938597
 21
10.7687802576002
  0
LINE
  8
0
  6
CONTINUOUS
 62
     7
 10
-17.7619108938597
 20
10.7687802576002
 11
-18.15827145720733
 21
11.02355662718568
  0
ARC
  8
0
  6
CONTINUOUS
 62
     7
 10
-94.16184960698732
 20
-48.12210456438254
 40
96.30551972424789
 50
37.88990195742887
 51
39.12750114865724
  0
LINE
  8
0
  6
CONTINUOUS
 62
     7
 10
-20.12845880681813
 20
13.65359552556811
 11
-19.67480355201467
 21
13.60233359974383
  0
LINE
  8
0
  6
CONTINUOUS
 62
     7
 10
-19.67480355201467
 20
13.60233359974383
 11
-19.25474687851364
 21
13.42809327681654
  0
LINE
  8
0
  6
CONTINUOUS
 62
     7
 10
-19.25474687851364
 20
13.42809327681654
 11
-18.86828878631469
 21
13.13087455678608
  0
ARC
  8
0
  6
CONTINUOUS
 62
     7
 10
-121.1682069134006
 20
-66.69483309258123
 40
129.7590723245613
 50
37.18942360813469
 51
37.96529267330061
  0
LINE
  8
0
  6
CONTINUOUS
 62
     7
 10
-17.79674371303003
 20
11.73830688246469
 11
-17.55595501596768
 21
11.57350518262501
  0
LINE
  8
0
  6
CONTINUOUS
 62
     7
 10
-17.55595501596768
 20
11.57350518262501
 11
-17.29709624166204
 21
11.50388558404086
  0
LINE
  8
0
  6
CONTINUOUS
 62
     7
 10
-17.29709624166204
 20
11.50388558404086
 11
-17.02016739011292
 21
11.52944808671258
  0
LINE
  8
0
  6
CONTINUOUS
 62
     7
 10
-17.02016739011292
 20
11.52944808671258
 11
-16.75782339406629
 21
11.65963692264899
  0
LINE
  8
0
  6
CONTINUOUS
 62
     7
 10
-16.75782339406629
 20
11.65963692264899
 11
-16.58602675433452
 21
11.89281764365624
  0
LINE
  8
0
  6
CONTINUOUS
 62
     7
 10
-16.58602675433452
 20
11.89281764365624
 11
-16.5317452681818
 21
12.16553142007831
  0
LINE
  8
0
  6
CONTINUOUS
 62
     7
 10
-16.5317452681818
 20
12.16553142007831
 11
-16.60676397748384
 21
12.44848062188447
  0
LINE
  8
0
  6
CONTINUOUS
 62
     7
 10
-16.60676397748384
 20
12.44848062188447
 11
-16.8957623722118
 21
12.74890770873816
  0
LINE
  8
0
  6
CONTINUOUS
 62
     7
 10
-16.8957623722118
 20
12.74890770873816
 11
-17.387549715909
 21
12.87632279829542
  0
LINE
  8
0
  6
CONTINUOUS
 62
     7
 10
19.34046526913497
 20
9.249326794383839
 11
19.34046526913497
 21
8.447431965640739
  0
LINE
  8
0
  6
CONTINUOUS
 62
     7
 10
19.34046526913497
 20
8.447431965640739
 11
20.49302597583436
 21
7.981428305870009
  0
LINE
  8
0
  6
CONTINUOUS
 62
     7
 10
20.49302597583436
 20
7.981428305870009
 11
20.49302597583436
 21
6.692284919787738
  0
LINE
  8
0
  6
CONTINUOUS
 62
     7
 10
20.49302597583436
 20
6.692284919787738
 11
16.75145599372368
 21
8.203782673355475
  0
LINE
  8
0
  6
CONTINUOUS
 62
     7
 10
16.75145599372368
 20
8.203782673355475
 11
19.34046526913497
 21
9.249326794383839
  0
LINE
  8
0
  6
CONTINUOUS
 62
     7
 10
15.50275962416575
 20
8.598180689359747
 11
15.50275962416575
 21
9.887324075442072
  0
LINE
  8
0
  6
CONTINUOUS
 62
     7
 10
15.50275962416575
 20
9.887324075441962
 11
20.49302597583436
 21
11.90373833687763
  0
LINE
  8
0
  6
CONTINUOUS
 62
     7
 10
20.49302597583436
 20
11.90373833687763
 11
20.49302597583436
 21
10.61431146315128
  0
LINE
  8
0
  6
CONTINUOUS
 62
     7
 10
20.49302597583436
 20
10.61431146315128
 11
15.50275962416575
 21
8.598180689359747
  0
LINE
  8
0
  6
CONTINUOUS
 62
     7
 10
20.49302597583436
 20
15.0490003973659
 11
17.950625404272
 21
14.0216244991796
  0
LINE
  8
0
  6
CONTINUOUS
 62
     7
 10
17.950625404272
 20
14.0216244991796
 11
16.35448991317823
 21
14.66639213220994
  0
LINE
  8
0
  6
CONTINUOUS
 62
     7
 10
15.50275962416575
 20
18.42825649449403
 11
20.49302597583436
 21
16.41215907218996
  0
LINE
  8
0
  6
CONTINUOUS
 62
     7
 10
16.35448991317823
 20
14.6663921322101
 11
18.9879733972354
 21
15.73043799095586
  0
LINE
  8
0
  6
CONTINUOUS
 62
     7
 10
15.50275962416575
 20
17.13872122843307
 11
15.50275962416575
 21
18.42825649449403
  0
LINE
  8
0
  6
CONTINUOUS
 62
     7
 10
18.9879733972354
 20
15.73043799095586
 11
15.50275962416575
 21
17.13872122843307
  0
LINE
  8
0
  6
CONTINUOUS
 62
     7
 10
20.49302597583436
 20
16.41215907218996
 11
20.49302597583436
 21
15.04900039736579
  0
LINE
  8
0
  6
CONTINUOUS
 62
     7
 10
15.50275962416575
 20
20.75595686496329
 11
18.82838597583441
 21
20.75595686496329
  0
LINE
  8
0
  6
CONTINUOUS
 62
     7
 10
20.49302597583436
 20
19.09131686496318
 11
20.49302597583436
 21
17.3400141315318
  0
LINE
  8
0
  6
CONTINUOUS
 62
     7
 10
20.49302597583436
 20
17.3400141315318
 11
19.76734702100114
 21
17.63320746082109
  0
LINE
  8
0
  6
CONTINUOUS
 62
     7
 10
19.76734702100119
 20
17.63320746082109
 11
19.76734702100119
 21
18.34203697192971
  0
ARC
  8
0
  6
CONTINUOUS
 62
     7
 10
18.65758702100118
 20
18.34203697192971
 40
1.109760000000015
 50
0.0
 51
90.0
  0
LINE
  8
0
  6
CONTINUOUS
 62
     7
 10
15.50275962416575
 20
19.45179697192978
 11
15.50275962416575
 21
20.75595686496329
  0
ARC
  8
0
  6
CONTINUOUS
 62
     7
 10
18.82838597583441
 20
19.09131686496318
 40
1.664639999999995
 50
0.0
 51
90.0
  0
LINE
  8
0
  6
CONTINUOUS
 62
     7
 10
18.65758702100118
 20
19.45179697192978
 11
15.50275962416575
 21
19.45179697192978
  0
LINE
  8
0
  6
CONTINUOUS
 62
     7
 10
20.49302597583436
 20
12.83162674770699
 11
15.50275962416575
 21
10.81521248627126
  0
LINE
  8
0
  6
CONTINUOUS
 62
     7
 10
15.50275962416575
 20
10.81521248627126
 11
15.50275962416575
 21
12.10473107658849
  0
LINE
  8
0
  6
CONTINUOUS
 62
     7
 10
20.49302597583436
 20
14.12114533802406
 11
20.49302597583436
 21
12.83162674770688
  0
LINE
  8
0
  6
CONTINUOUS
 62
     7
 10
15.50275962416575
 20
12.10473107658849
 11
20.49302597583436
 21
14.12114533802406
  0
LINE
  8
0
  6
CONTINUOUS
 62
     7
 10
13.50000000000012
 20
24.32760627482056
 11
12.00000000000012
 21
24.32760627482056
  0
LINE
  8
0
  6
CONTINUOUS
 62
     7
 10
12.00000000000012
 20
26.65680707901985
 11
12.00000000000012
 21
24.32760627482056
  0
LINE
  8
0
  6
CONTINUOUS
 62
     7
 10
64.00000000000011
 20
24.32760627482045
 11
62.62361166892455
 21
24.32760627482056
  0
LINE
  8
0
  6
CONTINUOUS
 62
     7
 10
-11.9999999999999
 20
24.32760627482056
 11
-11.9999999999999
 21
26.65680707901985
  0
LINE
  8
0
  6
CONTINUOUS
 62
     7
 10
-13.4999999999999
 20
24.32760627482056
 11
-11.9999999999999
 21
24.32760627482056
  0
LINE
  8
0
  6
CONTINUOUS
 62
     7
 10
-62.62361166892441
 20
24.32760627482056
 11
-63.99999999999991
 21
24.32760627482056
  0
LINE
  8
0
  6
CONTINUOUS
 62
     7
 10
49.30638833107547
 20
24.32760627482056
 11
46.63361166892476
 21
24.32760627482056
  0
LINE
  8
0
  6
CONTINUOUS
 62
     7
 10
59.96638833107559
 20
24.32760627482056
 11
57.29361166892477
 21
24.32760627482056
  0
LINE
  8
0
  6
CONTINUOUS
 62
     7
 10
54.63638833107554
 20
24.32760627482056
 11
51.96361166892466
 21
24.32760627482056
  0
LINE
  8
0
  6
CONTINUOUS
 62
     7
 10
38.64638833107553
 20
24.32760627482056
 11
35.97361166892471
 21
24.32760627482056
  0
LINE
  8
0
  6
CONTINUOUS
 62
     7
 10
43.97638833107559
 20
24.32760627482056
 11
41.3036116689246
 21
24.32760627482056
  0
LINE
  8
0
  6
CONTINUOUS
 62
     7
 10
27.98638833107558
 20
24.32760627482056
 11
25.31361166892471
 21
24.32760627482056
  0
LINE
  8
0
  6
CONTINUOUS
 62
     7
 10
33.31638833107559
 20
24.32760627482056
 11
30.64361166892465
 21
24.32760627482056
  0
LINE
  8
0
  6
CONTINUOUS
 62
     7
 10
-30.64361166892438
 20
24.32760627482056
 11
-33.31638833107531
 21
24.32760627482056
  0
LINE
  8
0
  6
CONTINUOUS
 62
     7
 10
-25.31361166892443
 20
24.32760627482056
 11
-27.98638833107531
 21
24.32760627482056
  0
LINE
  8
0
  6
CONTINUOUS
 62
     7
 10
-57.29361166892441
 20
24.32760627482056
 11
-59.96638833107531
 21
24.32760627482056
  0
LINE
  8
0
  6
CONTINUOUS
 62
     7
 10
-46.63361166892452
 20
24.32760627482056
 11
-49.30638833107531
 21
24.32760627482056
  0
LINE
  8
0
  6
CONTINUOUS
 62
     7
 10
-51.96361166892441
 20
24.32760627482056
 11
-54.63638833107531
 21
24.32760627482056
  0
LINE
  8
0
  6
CONTINUOUS
 62
     7
 10
-41.30361166892438
 20
24.32760627482056
 11
-43.97638833107531
 21
24.32760627482056
  0
LINE
  8
0
  6
CONTINUOUS
 62
     7
 10
-35.97361166892438
 20
24.32760627482056
 11
-38.64638833107531
 21
24.32760627482056
  0
LINE
  8
0
  6
CONTINUOUS
 62
     7
 10
-59.96638833107531
 20
0.0
 11
-57.29361166892441
 21
0.0
  0
LINE
  8
0
  6
CONTINUOUS
 62
     7
 10
57.29361166892471
 20
0.0
 11
59.96638833107548
 21
0.0
  0
ARC
  8
0
  6
CONTINUOUS
 62
     7
 10
19.00000000000013
 20
7.499999999999895
 40
5.500000000000004
 50
180.0
 51
285.8266201318724
  0
LINE
  8
0
  6
CONTINUOUS
 62
     7
 10
20.50000000000013
 20
2.208497377870766
 11
19.00000000000013
 21
0.4999999999998894
  0
ARC
  8
0
  6
CONTINUOUS
 62
     7
 10
19.00000000000013
 20
7.499999999999895
 40
7.000000000000006
 50
180.0
 51
270.0
  0
LINE
  8
0
  6
CONTINUOUS
 62
     7
 10
13.50000000000012
 20
7.499999999999895
 11
12.00000000000012
 21
7.499999999999895
  0
LINE
  8
0
  6
CONTINUOUS
 62
     7
 10
51.96361166892466
 20
0.0
 11
54.63638833107554
 21
0.0
  0
LINE
  8
0
  6
CONTINUOUS
 62
     7
 10
-54.63638833107531
 20
0.0
 11
-51.96361166892441
 21
0.0
  0
LINE
  8
0
  6
CONTINUOUS
 62
     7
 10
46.63361166892466
 20
0.0
 11
49.30638833107547
 21
0.0
  0
LINE
  8
0
  6
CONTINUOUS
 62
     7
 10
-63.99999999999991
 20
24.32760627482056
 11
-63.99999999999991
 21
0.0
  0
LINE
  8
0
  6
CONTINUOUS
 62
     7
 10
-63.99999999999991
 20
0.0
 11
-62.62361166892441
 21
0.0
  0
LINE
  8
0
  6
CONTINUOUS
 62
     7
 10
-13.4999999999999
 20
7.499999999999895
 11
-13.4999999999999
 21
24.32760627482056
  0
LINE
  8
0
  6
CONTINUOUS
 62
     7
 10
-11.9999999999999
 20
24.32760627482056
 11
-11.9999999999999
 21
7.499999999999895
  0
LINE
  8
0
  6
CONTINUOUS
 62
     7
 10
-13.4999999999999
 20
7.499999999999895
 11
-11.9999999999999
 21
7.499999999999895
  0
LINE
  8
0
  6
CONTINUOUS
 62
     7
 10
13.50000000000012
 20
24.32760627482056
 11
13.50000000000012
 21
7.499999999999895
  0
LINE
  8
0
  6
CONTINUOUS
 62
     7
 10
12.00000000000012
 20
7.499999999999895
 11
12.00000000000012
 21
24.32760627482056
  0
LINE
  8
0
  6
CONTINUOUS
 62
     7
 10
-65.49999999999991
 20
0.0
 11
-65.49999999999991
 21
25.84421917411655
  0
LINE
  8
0
  6
CONTINUOUS
 62
     7
 10
-63.99999999999991
 20
0.0
 11
-65.49999999999991
 21
0.0
  0
LINE
  8
0
  6
CONTINUOUS
 62
     7
 10
-27.98638833107542
 20
0.0
 11
-25.31361166892454
 21
0.0
  0
ARC
  8
0
  6
CONTINUOUS
 62
     7
 10
-18.9999999999999
 20
7.499999999999895
 40
5.500000000000004
 50
254.1733798681277
 51
0.0
  0
LINE
  8
0
  6
CONTINUOUS
 62
     7
 10
-20.49999999999991
 20
0.0
 11
-20.49999999999991
 21
2.208497377870766
  0
LINE
  8
0
  6
CONTINUOUS
 62
     7
 10
-22.65638833107531
 20
0.0
 11
-20.49999999999985
 21
0.0
  0
LINE
  8
0
  6
CONTINUOUS
 62
     7
 10
-33.31638833107531
 20
0.0
 11
-30.64361166892438
 21
0.0
  0
LINE
  8
0
  6
CONTINUOUS
 62
     7
 10
-49.3063883310754
 20
0.0
 11
-46.63361166892452
 21
0.0
  0
LINE
  8
0
  6
CONTINUOUS
 62
     7
 10
-20.49999999999991
 20
2.208497377870766
 11
-18.9999999999999
 21
0.4999999999998894
  0
LINE
  8
0
  6
CONTINUOUS
 62
     7
 10
-18.9999999999999
 20
0.4999999999998894
 11
-18.9999999999999
 21
0.0
  0
LINE
  8
0
  6
CONTINUOUS
 62
     7
 10
-18.9999999999999
 20
0.0
 11
-20.49999999999991
 21
0.0
  0
LINE
  8
0
  6
CONTINUOUS
 62
     7
 10
64.00000000000011
 20
0.0
 11
64.00000000000011
 21
24.32760627482045
  0
LINE
  8
0
  6
CONTINUOUS
 62
     7
 10
62.62361166892472
 20
0.0
 11
64.00000000000011
 21
0.0
  0
LINE
  8
0
  6
CONTINUOUS
 62
     7
 10
65.50000000000011
 20
25.84421917411656
 11
65.50000000000011
 21
0.0000000000000035
  0
LINE
  8
0
  6
CONTINUOUS
 62
     7
 10
65.50000000000011
 20
0.0
 11
64.00000000000011
 21
0.0
  0
LINE
  8
0
  6
CONTINUOUS
 62
     7
 10
20.50000000000013
 20
2.208497377870766
 11
20.50000000000013
 21
0.0
  0
LINE
  8
0
  6
CONTINUOUS
 62
     7
 10
19.00000000000013
 20
0.0
 11
19.00000000000013
 21
0.4999999999998894
  0
LINE
  8
0
  6
CONTINUOUS
 62
     7
 10
20.50000000000013
 20
0.0
 11
19.00000000000013
 21
0.0
  0
ARC
  8
0
  6
CONTINUOUS
 62
     7
 10
-18.9999999999999
 20
7.499999999999895
 40
7.000000000000006
 50
270.0
 51
0.0
  0
LINE
  8
0
  6
CONTINUOUS
 62
     7
 10
25.31361166892459
 20
0.0
 11
27.98638833107547
 21
0.0
  0
LINE
  8
0
  6
CONTINUOUS
 62
     7
 10
41.3036116689246
 20
0.0
 11
43.97638833107559
 21
0.0
  0
LINE
  8
0
  6
CONTINUOUS
 62
     7
 10
-43.97638833107531
 20
0.0
 11
-41.30361166892438
 21
0.0
  0
LINE
  8
0
  6
CONTINUOUS
 62
     7
 10
35.97361166892471
 20
0.0
 11
38.64638833107553
 21
0.0
  0
LINE
  8
0
  6
CONTINUOUS
 62
     7
 10
20.50000000000013
 20
0.0
 11
22.65638833107564
 21
0.0
  0
LINE
  8
0
  6
CONTINUOUS
 62
     7
 10
30.64361166892465
 20
0.0
 11
33.31638833107547
 21
0.0
  0
LINE
  8
0
  6
CONTINUOUS
 62
     7
 10
-38.64638833107531
 20
0.0
 11
-35.97361166892438
 21
0.0
  0
LINE
  8
0
  6
CONTINUOUS
 62
     7
 10
-11.9999999999999
 20
29.99999999999997
 11
12.00000000000012
 21
29.99999999999997
  0
LINE
  8
0
  6
CONTINUOUS
 62
     7
 10
-11.9999999999999
 20
30.88060046590485
 11
12.00000000000012
 21
30.88060046590485
  0
LINE
  8
0
  6
CONTINUOUS
 62
     7
 10
12.07991747035658
 20
33.02663798866867
 11
-12.07991747035631
 21
33.02663798866867
  0
LINE
  8
0
  6
CONTINUOUS
 62
     7
 10
-13.49677940267929
 20
34.22642151720179
 11
-12.9843169300648
 21
34.22642151720179
  0
LINE
  8
0
  6
CONTINUOUS
 62
     7
 10
-12.98579245626341
 20
34.22647897326525
 11
-8.334207543737481
 21
34.22647897326525
  0
LINE
  8
0
  6
CONTINUOUS
 62
     7
 10
-8.335683069935762
 20
34.22642151720179
 11
-7.654316930065019
 21
34.22642151720179
  0
LINE
  8
0
  6
CONTINUOUS
 62
     7
 10
-7.65579245626341
 20
34.22647897326525
 11
-3.004207543737369
 21
34.22647897326525
  0
LINE
  8
0
  6
CONTINUOUS
 62
     7
 10
-3.005683069935816
 20
34.22642151720179
 11
-2.324316930064962
 21
34.22642151720179
  0
LINE
  8
0
  6
CONTINUOUS
 62
     7
 10
-2.325792456263409
 20
34.22647897326525
 11
2.325792456262687
 21
34.22647897326525
  0
LINE
  8
0
  6
CONTINUOUS
 62
     7
 10
2.324316930064185
 20
34.22642151720179
 11
3.005683069935094
 21
34.22642151720179
  0
LINE
  8
0
  6
CONTINUOUS
 62
     7
 10
3.004207543736481
 20
34.22647897326525
 11
7.655792456262578
 21
34.22647897326525
  0
LINE
  8
0
  6
CONTINUOUS
 62
     7
 10
7.654316930064186
 20
34.22642151720179
 11
8.335683069934985
 21
34.22642151720179
  0
LINE
  8
0
  6
CONTINUOUS
 62
     7
 10
8.334207543736538
 20
34.22647897326525
 11
12.98579245626269
 21
34.22647897326525
  0
LINE
  8
0
  6
CONTINUOUS
 62
     7
 10
12.98431693006435
 20
34.22642151720179
 11
13.49677940267951
 21
34.22642151720179
  0
LINE
  8
0
  6
CONTINUOUS
 62
     7
 10
13.62603543328522
 20
34.22720779386324
 11
13.02396456671512
 21
34.22720779386324
  0
ARC
  8
0
  6
CONTINUOUS
 62
     7
 10
13.62603543328522
 20
33.22720779386324
 40
1.000000000000001
 50
87.73276479347062
 51
90.0
  0
ARC
  8
0
  6
CONTINUOUS
 62
     7
 10
13.02396456671512
 20
33.22720779386324
 40
1.000000000000001
 50
90.0
 51
92.2722378148284
  0
LINE
  8
0
  6
CONTINUOUS
 62
     7
 10
-13.02396456671484
 20
34.22720779386324
 11
-13.626035433285
 21
34.22720779386324
  0
ARC
  8
0
  6
CONTINUOUS
 62
     7
 10
-13.02396456671484
 20
33.22720779386324
 40
1.000000000000001
 50
87.72776218521415
 51
90.0
  0
ARC
  8
0
  6
CONTINUOUS
 62
     7
 10
-13.626035433285
 20
33.22720779386324
 40
1.000000000000001
 50
90.0
 51
92.26723520659702
  0
ARC
  8
0
  6
CONTINUOUS
 62
     7
 10
8.296035433285164
 20
33.22720779386324
 40
1.000000000000001
 50
87.72776218522266
 51
89.9999999999994
  0
ARC
  8
0
  6
CONTINUOUS
 62
     7
 10
7.693964566715117
 20
33.22720779386324
 40
1.000000000000001
 50
90.00000000000054
 51
92.27223781483518
  0
LINE
  8
0
  6
CONTINUOUS
 62
     7
 10
8.296035433285164
 20
34.22720779386324
 11
7.693964566715006
 21
34.22720779386324
  0
ARC
  8
0
  6
CONTINUOUS
 62
     7
 10
2.966035433285164
 20
33.22720779386324
 40
1.000000000000001
 50
87.72776218522104
 51
89.99999999999973
  0
ARC
  8
0
  6
CONTINUOUS
 62
     7
 10
2.36396456671506
 20
33.22720779386324
 40
1.000000000000001
 50
90.00000000000085
 51
92.2722378148372
  0
LINE
  8
0
  6
CONTINUOUS
 62
     7
 10
2.966035433285164
 20
34.22720779386324
 11
2.363964566714949
 21
34.22720779386324
  0
LINE
  8
0
  6
CONTINUOUS
 62
     7
 10
-7.693964566714784
 20
34.22720779386324
 11
-8.296035433284999
 21
34.22720779386324
  0
ARC
  8
0
  6
CONTINUOUS
 62
     7
 10
-8.296035433284999
 20
33.22720779386324
 40
1.000000000000001
 50
90.0
 51
92.2722378148398
  0
ARC
  8
0
  6
CONTINUOUS
 62
     7
 10
-7.693964566714784
 20
33.22720779386324
 40
1.000000000000001
 50
87.72776218522047
 51
90.0000000000006
  0
LINE
  8
0
  6
CONTINUOUS
 62
     7
 10
-2.363964566714782
 20
34.22720779386324
 11
-2.966035433284997
 21
34.22720779386324
  0
ARC
  8
0
  6
CONTINUOUS
 62
     7
 10
-2.966035433284997
 20
33.22720779386324
 40
1.000000000000001
 50
90.0000000000003
 51
92.27223781483748
  0
ARC
  8
0
  6
CONTINUOUS
 62
     7
 10
-2.363964566714782
 20
33.22720779386324
 40
1.000000000000001
 50
87.72776218522186
 51
90.0
  0
LINE
  8
0
  6
CONTINUOUS
 62
     7
 10
14.62966496803975
 20
34.779543750107
 11
14.62966496803975
 21
34.22720779386368
  0
LINE
  8
0
  6
CONTINUOUS
 62
     7
 10
13.6310354332852
 20
35.72720779386401
 11
13.6310354332852
 21
34.22719529378509
  0
LINE
  8
0
  6
CONTINUOUS
 62
     7
 10
-6.690335031960315
 20
34.779543750107
 11
-6.690335031960315
 21
34.22720779386368
  0
LINE
  8
0
  6
CONTINUOUS
 62
     7
 10
-7.688964566714806
 20
35.72720779386401
 11
-7.688964566714806
 21
34.22719529378509
  0
LINE
  8
0
  6
CONTINUOUS
 62
     7
 10
-1.360335031960203
 20
34.779543750107
 11
-1.360335031960203
 21
34.22720779386368
  0
LINE
  8
0
  6
CONTINUOUS
 62
     7
 10
-2.358964566714805
 20
35.72720779386401
 11
-2.358964566714805
 21
34.22719529378509
  0
LINE
  8
0
  6
CONTINUOUS
 62
     7
 10
3.969664968039799
 20
34.779543750107
 11
3.969664968039799
 21
34.22720779386368
  0
LINE
  8
0
  6
CONTINUOUS
 62
     7
 10
2.971035433285141
 20
35.72720779386401
 11
2.971035433285141
 21
34.22719529378509
  0
LINE
  8
0
  6
CONTINUOUS
 62
     7
 10
9.29966496803969
 20
34.779543750107
 11
9.29966496803969
 21
34.22720779386368
  0
LINE
  8
0
  6
CONTINUOUS
 62
     7
 10
8.301035433285197
 20
35.72720779386401
 11
8.301035433285197
 21
34.22719529378509
  0
LINE
  8
0
  6
CONTINUOUS
 62
     7
 10
-12.02033503196032
 20
34.779543750107
 11
-12.02033503196032
 21
34.22720779386368
  0
LINE
  8
0
  6
CONTINUOUS
 62
     7
 10
-13.01896456671481
 20
35.72720779386401
 11
-13.01896456671481
 21
34.22719529378509
  0
LINE
  8
0
  6
CONTINUOUS
 62
     7
 10
-8.291035433285131
 20
35.72720779386401
 11
-8.291035433285131
 21
34.22720779386324
  0
LINE
  8
0
  6
CONTINUOUS
 62
     7
 10
-9.289664968039624
 20
34.779543750107
 11
-9.289664968039624
 21
34.22720779386368
  0
LINE
  8
0
  6
CONTINUOUS
 62
     7
 10
-2.961035433285075
 20
35.72720779386401
 11
-2.961035433285075
 21
34.22720779386324
  0
LINE
  8
0
  6
CONTINUOUS
 62
     7
 10
-3.959664968039622
 20
34.779543750107
 11
-3.959664968039622
 21
34.22720779386368
  0
LINE
  8
0
  6
CONTINUOUS
 62
     7
 10
-13.62103543328497
 20
35.72720779386401
 11
-13.62103543328497
 21
34.22720779386324
  0
LINE
  8
0
  6
CONTINUOUS
 62
     7
 10
-14.61966496803963
 20
34.779543750107
 11
-14.61966496803963
 21
34.22720779386368
  0
LINE
  8
0
  6
CONTINUOUS
 62
     7
 10
13.02896456671487
 20
35.72720779386401
 11
13.02896456671487
 21
34.22720779386324
  0
LINE
  8
0
  6
CONTINUOUS
 62
     7
 10
12.03033503196044
 20
34.779543750107
 11
12.03033503196044
 21
34.22720779386368
  0
LINE
  8
0
  6
CONTINUOUS
 62
     7
 10
7.698964566714983
 20
35.72720779386401
 11
7.698964566714983
 21
34.22720779386324
  0
LINE
  8
0
  6
CONTINUOUS
 62
     7
 10
6.70033503196038
 20
34.779543750107
 11
6.70033503196038
 21
34.22720779386368
  0
LINE
  8
0
  6
CONTINUOUS
 62
     7
 10
2.368964566714926
 20
35.72720779386401
 11
2.368964566714926
 21
34.22720779386324
  0
LINE
  8
0
  6
CONTINUOUS
 62
     7
 10
1.370335031960379
 20
34.779543750107
 11
1.370335031960379
 21
34.22720779386368
  0
LINE
  8
0
  6
CONTINUOUS
 62
     7
 10
-11.9999999999999
 20
26.61156548915028
 11
12.00000000000012
 21
26.61156548915028
  0
LINE
  8
0
  6
CONTINUOUS
 62
     7
 10
14.6698729810778
 20
2.000000000000002
 11
-14.66987298107764
 21
2.000000000000002
  0
LINE
  8
0
  6
CONTINUOUS
 62
     7
 10
-18.9999999999999
 20
0.0
 11
19.00000000000013
 21
0.0
  0
ARC
  8
0
  6
CONTINUOUS
 62
     7
 10
50.33896456671471
 20
34.72720779386401
 40
1.000000000000001
 50
90.0
 51
176.9999999999987
  0
LINE
  8
0
  6
CONTINUOUS
 62
     7
 10
50.94103543328493
 20
35.72720779386401
 11
50.33896456671471
 21
35.72720779386401
  0
ARC
  8
0
  6
CONTINUOUS
 62
     7
 10
50.94103543328493
 20
34.72720779386401
 40
1.000000000000001
 50
3.000000000000166
 51
90.00000000000001
  0
LINE
  8
0
  6
CONTINUOUS
 62
     7
 10
56.27103543328504
 20
35.72720779386401
 11
55.66896456671477
 21
35.72720779386401
  0
ARC
  8
0
  6
CONTINUOUS
 62
     7
 10
60.99896456671466
 20
34.72720779386401
 40
1.000000000000001
 50
90.0
 51
176.9999999999983
  0
LINE
  8
0
  6
CONTINUOUS
 62
     7
 10
61.60103543328499
 20
35.72720779386401
 11
60.99896456671466
 21
35.72720779386401
  0
ARC
  8
0
  6
CONTINUOUS
 62
     7
 10
61.60103543328499
 20
34.72720779386401
 40
1.000000000000001
 50
2.999999999999679
 51
89.99999999999991
  0
LINE
  8
0
  6
CONTINUOUS
 62
     7
 10
45.61103543328488
 20
35.72720779386401
 11
45.00896456671472
 21
35.72720779386401
  0
ARC
  8
0
  6
CONTINUOUS
 62
     7
 10
55.66896456671477
 20
34.72720779386401
 40
1.000000000000001
 50
90.0
 51
176.9999999999983
  0
ARC
  8
0
  6
CONTINUOUS
 62
     7
 10
39.67896456671465
 20
34.72720779386401
 40
1.000000000000001
 50
90.0
 51
176.9999999999983
  0
LINE
  8
0
  6
CONTINUOUS
 62
     7
 10
40.28103543328498
 20
35.72720779386401
 11
39.67896456671465
 21
35.72720779386401
  0
ARC
  8
0
  6
CONTINUOUS
 62
     7
 10
45.00896456671472
 20
34.72720779386401
 40
1.000000000000001
 50
90.0
 51
176.9999999999987
  0
ARC
  8
0
  6
CONTINUOUS
 62
     7
 10
40.28103543328498
 20
34.72720779386401
 40
1.000000000000001
 50
3.000000000000166
 51
90.00000000000001
  0
ARC
  8
0
  6
CONTINUOUS
 62
     7
 10
56.27103543328504
 20
34.72720779386401
 40
1.000000000000001
 50
2.999999999999679
 51
89.99999999999991
  0
ARC
  8
0
  6
CONTINUOUS
 62
     7
 10
45.61103543328488
 20
34.72720779386401
 40
1.000000000000001
 50
3.000000000000166
 51
90.00000000000001
  0
LINE
  8
0
  6
CONTINUOUS
 62
     7
 10
34.95103543328498
 20
35.72720779386401
 11
34.34896456671482
 21
35.72720779386401
  0
ARC
  8
0
  6
CONTINUOUS
 62
     7
 10
18.96103543328503
 20
34.72720779386401
 40
1.000000000000001
 50
3.000000000000166
 51
90.00000000000001
  0
ARC
  8
0
  6
CONTINUOUS
 62
     7
 10
34.34896456671471
 20
34.72720779386401
 40
1.000000000000001
 50
90.0
 51
176.9999999999983
  0
LINE
  8
0
  6
CONTINUOUS
 62
     7
 10
29.62103543328498
 20
35.72720779386401
 11
29.01896456671471
 21
35.72720779386401
  0
ARC
  8
0
  6
CONTINUOUS
 62
     7
 10
29.62103543328498
 20
34.72720779386401
 40
1.000000000000001
 50
3.000000000000652
 51
90.00000000000011
  0
ARC
  8
0
  6
CONTINUOUS
 62
     7
 10
34.95103543328498
 20
34.72720779386401
 40
1.000000000000001
 50
3.000000000000652
 51
90.00000000000011
  0
ARC
  8
0
  6
CONTINUOUS
 62
     7
 10
18.35896456671471
 20
34.72720779386401
 40
1.000000000000001
 50
90.0
 51
176.9999999999982
  0
ARC
  8
0
  6
CONTINUOUS
 62
     7
 10
29.01896456671471
 20
34.72720779386401
 40
1.000000000000001
 50
90.0
 51
176.9999999999982
  0
ARC
  8
0
  6
CONTINUOUS
 62
     7
 10
23.68896456671465
 20
34.72720779386401
 40
1.000000000000001
 50
90.0
 51
176.9999999999986
  0
ARC
  8
0
  6
CONTINUOUS
 62
     7
 10
24.29103543328498
 20
34.72720779386401
 40
1.000000000000001
 50
3.000000000000652
 51
90.00000000000011
  0
LINE
  8
0
  6
CONTINUOUS
 62
     7
 10
24.29103543328498
 20
35.72720779386401
 11
23.68896456671465
 21
35.72720779386401
  0
LINE
  8
0
  6
CONTINUOUS
 62
     7
 10
18.96103543328503
 20
35.72720779386401
 11
18.35896456671471
 21
35.72720779386401
  0
ARC
  8
0
  6
CONTINUOUS
 62
     7
 10
-23.67896456671503
 20
34.72720779386401
 40
1.000000000000001
 50
3.000000000000166
 51
90.00000000000001
  0
ARC
  8
0
  6
CONTINUOUS
 62
     7
 10
-29.00896456671503
 20
34.72720779386401
 40
1.000000000000001
 50
3.000000000000166
 51
90.00000000000001
  0
LINE
  8
0
  6
CONTINUOUS
 62
     7
 10
-39.66896456671503
 20
35.72720779386401
 11
-40.27103543328531
 21
35.72720779386401
  0
ARC
  8
0
  6
CONTINUOUS
 62
     7
 10
-40.27103543328531
 20
34.72720779386401
 40
1.000000000000001
 50
90.0
 51
176.9999999999983
  0
ARC
  8
0
  6
CONTINUOUS
 62
     7
 10
-24.2810354332853
 20
34.72720779386401
 40
1.000000000000001
 50
90.0
 51
176.9999999999986
  0
LINE
  8
0
  6
CONTINUOUS
 62
     7
 10
-23.67896456671503
 20
35.72720779386401
 11
-24.2810354332853
 21
35.72720779386401
  0
ARC
  8
0
  6
CONTINUOUS
 62
     7
 10
-29.6110354332853
 20
34.72720779386401
 40
1.000000000000001
 50
90.0
 51
176.9999999999982
  0
LINE
  8
0
  6
CONTINUOUS
 62
     7
 10
-29.00896456671503
 20
35.72720779386401
 11
-29.6110354332853
 21
35.72720779386401
  0
ARC
  8
0
  6
CONTINUOUS
 62
     7
 10
-18.9510354332853
 20
34.72720779386401
 40
1.000000000000001
 50
90.0
 51
176.9999999999982
  0
ARC
  8
0
  6
CONTINUOUS
 62
     7
 10
-34.33896456671498
 20
34.72720779386401
 40
1.000000000000001
 50
3.000000000000166
 51
90.00000000000001
  0
ARC
  8
0
  6
CONTINUOUS
 62
     7
 10
-39.66896456671503
 20
34.72720779386401
 40
1.000000000000001
 50
3.000000000000166
 51
90.00000000000001
  0
LINE
  8
0
  6
CONTINUOUS
 62
     7
 10
-18.34896456671498
 20
35.72720779386401
 11
-18.9510354332853
 21
35.72720779386401
  0
ARC
  8
0
  6
CONTINUOUS
 62
     7
 10
-44.99896456671504
 20
34.72720779386401
 40
1.000000000000001
 50
3.000000000000166
 51
90.00000000000001
  0
ARC
  8
0
  6
CONTINUOUS
 62
     7
 10
-34.94103543328531
 20
34.72720779386401
 40
1.000000000000001
 50
90.0
 51
176.9999999999983
  0
ARC
  8
0
  6
CONTINUOUS
 62
     7
 10
-45.6010354332853
 20
34.72720779386401
 40
1.000000000000001
 50
90.0
 51
176.9999999999983
  0
ARC
  8
0
  6
CONTINUOUS
 62
     7
 10
-18.34896456671498
 20
34.72720779386401
 40
1.000000000000001
 50
3.000000000000166
 51
90.00000000000001
  0
LINE
  8
0
  6
CONTINUOUS
 62
     7
 10
-44.99896456671504
 20
35.72720779386401
 11
-45.6010354332853
 21
35.72720779386401
  0
LINE
  8
0
  6
CONTINUOUS
 62
     7
 10
-34.33896456671498
 20
35.72720779386401
 11
-34.94103543328531
 21
35.72720779386401
  0
ARC
  8
0
  6
CONTINUOUS
 62
     7
 10
-60.98896456671513
 20
34.72720779386401
 40
1.000000000000001
 50
3.000000000000166
 51
90.00000000000001
  0
ARC
  8
0
  6
CONTINUOUS
 62
     7
 10
-50.32896456671512
 20
34.72720779386401
 40
1.000000000000001
 50
3.000000000000166
 51
90.00000000000001
  0
LINE
  8
0
  6
CONTINUOUS
 62
     7
 10
-55.6589645667151
 20
35.72720779386401
 11
-56.26103543328531
 21
35.72720779386401
  0
LINE
  8
0
  6
CONTINUOUS
 62
     7
 10
-50.32896456671512
 20
35.72720779386401
 11
-50.93103543328531
 21
35.72720779386401
  0
ARC
  8
0
  6
CONTINUOUS
 62
     7
 10
-56.26103543328531
 20
34.72720779386401
 40
1.000000000000001
 50
90.0
 51
176.9999999999987
  0
ARC
  8
0
  6
CONTINUOUS
 62
     7
 10
-55.6589645667151
 20
34.72720779386401
 40
1.000000000000001
 50
3.000000000000166
 51
90.00000000000001
  0
ARC
  8
0
  6
CONTINUOUS
 62
     7
 10
-61.59103543328531
 20
34.72720779386401
 40
1.000000000000001
 50
90.0
 51
176.9999999999986
  0
LINE
  8
0
  6
CONTINUOUS
 62
     7
 10
-60.98896456671513
 20
35.72720779386401
 11
-61.59103543328531
 21
35.72720779386401
  0
ARC
  8
0
  6
CONTINUOUS
 62
     7
 10
-50.93103543328531
 20
34.72720779386401
 40
1.000000000000001
 50
90.0
 51
176.9999999999987
  0
LINE
  8
0
  6
CONTINUOUS
 62
     7
 10
49.34033503196017
 20
34.779543750107
 11
49.31138833107529
 21
34.22720779386407
  0
LINE
  8
0
  6
CONTINUOUS
 62
     7
 10
60.00033503196023
 20
34.779543750107
 11
59.97138833107529
 21
34.22720779386407
  0
LINE
  8
0
  6
CONTINUOUS
 62
     7
 10
44.01033503196022
 20
34.779543750107
 11
43.98138833107534
 21
34.22720779386407
  0
LINE
  8
0
  6
CONTINUOUS
 62
     7
 10
54.67033503196017
 20
34.779543750107
 11
54.64138833107529
 21
34.22720779386407
  0
LINE
  8
0
  6
CONTINUOUS
 62
     7
 10
38.68033503196017
 20
34.779543750107
 11
38.65138833107529
 21
34.22720779386401
  0
LINE
  8
0
  6
CONTINUOUS
 62
     7
 10
33.35033503196016
 20
34.779543750107
 11
33.32138833107528
 21
34.22720779386401
  0
LINE
  8
0
  6
CONTINUOUS
 62
     7
 10
22.69033503196022
 20
34.779543750107
 11
22.66138833107528
 21
34.22720779386407
  0
LINE
  8
0
  6
CONTINUOUS
 62
     7
 10
28.02033503196011
 20
34.779543750107
 11
27.99138833107529
 21
34.22720779386401
  0
LINE
  8
0
  6
CONTINUOUS
 62
     7
 10
17.3603350319601
 20
34.779543750107
 11
17.33138833107517
 21
34.22720779386407
  0
LINE
  8
0
  6
CONTINUOUS
 62
     7
 10
-41.2696649680398
 20
34.779543750107
 11
-41.29861166892474
 21
34.22720779386407
  0
LINE
  8
0
  6
CONTINUOUS
 62
     7
 10
-35.9396649680398
 20
34.779543750107
 11
-35.96861166892473
 21
34.22720779386407
  0
LINE
  8
0
  6
CONTINUOUS
 62
     7
 10
-30.60966496803979
 20
34.779543750107
 11
-30.63861166892467
 21
34.22720779386401
  0
LINE
  8
0
  6
CONTINUOUS
 62
     7
 10
-19.94966496803985
 20
34.779543750107
 11
-19.97861166892473
 21
34.22720779386407
  0
LINE
  8
0
  6
CONTINUOUS
 62
     7
 10
-25.27966496803979
 20
34.779543750107
 11
-25.30861166892456
 21
34.22720779386401
  0
LINE
  8
0
  6
CONTINUOUS
 62
     7
 10
-46.5996649680398
 20
34.779543750107
 11
-46.62861166892471
 21
34.22720779386407
  0
LINE
  8
0
  6
CONTINUOUS
 62
     7
 10
-57.2596649680398
 20
34.779543750107
 11
-57.28861166892471
 21
34.22720779386407
  0
LINE
  8
0
  6
CONTINUOUS
 62
     7
 10
-51.92966496803983
 20
34.779543750107
 11
-51.95861166892471
 21
34.22720779386407
  0
LINE
  8
0
  6
CONTINUOUS
 62
     7
 10
-62.58966496803983
 20
34.779543750107
 11
-62.61861166892471
 21
34.22720779386407
  0
LINE
  8
0
  6
CONTINUOUS
 62
     7
 10
30.64861166892441
 20
34.22720779386401
 11
30.61966496803958
 21
34.779543750107
  0
LINE
  8
0
  6
CONTINUOUS
 62
     7
 10
41.30861166892441
 20
34.22720779386401
 11
41.27966496803948
 21
34.779543750107
  0
LINE
  8
0
  6
CONTINUOUS
 62
     7
 10
62.62861166892441
 20
34.22720779386401
 11
62.59966496803953
 21
34.779543750107
  0
LINE
  8
0
  6
CONTINUOUS
 62
     7
 10
25.3186116689244
 20
34.22720779386401
 11
25.28966496803953
 21
34.779543750107
  0
LINE
  8
0
  6
CONTINUOUS
 62
     7
 10
46.63861166892441
 20
34.22720779386401
 11
46.60966496803953
 21
34.779543750107
  0
LINE
  8
0
  6
CONTINUOUS
 62
     7
 10
35.97861166892435
 20
34.22720779386401
 11
35.94966496803947
 21
34.779543750107
  0
LINE
  8
0
  6
CONTINUOUS
 62
     7
 10
51.96861166892436
 20
34.22720779386401
 11
51.93966496803959
 21
34.779543750107
  0
LINE
  8
0
  6
CONTINUOUS
 62
     7
 10
57.29861166892442
 20
34.22720779386401
 11
57.26966496803948
 21
34.779543750107
  0
LINE
  8
0
  6
CONTINUOUS
 62
     7
 10
-17.3213883310756
 20
34.22720779386401
 11
-17.35033503196054
 21
34.779543750107
  0
LINE
  8
0
  6
CONTINUOUS
 62
     7
 10
19.98861166892441
 20
34.22720779386401
 11
19.95966496803947
 21
34.779543750107
  0
LINE
  8
0
  6
CONTINUOUS
 62
     7
 10
-43.97138833107561
 20
34.22720779386401
 11
-44.00033503196049
 21
34.779543750107
  0
LINE
  8
0
  6
CONTINUOUS
 62
     7
 10
-27.98138833107561
 20
34.22720779386407
 11
-28.01033503196049
 21
34.779543750107
  0
LINE
  8
0
  6
CONTINUOUS
 62
     7
 10
-22.65138833107561
 20
34.22720779386401
 11
-22.68033503196038
 21
34.779543750107
  0
LINE
  8
0
  6
CONTINUOUS
 62
     7
 10
-59.96138833107562
 20
34.22720779386401
 11
-59.99033503196052
 21
34.779543750107
  0
LINE
  8
0
  6
CONTINUOUS
 62
     7
 10
-38.64138833107567
 20
34.22720779386401
 11
-38.67033503196055
 21
34.779543750107
  0
LINE
  8
0
  6
CONTINUOUS
 62
     7
 10
-49.30138833107561
 20
34.22720779386401
 11
-49.33033503196052
 21
34.779543750107
  0
LINE
  8
0
  6
CONTINUOUS
 62
     7
 10
-54.63138833107561
 20
34.22720779386401
 11
-54.66033503196049
 21
34.779543750107
  0
LINE
  8
0
  6
CONTINUOUS
 62
     7
 10
-33.31138833107561
 20
34.22720779386407
 11
-33.34033503196049
 21
34.779543750107
  0
ARC
  8
0
  6
CONTINUOUS
 62
     7
 10
64.00000000000011
 20
32.72720779386368
 40
1.500000000000001
 50
0.0
 51
90.0
  0
LINE
  8
0
  6
CONTINUOUS
 62
     7
 10
64.00000000000011
 20
34.22720779386368
 11
62.62861166892441
 21
34.22720779386368
  0
LINE
  8
0
  6
CONTINUOUS
 62
     7
 10
17.33138833107528
 20
34.22720779386368
 11
13.62603543328522
 21
34.22720779386368
  0
LINE
  8
0
  6
CONTINUOUS
 62
     7
 10
-13.626035433285
 20
34.22720779386368
 11
-17.3213883310756
 21
34.22720779386368
  0
LINE
  8
0
  6
CONTINUOUS
 62
     7
 10
33.3213883310754
 20
34.22720779386368
 11
30.64861166892441
 21
34.22720779386368
  0
ARC
  8
0
  6
CONTINUOUS
 62
     7
 10
-63.99999999999991
 20
32.72720779386368
 40
1.500000000000001
 50
90.0
 51
180.0
  0
LINE
  8
0
  6
CONTINUOUS
 62
     7
 10
38.65138833107529
 20
34.22720779386368
 11
35.97861166892447
 21
34.22720779386368
  0
LINE
  8
0
  6
CONTINUOUS
 62
     7
 10
54.6413883310754
 20
34.22720779386368
 11
51.96861166892447
 21
34.22720779386368
  0
LINE
  8
0
  6
CONTINUOUS
 62
     7
 10
43.98138833107534
 20
34.22720779386368
 11
41.30861166892446
 21
34.22720779386368
  0
LINE
  8
0
  6
CONTINUOUS
 62
     7
 10
-62.61861166892471
 20
34.22720779386368
 11
-63.99999999999991
 21
34.22720779386368
  0
LINE
  8
0
  6
CONTINUOUS
 62
     7
 10
59.97138833107529
 20
34.22720779386368
 11
57.29861166892447
 21
34.22720779386368
  0
LINE
  8
0
  6
CONTINUOUS
 62
     7
 10
49.3113883310754
 20
34.22720779386368
 11
46.63861166892453
 21
34.22720779386368
  0
LINE
  8
0
  6
CONTINUOUS
 62
     7
 10
27.99138833107529
 20
34.22720779386368
 11
25.31861166892452
 21
34.22720779386368
  0
LINE
  8
0
  6
CONTINUOUS
 62
     7
 10
22.66138833107528
 20
34.22720779386368
 11
19.98861166892441
 21
34.22720779386368
  0
LINE
  8
0
  6
CONTINUOUS
 62
     7
 10
-57.28861166892471
 20
34.22720779386368
 11
-59.96138833107562
 21
34.22720779386368
  0
LINE
  8
0
  6
CONTINUOUS
 62
     7
 10
-46.62861166892471
 20
34.22720779386368
 11
-49.30138833107553
 21
34.22720779386368
  0
LINE
  8
0
  6
CONTINUOUS
 62
     7
 10
-30.63861166892467
 20
34.22720779386368
 11
-33.31138833107561
 21
34.22720779386368
  0
LINE
  8
0
  6
CONTINUOUS
 62
     7
 10
-51.95861166892471
 20
34.22720779386368
 11
-54.63138833107561
 21
34.22720779386368
  0
LINE
  8
0
  6
CONTINUOUS
 62
     7
 10
-25.30861166892473
 20
34.22720779386368
 11
-27.98138833107561
 21
34.22720779386368
  0
LINE
  8
0
  6
CONTINUOUS
 62
     7
 10
-41.29861166892474
 20
34.22720779386368
 11
-43.97138833107561
 21
34.22720779386368
  0
LINE
  8
0
  6
CONTINUOUS
 62
     7
 10
-19.97861166892473
 20
34.22720779386368
 11
-22.65138833107561
 21
34.22720779386368
  0
LINE
  8
0
  6
CONTINUOUS
 62
     7
 10
-35.96861166892473
 20
34.22720779386368
 11
-38.64138833107567
 21
34.22720779386368
  0
LINE
  8
0
  6
CONTINUOUS
 62
     7
 10
13.02396456671512
 20
34.22720779386368
 11
8.296035433285276
 21
34.22720779386368
  0
LINE
  8
0
  6
CONTINUOUS
 62
     7
 10
7.693964566715117
 20
34.22720779386368
 11
2.966035433285164
 21
34.22720779386368
  0
LINE
  8
0
  6
CONTINUOUS
 62
     7
 10
-8.296035433284999
 20
34.22720779386368
 11
-13.02396456671484
 21
34.22720779386368
  0
LINE
  8
0
  6
CONTINUOUS
 62
     7
 10
-2.966035433284997
 20
34.22720779386368
 11
-7.693964566714784
 21
34.22720779386368
  0
LINE
  8
0
  6
CONTINUOUS
 62
     7
 10
2.36396456671506
 20
34.22720779386368
 11
-2.363964566714671
 21
34.22720779386368
  0
ARC
  8
0
  6
CONTINUOUS
 62
     7
 10
13.6310354332852
 20
34.72720779386401
 40
1.000000000000001
 50
2.999999999999679
 51
89.99999999999991
  0
ARC
  8
0
  6
CONTINUOUS
 62
     7
 10
-7.688964566714806
 20
34.72720779386401
 40
1.000000000000001
 50
2.999999999999679
 51
89.99999999999991
  0
ARC
  8
0
  6
CONTINUOUS
 62
     7
 10
-2.358964566714805
 20
34.72720779386401
 40
1.000000000000001
 50
2.999999999999679
 51
89.99999999999991
  0
ARC
  8
0
  6
CONTINUOUS
 62
     7
 10
2.971035433285141
 20
34.72720779386401
 40
1.000000000000001
 50
2.999999999999679
 51
89.99999999999991
  0
ARC
  8
0
  6
CONTINUOUS
 62
     7
 10
8.301035433285197
 20
34.72720779386401
 40
1.000000000000001
 50
2.999999999999679
 51
89.99999999999991
  0
ARC
  8
0
  6
CONTINUOUS
 62
     7
 10
-13.01896456671481
 20
34.72720779386401
 40
1.000000000000001
 50
2.999999999999679
 51
89.99999999999991
  0
ARC
  8
0
  6
CONTINUOUS
 62
     7
 10
-8.291035433285131
 20
34.72720779386401
 40
1.000000000000001
 50
90.0000000000012
 51
176.9999999999987
  0
ARC
  8
0
  6
CONTINUOUS
 62
     7
 10
-2.961035433285075
 20
34.72720779386401
 40
1.000000000000001
 50
90.0000000000009
 51
176.9999999999983
  0
ARC
  8
0
  6
CONTINUOUS
 62
     7
 10
-13.62103543328497
 20
34.72720779386401
 40
1.000000000000001
 50
90.0000000000012
 51
176.9999999999987
  0
ARC
  8
0
  6
CONTINUOUS
 62
     7
 10
13.02896456671487
 20
34.72720779386401
 40
1.000000000000001
 50
90.0000000000011
 51
176.9999999999987
  0
ARC
  8
0
  6
CONTINUOUS
 62
     7
 10
7.698964566714983
 20
34.72720779386401
 40
1.000000000000001
 50
90.00000000000114
 51
176.9999999999987
  0
ARC
  8
0
  6
CONTINUOUS
 62
     7
 10
2.368964566714926
 20
34.72720779386401
 40
1.000000000000001
 50
90.00000000000085
 51
176.9999999999983
  0
LINE
  8
0
  6
CONTINUOUS
 62
     7
 10
13.6310354332852
 20
35.72720779386401
 11
13.02896456671487
 21
35.72720779386401
  0
LINE
  8
0
  6
CONTINUOUS
 62
     7
 10
8.301035433285197
 20
35.72720779386401
 11
7.698964566714872
 21
35.72720779386401
  0
LINE
  8
0
  6
CONTINUOUS
 62
     7
 10
2.971035433285141
 20
35.72720779386401
 11
2.368964566714926
 21
35.72720779386401
  0
LINE
  8
0
  6
CONTINUOUS
 62
     7
 10
-2.358964566714916
 20
35.72720779386401
 11
-2.961035433285075
 21
35.72720779386401
  0
LINE
  8
0
  6
CONTINUOUS
 62
     7
 10
-7.688964566714806
 20
35.72720779386401
 11
-8.291035433285131
 21
35.72720779386401
  0
LINE
  8
0
  6
CONTINUOUS
 62
     7
 10
-13.01896456671481
 20
35.72720779386401
 11
-13.62103543328497
 21
35.72720779386401
  0
LINE
  8
0
  6
CONTINUOUS
 62
     7
 10
14.65861166892463
 20
34.22720779386401
 11
14.62966496803975
 21
34.779543750107
  0
LINE
  8
0
  6
CONTINUOUS
 62
     7
 10
9.328611668924625
 20
34.22720779386401
 11
9.29966496803969
 21
34.779543750107
  0
LINE
  8
0
  6
CONTINUOUS
 62
     7
 10
3.998611668924568
 20
34.22720779386401
 11
3.969664968039799
 21
34.779543750107
  0
LINE
  8
0
  6
CONTINUOUS
 62
     7
 10
-6.661388331075379
 20
34.22720779386401
 11
-6.690335031960315
 21
34.779543750107
  0
LINE
  8
0
  6
CONTINUOUS
 62
     7
 10
-1.331388331075267
 20
34.22720779386401
 11
-1.360335031960203
 21
34.779543750107
  0
LINE
  8
0
  6
CONTINUOUS
 62
     7
 10
-11.99138833107544
 20
34.22720779386401
 11
-12.02033503196032
 21
34.779543750107
  0
LINE
  8
0
  6
CONTINUOUS
 62
     7
 10
1.370335031960379
 20
34.779543750107
 11
1.341388331075499
 21
34.22720779386401
  0
LINE
  8
0
  6
CONTINUOUS
 62
     7
 10
12.03033503196044
 20
34.779543750107
 11
12.00138833107545
 21
34.22720779386401
  0
LINE
  8
0
  6
CONTINUOUS
 62
     7
 10
6.70033503196038
 20
34.779543750107
 11
6.671388331075501
 21
34.22720779386407
  0
LINE
  8
0
  6
CONTINUOUS
 62
     7
 10
-14.61966496803963
 20
34.779543750107
 11
-14.6486116689245
 21
34.22720779386401
  0
LINE
  8
0
  6
CONTINUOUS
 62
     7
 10
-9.289664968039624
 20
34.779543750107
 11
-9.318611668924504
 21
34.22720779386407
  0
LINE
  8
0
  6
CONTINUOUS
 62
     7
 10
-3.959664968039622
 20
34.779543750107
 11
-3.988611668924502
 21
34.22720779386407
  0
LINE
  8
0
  6
CONTINUOUS
 62
     7
 10
22.6853350319603
 20
-102.1760741543936
 11
22.65638833107547
 21
-102.7284101106365
  0
ARC
  8
0
  6
CONTINUOUS
 62
     7
 10
23.6839645667149
 20
-102.2284101106366
 40
1.000000000000001
 50
90.0
 51
176.9999999999996
  0
LINE
  8
0
  6
CONTINUOUS
 62
     7
 10
24.28603543328511
 20
-101.2284101106365
 11
23.6839645667149
 21
-101.2284101106365
  0
ARC
  8
0
  6
CONTINUOUS
 62
     7
 10
24.28603543328511
 20
-102.2284101106366
 40
0.9999999999999454
 50
3.000000000000289
 51
90.00000000000001
  0
LINE
  8
0
  6
CONTINUOUS
 62
     7
 10
25.31361166892454
 20
-102.7284101106365
 11
25.28466496803983
 21
-102.1760741543936
  0
LINE
  8
0
  6
CONTINUOUS
 62
     7
 10
25.31361166892454
 20
-102.7284101106365
 11
27.98638833107547
 21
-102.7284101106365
  0
LINE
  8
0
  6
CONTINUOUS
 62
     7
 10
28.0153350319603
 20
-102.1760741543936
 11
27.98638833107547
 21
-102.7284101106365
  0
ARC
  8
0
  6
CONTINUOUS
 62
     7
 10
29.01396456671479
 20
-102.2284101106366
 40
1.000000000000001
 50
90.0
 51
176.9999999999996
  0
LINE
  8
0
  6
CONTINUOUS
 62
     7
 10
29.61603543328511
 20
-101.2284101106365
 11
29.01396456671479
 21
-101.2284101106365
  0
ARC
  8
0
  6
CONTINUOUS
 62
     7
 10
29.61603543328511
 20
-102.2284101106366
 40
0.9999999999999454
 50
3.000000000000409
 51
89.99999999999999
  0
LINE
  8
0
  6
CONTINUOUS
 62
     7
 10
30.6436116689246
 20
-102.7284101106365
 11
30.61466496803966
 21
-102.1760741543936
  0
LINE
  8
0
  6
CONTINUOUS
 62
     7
 10
30.6436116689246
 20
-102.7284101106365
 11
33.31638833107542
 21
-102.7284101106365
  0
LINE
  8
0
  6
CONTINUOUS
 62
     7
 10
33.3453350319603
 20
-102.1760741543936
 11
33.31638833107542
 21
-102.7284101106365
  0
ARC
  8
0
  6
CONTINUOUS
 62
     7
 10
34.34396456671485
 20
-102.2284101106366
 40
1.000000000000001
 50
90.0
 51
176.9999999999996
  0
LINE
  8
0
  6
CONTINUOUS
 62
     7
 10
34.94603543328517
 20
-101.2284101106365
 11
34.34396456671485
 21
-101.2284101106365
  0
ARC
  8
0
  6
CONTINUOUS
 62
     7
 10
34.94603543328517
 20
-102.2284101106366
 40
0.9999999999999454
 50
3.000000000000409
 51
90.00000000000016
  0
LINE
  8
0
  6
CONTINUOUS
 62
     7
 10
35.9736116689246
 20
-102.7284101106365
 11
35.94466496803972
 21
-102.1760741543936
  0
LINE
  8
0
  6
CONTINUOUS
 62
     7
 10
35.9736116689246
 20
-102.7284101106365
 11
38.64638833107542
 21
-102.7284101106365
  0
LINE
  8
0
  6
CONTINUOUS
 62
     7
 10
38.6753350319603
 20
-102.1760741543936
 11
38.64638833107542
 21
-102.7284101106365
  0
ARC
  8
0
  6
CONTINUOUS
 62
     7
 10
39.6739645667149
 20
-102.2284101106366
 40
1.000000000000001
 50
90.0
 51
176.9999999999996
  0
LINE
  8
0
  6
CONTINUOUS
 62
     7
 10
40.27603543328506
 20
-101.2284101106365
 11
39.6739645667149
 21
-101.2284101106365
  0
ARC
  8
0
  6
CONTINUOUS
 62
     7
 10
40.27603543328506
 20
-102.2284101106366
 40
0.9999999999999454
 50
3.000000000000409
 51
90.00000000000016
  0
LINE
  8
0
  6
CONTINUOUS
 62
     7
 10
41.30361166892449
 20
-102.7284101106365
 11
41.27466496803972
 21
-102.1760741543936
  0
LINE
  8
0
  6
CONTINUOUS
 62
     7
 10
41.30361166892449
 20
-102.7284101106365
 11
43.97638833107536
 21
-102.7284101106365
  0
LINE
  8
0
  6
CONTINUOUS
 62
     7
 10
44.00533503196024
 20
-102.1760741543936
 11
43.97638833107536
 21
-102.7284101106365
  0
ARC
  8
0
  6
CONTINUOUS
 62
     7
 10
45.00396456671491
 20
-102.2284101106366
 40
1.000000000000001
 50
90.0
 51
176.9999999999997
  0
LINE
  8
0
  6
CONTINUOUS
 62
     7
 10
45.60603543328511
 20
-101.2284101106365
 11
45.00396456671491
 21
-101.2284101106365
  0
ARC
  8
0
  6
CONTINUOUS
 62
     7
 10
45.60603543328511
 20
-102.2284101106366
 40
0.9999999999999454
 50
3.000000000000409
 51
90.00000000000016
  0
LINE
  8
0
  6
CONTINUOUS
 62
     7
 10
46.63361166892454
 20
-102.7284101106365
 11
46.60466496803966
 21
-102.1760741543936
  0
LINE
  8
0
  6
CONTINUOUS
 62
     7
 10
46.63361166892454
 20
-102.7284101106365
 11
49.30638833107537
 21
-102.7284101106365
  0
LINE
  8
0
  6
CONTINUOUS
 62
     7
 10
49.33533503196031
 20
-102.1760741543936
 11
49.30638833107537
 21
-102.7284101106365
  0
ARC
  8
0
  6
CONTINUOUS
 62
     7
 10
50.3339645667149
 20
-102.2284101106366
 40
1.000000000000001
 50
90.0
 51
176.9999999999997
  0
LINE
  8
0
  6
CONTINUOUS
 62
     7
 10
50.93603543328512
 20
-101.2284101106365
 11
50.3339645667149
 21
-101.2284101106365
  0
ARC
  8
0
  6
CONTINUOUS
 62
     7
 10
50.93603543328512
 20
-102.2284101106366
 40
0.9999999999999454
 50
3.000000000000409
 51
90.00000000000011
  0
LINE
  8
0
  6
CONTINUOUS
 62
     7
 10
51.9636116689246
 20
-102.7284101106365
 11
51.93466496803967
 21
-102.1760741543936
  0
LINE
  8
0
  6
CONTINUOUS
 62
     7
 10
51.9636116689246
 20
-102.7284101106365
 11
54.63638833107542
 21
-102.7284101106365
  0
LINE
  8
0
  6
CONTINUOUS
 62
     7
 10
54.6653350319603
 20
-102.1760741543936
 11
54.63638833107542
 21
-102.7284101106365
  0
ARC
  8
0
  6
CONTINUOUS
 62
     7
 10
55.66396456671491
 20
-102.2284101106366
 40
1.000000000000001
 50
90.00000000000557
 51
176.9999999999997
  0
LINE
  8
0
  6
CONTINUOUS
 62
     7
 10
56.26603543328507
 20
-101.2284101106365
 11
55.6639645667148
 21
-101.2284101106365
  0
ARC
  8
0
  6
CONTINUOUS
 62
     7
 10
56.26603543328507
 20
-102.2284101106366
 40
0.9999999999999454
 50
3.000000000000409
 51
90.00000000000016
  0
LINE
  8
0
  6
CONTINUOUS
 62
     7
 10
57.2936116689246
 20
-102.7284101106365
 11
57.26466496803972
 21
-102.1760741543936
  0
LINE
  8
0
  6
CONTINUOUS
 62
     7
 10
57.2936116689246
 20
-102.7284101106365
 11
59.96638833107537
 21
-102.7284101106365
  0
LINE
  8
0
  6
CONTINUOUS
 62
     7
 10
59.99533503196025
 20
-102.1760741543936
 11
59.96638833107537
 21
-102.7284101106365
  0
ARC
  8
0
  6
CONTINUOUS
 62
     7
 10
60.99396456671491
 20
-102.2284101106366
 40
1.000000000000001
 50
90.00000000000557
 51
176.9999999999997
  0
LINE
  8
0
  6
CONTINUOUS
 62
     7
 10
61.59603543328512
 20
-101.2284101106365
 11
60.99396456671479
 21
-101.2284101106365
  0
ARC
  8
0
  6
CONTINUOUS
 62
     7
 10
61.59603543328512
 20
-102.2284101106366
 40
1.000000000000001
 50
3.000000000000409
 51
90.00000000000016
  0
LINE
  8
0
  6
CONTINUOUS
 62
     7
 10
62.62361166892455
 20
-102.7284101106365
 11
62.59466496803967
 21
-102.1760741543936
  0
LINE
  8
0
  6
CONTINUOUS
 62
     7
 10
62.62361166892455
 20
-102.7284101106365
 11
64.0
 21
-102.7284101106365
  0
ARC
  8
0
  6
CONTINUOUS
 62
     7
 10
64.0
 20
-104.2284101106365
 40
1.500000000000001
 50
0.0
 51
90.0
  0
LINE
  8
0
  6
CONTINUOUS
 62
     7
 10
65.5
 20
-104.2284101106365
 11
65.5
 21
-116.7284101106365
  0
ARC
  8
0
  6
CONTINUOUS
 62
     7
 10
64.0
 20
-116.7284101106365
 40
1.500000000000001
 50
270.0
 51
0.0
  0
LINE
  8
0
  6
CONTINUOUS
 62
     7
 10
64.0
 20
-118.2284101106365
 11
62.62361166892444
 21
-118.2284101106364
  0
LINE
  8
0
  6
CONTINUOUS
 62
     7
 10
62.59466496803967
 20
-118.7807460668793
 11
62.62361166892444
 21
-118.2284101106364
  0
ARC
  8
0
  6
CONTINUOUS
 62
     7
 10
61.59603543328512
 20
-118.7284101106364
 40
1.000000000000001
 50
270.0000000000061
 51
357.0000000000003
  0
LINE
  8
0
  6
CONTINUOUS
 62
     7
 10
60.99396456671491
 20
-119.7284101106364
 11
61.59603543328518
 21
-119.7284101106364
  0
ARC
  8
0
  6
CONTINUOUS
 62
     7
 10
60.99396456671491
 20
-118.7284101106364
 40
1.000000000000056
 50
183.0000000000009
 51
270.0
  0
LINE
  8
0
  6
CONTINUOUS
 62
     7
 10
59.96638833107548
 20
-118.2284101106364
 11
59.99533503196025
 21
-118.7807460668794
  0
LINE
  8
0
  6
CONTINUOUS
 62
     7
 10
59.96638833107548
 20
-118.2284101106364
 11
57.29361166892449
 21
-118.2284101106364
  0
LINE
  8
0
  6
CONTINUOUS
 62
     7
 10
57.26466496803972
 20
-118.7807460668794
 11
57.29361166892449
 21
-118.2284101106364
  0
ARC
  8
0
  6
CONTINUOUS
 62
     7
 10
56.26603543328507
 20
-118.7284101106364
 40
1.000000000000001
 50
270.0000000000061
 51
356.9999999999998
  0
LINE
  8
0
  6
CONTINUOUS
 62
     7
 10
55.66396456671491
 20
-119.7284101106364
 11
56.26603543328518
 21
-119.7284101106364
  0
ARC
  8
0
  6
CONTINUOUS
 62
     7
 10
55.66396456671491
 20
-118.7284101106364
 40
1.000000000000056
 50
183.0000000000009
 51
270.0
  0
LINE
  8
0
  6
CONTINUOUS
 62
     7
 10
54.63638833107554
 20
-118.2284101106364
 11
54.6653350319603
 21
-118.7807460668794
  0
LINE
  8
0
  6
CONTINUOUS
 62
     7
 10
54.63638833107554
 20
-118.2284101106364
 11
51.96361166892449
 21
-118.2284101106364
  0
LINE
  8
0
  6
CONTINUOUS
 62
     7
 10
51.93466496803967
 20
-118.7807460668794
 11
51.96361166892449
 21
-118.2284101106364
  0
ARC
  8
0
  6
CONTINUOUS
 62
     7
 10
50.93603543328512
 20
-118.7284101106364
 40
1.000000000000001
 50
270.0000000000061
 51
356.9999999999997
  0
LINE
  8
0
  6
CONTINUOUS
 62
     7
 10
50.3339645667149
 20
-119.7284101106364
 11
50.93603543328523
 21
-119.7284101106364
  0
ARC
  8
0
  6
CONTINUOUS
 62
     7
 10
50.3339645667149
 20
-118.7284101106364
 40
1.000000000000056
 50
183.0000000000009
 51
270.0
  0
LINE
  8
0
  6
CONTINUOUS
 62
     7
 10
49.30638833107547
 20
-118.2284101106364
 11
49.33533503196031
 21
-118.7807460668794
  0
LINE
  8
0
  6
CONTINUOUS
 62
     7
 10
49.30638833107547
 20
-118.2284101106364
 11
46.63361166892449
 21
-118.2284101106364
  0
LINE
  8
0
  6
CONTINUOUS
 62
     7
 10
46.60466496803966
 20
-118.7807460668794
 11
46.63361166892449
 21
-118.2284101106364
  0
ARC
  8
0
  6
CONTINUOUS
 62
     7
 10
45.60603543328511
 20
-118.7284101106364
 40
1.000000000000001
 50
270.0000000000061
 51
356.9999999999998
  0
LINE
  8
0
  6
CONTINUOUS
 62
     7
 10
45.00396456671491
 20
-119.7284101106364
 11
45.60603543328517
 21
-119.7284101106364
  0
ARC
  8
0
  6
CONTINUOUS
 62
     7
 10
45.00396456671491
 20
-118.7284101106364
 40
1.000000000000056
 50
183.0000000000009
 51
270.0
  0
LINE
  8
0
  6
CONTINUOUS
 62
     7
 10
43.97638833107536
 20
-118.2284101106364
 11
44.00533503196024
 21
-118.7807460668794
  0
LINE
  8
0
  6
CONTINUOUS
 62
     7
 10
43.97638833107536
 20
-118.2284101106364
 11
41.30361166892449
 21
-118.2284101106364
  0
LINE
  8
0
  6
CONTINUOUS
 62
     7
 10
41.27466496803972
 20
-118.7807460668794
 11
41.30361166892449
 21
-118.2284101106364
  0
ARC
  8
0
  6
CONTINUOUS
 62
     7
 10
40.27603543328506
 20
-118.7284101106364
 40
1.000000000000001
 50
270.0000000000032
 51
356.9999999999998
  0
LINE
  8
0
  6
CONTINUOUS
 62
     7
 10
39.6739645667149
 20
-119.7284101106364
 11
40.27603543328517
 21
-119.7284101106364
  0
ARC
  8
0
  6
CONTINUOUS
 62
     7
 10
39.6739645667149
 20
-118.7284101106364
 40
1.000000000000056
 50
183.0000000000009
 51
270.0
  0
LINE
  8
0
  6
CONTINUOUS
 62
     7
 10
38.64638833107553
 20
-118.2284101106364
 11
38.6753350319603
 21
-118.7807460668794
  0
LINE
  8
0
  6
CONTINUOUS
 62
     7
 10
38.64638833107553
 20
-118.2284101106364
 11
35.97361166892448
 21
-118.2284101106364
  0
LINE
  8
0
  6
CONTINUOUS
 62
     7
 10
35.94466496803972
 20
-118.7807460668794
 11
35.97361166892448
 21
-118.2284101106364
  0
ARC
  8
0
  6
CONTINUOUS
 62
     7
 10
34.94603543328517
 20
-118.7284101106364
 40
1.000000000000001
 50
270.0000000000032
 51
356.9999999999998
  0
LINE
  8
0
  6
CONTINUOUS
 62
     7
 10
34.34396456671485
 20
-119.7284101106364
 11
34.94603543328517
 21
-119.7284101106364
  0
ARC
  8
0
  6
CONTINUOUS
 62
     7
 10
34.34396456671485
 20
-118.7284101106364
 40
1.000000000000056
 50
183.0000000000009
 51
270.0
  0
LINE
  8
0
  6
CONTINUOUS
 62
     7
 10
33.31638833107542
 20
-118.2284101106365
 11
33.3453350319603
 21
-118.7807460668794
  0
LINE
  8
0
  6
CONTINUOUS
 62
     7
 10
33.31638833107542
 20
-118.2284101106365
 11
30.64361166892449
 21
-118.2284101106365
  0
LINE
  8
0
  6
CONTINUOUS
 62
     7
 10
30.61466496803966
 20
-118.7807460668794
 11
30.64361166892449
 21
-118.2284101106365
  0
ARC
  8
0
  6
CONTINUOUS
 62
     7
 10
29.61603543328511
 20
-118.7284101106364
 40
1.000000000000001
 50
270.0000000000028
 51
356.9999999999997
  0
LINE
  8
0
  6
CONTINUOUS
 62
     7
 10
29.0139645667149
 20
-119.7284101106364
 11
29.61603543328523
 21
-119.7284101106364
  0
ARC
  8
0
  6
CONTINUOUS
 62
     7
 10
29.0139645667149
 20
-118.7284101106364
 40
1.000000000000001
 50
183.000000000001
 51
270.0000000000002
  0
LINE
  8
0
  6
CONTINUOUS
 62
     7
 10
27.98638833107547
 20
-118.2284101106365
 11
28.0153350319603
 21
-118.7807460668794
  0
LINE
  8
0
  6
CONTINUOUS
 62
     7
 10
27.98638833107547
 20
-118.2284101106365
 11
25.31361166892454
 21
-118.2284101106365
  0
LINE
  8
0
  6
CONTINUOUS
 62
     7
 10
25.28466496803983
 20
-118.7807460668794
 11
25.31361166892454
 21
-118.2284101106365
  0
ARC
  8
0
  6
CONTINUOUS
 62
     7
 10
24.28603543328511
 20
-118.7284101106364
 40
1.000000000000001
 50
270.0000000000028
 51
356.9999999999997
  0
LINE
  8
0
  6
CONTINUOUS
 62
     7
 10
23.6839645667149
 20
-119.7284101106364
 11
24.28603543328517
 21
-119.7284101106364
  0
ARC
  8
0
  6
CONTINUOUS
 62
     7
 10
23.6839645667149
 20
-118.7284101106364
 40
1.000000000000001
 50
183.000000000001
 51
270.0000000000002
  0
LINE
  8
0
  6
CONTINUOUS
 62
     7
 10
22.65638833107547
 20
-118.2284101106365
 11
22.6853350319603
 21
-118.7807460668794
  0
LINE
  8
0
  6
CONTINUOUS
 62
     7
 10
22.65638833107547
 20
-118.2284101106365
 11
19.98361166892448
 21
-118.2284101106365
  0
LINE
  8
0
  6
CONTINUOUS
 62
     7
 10
19.95466496803972
 20
-118.7807460668794
 11
19.98361166892448
 21
-118.2284101106365
  0
ARC
  8
0
  6
CONTINUOUS
 62
     7
 10
18.95603543328506
 20
-118.7284101106364
 40
1.000000000000001
 50
270.0000000000028
 51
356.9999999999997
  0
LINE
  8
0
  6
CONTINUOUS
 62
     7
 10
18.3539645667149
 20
-119.7284101106364
 11
18.95603543328517
 21
-119.7284101106364
  0
ARC
  8
0
  6
CONTINUOUS
 62
     7
 10
18.3539645667149
 20
-118.7284101106364
 40
1.000000000000001
 50
183.000000000001
 51
270.0000000000002
  0
LINE
  8
0
  6
CONTINUOUS
 62
     7
 10
17.32638833107553
 20
-118.2284101106365
 11
17.35533503196029
 21
-118.7807460668794
  0
LINE
  8
0
  6
CONTINUOUS
 62
     7
 10
17.32638833107553
 20
-118.2284101106365
 11
14.65361166892459
 21
-118.2284101106365
  0
LINE
  8
0
  6
CONTINUOUS
 62
     7
 10
14.62466496803971
 20
-118.7807460668794
 11
14.65361166892459
 21
-118.2284101106365
  0
ARC
  8
0
  6
CONTINUOUS
 62
     7
 10
13.62603543328511
 20
-118.7284101106364
 40
1.000000000000001
 50
270.0000000000023
 51
356.9999999999997
  0
LINE
  8
0
  6
CONTINUOUS
 62
     7
 10
13.0239645667149
 20
-119.7284101106364
 11
13.62603543328522
 21
-119.7284101106364
  0
ARC
  8
0
  6
CONTINUOUS
 62
     7
 10
13.0239645667149
 20
-118.7284101106364
 40
1.000000000000056
 50
183.0000000000011
 51
270.0000000000002
  0
LINE
  8
0
  6
CONTINUOUS
 62
     7
 10
11.99638833107547
 20
-118.2284101106365
 11
12.02533503196029
 21
-118.7807460668794
  0
LINE
  8
0
  6
CONTINUOUS
 62
     7
 10
11.99638833107547
 20
-118.2284101106365
 11
9.32361166892448
 21
-118.2284101106365
  0
LINE
  8
0
  6
CONTINUOUS
 62
     7
 10
9.294664968039656
 20
-118.7807460668794
 11
9.32361166892448
 21
-118.2284101106365
  0
ARC
  8
0
  6
CONTINUOUS
 62
     7
 10
8.296035433285109
 20
-118.7284101106364
 40
1.000000000000001
 50
270.0000000000023
 51
356.9999999999997
  0
LINE
  8
0
  6
CONTINUOUS
 62
     7
 10
7.693964566714895
 20
-119.7284101106364
 11
8.296035433285164
 21
-119.7284101106364
  0
ARC
  8
0
  6
CONTINUOUS
 62
     7
 10
7.693964566714895
 20
-118.7284101106364
 40
1.000000000000056
 50
183.0000000000011
 51
270.0000000000002
  0
LINE
  8
0
  6
CONTINUOUS
 62
     7
 10
6.666388331075468
 20
-118.2284101106365
 11
6.695335031960236
 21
-118.7807460668794
  0
LINE
  8
0
  6
CONTINUOUS
 62
     7
 10
6.666388331075468
 20
-118.2284101106365
 11
3.99361166892448
 21
-118.2284101106365
  0
LINE
  8
0
  6
CONTINUOUS
 62
     7
 10
3.964664968039711
 20
-118.7807460668794
 11
3.993611668924479
 21
-118.2284101106365
  0
ARC
  8
0
  6
CONTINUOUS
 62
     7
 10
2.966035433285052
 20
-118.7284101106364
 40
1.000000000000001
 50
270.000000000002
 51
357.0000000000002
  0
LINE
  8
0
  6
CONTINUOUS
 62
     7
 10
2.363964566714893
 20
-119.7284101106365
 11
2.966035433285164
 21
-119.7284101106365
  0
ARC
  8
0
  6
CONTINUOUS
 62
     7
 10
2.363964566714893
 20
-118.7284101106364
 40
1.000000000000001
 50
183.0000000000011
 51
270.0000000000002
  0
LINE
  8
0
  6
CONTINUOUS
 62
     7
 10
1.336388331075522
 20
-118.2284101106365
 11
1.365335031960291
 21
-118.7807460668794
  0
LINE
  8
0
  6
CONTINUOUS
 62
     7
 10
1.336388331075522
 20
-118.2284101106365
 11
-1.336388331075522
 21
-118.2284101106364
  0
LINE
  8
0
  6
CONTINUOUS
 62
     7
 10
-1.365335031960291
 20
-118.7807460668794
 11
-1.336388331075522
 21
-118.2284101106364
  0
ARC
  8
0
  6
CONTINUOUS
 62
     7
 10
-2.363964566714893
 20
-118.7284101106364
 40
1.000000000000001
 50
270.0000000000009
 51
357.0000000000002
  0
LINE
  8
0
  6
CONTINUOUS
 62
     7
 10
-2.966035433285108
 20
-119.7284101106365
 11
-2.363964566714893
 21
-119.7284101106365
  0
ARC
  8
0
  6
CONTINUOUS
 62
     7
 10
-2.966035433285108
 20
-118.7284101106364
 40
1.000000000000001
 50
183.0000000000011
 51
270.0000000000005
  0
LINE
  8
0
  6
CONTINUOUS
 62
     7
 10
-3.993611668924535
 20
-118.2284101106365
 11
-3.964664968039711
 21
-118.7807460668794
  0
LINE
  8
0
  6
CONTINUOUS
 62
     7
 10
-3.993611668924535
 20
-118.2284101106365
 11
-6.666388331075412
 21
-118.2284101106364
  0
LINE
  8
0
  6
CONTINUOUS
 62
     7
 10
-6.695335031960347
 20
-118.7807460668794
 11
-6.666388331075412
 21
-118.2284101106364
  0
ARC
  8
0
  6
CONTINUOUS
 62
     7
 10
-7.693964566714895
 20
-118.7284101106364
 40
1.000000000000001
 50
270.0000000000007
 51
357.0000000000002
  0
LINE
  8
0
  6
CONTINUOUS
 62
     7
 10
-8.296035433285109
 20
-119.7284101106365
 11
-7.693964566714895
 21
-119.7284101106365
  0
ARC
  8
0
  6
CONTINUOUS
 62
     7
 10
-8.296035433285109
 20
-118.7284101106364
 40
1.000000000000001
 50
183.0000000000009
 51
270.0000000000005
  0
LINE
  8
0
  6
CONTINUOUS
 62
     7
 10
-9.323611668924537
 20
-118.2284101106365
 11
-9.294664968039712
 21
-118.7807460668794
  0
LINE
  8
0
  6
CONTINUOUS
 62
     7
 10
-9.323611668924537
 20
-118.2284101106365
 11
-11.99638833107541
 21
-118.2284101106364
  0
LINE
  8
0
  6
CONTINUOUS
 62
     7
 10
-12.02533503196029
 20
-118.7807460668794
 11
-11.99638833107541
 21
-118.2284101106364
  0
ARC
  8
0
  6
CONTINUOUS
 62
     7
 10
-13.0239645667149
 20
-118.7284101106364
 40
1.000000000000001
 50
270.0000000000011
 51
357.0000000000002
  0
LINE
  8
0
  6
CONTINUOUS
 62
     7
 10
-13.62603543328511
 20
-119.7284101106365
 11
-13.02396456671484
 21
-119.7284101106365
  0
ARC
  8
0
  6
CONTINUOUS
 62
     7
 10
-13.62603543328511
 20
-118.7284101106364
 40
1.000000000000001
 50
183.0000000000011
 51
270.0000000000002
  0
LINE
  8
0
  6
CONTINUOUS
 62
     7
 10
-14.65361166892459
 20
-118.2284101106365
 11
-14.62466496803971
 21
-118.7807460668794
  0
LINE
  8
0
  6
CONTINUOUS
 62
     7
 10
-14.65361166892459
 20
-118.2284101106365
 11
-17.32638833107553
 21
-118.2284101106364
  0
LINE
  8
0
  6
CONTINUOUS
 62
     7
 10
-17.35533503196029
 20
-118.7807460668794
 11
-17.32638833107553
 21
-118.2284101106364
  0
ARC
  8
0
  6
CONTINUOUS
 62
     7
 10
-18.35396456671495
 20
-118.7284101106364
 40
1.000000000000001
 50
270.0000000000028
 51
357.0000000000003
  0
LINE
  8
0
  6
CONTINUOUS
 62
     7
 10
-18.95603543328511
 20
-119.7284101106365
 11
-18.35396456671479
 21
-119.7284101106365
  0
ARC
  8
0
  6
CONTINUOUS
 62
     7
 10
-18.95603543328511
 20
-118.7284101106364
 40
0.9999999999999454
 50
183.0000000000007
 51
269.9999999999999
  0
LINE
  8
0
  6
CONTINUOUS
 62
     7
 10
-19.98361166892448
 20
-118.2284101106365
 11
-19.95466496803972
 21
-118.7807460668794
  0
LINE
  8
0
  6
CONTINUOUS
 62
     7
 10
-19.98361166892448
 20
-118.2284101106365
 11
-22.65638833107542
 21
-118.2284101106364
  0
LINE
  8
0
  6
CONTINUOUS
 62
     7
 10
-22.6853350319603
 20
-118.7807460668794
 11
-22.65638833107542
 21
-118.2284101106364
  0
ARC
  8
0
  6
CONTINUOUS
 62
     7
 10
-23.6839645667149
 20
-118.7284101106364
 40
1.000000000000001
 50
270.0
 51
357.0000000000003
  0
LINE
  8
0
  6
CONTINUOUS
 62
     7
 10
-24.28603543328511
 20
-119.7284101106365
 11
-23.6839645667149
 21
-119.7284101106365
  0
ARC
  8
0
  6
CONTINUOUS
 62
     7
 10
-24.28603543328511
 20
-118.7284101106364
 40
0.9999999999999454
 50
183.0000000000007
 51
269.9999999999999
  0
LINE
  8
0
  6
CONTINUOUS
 62
     7
 10
-25.31361166892454
 20
-118.2284101106365
 11
-25.28466496803972
 21
-118.7807460668794
  0
LINE
  8
0
  6
CONTINUOUS
 62
     7
 10
-25.31361166892454
 20
-118.2284101106365
 11
-27.98638833107547
 21
-118.2284101106364
  0
LINE
  8
0
  6
CONTINUOUS
 62
     7
 10
-28.0153350319603
 20
-118.7807460668794
 11
-27.98638833107547
 21
-118.2284101106364
  0
ARC
  8
0
  6
CONTINUOUS
 62
     7
 10
-29.0139645667149
 20
-118.7284101106364
 40
1.000000000000001
 50
270.0
 51
356.9999999999998
  0
LINE
  8
0
  6
CONTINUOUS
 62
     7
 10
-29.61603543328511
 20
-119.7284101106365
 11
-29.0139645667149
 21
-119.7284101106365
  0
ARC
  8
0
  6
CONTINUOUS
 62
     7
 10
-29.61603543328511
 20
-118.7284101106364
 40
0.9999999999999454
 50
183.0000000000007
 51
269.9999999999999
  0
LINE
  8
0
  6
CONTINUOUS
 62
     7
 10
-30.64361166892465
 20
-118.2284101106365
 11
-30.61466496803966
 21
-118.7807460668794
  0
LINE
  8
0
  6
CONTINUOUS
 62
     7
 10
-30.64361166892465
 20
-118.2284101106365
 11
-33.31638833107542
 21
-118.2284101106364
  0
LINE
  8
0
  6
CONTINUOUS
 62
     7
 10
-33.3453350319603
 20
-118.7807460668794
 11
-33.31638833107542
 21
-118.2284101106364
  0
ARC
  8
0
  6
CONTINUOUS
 62
     7
 10
-34.34396456671496
 20
-118.7284101106364
 40
1.000000000000001
 50
270.0000000000028
 51
356.9999999999997
  0
LINE
  8
0
  6
CONTINUOUS
 62
     7
 10
-34.94603543328512
 20
-119.7284101106365
 11
-34.34396456671485
 21
-119.7284101106365
  0
ARC
  8
0
  6
CONTINUOUS
 62
     7
 10
-34.94603543328512
 20
-118.7284101106364
 40
0.9999999999999454
 50
183.000000000001
 51
270.0000000000002
  0
LINE
  8
0
  6
CONTINUOUS
 62
     7
 10
-35.97361166892448
 20
-118.2284101106365
 11
-35.94466496803972
 21
-118.7807460668794
  0
LINE
  8
0
  6
CONTINUOUS
 62
     7
 10
-35.97361166892448
 20
-118.2284101106365
 11
-38.64638833107553
 21
-118.2284101106364
  0
LINE
  8
0
  6
CONTINUOUS
 62
     7
 10
-38.6753350319603
 20
-118.7807460668794
 11
-38.64638833107553
 21
-118.2284101106364
  0
ARC
  8
0
  6
CONTINUOUS
 62
     7
 10
-39.6739645667149
 20
-118.7284101106364
 40
1.000000000000001
 50
270.0000000000028
 51
356.9999999999997
  0
LINE
  8
0
  6
CONTINUOUS
 62
     7
 10
-40.27603543328512
 20
-119.7284101106365
 11
-39.67396456671479
 21
-119.7284101106365
  0
ARC
  8
0
  6
CONTINUOUS
 62
     7
 10
-40.27603543328512
 20
-118.7284101106364
 40
0.9999999999999454
 50
183.000000000001
 51
270.0000000000002
  0
LINE
  8
0
  6
CONTINUOUS
 62
     7
 10
-41.30361166892449
 20
-118.2284101106365
 11
-41.27466496803972
 21
-118.7807460668794
  0
LINE
  8
0
  6
CONTINUOUS
 62
     7
 10
-41.30361166892449
 20
-118.2284101106365
 11
-43.97638833107542
 21
-118.2284101106364
  0
LINE
  8
0
  6
CONTINUOUS
 62
     7
 10
-44.0053350319603
 20
-118.7807460668794
 11
-43.97638833107542
 21
-118.2284101106364
  0
ARC
  8
0
  6
CONTINUOUS
 62
     7
 10
-45.00396456671491
 20
-118.7284101106364
 40
1.000000000000001
 50
270.0
 51
356.9999999999997
  0
LINE
  8
0
  6
CONTINUOUS
 62
     7
 10
-45.60603543328511
 20
-119.7284101106365
 11
-45.00396456671491
 21
-119.7284101106365
  0
ARC
  8
0
  6
CONTINUOUS
 62
     7
 10
-45.60603543328511
 20
-118.7284101106364
 40
1.000000000000001
 50
183.000000000001
 51
270.0000000000002
  0
LINE
  8
0
  6
CONTINUOUS
 62
     7
 10
-46.63361166892452
 20
-118.2284101106365
 11
-46.60466496803972
 21
-118.7807460668794
  0
LINE
  8
0
  6
CONTINUOUS
 62
     7
 10
-46.63361166892452
 20
-118.2284101106365
 11
-49.3063883310754
 21
-118.2284101106364
  0
LINE
  8
0
  6
CONTINUOUS
 62
     7
 10
-49.33533503196033
 20
-118.7807460668794
 11
-49.3063883310754
 21
-118.2284101106364
  0
ARC
  8
0
  6
CONTINUOUS
 62
     7
 10
-50.3339645667149
 20
-118.7284101106364
 40
1.000000000000001
 50
270.0
 51
356.9999999999997
  0
LINE
  8
0
  6
CONTINUOUS
 62
     7
 10
-50.93603543328509
 20
-119.7284101106365
 11
-50.3339645667149
 21
-119.7284101106365
  0
ARC
  8
0
  6
CONTINUOUS
 62
     7
 10
-50.93603543328509
 20
-118.7284101106364
 40
1.000000000000001
 50
183.0000000000009
 51
270.0
  0
LINE
  8
0
  6
CONTINUOUS
 62
     7
 10
-51.96361166892452
 20
-118.2284101106365
 11
-51.9346649680397
 21
-118.7807460668794
  0
LINE
  8
0
  6
CONTINUOUS
 62
     7
 10
-51.96361166892452
 20
-118.2284101106365
 11
-54.63638833107551
 21
-118.2284101106364
  0
LINE
  8
0
  6
CONTINUOUS
 62
     7
 10
-54.6653350319603
 20
-118.7807460668794
 11
-54.63638833107551
 21
-118.2284101106364
  0
ARC
  8
0
  6
CONTINUOUS
 62
     7
 10
-55.66396456671491
 20
-118.7284101106364
 40
1.000000000000001
 50
270.0
 51
356.9999999999997
  0
LINE
  8
0
  6
CONTINUOUS
 62
     7
 10
-56.26603543328512
 20
-119.7284101106365
 11
-55.66396456671491
 21
-119.7284101106365
  0
ARC
  8
0
  6
CONTINUOUS
 62
     7
 10
-56.26603543328512
 20
-118.7284101106364
 40
1.000000000000001
 50
183.000000000001
 51
270.0000000000002
  0
LINE
  8
0
  6
CONTINUOUS
 62
     7
 10
-57.29361166892452
 20
-118.2284101106365
 11
-57.26466496803972
 21
-118.7807460668794
  0
LINE
  8
0
  6
CONTINUOUS
 62
     7
 10
-57.29361166892452
 20
-118.2284101106365
 11
-59.9663883310754
 21
-118.2284101106364
  0
LINE
  8
0
  6
CONTINUOUS
 62
     7
 10
-59.9953350319603
 20
-118.7807460668794
 11
-59.9663883310754
 21
-118.2284101106364
  0
ARC
  8
0
  6
CONTINUOUS
 62
     7
 10
-60.99396456671491
 20
-118.7284101106364
 40
1.000000000000001
 50
270.0
 51
356.9999999999997
  0
LINE
  8
0
  6
CONTINUOUS
 62
     7
 10
-61.5960354332851
 20
-119.7284101106365
 11
-60.99396456671491
 21
-119.7284101106365
  0
ARC
  8
0
  6
CONTINUOUS
 62
     7
 10
-61.5960354332851
 20
-118.7284101106364
 40
1.000000000000001
 50
183.000000000001
 51
270.0000000000002
  0
LINE
  8
0
  6
CONTINUOUS
 62
     7
 10
-62.6236116689246
 20
-118.2284101106365
 11
-62.59466496803969
 21
-118.7807460668794
  0
LINE
  8
0
  6
CONTINUOUS
 62
     7
 10
-62.6236116689246
 20
-118.2284101106365
 11
-64.0
 21
-118.2284101106365
  0
ARC
  8
0
  6
CONTINUOUS
 62
     7
 10
-64.0
 20
-116.7284101106365
 40
1.500000000000001
 50
180.0
 51
270.0
  0
LINE
  8
0
  6
CONTINUOUS
 62
     7
 10
-65.5
 20
-116.7284101106365
 11
-65.5
 21
-104.2284101106365
  0
ARC
  8
0
  6
CONTINUOUS
 62
     7
 10
-64.0
 20
-104.2284101106365
 40
1.500000000000001
 50
90.0
 51
180.0
  0
LINE
  8
0
  6
CONTINUOUS
 62
     7
 10
-64.0
 20
-102.7284101106365
 11
-62.6236116689245
 21
-102.7284101106366
  0
LINE
  8
0
  6
CONTINUOUS
 62
     7
 10
-62.59466496803969
 20
-102.1760741543936
 11
-62.6236116689245
 21
-102.7284101106366
  0
ARC
  8
0
  6
CONTINUOUS
 62
     7
 10
-61.5960354332851
 20
-102.2284101106366
 40
1.000000000000001
 50
90.0
 51
176.9999999999997
  0
LINE
  8
0
  6
CONTINUOUS
 62
     7
 10
-60.99396456671491
 20
-101.2284101106366
 11
-61.5960354332851
 21
-101.2284101106366
  0
ARC
  8
0
  6
CONTINUOUS
 62
     7
 10
-60.99396456671491
 20
-102.2284101106366
 40
1.000000000000029
 50
3.000000000000409
 51
90.00000000000011
  0
LINE
  8
0
  6
CONTINUOUS
 62
     7
 10
-59.9663883310754
 20
-102.7284101106366
 11
-59.9953350319603
 21
-102.1760741543936
  0
LINE
  8
0
  6
CONTINUOUS
 62
     7
 10
-59.9663883310754
 20
-102.7284101106366
 11
-57.29361166892452
 21
-102.7284101106366
  0
LINE
  8
0
  6
CONTINUOUS
 62
     7
 10
-57.26466496803972
 20
-102.1760741543936
 11
-57.29361166892452
 21
-102.7284101106366
  0
ARC
  8
0
  6
CONTINUOUS
 62
     7
 10
-56.26603543328512
 20
-102.2284101106366
 40
1.000000000000001
 50
90.0
 51
176.9999999999997
  0
LINE
  8
0
  6
CONTINUOUS
 62
     7
 10
-55.66396456671491
 20
-101.2284101106366
 11
-56.26603543328512
 21
-101.2284101106366
  0
ARC
  8
0
  6
CONTINUOUS
 62
     7
 10
-55.66396456671491
 20
-102.2284101106366
 40
1.000000000000001
 50
3.000000000000409
 51
90.00000000000011
  0
LINE
  8
0
  6
CONTINUOUS
 62
     7
 10
-54.63638833107542
 20
-102.7284101106366
 11
-54.6653350319603
 21
-102.1760741543936
  0
LINE
  8
0
  6
CONTINUOUS
 62
     7
 10
-54.63638833107542
 20
-102.7284101106366
 11
-51.96361166892452
 21
-102.7284101106366
  0
LINE
  8
0
  6
CONTINUOUS
 62
     7
 10
-51.9346649680397
 20
-102.1760741543936
 11
-51.96361166892452
 21
-102.7284101106366
  0
ARC
  8
0
  6
CONTINUOUS
 62
     7
 10
-50.93603543328509
 20
-102.2284101106366
 40
1.000000000000001
 50
90.00000000000597
 51
176.9999999999997
  0
LINE
  8
0
  6
CONTINUOUS
 62
     7
 10
-50.3339645667149
 20
-101.2284101106366
 11
-50.93603543328523
 21
-101.2284101106366
  0
ARC
  8
0
  6
CONTINUOUS
 62
     7
 10
-50.3339645667149
 20
-102.2284101106366
 40
1.000000000000001
 50
3.000000000000409
 51
90.00000000000011
  0
LINE
  8
0
  6
CONTINUOUS
 62
     7
 10
-49.3063883310755
 20
-102.7284101106366
 11
-49.33533503196033
 21
-102.1760741543936
  0
LINE
  8
0
  6
CONTINUOUS
 62
     7
 10
-49.3063883310755
 20
-102.7284101106366
 11
-46.6336116689246
 21
-102.7284101106366
  0
LINE
  8
0
  6
CONTINUOUS
 62
     7
 10
-46.60466496803972
 20
-102.1760741543936
 11
-46.6336116689246
 21
-102.7284101106366
  0
ARC
  8
0
  6
CONTINUOUS
 62
     7
 10
-45.60603543328511
 20
-102.2284101106366
 40
1.000000000000001
 50
90.00000000000597
 51
176.9999999999997
  0
LINE
  8
0
  6
CONTINUOUS
 62
     7
 10
-45.00396456671491
 20
-101.2284101106366
 11
-45.6060354332852
 21
-101.2284101106366
  0
ARC
  8
0
  6
CONTINUOUS
 62
     7
 10
-45.00396456671491
 20
-102.2284101106366
 40
1.000000000000056
 50
3.000000000000409
 51
90.00000000000011
  0
LINE
  8
0
  6
CONTINUOUS
 62
     7
 10
-43.97638833107542
 20
-102.7284101106366
 11
-44.0053350319603
 21
-102.1760741543936
  0
LINE
  8
0
  6
CONTINUOUS
 62
     7
 10
-43.97638833107542
 20
-102.7284101106366
 11
-41.30361166892449
 21
-102.7284101106365
  0
LINE
  8
0
  6
CONTINUOUS
 62
     7
 10
-41.27466496803972
 20
-102.1760741543936
 11
-41.30361166892449
 21
-102.7284101106365
  0
ARC
  8
0
  6
CONTINUOUS
 62
     7
 10
-40.27603543328512
 20
-102.2284101106366
 40
1.000000000000001
 50
90.00000000000318
 51
176.9999999999997
  0
LINE
  8
0
  6
CONTINUOUS
 62
     7
 10
-39.6739645667149
 20
-101.2284101106366
 11
-40.27603543328523
 21
-101.2284101106366
  0
ARC
  8
0
  6
CONTINUOUS
 62
     7
 10
-39.67396456671479
 20
-102.2284101106366
 40
1.000000000000001
 50
3.000000000000409
 51
90.00000000000276
  0
LINE
  8
0
  6
CONTINUOUS
 62
     7
 10
-38.64638833107553
 20
-102.7284101106365
 11
-38.6753350319603
 21
-102.1760741543936
  0
LINE
  8
0
  6
CONTINUOUS
 62
     7
 10
-38.64638833107553
 20
-102.7284101106365
 11
-35.97361166892448
 21
-102.7284101106365
  0
LINE
  8
0
  6
CONTINUOUS
 62
     7
 10
-35.94466496803972
 20
-102.1760741543936
 11
-35.97361166892448
 21
-102.7284101106365
  0
ARC
  8
0
  6
CONTINUOUS
 62
     7
 10
-34.94603543328512
 20
-102.2284101106366
 40
1.000000000000001
 50
90.00000000000318
 51
176.9999999999997
  0
LINE
  8
0
  6
CONTINUOUS
 62
     7
 10
-34.34396456671496
 20
-101.2284101106366
 11
-34.94603543328512
 21
-101.2284101106366
  0
ARC
  8
0
  6
CONTINUOUS
 62
     7
 10
-34.34396456671496
 20
-102.2284101106366
 40
1.000000000000056
 50
3.000000000000409
 51
90.00000000000011
  0
LINE
  8
0
  6
CONTINUOUS
 62
     7
 10
-33.31638833107542
 20
-102.7284101106365
 11
-33.3453350319603
 21
-102.1760741543936
  0
LINE
  8
0
  6
CONTINUOUS
 62
     7
 10
-33.31638833107542
 20
-102.7284101106365
 11
-30.64361166892465
 21
-102.7284101106365
  0
LINE
  8
0
  6
CONTINUOUS
 62
     7
 10
-30.61466496803966
 20
-102.1760741543936
 11
-30.64361166892465
 21
-102.7284101106365
  0
ARC
  8
0
  6
CONTINUOUS
 62
     7
 10
-29.61603543328511
 20
-102.2284101106366
 40
1.000000000000001
 50
90.00000000000277
 51
176.9999999999997
  0
LINE
  8
0
  6
CONTINUOUS
 62
     7
 10
-29.0139645667149
 20
-101.2284101106366
 11
-29.61603543328523
 21
-101.2284101106366
  0
ARC
  8
0
  6
CONTINUOUS
 62
     7
 10
-29.0139645667149
 20
-102.2284101106366
 40
1.000000000000056
 50
3.000000000000409
 51
90.00000000000016
  0
LINE
  8
0
  6
CONTINUOUS
 62
     7
 10
-27.98638833107547
 20
-102.7284101106365
 11
-28.0153350319603
 21
-102.1760741543936
  0
LINE
  8
0
  6
CONTINUOUS
 62
     7
 10
-27.98638833107547
 20
-102.7284101106365
 11
-25.31361166892454
 21
-102.7284101106365
  0
LINE
  8
0
  6
CONTINUOUS
 62
     7
 10
-25.28466496803972
 20
-102.1760741543936
 11
-25.31361166892454
 21
-102.7284101106365
  0
ARC
  8
0
  6
CONTINUOUS
 62
     7
 10
-24.28603543328511
 20
-102.2284101106366
 40
1.000000000000001
 50
90.00000000000277
 51
176.9999999999997
  0
LINE
  8
0
  6
CONTINUOUS
 62
     7
 10
-23.6839645667149
 20
-101.2284101106366
 11
-24.28603543328517
 21
-101.2284101106366
  0
ARC
  8
0
  6
CONTINUOUS
 62
     7
 10
-23.6839645667149
 20
-102.2284101106366
 40
1.000000000000001
 50
3.000000000000409
 51
90.00000000000016
  0
LINE
  8
0
  6
CONTINUOUS
 62
     7
 10
-22.65638833107542
 20
-102.7284101106365
 11
-22.6853350319603
 21
-102.1760741543936
  0
LINE
  8
0
  6
CONTINUOUS
 62
     7
 10
-22.65638833107542
 20
-102.7284101106365
 11
-20.50000000000002
 21
-102.7284101106365
  0
ARC
  8
0
  6
CONTINUOUS
 62
     7
 10
-20.50000000000002
 20
-104.2284101106365
 40
1.500000000000001
 50
0.0
 51
90.0
  0
LINE
  8
0
  6
CONTINUOUS
 62
     7
 10
-19.00000000000002
 20
-104.2284101106365
 11
-19.00000000000002
 21
-105.2396682926464
  0
LINE
  8
0
  6
CONTINUOUS
 62
     7
 10
-19.00000000000002
 20
-105.2396682926464
 11
-62.9887418179901
 21
-105.2396682926464
  0
LINE
  8
0
  6
CONTINUOUS
 62
     7
 10
-62.9887418179901
 20
-105.2396682926464
 11
-62.9887418179901
 21
-115.7171519286266
  0
LINE
  8
0
  6
CONTINUOUS
 62
     7
 10
-62.9887418179901
 20
-115.7171519286266
 11
62.98874181799007
 21
-115.7171519286266
  0
LINE
  8
0
  6
CONTINUOUS
 62
     7
 10
62.98874181799007
 20
-115.7171519286266
 11
62.98874181799007
 21
-105.2396682926464
  0
LINE
  8
0
  6
CONTINUOUS
 62
     7
 10
62.98874181799007
 20
-105.2396682926464
 11
19.00000000000002
 21
-105.2396682926464
  0
LINE
  8
0
  6
CONTINUOUS
 62
     7
 10
19.00000000000002
 20
-104.2284101106365
 11
19.00000000000002
 21
-105.2396682926464
  0
ARC
  8
0
  6
CONTINUOUS
 62
     7
 10
20.50000000000002
 20
-104.2284101106365
 40
1.500000000000001
 50
90.0
 51
180.0
  0
LINE
  8
0
  6
CONTINUOUS
 62
     7
 10
20.50000000000002
 20
-102.7284101106365
 11
22.65638833107547
 21
-102.7284101106365
  0
LINE
  8
0
  6
CONTINUOUS
 62
     7
 10
19.00000000000002
 20
-104.2284101106365
 11
12.00000000000001
 21
-104.2284101106365
  0
ARC
  8
0
  6
CONTINUOUS
 62
     7
 10
13.50000000000001
 20
-104.2284101106365
 40
1.500000000000001
 50
90.0
 51
180.0
  0
LINE
  8
0
  6
CONTINUOUS
 62
     7
 10
13.50000000000001
 20
-102.7284101106365
 11
20.50000000000002
 21
-102.7284101106365
  0
ARC
  8
0
  6
CONTINUOUS
 62
     7
 10
-13.50000000000001
 20
-104.2284101106365
 40
1.500000000000001
 50
0.0
 51
90.0
  0
LINE
  8
0
  6
CONTINUOUS
 62
     7
 10
-12.00000000000001
 20
-104.2284101106365
 11
-19.00000000000002
 21
-104.2284101106365
  0
LINE
  8
0
  6
CONTINUOUS
 62
     7
 10
-20.50000000000002
 20
-102.7284101106365
 11
-13.50000000000001
 21
-102.7284101106365
  0
LINE
  8
0
  6
CONTINUOUS
 62
     7
 10
-14.66987298107775
 20
-105.2396682926464
 11
-12.00000000000001
 21
-105.3356711505458
  0
LINE
  8
0
  6
CONTINUOUS
 62
     7
 10
-12.00000000000001
 20
-104.2284101106365
 11
-12.00000000000001
 21
-105.3356711505457
  0
LINE
  8
0
  6
CONTINUOUS
 62
     7
 10
-14.66987298107775
 20
-105.2396682926464
 11
-19.00000000000002
 21
-105.2396682926464
  0
LINE
  8
0
  6
CONTINUOUS
 62
     7
 10
14.66987298107769
 20
-105.2396682926464
 11
12.00000000000001
 21
-105.3356711505458
  0
LINE
  8
0
  6
CONTINUOUS
 62
     7
 10
12.00000000000001
 20
-104.2284101106365
 11
12.00000000000001
 21
-105.3356737570441
  0
LINE
  8
0
  6
CONTINUOUS
 62
     7
 10
14.66987298107769
 20
-105.2396682926464
 11
19.00000000000002
 21
-105.2396682926464
  0
LINE
  8
0
  6
CONTINUOUS
 62
     7
 10
-12.00000000000001
 20
-105.3356711505457
 11
-12.00000000000001
 21
-105.6692647662446
  0
LINE
  8
0
  6
CONTINUOUS
 62
     7
 10
-62.55914534439219
 20
-105.6692647662446
 11
-12.00000000000001
 21
-105.6692647662446
  0
LINE
  8
0
  6
CONTINUOUS
 62
     7
 10
-62.9887418179901
 20
-105.2396682926464
 11
-62.55914534439219
 21
-105.6692647662446
  0
LINE
  8
0
  6
CONTINUOUS
 62
     7
 10
-62.9887418179901
 20
-115.7171519286266
 11
-62.55914534439191
 21
-115.2875554550284
  0
LINE
  8
0
  6
CONTINUOUS
 62
     7
 10
-62.50000000000033
 20
-109.1529457959072
 11
-62.48528799680481
 21
-105.6692647662446
  0
LINE
  8
0
  6
CONTINUOUS
 62
     7
 10
-62.5
 20
-111.8038744253659
 11
-62.5
 21
-109.1529457959072
  0
LINE
  8
0
  6
CONTINUOUS
 62
     7
 10
62.98874181799007
 20
-105.2396682926464
 11
62.55914534439228
 21
-105.6692647662446
  0
LINE
  8
0
  6
CONTINUOUS
 62
     7
 10
12.00000000000001
 20
-105.6692647662446
 11
62.55914534439228
 21
-105.6692647662446
  0
LINE
  8
0
  6
CONTINUOUS
 62
     7
 10
12.00000000000001
 20
-105.6692647662446
 11
12.00000000000001
 21
-105.3356737570441
  0
LINE
  8
0
  6
CONTINUOUS
 62
     7
 10
62.98874181799007
 20
-115.7171519286266
 11
62.55914534439189
 21
-115.2875554550284
  0
LINE
  8
0
  6
CONTINUOUS
 62
     7
 10
62.50000000000016
 20
-111.8038744253659
 11
62.48528799680481
 21
-115.2875554550284
  0
LINE
  8
0
  6
CONTINUOUS
 62
     7
 10
62.5
 20
-109.1529457959072
 11
62.5
 21
-111.8038744253659
  0
LINE
  8
0
  6
CONTINUOUS
 62
     7
 10
-62.55914534439191
 20
-115.2875554550284
 11
62.55914534439189
 21
-115.2875554550284
  0
LINE
  8
0
  6
CONTINUOUS
 62
     7
 10
-17.20736850330423
 20
-102.2284101106365
 11
-20.1326741675581
 21
-102.2284101106365
  0
LINE
  8
0
  6
CONTINUOUS
 62
     7
 10
-15.87199573863646
 20
-102.2284101106365
 11
-15.87199573863646
 21
-102.7284101106365
  0
LINE
  8
0
  6
CONTINUOUS
 62
     7
 10
-16.5674502840909
 20
-102.2284101106365
 11
-16.5674502840909
 21
-102.7284101106365
  0
LINE
  8
0
  6
CONTINUOUS
 62
     7
 10
-15.87199573863646
 20
-102.2284101106365
 11
-16.5674502840909
 21
-102.2284101106365
  0
LINE
  8
0
  6
CONTINUOUS
 62
     7
 10
20.4930259758343
 20
-102.2287541106365
 11
16.75145599372346
 21
-102.2287541106365
  0
LINE
  8
0
  6
CONTINUOUS
 62
     7
 10
20.4930259758343
 20
-102.2287541106365
 11
20.4930259758343
 21
-102.7284101106365
  0
LINE
  8
0
  6
CONTINUOUS
 62
     7
 10
16.75145599372346
 20
-102.2287541106365
 11
16.75145599372346
 21
-102.7284101106365
  0
LINE
  8
0
  6
CONTINUOUS
 62
     7
 10
-16.5674502840909
 20
-102.2284101106365
 11
-17.19908869694303
 21
-102.2284101106365
  0
LINE
  8
0
  6
CONTINUOUS
 62
     7
 10
16.75145599372346
 20
-102.2287541106365
 11
15.5027596241657
 21
-102.2287541106365
  0
LINE
  8
0
  6
CONTINUOUS
 62
     7
 10
15.5027596241657
 20
-102.2287541106365
 11
15.5027596241657
 21
-102.7284101106365
  0
LINE
  8
0
  6
CONTINUOUS
 62
     7
 10
18.3589645667146
 20
-102.2287541106365
 11
18.3589645667146
 21
-100.0012023167725
  0
LINE
  8
0
  6
CONTINUOUS
 62
     7
 10
17.3603350319601
 20
-102.2287541106365
 11
17.3603350319601
 21
-100.9488663605296
  0
LINE
  8
0
  6
CONTINUOUS
 62
     7
 10
-18.95103543328541
 20
-102.2273492779081
 11
-18.95103543328541
 21
-100.0012023167726
  0
LINE
  8
0
  6
CONTINUOUS
 62
     7
 10
-19.9496649680399
 20
-102.2268635292368
 11
-19.9496649680399
 21
-100.9488663605296
  0
LINE
  8
0
  6
CONTINUOUS
 62
     7
 10
-17.35033503196059
 20
-102.2268635292368
 11
-17.35033503196059
 21
-100.9488663605296
  0
LINE
  8
0
  6
CONTINUOUS
 62
     7
 10
-18.34896456671509
 20
-102.2273492779081
 11
-18.34896456671509
 21
-100.0012023167726
  0
LINE
  8
0
  6
CONTINUOUS
 62
     7
 10
19.95966496803942
 20
-102.2287541106365
 11
19.95966496803942
 21
-100.9488663605296
  0
LINE
  8
0
  6
CONTINUOUS
 62
     7
 10
18.96103543328492
 20
-102.2287541106365
 11
18.96103543328492
 21
-100.0012023167726
  0
LINE
  8
0
  6
CONTINUOUS
 62
     7
 10
-64.0
 20
-118.6615422731769
 11
-64.0
 21
-118.2284101106365
  0
ARC
  8
0
  6
CONTINUOUS
 62
     7
 10
-63.99706239985703
 20
-117.3196925315228
 40
1.341852957172152
 50
243.2596100794131
 51
269.8745673110964
  0
ARC
  8
0
  6
CONTINUOUS
 62
     7
 10
-63.9339573619101
 20
-117.2077639838824
 40
1.470217488215519
 50
215.5854833786225
 51
243.02601232135
  0
LINE
  8
0
  6
CONTINUOUS
 62
     7
 10
-65.12960912203131
 20
-118.063308448638
 11
-65.22898452875592
 21
-117.9088381021852
  0
ARC
  8
0
  6
CONTINUOUS
 62
     7
 10
-63.08368669015432
 20
-116.7949720056982
 40
2.41722992228946
 50
178.4220790275481
 51
207.4389169854729
  0
LINE
  8
0
  6
CONTINUOUS
 62
     7
 10
64.0
 20
-118.2284101106365
 11
64.0
 21
-118.6615422731768
  0
ARC
  8
0
  6
CONTINUOUS
 62
     7
 10
63.84644711942911
 20
-116.9938708318493
 40
1.674725805423438
 50
275.2607452764867
 51
9.120419576633537
  0
LINE
  8
0
  6
CONTINUOUS
 62
     7
 10
64.0
 20
-102.2952779480963
 11
64.0
 21
-102.7284101106365
  0
ARC
  8
0
  6
CONTINUOUS
 62
     7
 10
63.99706239985697
 20
-103.6371276897503
 40
1.341852957172152
 50
63.25961007941202
 51
89.87456731109516
  0
ARC
  8
0
  6
CONTINUOUS
 62
     7
 10
63.9339573619106
 20
-103.7490562373901
 40
1.470217488214853
 50
35.58548337855677
 51
63.02601232135703
  0
LINE
  8
0
  6
CONTINUOUS
 62
     7
 10
65.12960912203219
 20
-102.8935117726364
 11
65.22898452875647
 21
-103.0479821190891
  0
ARC
  8
0
  6
CONTINUOUS
 62
     7
 10
63.08368669015396
 20
-104.1618482155749
 40
2.417229922289821
 50
358.422079027551
 51
27.43891698543633
  0
LINE
  8
0
  6
CONTINUOUS
 62
     7
 10
-64.0
 20
-102.7284101106365
 11
-64.0
 21
-102.2952779480963
  0
ARC
  8
0
  6
CONTINUOUS
 62
     7
 10
-63.84644711942761
 20
-103.962949389425
 40
1.674725805424687
 50
95.26074527653333
 51
189.1204195765843
  0
LINE
  8
0
  6
CONTINUOUS
 62
     7
 10
-62.61861166892463
 20
-118.6615422731769
 11
-64.0
 21
-118.6615422731769
  0
LINE
  8
0
  6
CONTINUOUS
 62
     7
 10
-35.96861166892462
 20
-118.6615422731769
 11
-38.64138833107516
 21
-118.6615422731769
  0
LINE
  8
0
  6
CONTINUOUS
 62
     7
 10
1.341388331075388
 20
-118.6615422731768
 11
-1.331388331075545
 21
-118.6615422731768
  0
LINE
  8
0
  6
CONTINUOUS
 62
     7
 10
-46.62861166892462
 20
-118.6615422731769
 11
-49.30138833107534
 21
-118.6615422731769
  0
LINE
  8
0
  6
CONTINUOUS
 62
     7
 10
59.9713883310754
 20
-118.6615422731768
 11
57.29861166892458
 21
-118.6615422731768
  0
LINE
  8
0
  6
CONTINUOUS
 62
     7
 10
-9.318611668924614
 20
-118.6615422731768
 11
-11.99138833107549
 21
-118.6615422731768
  0
LINE
  8
0
  6
CONTINUOUS
 62
     7
 10
-14.64861166892462
 20
-118.6615422731768
 11
-17.32138833107533
 21
-118.6615422731769
  0
LINE
  8
0
  6
CONTINUOUS
 62
     7
 10
64.0
 20
-118.6615422731768
 11
62.62861166892458
 21
-118.6615422731768
  0
LINE
  8
0
  6
CONTINUOUS
 62
     7
 10
12.00138833107539
 20
-118.6615422731768
 11
9.328611668924513
 21
-118.6615422731768
  0
LINE
  8
0
  6
CONTINUOUS
 62
     7
 10
-51.9586116689246
 20
-118.6615422731769
 11
-54.63138833107531
 21
-118.6615422731769
  0
LINE
  8
0
  6
CONTINUOUS
 62
     7
 10
-41.29861166892474
 20
-118.6615422731769
 11
-43.97138833107523
 21
-118.6615422731769
  0
LINE
  8
0
  6
CONTINUOUS
 62
     7
 10
49.3113883310754
 20
-118.6615422731768
 11
46.63861166892458
 21
-118.6615422731768
  0
LINE
  8
0
  6
CONTINUOUS
 62
     7
 10
27.99138833107534
 20
-118.6615422731768
 11
25.31861166892457
 21
-118.6615422731769
  0
LINE
  8
0
  6
CONTINUOUS
 62
     7
 10
-19.97861166892462
 20
-118.6615422731769
 11
-22.65138833107527
 21
-118.6615422731769
  0
LINE
  8
0
  6
CONTINUOUS
 62
     7
 10
22.66138833107539
 20
-118.6615422731769
 11
19.98861166892468
 21
-118.6615422731769
  0
LINE
  8
0
  6
CONTINUOUS
 62
     7
 10
-30.63861166892467
 20
-118.6615422731769
 11
-33.31138833107522
 21
-118.6615422731769
  0
LINE
  8
0
  6
CONTINUOUS
 62
     7
 10
43.9813883310754
 20
-118.6615422731768
 11
41.30861166892458
 21
-118.6615422731768
  0
LINE
  8
0
  6
CONTINUOUS
 62
     7
 10
17.33138833107539
 20
-118.6615422731769
 11
14.65861166892451
 21
-118.6615422731768
  0
LINE
  8
0
  6
CONTINUOUS
 62
     7
 10
54.6413883310754
 20
-118.6615422731768
 11
51.96861166892458
 21
-118.6615422731768
  0
LINE
  8
0
  6
CONTINUOUS
 62
     7
 10
33.3213883310754
 20
-118.6615422731768
 11
30.64861166892463
 21
-118.6615422731768
  0
LINE
  8
0
  6
CONTINUOUS
 62
     7
 10
38.6513883310754
 20
-118.6615422731768
 11
35.97861166892458
 21
-118.6615422731768
  0
LINE
  8
0
  6
CONTINUOUS
 62
     7
 10
-3.988611668924613
 20
-118.6615422731768
 11
-6.66138833107549
 21
-118.6615422731768
  0
LINE
  8
0
  6
CONTINUOUS
 62
     7
 10
-25.30861166892456
 20
-118.6615422731769
 11
-27.98138833107533
 21
-118.6615422731769
  0
LINE
  8
0
  6
CONTINUOUS
 62
     7
 10
-57.2886116689246
 20
-118.6615422731769
 11
-59.96138833107531
 21
-118.6615422731769
  0
LINE
  8
0
  6
CONTINUOUS
 62
     7
 10
6.67138833107539
 20
-118.6615422731768
 11
3.998611668924457
 21
-118.6615422731768
  0
LINE
  8
0
  6
CONTINUOUS
 62
     7
 10
62.62861166892431
 20
-102.2952779480963
 11
64.0
 21
-102.2952779480962
  0
LINE
  8
0
  6
CONTINUOUS
 62
     7
 10
-38.64138833107572
 20
-102.2952779480964
 11
-35.96861166892479
 21
-102.2952779480964
  0
LINE
  8
0
  6
CONTINUOUS
 62
     7
 10
-64.0
 20
-102.2952779480963
 11
-62.61861166892482
 21
-102.2952779480964
  0
LINE
  8
0
  6
CONTINUOUS
 62
     7
 10
-59.96138833107572
 20
-102.2952779480964
 11
-57.28861166892482
 21
-102.2952779480964
  0
LINE
  8
0
  6
CONTINUOUS
 62
     7
 10
-13.50000000000001
 20
-102.2952779480963
 11
-13.50000000000001
 21
-102.7284101106365
  0
LINE
  8
0
  6
CONTINUOUS
 62
     7
 10
-12.00000000000001
 20
-103.5787118668261
 11
-12.02882207939515
 21
-103.3283263303347
  0
LINE
  8
0
  6
CONTINUOUS
 62
     7
 10
-12.02882207939515
 20
-103.3283263303347
 11
-12.11418070123316
 21
-103.0875629695928
  0
LINE
  8
0
  6
CONTINUOUS
 62
     7
 10
-12.11418070123316
 20
-103.0875629695928
 11
-12.25279558154618
 21
-102.8656741855321
  0
LINE
  8
0
  6
CONTINUOUS
 62
     7
 10
-12.25279558154618
 20
-102.8656741855321
 11
-12.43933982822021
 21
-102.6711870396874
  0
LINE
  8
0
  6
CONTINUOUS
 62
     7
 10
-12.43933982822021
 20
-102.6711870396874
 11
-12.66664465047063
 21
-102.5115755640039
  0
LINE
  8
0
  6
CONTINUOUS
 62
     7
 10
-12.66664465047063
 20
-102.5115755640039
 11
-12.92597485145241
 21
-102.3929735379808
  0
LINE
  8
0
  6
CONTINUOUS
 62
     7
 10
-12.92597485145241
 20
-102.3929735379808
 11
-13.20736451697579
 21
-102.3199387709656
  0
LINE
  8
0
  6
CONTINUOUS
 62
     7
 10
-13.20736451697579
 20
-102.3199387709656
 11
-13.50000000000001
 21
-102.2952779480962
  0
LINE
  8
0
  6
CONTINUOUS
 62
     7
 10
-12.00000000000001
 20
-104.2284101106365
 11
-12.00000000000001
 21
-103.5787118668261
  0
LINE
  8
0
  6
CONTINUOUS
 62
     7
 10
51.96861166892425
 20
-102.2952779480963
 11
54.64138833107518
 21
-102.2952779480964
  0
LINE
  8
0
  6
CONTINUOUS
 62
     7
 10
-54.6313883310757
 20
-102.2952779480964
 11
-51.95861166892482
 21
-102.2952779480964
  0
LINE
  8
0
  6
CONTINUOUS
 62
     7
 10
46.6386116689243
 20
-102.2952779480963
 11
49.31138833107518
 21
-102.2952779480964
  0
LINE
  8
0
  6
CONTINUOUS
 62
     7
 10
35.97861166892429
 20
-102.2952779480964
 11
38.65138833107518
 21
-102.2952779480964
  0
LINE
  8
0
  6
CONTINUOUS
 62
     7
 10
25.31861166892429
 20
-102.2952779480964
 11
27.99138833107517
 21
-102.2952779480964
  0
LINE
  8
0
  6
CONTINUOUS
 62
     7
 10
13.49999999999979
 20
-102.7284101106365
 11
13.4999999999999
 21
-102.2952779480963
  0
LINE
  8
0
  6
CONTINUOUS
 62
     7
 10
13.49999999999979
 20
-102.2952779480962
 11
13.20736451697557
 21
-102.3199387709657
  0
LINE
  8
0
  6
CONTINUOUS
 62
     7
 10
13.20736451697557
 20
-102.3199387709657
 11
12.92597485145219
 21
-102.3929735379809
  0
LINE
  8
0
  6
CONTINUOUS
 62
     7
 10
12.92597485145219
 20
-102.3929735379809
 11
12.66664465047051
 21
-102.5115755640039
  0
LINE
  8
0
  6
CONTINUOUS
 62
     7
 10
12.66664465047051
 20
-102.5115755640039
 11
12.4393398282201
 21
-102.6711870396875
  0
LINE
  8
0
  6
CONTINUOUS
 62
     7
 10
12.4393398282201
 20
-102.6711870396875
 11
12.25279558154607
 21
-102.8656741855322
  0
LINE
  8
0
  6
CONTINUOUS
 62
     7
 10
12.25279558154607
 20
-102.8656741855322
 11
12.1141807012331
 21
-103.0875629695928
  0
LINE
  8
0
  6
CONTINUOUS
 62
     7
 10
12.1141807012331
 20
-103.0875629695928
 11
12.02882207939504
 21
-103.3283263303347
  0
LINE
  8
0
  6
CONTINUOUS
 62
     7
 10
12.02882207939504
 20
-103.3283263303347
 11
12.00000000000001
 21
-103.5787118668261
  0
LINE
  8
0
  6
CONTINUOUS
 62
     7
 10
12.00000000000001
 20
-103.5787118668261
 11
12.00000000000001
 21
-104.2284101106365
  0
LINE
  8
0
  6
CONTINUOUS
 62
     7
 10
-22.65138833107566
 20
-102.2952779480964
 11
-20.13267416768633
 21
-102.2952779480964
  0
LINE
  8
0
  6
CONTINUOUS
 62
     7
 10
-43.97138833107572
 20
-102.2952779480964
 11
-41.29861166892479
 21
-102.2952779480964
  0
LINE
  8
0
  6
CONTINUOUS
 62
     7
 10
-27.98138833107572
 20
-102.2952779480964
 11
-25.30861166892484
 21
-102.2952779480964
  0
LINE
  8
0
  6
CONTINUOUS
 62
     7
 10
20.4930259758343
 20
-102.2952779480964
 11
22.66138833107523
 21
-102.2952779480964
  0
LINE
  8
0
  6
CONTINUOUS
 62
     7
 10
13.49999999999979
 20
-102.2952779480962
 11
15.5027596241657
 21
-102.2952779480963
  0
LINE
  8
0
  6
CONTINUOUS
 62
     7
 10
-33.31138833107572
 20
-102.2952779480964
 11
-30.63861166892478
 21
-102.2952779480964
  0
LINE
  8
0
  6
CONTINUOUS
 62
     7
 10
41.3086116689243
 20
-102.2952779480964
 11
43.98138833107517
 21
-102.2952779480964
  0
LINE
  8
0
  6
CONTINUOUS
 62
     7
 10
57.2986116689243
 20
-102.2952779480963
 11
59.97138833107524
 21
-102.2952779480964
  0
LINE
  8
0
  6
CONTINUOUS
 62
     7
 10
-49.30138833107572
 20
-102.2952779480964
 11
-46.62861166892482
 21
-102.2952779480964
  0
LINE
  8
0
  6
CONTINUOUS
 62
     7
 10
30.6486116689243
 20
-102.2952779480964
 11
33.32138833107518
 21
-102.2952779480964
  0
LINE
  8
0
  6
CONTINUOUS
 62
     7
 10
-15.87199573863646
 20
-102.2952779480963
 11
-13.50000000000001
 21
-102.2952779480963
  0
LINE
  8
0
  6
CONTINUOUS
 62
     7
 10
19.98861166892429
 20
-102.2287541106365
 11
19.98861166892429
 21
-101.5012023167725
  0
LINE
  8
0
  6
CONTINUOUS
 62
     7
 10
17.33138833107517
 20
-102.2287541106365
 11
17.33138833107517
 21
-101.5012023167725
  0
LINE
  8
0
  6
CONTINUOUS
 62
     7
 10
-17.32138833107572
 20
-102.2267792742688
 11
-17.32138833107572
 21
-101.5012023167725
  0
LINE
  8
0
  6
CONTINUOUS
 62
     7
 10
-19.97861166892484
 20
-102.2267792742688
 11
-19.97861166892484
 21
-101.5012023167725
  0
LINE
  8
0
  6
CONTINUOUS
 62
     7
 10
60.99896456671488
 20
-119.7284101106364
 11
60.99896456671488
 21
-120.9556179045008
  0
LINE
  8
0
  6
CONTINUOUS
 62
     7
 10
60.00033503196028
 20
-118.8411059298324
 11
60.00033503196028
 21
-120.0079538607437
  0
LINE
  8
0
  6
CONTINUOUS
 62
     7
 10
50.33896456671483
 20
-119.7284101106364
 11
50.33896456671483
 21
-120.9556179045008
  0
LINE
  8
0
  6
CONTINUOUS
 62
     7
 10
49.34033503196028
 20
-118.8411059298324
 11
49.34033503196028
 21
-120.0079538607437
  0
LINE
  8
0
  6
CONTINUOUS
 62
     7
 10
34.34896456671482
 20
-119.7284101106364
 11
34.34896456671482
 21
-120.9556179045007
  0
LINE
  8
0
  6
CONTINUOUS
 62
     7
 10
33.35033503196038
 20
-118.841105929831
 11
33.35033503196038
 21
-120.0079538607437
  0
LINE
  8
0
  6
CONTINUOUS
 62
     7
 10
39.67896456671488
 20
-119.7284101106364
 11
39.67896456671488
 21
-120.9556179045007
  0
LINE
  8
0
  6
CONTINUOUS
 62
     7
 10
38.68033503196039
 20
-118.841105929831
 11
38.68033503196039
 21
-120.0079538607437
  0
LINE
  8
0
  6
CONTINUOUS
 62
     7
 10
45.00896456671477
 20
-119.7284101106364
 11
45.00896456671477
 21
-120.9556179045008
  0
LINE
  8
0
  6
CONTINUOUS
 62
     7
 10
44.01033503196039
 20
-118.841105929831
 11
44.01033503196039
 21
-120.0079538607437
  0
LINE
  8
0
  6
CONTINUOUS
 62
     7
 10
55.66896456671477
 20
-119.7284101106364
 11
55.66896456671477
 21
-120.9556179045008
  0
LINE
  8
0
  6
CONTINUOUS
 62
     7
 10
54.67033503196051
 20
-118.841105929831
 11
54.67033503196051
 21
-120.0079538607437
  0
LINE
  8
0
  6
CONTINUOUS
 62
     7
 10
29.01896456671476
 20
-119.7284101106364
 11
29.01896456671476
 21
-120.9556179045007
  0
LINE
  8
0
  6
CONTINUOUS
 62
     7
 10
28.02033503196033
 20
-118.8411059298322
 11
28.02033503196033
 21
-120.0079538607437
  0
LINE
  8
0
  6
CONTINUOUS
 62
     7
 10
23.68896456671477
 20
-119.7284101106364
 11
23.68896456671477
 21
-120.9556179045007
  0
LINE
  8
0
  6
CONTINUOUS
 62
     7
 10
22.69033503196027
 20
-118.8411059298322
 11
22.69033503196027
 21
-120.0079538607437
  0
LINE
  8
0
  6
CONTINUOUS
 62
     7
 10
18.35896456671482
 20
-119.7284101106364
 11
18.35896456671482
 21
-120.9556179045007
  0
LINE
  8
0
  6
CONTINUOUS
 62
     7
 10
17.36033503196027
 20
-118.8411059298322
 11
17.36033503196027
 21
-120.0079538607437
  0
LINE
  8
0
  6
CONTINUOUS
 62
     7
 10
-8.291035433285243
 20
-119.7284101106364
 11
-8.291035433285243
 21
-120.9556179045008
  0
LINE
  8
0
  6
CONTINUOUS
 62
     7
 10
-9.289664968039679
 20
-118.8411059298308
 11
-9.289664968039679
 21
-120.0079538607437
  0
LINE
  8
0
  6
CONTINUOUS
 62
     7
 10
7.698964566714761
 20
-119.7284101106364
 11
7.698964566714761
 21
-120.9556179045007
  0
LINE
  8
0
  6
CONTINUOUS
 62
     7
 10
6.700335031960214
 20
-118.8411059298322
 11
6.700335031960214
 21
-120.0079538607437
  0
LINE
  8
0
  6
CONTINUOUS
 62
     7
 10
-2.961035433285186
 20
-119.7284101106364
 11
-2.961035433285186
 21
-120.9556179045007
  0
LINE
  8
0
  6
CONTINUOUS
 62
     7
 10
-3.959664968039733
 20
-118.8411059298322
 11
-3.959664968039733
 21
-120.0079538607437
  0
LINE
  8
0
  6
CONTINUOUS
 62
     7
 10
2.368964566714815
 20
-119.7284101106364
 11
2.368964566714815
 21
-120.9556179045007
  0
LINE
  8
0
  6
CONTINUOUS
 62
     7
 10
1.370335031960268
 20
-118.8411059298322
 11
1.370335031960268
 21
-120.0079538607437
  0
LINE
  8
0
  6
CONTINUOUS
 62
     7
 10
13.02896456671482
 20
-119.7284101106364
 11
13.02896456671482
 21
-120.9556179045007
  0
LINE
  8
0
  6
CONTINUOUS
 62
     7
 10
12.03033503196033
 20
-118.8411059298308
 11
12.03033503196033
 21
-120.0079538607437
  0
LINE
  8
0
  6
CONTINUOUS
 62
     7
 10
-13.62103543328525
 20
-119.7284101106364
 11
-13.62103543328525
 21
-120.9556179045008
  0
LINE
  8
0
  6
CONTINUOUS
 62
     7
 10
-14.61966496803974
 20
-118.8411059298321
 11
-14.61966496803974
 21
-120.0079538607437
  0
LINE
  8
0
  6
CONTINUOUS
 62
     7
 10
-56.2610354332852
 20
-119.7284101106365
 11
-56.2610354332852
 21
-120.9556179045008
  0
LINE
  8
0
  6
CONTINUOUS
 62
     7
 10
-57.2596649680398
 20
-118.8411059298321
 11
-57.2596649680398
 21
-120.0079538607437
  0
LINE
  8
0
  6
CONTINUOUS
 62
     7
 10
-34.94103543328519
 20
-119.7284101106364
 11
-34.94103543328519
 21
-120.9556179045008
  0
LINE
  8
0
  6
CONTINUOUS
 62
     7
 10
-35.93966496803974
 20
-118.8411059298321
 11
-35.93966496803974
 21
-120.0079538607437
  0
LINE
  8
0
  6
CONTINUOUS
 62
     7
 10
-45.6010354332852
 20
-119.7284101106364
 11
-45.6010354332852
 21
-120.9556179045008
  0
LINE
  8
0
  6
CONTINUOUS
 62
     7
 10
-46.5996649680398
 20
-118.8411059298321
 11
-46.5996649680398
 21
-120.0079538607437
  0
LINE
  8
0
  6
CONTINUOUS
 62
     7
 10
-50.93103543328522
 20
-119.7284101106365
 11
-50.93103543328522
 21
-120.9556179045008
  0
LINE
  8
0
  6
CONTINUOUS
 62
     7
 10
-51.92966496803983
 20
-118.8411059298321
 11
-51.92966496803983
 21
-120.0079538607437
  0
LINE
  8
0
  6
CONTINUOUS
 62
     7
 10
-40.27103543328519
 20
-119.7284101106364
 11
-40.27103543328519
 21
-120.9556179045008
  0
LINE
  8
0
  6
CONTINUOUS
 62
     7
 10
-41.26966496803968
 20
-118.8411059298321
 11
-41.26966496803968
 21
-120.0079538607437
  0
LINE
  8
0
  6
CONTINUOUS
 62
     7
 10
-29.61103543328525
 20
-119.7284101106364
 11
-29.61103543328525
 21
-120.9556179045008
  0
LINE
  8
0
  6
CONTINUOUS
 62
     7
 10
-30.60966496803968
 20
-118.8411059298321
 11
-30.60966496803968
 21
-120.0079538607437
  0
LINE
  8
0
  6
CONTINUOUS
 62
     7
 10
-24.28103543328519
 20
-119.7284101106364
 11
-24.28103543328519
 21
-120.9556179045008
  0
LINE
  8
0
  6
CONTINUOUS
 62
     7
 10
-25.27966496803968
 20
-118.8411059298321
 11
-25.27966496803968
 21
-120.0079538607437
  0
LINE
  8
0
  6
CONTINUOUS
 62
     7
 10
-18.95103543328519
 20
-119.7284101106364
 11
-18.95103543328519
 21
-120.9556179045008
  0
LINE
  8
0
  6
CONTINUOUS
 62
     7
 10
-19.94966496803974
 20
-118.8411059298321
 11
-19.94966496803974
 21
-120.0079538607437
  0
LINE
  8
0
  6
CONTINUOUS
 62
     7
 10
-61.59103543328523
 20
-119.7284101106365
 11
-61.59103543328523
 21
-120.9556179045008
  0
LINE
  8
0
  6
CONTINUOUS
 62
     7
 10
-62.58966496803969
 20
-118.8411059298308
 11
-62.58966496803961
 21
-120.0079538607437
  0
LINE
  8
0
  6
CONTINUOUS
 62
     7
 10
30.61966496803936
 20
-102.2714798378215
 11
30.61966496803936
 21
-100.9488663605296
  0
LINE
  8
0
  6
CONTINUOUS
 62
     7
 10
29.62103543328487
 20
-101.2284226107147
 11
29.62103543328487
 21
-100.0012023167726
  0
LINE
  8
0
  6
CONTINUOUS
 62
     7
 10
-38.6703350319606
 20
-102.2714798378205
 11
-38.6703350319606
 21
-100.9488663605296
  0
LINE
  8
0
  6
CONTINUOUS
 62
     7
 10
-39.66896456671509
 20
-101.2284226107147
 11
-39.66896456671509
 21
-100.0012023167725
  0
LINE
  8
0
  6
CONTINUOUS
 62
     7
 10
57.26966496803942
 20
-102.2714798378242
 11
57.26966496803942
 21
-100.9488663605296
  0
LINE
  8
0
  6
CONTINUOUS
 62
     7
 10
56.27103543328488
 20
-101.2284226107147
 11
56.27103543328488
 21
-100.0012023167725
  0
LINE
  8
0
  6
CONTINUOUS
 62
     7
 10
-33.3403350319606
 20
-102.2714798378208
 11
-33.3403350319606
 21
-100.9488663605296
  0
LINE
  8
0
  6
CONTINUOUS
 62
     7
 10
-34.3389645667152
 20
-101.2284226107147
 11
-34.3389645667152
 21
-100.0012023167725
  0
LINE
  8
0
  6
CONTINUOUS
 62
     7
 10
25.28966496803941
 20
-102.2714798378211
 11
25.28966496803941
 21
-100.9488663605296
  0
LINE
  8
0
  6
CONTINUOUS
 62
     7
 10
24.29103543328487
 20
-101.2284226107147
 11
24.29103543328487
 21
-100.0012023167726
  0
LINE
  8
0
  6
CONTINUOUS
 62
     7
 10
-44.0003350319606
 20
-102.2714798378205
 11
-44.0003350319606
 21
-100.9488663605296
  0
LINE
  8
0
  6
CONTINUOUS
 62
     7
 10
-44.9989645667151
 20
-101.2284226107147
 11
-44.9989645667151
 21
-100.0012023167725
  0
LINE
  8
0
  6
CONTINUOUS
 62
     7
 10
41.27966496803942
 20
-102.2714798378239
 11
41.27966496803942
 21
-100.9488663605296
  0
LINE
  8
0
  6
CONTINUOUS
 62
     7
 10
40.28103543328487
 20
-101.2284226107147
 11
40.28103543328487
 21
-100.0012023167725
  0
LINE
  8
0
  6
CONTINUOUS
 62
     7
 10
-28.0103350319606
 20
-102.2714798378208
 11
-28.0103350319606
 21
-100.9488663605296
  0
LINE
  8
0
  6
CONTINUOUS
 62
     7
 10
-29.00896456671514
 20
-101.2284226107147
 11
-29.00896456671514
 21
-100.0012023167725
  0
LINE
  8
0
  6
CONTINUOUS
 62
     7
 10
35.94966496803936
 20
-102.2714798378239
 11
35.94966496803936
 21
-100.9488663605296
  0
LINE
  8
0
  6
CONTINUOUS
 62
     7
 10
34.95103543328482
 20
-101.2284226107147
 11
34.95103543328482
 21
-100.0012023167725
  0
LINE
  8
0
  6
CONTINUOUS
 62
     7
 10
51.93966496803937
 20
-102.2714798378274
 11
51.93966496803937
 21
-100.9488663605296
  0
LINE
  8
0
  6
CONTINUOUS
 62
     7
 10
50.94103543328482
 20
-101.2284226107147
 11
50.94103543328482
 21
-100.0012023167725
  0
LINE
  8
0
  6
CONTINUOUS
 62
     7
 10
62.59966496803943
 20
-102.2714798378219
 11
62.59966496803943
 21
-100.9488663605296
  0
LINE
  8
0
  6
CONTINUOUS
 62
     7
 10
61.60103543328476
 20
-101.2284226107147
 11
61.60103543328476
 21
-100.0012023167725
  0
LINE
  8
0
  6
CONTINUOUS
 62
     7
 10
-22.68033503196065
 20
-102.2714798378205
 11
-22.68033503196065
 21
-100.9488663605296
  0
LINE
  8
0
  6
CONTINUOUS
 62
     7
 10
-23.67896456671509
 20
-101.2284226107147
 11
-23.67896456671509
 21
-100.0012023167725
  0
LINE
  8
0
  6
CONTINUOUS
 62
     7
 10
-59.9903350319606
 20
-102.2714798378205
 11
-59.9903350319606
 21
-100.9488663605296
  0
LINE
  8
0
  6
CONTINUOUS
 62
     7
 10
-60.98896456671521
 20
-101.2284226107147
 11
-60.98896456671521
 21
-100.0012023167726
  0
LINE
  8
0
  6
CONTINUOUS
 62
     7
 10
-49.3303350319606
 20
-102.2714798378205
 11
-49.3303350319606
 21
-100.9488663605296
  0
LINE
  8
0
  6
CONTINUOUS
 62
     7
 10
-50.32896456671521
 20
-101.2284226107147
 11
-50.32896456671521
 21
-100.0012023167726
  0
LINE
  8
0
  6
CONTINUOUS
 62
     7
 10
-54.66033503196063
 20
-102.2714798378205
 11
-54.66033503196063
 21
-100.9488663605296
  0
LINE
  8
0
  6
CONTINUOUS
 62
     7
 10
-55.65896456671521
 20
-101.2284226107147
 11
-55.65896456671521
 21
-100.0012023167726
  0
LINE
  8
0
  6
CONTINUOUS
 62
     7
 10
46.60966496803953
 20
-102.2714798378239
 11
46.60966496803953
 21
-100.9488663605296
  0
LINE
  8
0
  6
CONTINUOUS
 62
     7
 10
45.61103543328476
 20
-101.2284226107147
 11
45.61103543328476
 21
-100.0012023167725
  0
LINE
  8
0
  6
CONTINUOUS
 62
     7
 10
50.3389645667146
 20
-101.2284101106366
 11
50.3389645667146
 21
-100.0012023167725
  0
LINE
  8
0
  6
CONTINUOUS
 62
     7
 10
49.34033503196
 20
-102.1157142914434
 11
49.34033503196
 21
-100.9488663605296
  0
LINE
  8
0
  6
CONTINUOUS
 62
     7
 10
-56.26103543328539
 20
-101.2284101106366
 11
-56.26103543328539
 21
-100.0012023167726
  0
LINE
  8
0
  6
CONTINUOUS
 62
     7
 10
-57.25966496804
 20
-102.1157142914437
 11
-57.25966496804
 21
-100.9488663605296
  0
LINE
  8
0
  6
CONTINUOUS
 62
     7
 10
-61.59103543328542
 20
-101.2284101106366
 11
-61.59103543328542
 21
-100.0012023167726
  0
LINE
  8
0
  6
CONTINUOUS
 62
     7
 10
-62.58966496804003
 20
-102.1157142914437
 11
-62.58966496804003
 21
-100.9488663605296
  0
LINE
  8
0
  6
CONTINUOUS
 62
     7
 10
29.0189645667146
 20
-101.2284101106366
 11
29.0189645667146
 21
-100.0012023167726
  0
LINE
  8
0
  6
CONTINUOUS
 62
     7
 10
28.02033503195994
 20
-102.1157142914435
 11
28.02033503195994
 21
-100.9488663605296
  0
LINE
  8
0
  6
CONTINUOUS
 62
     7
 10
39.67896456671455
 20
-101.2284101106366
 11
39.67896456671455
 21
-100.0012023167725
  0
LINE
  8
0
  6
CONTINUOUS
 62
     7
 10
38.68033503196011
 20
-102.1157142914434
 11
38.68033503196011
 21
-100.9488663605296
  0
LINE
  8
0
  6
CONTINUOUS
 62
     7
 10
34.3489645667146
 20
-101.2284101106366
 11
34.3489645667146
 21
-100.0012023167726
  0
LINE
  8
0
  6
CONTINUOUS
 62
     7
 10
33.35033503196006
 20
-102.1157142914435
 11
33.35033503196006
 21
-100.9488663605296
  0
LINE
  8
0
  6
CONTINUOUS
 62
     7
 10
23.6889645667146
 20
-101.2284101106366
 11
23.6889645667146
 21
-100.0012023167726
  0
LINE
  8
0
  6
CONTINUOUS
 62
     7
 10
22.69033503196011
 20
-102.1157142914436
 11
22.69033503196011
 21
-100.9488663605296
  0
LINE
  8
0
  6
CONTINUOUS
 62
     7
 10
45.0089645667146
 20
-101.2284101106366
 11
45.0089645667146
 21
-100.0012023167725
  0
LINE
  8
0
  6
CONTINUOUS
 62
     7
 10
44.01033503196
 20
-102.1157142914434
 11
44.01033503196
 21
-100.9488663605296
  0
LINE
  8
0
  6
CONTINUOUS
 62
     7
 10
-24.28103543328541
 20
-101.2284101106366
 11
-24.28103543328541
 21
-100.0012023167726
  0
LINE
  8
0
  6
CONTINUOUS
 62
     7
 10
-25.27966496803996
 20
-102.1157142914436
 11
-25.27966496803996
 21
-100.9488663605296
  0
LINE
  8
0
  6
CONTINUOUS
 62
     7
 10
-29.61103543328542
 20
-101.2284101106366
 11
-29.61103543328542
 21
-100.0012023167726
  0
LINE
  8
0
  6
CONTINUOUS
 62
     7
 10
-30.60966496804002
 20
-102.1157142914436
 11
-30.60966496804002
 21
-100.9488663605296
  0
LINE
  8
0
  6
CONTINUOUS
 62
     7
 10
-34.94103543328536
 20
-101.2284101106366
 11
-34.94103543328536
 21
-100.0012023167726
  0
LINE
  8
0
  6
CONTINUOUS
 62
     7
 10
-35.93966496803991
 20
-102.1157142914436
 11
-35.93966496803991
 21
-100.9488663605296
  0
LINE
  8
0
  6
CONTINUOUS
 62
     7
 10
-40.27103543328542
 20
-101.2284101106366
 11
-40.27103543328542
 21
-100.0012023167726
  0
LINE
  8
0
  6
CONTINUOUS
 62
     7
 10
-41.26966496804002
 20
-102.1157142914436
 11
-41.26966496804002
 21
-100.9488663605296
  0
LINE
  8
0
  6
CONTINUOUS
 62
     7
 10
60.9989645667146
 20
-101.2284101106366
 11
60.9989645667146
 21
-100.0012023167725
  0
LINE
  8
0
  6
CONTINUOUS
 62
     7
 10
60.00033503196011
 20
-102.1157142914434
 11
60.00033503196011
 21
-100.9488663605296
  0
LINE
  8
0
  6
CONTINUOUS
 62
     7
 10
55.66896456671455
 20
-101.2284101106366
 11
55.66896456671455
 21
-100.0012023167725
  0
LINE
  8
0
  6
CONTINUOUS
 62
     7
 10
54.67033503196011
 20
-102.1157142914434
 11
54.67033503196011
 21
-100.9488663605296
  0
LINE
  8
0
  6
CONTINUOUS
 62
     7
 10
-45.60103543328542
 20
-101.2284101106366
 11
-45.60103543328542
 21
-100.0012023167726
  0
LINE
  8
0
  6
CONTINUOUS
 62
     7
 10
-46.59966496804002
 20
-102.1157142914436
 11
-46.59966496804002
 21
-100.9488663605296
  0
LINE
  8
0
  6
CONTINUOUS
 62
     7
 10
-50.93103543328542
 20
-101.2284101106366
 11
-50.93103543328542
 21
-100.0012023167726
  0
LINE
  8
0
  6
CONTINUOUS
 62
     7
 10
-51.92966496804002
 20
-102.1157142914437
 11
-51.92966496804002
 21
-100.9488663605296
  0
LINE
  8
0
  6
CONTINUOUS
 62
     7
 10
-54.66033503196041
 20
-118.6853403834421
 11
-54.66033503196041
 21
-120.0079538607437
  0
LINE
  8
0
  6
CONTINUOUS
 62
     7
 10
-55.65896456671501
 20
-119.7283976105583
 11
-55.65896456671501
 21
-120.9556179045008
  0
LINE
  8
0
  6
CONTINUOUS
 62
     7
 10
-49.33033503196041
 20
-118.6853403834422
 11
-49.33033503196041
 21
-120.0079538607437
  0
LINE
  8
0
  6
CONTINUOUS
 62
     7
 10
-50.32896456671501
 20
-119.7283976105583
 11
-50.32896456671501
 21
-120.9556179045008
  0
LINE
  8
0
  6
CONTINUOUS
 62
     7
 10
-59.99033503196041
 20
-118.6853403834423
 11
-59.99033503196041
 21
-120.0079538607437
  0
LINE
  8
0
  6
CONTINUOUS
 62
     7
 10
-60.98896456671501
 20
-119.7283976105583
 11
-60.98896456671501
 21
-120.9556179045008
  0
LINE
  8
0
  6
CONTINUOUS
 62
     7
 10
46.60966496803965
 20
-118.6853403834418
 11
46.60966496803965
 21
-120.0079538607437
  0
LINE
  8
0
  6
CONTINUOUS
 62
     7
 10
45.6110354332851
 20
-119.7283976105583
 11
45.6110354332851
 21
-120.9556179045007
  0
LINE
  8
0
  6
CONTINUOUS
 62
     7
 10
51.93966496803959
 20
-118.6853403834418
 11
51.93966496803959
 21
-120.0079538607437
  0
LINE
  8
0
  6
CONTINUOUS
 62
     7
 10
50.94103543328509
 20
-119.7283976105583
 11
50.94103543328509
 21
-120.9556179045007
  0
LINE
  8
0
  6
CONTINUOUS
 62
     7
 10
-44.00033503196038
 20
-118.6853403834421
 11
-44.00033503196038
 21
-120.0079538607437
  0
LINE
  8
0
  6
CONTINUOUS
 62
     7
 10
-44.99896456671492
 20
-119.7283976105583
 11
-44.99896456671492
 21
-120.9556179045008
  0
LINE
  8
0
  6
CONTINUOUS
 62
     7
 10
57.26966496803959
 20
-118.6853403834418
 11
57.26966496803959
 21
-120.0079538607437
  0
LINE
  8
0
  6
CONTINUOUS
 62
     7
 10
56.2710354332851
 20
-119.7283976105583
 11
56.2710354332851
 21
-120.9556179045007
  0
LINE
  8
0
  6
CONTINUOUS
 62
     7
 10
-38.67033503196032
 20
-118.6853403834421
 11
-38.67033503196032
 21
-120.0079538607437
  0
LINE
  8
0
  6
CONTINUOUS
 62
     7
 10
-39.66896456671503
 20
-119.7283976105583
 11
-39.66896456671503
 21
-120.9556179045008
  0
LINE
  8
0
  6
CONTINUOUS
 62
     7
 10
62.59966496803959
 20
-118.6853403834417
 11
62.59966496803959
 21
-120.0079538607437
  0
LINE
  8
0
  6
CONTINUOUS
 62
     7
 10
61.6010354332851
 20
-119.7283976105583
 11
61.6010354332851
 21
-120.9556179045007
  0
LINE
  8
0
  6
CONTINUOUS
 62
     7
 10
19.95966496803958
 20
-118.6853403834419
 11
19.95966496803958
 21
-120.0079538607437
  0
LINE
  8
0
  6
CONTINUOUS
 62
     7
 10
18.96103543328503
 20
-119.7283976105583
 11
18.96103543328503
 21
-120.9556179045008
  0
LINE
  8
0
  6
CONTINUOUS
 62
     7
 10
41.27966496803958
 20
-118.6853403834418
 11
41.27966496803958
 21
-120.0079538607437
  0
LINE
  8
0
  6
CONTINUOUS
 62
     7
 10
40.28103543328504
 20
-119.7283976105583
 11
40.28103543328504
 21
-120.9556179045007
  0
LINE
  8
0
  6
CONTINUOUS
 62
     7
 10
35.9496649680397
 20
-118.6853403834418
 11
35.9496649680397
 21
-120.0079538607437
  0
LINE
  8
0
  6
CONTINUOUS
 62
     7
 10
34.95103543328498
 20
-119.7283976105583
 11
34.95103543328498
 21
-120.9556179045008
  0
LINE
  8
0
  6
CONTINUOUS
 62
     7
 10
-12.02033503196043
 20
-118.6853403834421
 11
-12.02033503196043
 21
-120.0079538607437
  0
LINE
  8
0
  6
CONTINUOUS
 62
     7
 10
-13.01896456671486
 20
-119.7283976105583
 11
-13.01896456671486
 21
-120.9556179045008
  0
LINE
  8
0
  6
CONTINUOUS
 62
     7
 10
-33.34033503196044
 20
-118.6853403834421
 11
-33.34033503196044
 21
-120.0079538607437
  0
LINE
  8
0
  6
CONTINUOUS
 62
     7
 10
-34.33896456671487
 20
-119.7283976105583
 11
-34.33896456671487
 21
-120.9556179045008
  0
LINE
  8
0
  6
CONTINUOUS
 62
     7
 10
25.28966496803958
 20
-118.6853403834419
 11
25.28966496803958
 21
-120.0079538607437
  0
LINE
  8
0
  6
CONTINUOUS
 62
     7
 10
24.29103543328509
 20
-119.7283976105583
 11
24.29103543328509
 21
-120.9556179045008
  0
LINE
  8
0
  6
CONTINUOUS
 62
     7
 10
-17.35033503196043
 20
-118.6853403834421
 11
-17.35033503196043
 21
-120.0079538607437
  0
LINE
  8
0
  6
CONTINUOUS
 62
     7
 10
-18.34896456671498
 20
-119.7283976105583
 11
-18.34896456671498
 21
-120.9556179045008
  0
LINE
  8
0
  6
CONTINUOUS
 62
     7
 10
-1.360335031960314
 20
-118.685340383442
 11
-1.360335031960314
 21
-120.0079538607437
  0
LINE
  8
0
  6
CONTINUOUS
 62
     7
 10
-2.358964566715027
 20
-119.7283976105583
 11
-2.358964566715027
 21
-120.9556179045008
  0
LINE
  8
0
  6
CONTINUOUS
 62
     7
 10
-6.69033503196037
 20
-118.685340383442
 11
-6.69033503196037
 21
-120.0079538607437
  0
LINE
  8
0
  6
CONTINUOUS
 62
     7
 10
-7.688964566715028
 20
-119.7283976105583
 11
-7.688964566715028
 21
-120.9556179045008
  0
LINE
  8
0
  6
CONTINUOUS
 62
     7
 10
30.61966496803964
 20
-118.685340383442
 11
30.61966496803964
 21
-120.0079538607437
  0
LINE
  8
0
  6
CONTINUOUS
 62
     7
 10
29.62103543328498
 20
-119.7283976105583
 11
29.62103543328498
 21
-120.9556179045008
  0
LINE
  8
0
  6
CONTINUOUS
 62
     7
 10
-22.68033503196038
 20
-118.6853403834421
 11
-22.68033503196038
 21
-120.0079538607437
  0
LINE
  8
0
  6
CONTINUOUS
 62
     7
 10
-23.67896456671492
 20
-119.7283976105583
 11
-23.67896456671492
 21
-120.9556179045008
  0
LINE
  8
0
  6
CONTINUOUS
 62
     7
 10
-28.01033503196038
 20
-118.6853403834421
 11
-28.01033503196038
 21
-120.0079538607437
  0
LINE
  8
0
  6
CONTINUOUS
 62
     7
 10
-29.00896456671492
 20
-119.7283976105583
 11
-29.00896456671492
 21
-120.9556179045008
  0
LINE
  8
0
  6
CONTINUOUS
 62
     7
 10
9.299664968039634
 20
-118.6853403834421
 11
9.299664968039634
 21
-120.0079538607437
  0
LINE
  8
0
  6
CONTINUOUS
 62
     7
 10
8.301035433285087
 20
-119.7283976105583
 11
8.301035433285087
 21
-120.9556179045008
  0
LINE
  8
0
  6
CONTINUOUS
 62
     7
 10
3.969664968039577
 20
-118.6853403834421
 11
3.969664968039577
 21
-120.0079538607437
  0
LINE
  8
0
  6
CONTINUOUS
 62
     7
 10
2.97103543328503
 20
-119.7283976105583
 11
2.97103543328503
 21
-120.9556179045008
  0
LINE
  8
0
  6
CONTINUOUS
 62
     7
 10
14.62966496803969
 20
-118.6853403834421
 11
14.62966496803969
 21
-120.0079538607437
  0
LINE
  8
0
  6
CONTINUOUS
 62
     7
 10
13.63103543328498
 20
-119.7283976105583
 11
13.63103543328498
 21
-120.9556179045008
  0
LINE
  8
0
  6
CONTINUOUS
 62
     7
 10
62.62861166892458
 20
-118.6615422731768
 11
62.62861166892458
 21
-119.4556179045007
  0
LINE
  8
0
  6
CONTINUOUS
 62
     7
 10
57.29861166892458
 20
-118.6615422731768
 11
57.29861166892458
 21
-119.4556179045007
  0
LINE
  8
0
  6
CONTINUOUS
 62
     7
 10
35.97861166892458
 20
-118.6615422731768
 11
35.97861166892458
 21
-119.4556179045008
  0
LINE
  8
0
  6
CONTINUOUS
 62
     7
 10
51.96861166892458
 20
-118.6615422731768
 11
51.96861166892458
 21
-119.4556179045007
  0
LINE
  8
0
  6
CONTINUOUS
 62
     7
 10
46.63861166892458
 20
-118.6615422731768
 11
46.63861166892458
 21
-119.4556179045007
  0
LINE
  8
0
  6
CONTINUOUS
 62
     7
 10
41.30861166892458
 20
-118.6615422731768
 11
41.30861166892458
 21
-119.4556179045007
  0
LINE
  8
0
  6
CONTINUOUS
 62
     7
 10
25.31861166892457
 20
-118.6615422731768
 11
25.31861166892457
 21
-119.4556179045007
  0
LINE
  8
0
  6
CONTINUOUS
 62
     7
 10
19.98861166892457
 20
-118.6615422731768
 11
19.98861166892457
 21
-119.4556179045007
  0
LINE
  8
0
  6
CONTINUOUS
 62
     7
 10
-1.331388331075545
 20
-118.6615422731768
 11
-1.331388331075545
 21
-119.4556179045008
  0
LINE
  8
0
  6
CONTINUOUS
 62
     7
 10
-6.66138833107549
 20
-118.6615422731768
 11
-6.66138833107549
 21
-119.4556179045008
  0
LINE
  8
0
  6
CONTINUOUS
 62
     7
 10
30.64861166892463
 20
-118.6615422731768
 11
30.64861166892463
 21
-119.4556179045008
  0
LINE
  8
0
  6
CONTINUOUS
 62
     7
 10
14.65861166892451
 20
-118.6615422731768
 11
14.65861166892451
 21
-119.4556179045008
  0
LINE
  8
0
  6
CONTINUOUS
 62
     7
 10
-38.64138833107528
 20
-118.6615422731768
 11
-38.64138833107528
 21
-119.4556179045008
  0
LINE
  8
0
  6
CONTINUOUS
 62
     7
 10
-33.31138833107544
 20
-118.6615422731768
 11
-33.31138833107533
 21
-119.4556179045008
  0
LINE
  8
0
  6
CONTINUOUS
 62
     7
 10
-54.63138833107542
 20
-118.6615422731768
 11
-54.63138833107531
 21
-119.4556179045008
  0
LINE
  8
0
  6
CONTINUOUS
 62
     7
 10
-11.99138833107549
 20
-118.6615422731768
 11
-11.99138833107549
 21
-119.4556179045008
  0
LINE
  8
0
  6
CONTINUOUS
 62
     7
 10
-43.97138833107533
 20
-118.6615422731768
 11
-43.97138833107533
 21
-119.4556179045008
  0
LINE
  8
0
  6
CONTINUOUS
 62
     7
 10
9.328611668924513
 20
-118.6615422731768
 11
9.328611668924513
 21
-119.4556179045008
  0
LINE
  8
0
  6
CONTINUOUS
 62
     7
 10
3.998611668924457
 20
-118.6615422731768
 11
3.998611668924457
 21
-119.4556179045008
  0
LINE
  8
0
  6
CONTINUOUS
 62
     7
 10
-17.32138833107544
 20
-118.6615422731768
 11
-17.32138833107544
 21
-119.4556179045008
  0
LINE
  8
0
  6
CONTINUOUS
 62
     7
 10
-27.98138833107538
 20
-118.6615422731768
 11
-27.98138833107538
 21
-119.4556179045008
  0
LINE
  8
0
  6
CONTINUOUS
 62
     7
 10
-22.65138833107538
 20
-118.6615422731768
 11
-22.65138833107538
 21
-119.4556179045008
  0
LINE
  8
0
  6
CONTINUOUS
 62
     7
 10
-49.30138833107534
 20
-118.6615422731768
 11
-49.30138833107534
 21
-119.4556179045008
  0
LINE
  8
0
  6
CONTINUOUS
 62
     7
 10
-59.96138833107539
 20
-118.6615422731768
 11
-59.96138833107531
 21
-119.4556179045008
  0
LINE
  8
0
  6
CONTINUOUS
 62
     7
 10
51.96861166892425
 20
-102.2952779480964
 11
51.96861166892425
 21
-101.5012023167725
  0
LINE
  8
0
  6
CONTINUOUS
 62
     7
 10
57.2986116689243
 20
-102.2952779480964
 11
57.2986116689243
 21
-101.5012023167725
  0
LINE
  8
0
  6
CONTINUOUS
 62
     7
 10
35.97861166892429
 20
-102.2952779480964
 11
35.97861166892429
 21
-101.5012023167725
  0
LINE
  8
0
  6
CONTINUOUS
 62
     7
 10
41.3086116689243
 20
-102.2952779480964
 11
41.3086116689243
 21
-101.5012023167725
  0
LINE
  8
0
  6
CONTINUOUS
 62
     7
 10
46.6386116689243
 20
-102.2952779480964
 11
46.6386116689243
 21
-101.5012023167725
  0
LINE
  8
0
  6
CONTINUOUS
 62
     7
 10
62.62861166892431
 20
-102.2952779480964
 11
62.62861166892431
 21
-101.5012023167725
  0
LINE
  8
0
  6
CONTINUOUS
 62
     7
 10
30.6486116689243
 20
-102.2952779480964
 11
30.6486116689243
 21
-101.5012023167725
  0
LINE
  8
0
  6
CONTINUOUS
 62
     7
 10
25.31861166892429
 20
-102.2952779480964
 11
25.31861166892429
 21
-101.5012023167725
  0
LINE
  8
0
  6
CONTINUOUS
 62
     7
 10
-33.31138833107572
 20
-102.2952779480964
 11
-33.31138833107572
 21
-101.5012023167725
  0
LINE
  8
0
  6
CONTINUOUS
 62
     7
 10
-27.98138833107572
 20
-102.2952779480964
 11
-27.98138833107572
 21
-101.5012023167725
  0
LINE
  8
0
  6
CONTINUOUS
 62
     7
 10
-43.97138833107572
 20
-102.2952779480964
 11
-43.97138833107572
 21
-101.5012023167725
  0
LINE
  8
0
  6
CONTINUOUS
 62
     7
 10
-59.96138833107572
 20
-102.2952779480964
 11
-59.96138833107572
 21
-101.5012023167725
  0
LINE
  8
0
  6
CONTINUOUS
 62
     7
 10
-22.65138833107566
 20
-102.2952779480964
 11
-22.65138833107566
 21
-101.5012023167726
  0
LINE
  8
0
  6
CONTINUOUS
 62
     7
 10
-54.6313883310757
 20
-102.2952779480964
 11
-54.6313883310757
 21
-101.5012023167725
  0
LINE
  8
0
  6
CONTINUOUS
 62
     7
 10
-49.30138833107572
 20
-102.2952779480964
 11
-49.30138833107572
 21
-101.5012023167725
  0
LINE
  8
0
  6
CONTINUOUS
 62
     7
 10
-38.64138833107572
 20
-102.2952779480964
 11
-38.64138833107572
 21
-101.5012023167725
  0
LINE
  8
0
  6
CONTINUOUS
 62
     7
 10
-62.61861166892463
 20
-118.6615422731768
 11
-62.61861166892463
 21
-119.4556179045008
  0
LINE
  8
0
  6
CONTINUOUS
 62
     7
 10
43.9813883310754
 20
-118.6615422731768
 11
43.9813883310754
 21
-119.4556179045007
  0
LINE
  8
0
  6
CONTINUOUS
 62
     7
 10
38.6513883310754
 20
-118.6615422731768
 11
38.6513883310754
 21
-119.4556179045008
  0
LINE
  8
0
  6
CONTINUOUS
 62
     7
 10
54.6413883310754
 20
-118.6615422731768
 11
54.6413883310754
 21
-119.4556179045007
  0
LINE
  8
0
  6
CONTINUOUS
 62
     7
 10
33.3213883310754
 20
-118.6615422731768
 11
33.3213883310754
 21
-119.4556179045008
  0
LINE
  8
0
  6
CONTINUOUS
 62
     7
 10
-51.95861166892482
 20
-102.2952779480964
 11
-51.95861166892482
 21
-101.5012023167726
  0
LINE
  8
0
  6
CONTINUOUS
 62
     7
 10
-57.28861166892482
 20
-102.2952779480964
 11
-57.28861166892482
 21
-101.5012023167726
  0
LINE
  8
0
  6
CONTINUOUS
 62
     7
 10
-62.61861166892482
 20
-102.2952779480964
 11
-62.61861166892482
 21
-101.5012023167726
  0
LINE
  8
0
  6
CONTINUOUS
 62
     7
 10
-41.29861166892479
 20
-102.2952779480964
 11
-41.29861166892479
 21
-101.5012023167726
  0
LINE
  8
0
  6
CONTINUOUS
 62
     7
 10
-46.62861166892482
 20
-102.2952779480964
 11
-46.62861166892482
 21
-101.5012023167726
  0
LINE
  8
0
  6
CONTINUOUS
 62
     7
 10
-30.63861166892478
 20
-102.2952779480964
 11
-30.63861166892478
 21
-101.5012023167725
  0
LINE
  8
0
  6
CONTINUOUS
 62
     7
 10
-25.30861166892484
 20
-102.2952779480964
 11
-25.30861166892484
 21
-101.5012023167725
  0
LINE
  8
0
  6
CONTINUOUS
 62
     7
 10
-35.96861166892479
 20
-102.2952779480964
 11
-35.96861166892479
 21
-101.5012023167726
  0
LINE
  8
0
  6
CONTINUOUS
 62
     7
 10
22.66138833107523
 20
-102.2952779480964
 11
22.66138833107523
 21
-101.5012023167725
  0
LINE
  8
0
  6
CONTINUOUS
 62
     7
 10
27.99138833107517
 20
-102.2952779480964
 11
27.99138833107517
 21
-101.5012023167725
  0
LINE
  8
0
  6
CONTINUOUS
 62
     7
 10
33.32138833107518
 20
-102.2952779480964
 11
33.32138833107518
 21
-101.5012023167725
  0
LINE
  8
0
  6
CONTINUOUS
 62
     7
 10
49.31138833107518
 20
-102.2952779480964
 11
49.31138833107518
 21
-101.5012023167725
  0
LINE
  8
0
  6
CONTINUOUS
 62
     7
 10
43.98138833107517
 20
-102.2952779480964
 11
43.98138833107517
 21
-101.5012023167725
  0
LINE
  8
0
  6
CONTINUOUS
 62
     7
 10
38.65138833107518
 20
-102.2952779480964
 11
38.65138833107518
 21
-101.5012023167725
  0
LINE
  8
0
  6
CONTINUOUS
 62
     7
 10
59.97138833107524
 20
-102.2952779480964
 11
59.97138833107524
 21
-101.5012023167725
  0
LINE
  8
0
  6
CONTINUOUS
 62
     7
 10
54.64138833107518
 20
-102.2952779480964
 11
54.64138833107518
 21
-101.5012023167725
  0
LINE
  8
0
  6
CONTINUOUS
 62
     7
 10
-9.318611668924614
 20
-118.6615422731768
 11
-9.318611668924614
 21
-119.4556179045008
  0
LINE
  8
0
  6
CONTINUOUS
 62
     7
 10
12.00138833107539
 20
-118.6615422731768
 11
12.00138833107539
 21
-119.4556179045008
  0
LINE
  8
0
  6
CONTINUOUS
 62
     7
 10
-19.97861166892462
 20
-118.6615422731768
 11
-19.97861166892462
 21
-119.4556179045008
  0
LINE
  8
0
  6
CONTINUOUS
 62
     7
 10
-25.30861166892456
 20
-118.6615422731768
 11
-25.30861166892456
 21
-119.4556179045008
  0
LINE
  8
0
  6
CONTINUOUS
 62
     7
 10
-51.9586116689246
 20
-118.6615422731768
 11
-51.9586116689246
 21
-119.4556179045008
  0
LINE
  8
0
  6
CONTINUOUS
 62
     7
 10
-41.29861166892474
 20
-118.6615422731768
 11
-41.29861166892474
 21
-119.4556179045008
  0
LINE
  8
0
  6
CONTINUOUS
 62
     7
 10
-57.2886116689246
 20
-118.6615422731768
 11
-57.2886116689246
 21
-119.4556179045008
  0
LINE
  8
0
  6
CONTINUOUS
 62
     7
 10
-46.62861166892462
 20
-118.6615422731768
 11
-46.62861166892462
 21
-119.4556179045008
  0
LINE
  8
0
  6
CONTINUOUS
 62
     7
 10
-30.63861166892467
 20
-118.6615422731768
 11
-30.63861166892467
 21
-119.4556179045008
  0
LINE
  8
0
  6
CONTINUOUS
 62
     7
 10
-35.96861166892462
 20
-118.6615422731768
 11
-35.96861166892462
 21
-119.4556179045008
  0
LINE
  8
0
  6
CONTINUOUS
 62
     7
 10
1.341388331075388
 20
-118.6615422731768
 11
1.341388331075388
 21
-119.4556179045008
  0
LINE
  8
0
  6
CONTINUOUS
 62
     7
 10
-14.64861166892462
 20
-118.6615422731768
 11
-14.64861166892462
 21
-119.4556179045008
  0
LINE
  8
0
  6
CONTINUOUS
 62
     7
 10
6.67138833107539
 20
-118.6615422731768
 11
6.67138833107539
 21
-119.4556179045008
  0
LINE
  8
0
  6
CONTINUOUS
 62
     7
 10
-3.988611668924613
 20
-118.6615422731768
 11
-3.988611668924613
 21
-119.4556179045008
  0
LINE
  8
0
  6
CONTINUOUS
 62
     7
 10
17.33138833107539
 20
-118.6615422731768
 11
17.33138833107539
 21
-119.4556179045007
  0
LINE
  8
0
  6
CONTINUOUS
 62
     7
 10
27.99138833107534
 20
-118.6615422731768
 11
27.99138833107534
 21
-119.4556179045008
  0
LINE
  8
0
  6
CONTINUOUS
 62
     7
 10
22.66138833107539
 20
-118.6615422731768
 11
22.66138833107539
 21
-119.4556179045007
  0
LINE
  8
0
  6
CONTINUOUS
 62
     7
 10
49.3113883310754
 20
-118.6615422731768
 11
49.3113883310754
 21
-119.4556179045007
  0
LINE
  8
0
  6
CONTINUOUS
 62
     7
 10
59.9713883310754
 20
-118.6615422731768
 11
59.9713883310754
 21
-119.4556179045007
  0
LINE
  8
0
  6
CONTINUOUS
 62
     7
 10
-65.5
 20
-117.9556179045008
 11
-65.5
 21
-116.7284101106365
  0
LINE
  8
0
  6
CONTINUOUS
 62
     7
 10
-64.0
 20
-118.6615422731769
 11
-64.0
 21
-119.4556179045008
  0
LINE
  8
0
  6
CONTINUOUS
 62
     7
 10
65.5
 20
-103.0012023167725
 11
65.5
 21
-104.2284101106365
  0
LINE
  8
0
  6
CONTINUOUS
 62
     7
 10
64.0
 20
-102.2952779480963
 11
64.0
 21
-101.5012023167725
  0
LINE
  8
0
  6
CONTINUOUS
 62
     7
 10
64.0
 20
-119.4556179045008
 11
64.0
 21
-118.6615422731769
  0
LINE
  8
0
  6
CONTINUOUS
 62
     7
 10
65.5
 20
-116.7284101106365
 11
65.5
 21
-117.9556179045008
  0
LINE
  8
0
  6
CONTINUOUS
 62
     7
 10
-64.0
 20
-101.5012023167725
 11
-64.0
 21
-102.2952779480963
  0
LINE
  8
0
  6
CONTINUOUS
 62
     7
 10
-65.5
 20
-104.2284101106365
 11
-65.5
 21
-103.0012023167725
  0
LINE
  8
0
  6
CONTINUOUS
 62
     7
 10
-13.50000000000001
 20
-102.2952779480963
 11
-13.50000000000001
 21
-101.5012023167725
  0
LINE
  8
0
  6
CONTINUOUS
 62
     7
 10
13.50000000000001
 20
-101.5012023167725
 11
13.50000000000001
 21
-102.2952779480963
  0
LINE
  8
0
  6
CONTINUOUS
 62
     7
 10
12.00000000000001
 20
-103.5787118668261
 11
12.00000000000001
 21
-103.0012023167725
  0
LINE
  8
0
  6
CONTINUOUS
 62
     7
 10
-12.00000000000001
 20
-103.0012023167725
 11
-12.00000000000001
 21
-103.5787118668261
  0
LINE
  8
0
  6
CONTINUOUS
 62
     7
 10
62.48528799680491
 20
-105.6692647662446
 11
62.50000000000028
 21
-109.1529457959072
  0
LINE
  8
0
  6
CONTINUOUS
 62
     7
 10
-12.00000000000001
 20
-105.7312023167725
 11
-12.00000000000001
 21
-105.6692647662446
  0
LINE
  8
0
  6
CONTINUOUS
 62
     7
 10
-62.5
 20
-109.1529457959072
 11
62.5
 21
-109.1529457959072
  0
LINE
  8
0
  6
CONTINUOUS
 62
     7
 10
-12.00000000000001
 20
-105.7312023167725
 11
12.00000000000001
 21
-105.7312023167725
  0
LINE
  8
0
  6
CONTINUOUS
 62
     7
 10
12.00000000000001
 20
-105.6692647662446
 11
12.00000000000001
 21
-105.7312023167725
  0
LINE
  8
0
  6
CONTINUOUS
 62
     7
 10
-62.48528799680472
 20
-115.2875554550284
 11
-62.50000000000019
 21
-111.8038744253659
  0
LINE
  8
0
  6
CONTINUOUS
 62
     7
 10
62.5
 20
-111.8038744253659
 11
-62.5
 21
-111.8038744253659
  0
LINE
  8
0
  6
CONTINUOUS
 62
     7
 10
-20.13267416768633
 20
-102.2284101106365
 11
-20.13267416768633
 21
-102.7284101106365
  0
LINE
  8
0
  6
CONTINUOUS
 62
     7
 10
-17.20736850315319
 20
-102.7284101106365
 11
-17.20736850315319
 21
-102.2284101106365
  0
ARC
  8
0
  6
CONTINUOUS
 62
     7
 10
18.3589645667146
 20
-101.0012023167725
 40
1.000000000000001
 50
90.0
 51
176.9999999999984
  0
ARC
  8
0
  6
CONTINUOUS
 62
     7
 10
-18.95103543328541
 20
-101.0012023167725
 40
1.000000000000001
 50
90.0
 51
176.9999999999984
  0
ARC
  8
0
  6
CONTINUOUS
 62
     7
 10
-18.34896456671509
 20
-101.0012023167725
 40
0.9999999999999454
 50
3.000000000000166
 51
90.00000000000001
  0
ARC
  8
0
  6
CONTINUOUS
 62
     7
 10
18.96103543328492
 20
-101.0012023167725
 40
0.9999999999999454
 50
3.000000000000166
 51
90.00000000000001
  0
LINE
  8
0
  6
CONTINUOUS
 62
     7
 10
18.96103543328492
 20
-100.0012023167725
 11
18.3589645667146
 21
-100.0012023167725
  0
LINE
  8
0
  6
CONTINUOUS
 62
     7
 10
-18.34896456671509
 20
-100.0012023167726
 11
-18.95103543328541
 21
-100.0012023167726
  0
LINE
  8
0
  6
CONTINUOUS
 62
     7
 10
19.98861166892429
 20
-101.5012023167725
 11
19.95966496803942
 21
-100.9488663605296
  0
LINE
  8
0
  6
CONTINUOUS
 62
     7
 10
17.36033503195999
 20
-100.9488663605296
 11
17.33138833107517
 21
-101.5012023167725
  0
LINE
  8
0
  6
CONTINUOUS
 62
     7
 10
-17.32138833107572
 20
-101.5012023167725
 11
-17.35033503196059
 21
-100.9488663605296
  0
LINE
  8
0
  6
CONTINUOUS
 62
     7
 10
-19.9496649680399
 20
-100.9488663605296
 11
-19.97861166892484
 21
-101.5012023167725
  0
ARC
  8
0
  6
CONTINUOUS
 62
     7
 10
60.99896456671488
 20
-119.9556179045007
 40
1.000000000000056
 50
183.0000000000019
 51
270.0000000000001
  0
ARC
  8
0
  6
CONTINUOUS
 62
     7
 10
50.33896456671483
 20
-119.9556179045007
 40
1.000000000000056
 50
183.0000000000019
 51
270.0000000000001
  0
ARC
  8
0
  6
CONTINUOUS
 62
     7
 10
34.34896456671488
 20
-119.9556179045008
 40
1.000000000000056
 50
183.0000000000015
 51
269.9999999999972
  0
ARC
  8
0
  6
CONTINUOUS
 62
     7
 10
39.67896456671488
 20
-119.9556179045007
 40
1.000000000000001
 50
183.0000000000019
 51
269.9999999999973
  0
ARC
  8
0
  6
CONTINUOUS
 62
     7
 10
45.00896456671477
 20
-119.9556179045007
 40
1.000000000000001
 50
183.0000000000015
 51
270.0
  0
ARC
  8
0
  6
CONTINUOUS
 62
     7
 10
55.66896456671477
 20
-119.9556179045007
 40
1.000000000000001
 50
183.0000000000019
 51
270.0000000000002
  0
ARC
  8
0
  6
CONTINUOUS
 62
     7
 10
29.01896456671476
 20
-119.9556179045008
 40
1.000000000000056
 50
183.0000000000016
 51
270.0000000000001
  0
ARC
  8
0
  6
CONTINUOUS
 62
     7
 10
23.68896456671477
 20
-119.9556179045008
 40
1.000000000000056
 50
183.0000000000016
 51
270.0000000000001
  0
ARC
  8
0
  6
CONTINUOUS
 62
     7
 10
18.35896456671482
 20
-119.9556179045008
 40
1.000000000000056
 50
183.0000000000016
 51
270.0000000000001
  0
ARC
  8
0
  6
CONTINUOUS
 62
     7
 10
-8.291035433285243
 20
-119.9556179045008
 40
1.000000000000001
 50
183.0000000000013
 51
269.9999999999989
  0
ARC
  8
0
  6
CONTINUOUS
 62
     7
 10
7.698964566714761
 20
-119.9556179045008
 40
1.000000000000001
 50
183.0000000000013
 51
269.9999999999987
  0
ARC
  8
0
  6
CONTINUOUS
 62
     7
 10
-2.961035433285186
 20
-119.9556179045008
 40
1.000000000000001
 50
183.0000000000018
 51
269.9999999999991
  0
ARC
  8
0
  6
CONTINUOUS
 62
     7
 10
2.368964566714815
 20
-119.9556179045008
 40
1.000000000000001
 50
183.0000000000013
 51
269.9999999999991
  0
ARC
  8
0
  6
CONTINUOUS
 62
     7
 10
13.02896456671482
 20
-119.9556179045008
 40
1.000000000000001
 50
183.0000000000013
 51
269.9999999999989
  0
ARC
  8
0
  6
CONTINUOUS
 62
     7
 10
-13.62103543328525
 20
-119.9556179045008
 40
1.000000000000001
 50
183.0000000000013
 51
269.9999999999989
  0
ARC
  8
0
  6
CONTINUOUS
 62
     7
 10
-56.2610354332852
 20
-119.9556179045008
 40
1.000000000000001
 50
183.0000000000013
 51
270.0
  0
ARC
  8
0
  6
CONTINUOUS
 62
     7
 10
-34.94103543328519
 20
-119.9556179045008
 40
1.000000000000056
 50
183.0000000000019
 51
270.0000000000001
  0
ARC
  8
0
  6
CONTINUOUS
 62
     7
 10
-45.6010354332852
 20
-119.9556179045008
 40
1.000000000000001
 50
183.0000000000019
 51
270.0000000000001
  0
ARC
  8
0
  6
CONTINUOUS
 62
     7
 10
-50.93103543328522
 20
-119.9556179045008
 40
1.000000000000001
 50
183.0000000000013
 51
270.0
  0
ARC
  8
0
  6
CONTINUOUS
 62
     7
 10
-40.27103543328519
 20
-119.9556179045008
 40
1.000000000000056
 50
183.0000000000019
 51
270.0000000000001
  0
ARC
  8
0
  6
CONTINUOUS
 62
     7
 10
-29.61103543328525
 20
-119.9556179045008
 40
1.000000000000056
 50
183.0000000000016
 51
270.0000000000001
  0
ARC
  8
0
  6
CONTINUOUS
 62
     7
 10
-24.28103543328519
 20
-119.9556179045008
 40
1.000000000000056
 50
183.0000000000016
 51
270.0
  0
ARC
  8
0
  6
CONTINUOUS
 62
     7
 10
-18.95103543328519
 20
-119.9556179045008
 40
1.000000000000056
 50
183.0000000000016
 51
270.0
  0
ARC
  8
0
  6
CONTINUOUS
 62
     7
 10
-61.59103543328523
 20
-119.9556179045008
 40
1.000000000000001
 50
183.0000000000013
 51
269.9999999999999
  0
ARC
  8
0
  6
CONTINUOUS
 62
     7
 10
29.62103543328487
 20
-101.0012023167725
 40
0.9999999999999454
 50
3.000000000000409
 51
90.00000000000009
  0
ARC
  8
0
  6
CONTINUOUS
 62
     7
 10
-39.66896456671509
 20
-101.0012023167725
 40
0.9999999999999454
 50
2.999999999999923
 51
89.99999999999996
  0
ARC
  8
0
  6
CONTINUOUS
 62
     7
 10
56.27103543328488
 20
-101.0012023167725
 40
0.9999999999999454
 50
2.999999999999923
 51
90.00000000000009
  0
ARC
  8
0
  6
CONTINUOUS
 62
     7
 10
-34.3389645667152
 20
-101.0012023167725
 40
1.000000000000001
 50
2.999999999999923
 51
89.99999999999996
  0
ARC
  8
0
  6
CONTINUOUS
 62
     7
 10
24.29103543328487
 20
-101.0012023167725
 40
0.9999999999999454
 50
3.000000000000409
 51
90.00000000000009
  0
ARC
  8
0
  6
CONTINUOUS
 62
     7
 10
-44.9989645667151
 20
-101.0012023167725
 40
1.000000000000001
 50
2.999999999999923
 51
89.99999999999996
  0
ARC
  8
0
  6
CONTINUOUS
 62
     7
 10
40.28103543328487
 20
-101.0012023167725
 40
0.9999999999999454
 50
3.000000000000166
 51
90.00000000000001
  0
ARC
  8
0
  6
CONTINUOUS
 62
     7
 10
-29.00896456671514
 20
-101.0012023167725
 40
0.9999999999999454
 50
2.999999999999923
 51
89.99999999999996
  0
ARC
  8
0
  6
CONTINUOUS
 62
     7
 10
34.95103543328482
 20
-101.0012023167725
 40
1.000000000000001
 50
3.000000000000409
 51
90.00000000000009
  0
ARC
  8
0
  6
CONTINUOUS
 62
     7
 10
50.94103543328482
 20
-101.0012023167725
 40
0.9999999999999454
 50
2.999999999999923
 51
89.99999999999996
  0
ARC
  8
0
  6
CONTINUOUS
 62
     7
 10
61.60103543328476
 20
-101.0012023167725
 40
1.000000000000001
 50
2.999999999999923
 51
90.00000000000009
  0
ARC
  8
0
  6
CONTINUOUS
 62
     7
 10
-23.67896456671509
 20
-101.0012023167725
 40
0.9999999999999454
 50
2.999999999999923
 51
89.99999999999996
  0
ARC
  8
0
  6
CONTINUOUS
 62
     7
 10
-60.98896456671521
 20
-101.0012023167726
 40
1.000000000000001
 50
3.000000000000166
 51
90.00000000000001
  0
ARC
  8
0
  6
CONTINUOUS
 62
     7
 10
-50.32896456671521
 20
-101.0012023167726
 40
1.000000000000001
 50
3.000000000000166
 51
90.00000000000001
  0
ARC
  8
0
  6
CONTINUOUS
 62
     7
 10
-55.65896456671521
 20
-101.0012023167726
 40
1.000000000000001
 50
3.000000000000166
 51
90.00000000000001
  0
ARC
  8
0
  6
CONTINUOUS
 62
     7
 10
45.61103543328476
 20
-101.0012023167725
 40
0.9999999999999454
 50
3.000000000000166
 51
90.00000000000001
  0
ARC
  8
0
  6
CONTINUOUS
 62
     7
 10
50.3389645667146
 20
-101.0012023167725
 40
1.000000000000001
 50
90.0
 51
176.9999999999987
  0
ARC
  8
0
  6
CONTINUOUS
 62
     7
 10
-56.26103543328539
 20
-101.0012023167726
 40
1.000000000000001
 50
90.0
 51
176.9999999999985
  0
ARC
  8
0
  6
CONTINUOUS
 62
     7
 10
-61.59103543328542
 20
-101.0012023167726
 40
1.000000000000001
 50
90.0
 51
176.9999999999984
  0
ARC
  8
0
  6
CONTINUOUS
 62
     7
 10
29.0189645667146
 20
-101.0012023167725
 40
1.000000000000001
 50
90.0
 51
176.9999999999984
  0
ARC
  8
0
  6
CONTINUOUS
 62
     7
 10
39.67896456671455
 20
-101.0012023167725
 40
1.000000000000001
 50
90.0
 51
176.9999999999985
  0
ARC
  8
0
  6
CONTINUOUS
 62
     7
 10
34.3489645667146
 20
-101.0012023167725
 40
1.000000000000001
 50
90.0
 51
176.9999999999984
  0
ARC
  8
0
  6
CONTINUOUS
 62
     7
 10
23.6889645667146
 20
-101.0012023167725
 40
1.000000000000001
 50
90.0
 51
176.9999999999986
  0
ARC
  8
0
  6
CONTINUOUS
 62
     7
 10
45.0089645667146
 20
-101.0012023167725
 40
1.000000000000001
 50
90.0
 51
176.9999999999986
  0
ARC
  8
0
  6
CONTINUOUS
 62
     7
 10
-24.28103543328541
 20
-101.0012023167725
 40
1.000000000000001
 50
90.0
 51
176.9999999999986
  0
ARC
  8
0
  6
CONTINUOUS
 62
     7
 10
-29.61103543328542
 20
-101.0012023167725
 40
1.000000000000001
 50
90.0
 51
176.9999999999985
  0
ARC
  8
0
  6
CONTINUOUS
 62
     7
 10
-34.94103543328536
 20
-101.0012023167725
 40
1.000000000000001
 50
90.0
 51
176.9999999999984
  0
ARC
  8
0
  6
CONTINUOUS
 62
     7
 10
-40.27103543328542
 20
-101.0012023167725
 40
1.000000000000001
 50
90.0
 51
176.9999999999984
  0
ARC
  8
0
  6
CONTINUOUS
 62
     7
 10
60.9989645667146
 20
-101.0012023167725
 40
1.000000000000001
 50
90.0
 51
176.9999999999983
  0
ARC
  8
0
  6
CONTINUOUS
 62
     7
 10
55.66896456671455
 20
-101.0012023167725
 40
1.000000000000001
 50
90.0
 51
176.9999999999983
  0
ARC
  8
0
  6
CONTINUOUS
 62
     7
 10
-45.60103543328542
 20
-101.0012023167725
 40
1.000000000000001
 50
90.0
 51
176.9999999999985
  0
ARC
  8
0
  6
CONTINUOUS
 62
     7
 10
-50.93103543328542
 20
-101.0012023167726
 40
1.000000000000001
 50
90.0
 51
176.9999999999985
  0
ARC
  8
0
  6
CONTINUOUS
 62
     7
 10
-55.65896456671501
 20
-119.9556179045008
 40
1.000000000000001
 50
270.0
 51
357.0000000000003
  0
ARC
  8
0
  6
CONTINUOUS
 62
     7
 10
-50.32896456671501
 20
-119.9556179045008
 40
1.000000000000001
 50
270.0
 51
357.0000000000002
  0
ARC
  8
0
  6
CONTINUOUS
 62
     7
 10
-60.98896456671501
 20
-119.9556179045008
 40
1.000000000000001
 50
270.0
 51
357.0000000000002
  0
ARC
  8
0
  6
CONTINUOUS
 62
     7
 10
45.6110354332851
 20
-119.9556179045007
 40
1.000000000000001
 50
270.0
 51
357.0000000000001
  0
ARC
  8
0
  6
CONTINUOUS
 62
     7
 10
50.94103543328509
 20
-119.9556179045007
 40
1.000000000000001
 50
270.0
 51
357.0000000000001
  0
ARC
  8
0
  6
CONTINUOUS
 62
     7
 10
-44.99896456671492
 20
-119.9556179045008
 40
1.000000000000001
 50
270.0
 51
357.0000000000001
  0
ARC
  8
0
  6
CONTINUOUS
 62
     7
 10
56.2710354332851
 20
-119.9556179045007
 40
1.000000000000001
 50
270.0
 51
357.0000000000001
  0
ARC
  8
0
  6
CONTINUOUS
 62
     7
 10
-39.66896456671503
 20
-119.9556179045008
 40
1.000000000000001
 50
270.0
 51
357.0000000000001
  0
ARC
  8
0
  6
CONTINUOUS
 62
     7
 10
61.6010354332851
 20
-119.9556179045007
 40
1.000000000000001
 50
270.0
 51
357.0000000000001
  0
ARC
  8
0
  6
CONTINUOUS
 62
     7
 10
18.96103543328503
 20
-119.9556179045008
 40
1.000000000000001
 50
270.0
 51
357.0000000000001
  0
ARC
  8
0
  6
CONTINUOUS
 62
     7
 10
40.28103543328504
 20
-119.9556179045007
 40
1.000000000000001
 50
270.0
 51
357.0000000000003
  0
ARC
  8
0
  6
CONTINUOUS
 62
     7
 10
34.95103543328498
 20
-119.9556179045008
 40
1.000000000000001
 50
270.0
 51
357.0000000000003
  0
ARC
  8
0
  6
CONTINUOUS
 62
     7
 10
-13.01896456671486
 20
-119.9556179045008
 40
1.000000000000001
 50
270.0
 51
357.0000000000001
  0
ARC
  8
0
  6
CONTINUOUS
 62
     7
 10
-34.33896456671487
 20
-119.9556179045008
 40
1.000000000000001
 50
270.0
 51
357.0000000000001
  0
ARC
  8
0
  6
CONTINUOUS
 62
     7
 10
24.29103543328509
 20
-119.9556179045008
 40
1.000000000000001
 50
270.0
 51
357.0000000000005
  0
ARC
  8
0
  6
CONTINUOUS
 62
     7
 10
-18.34896456671498
 20
-119.9556179045008
 40
1.000000000000001
 50
270.0
 51
357.0000000000002
  0
ARC
  8
0
  6
CONTINUOUS
 62
     7
 10
-2.358964566715027
 20
-119.9556179045008
 40
1.000000000000001
 50
270.0
 51
357.0000000000005
  0
ARC
  8
0
  6
CONTINUOUS
 62
     7
 10
-7.688964566715028
 20
-119.9556179045008
 40
1.000000000000001
 50
270.0000000000001
 51
357.0000000000002
  0
ARC
  8
0
  6
CONTINUOUS
 62
     7
 10
29.62103543328498
 20
-119.9556179045008
 40
1.000000000000001
 50
270.0
 51
357.0000000000002
  0
ARC
  8
0
  6
CONTINUOUS
 62
     7
 10
-23.67896456671492
 20
-119.9556179045008
 40
1.000000000000001
 50
270.0
 51
357.0000000000001
  0
ARC
  8
0
  6
CONTINUOUS
 62
     7
 10
-29.00896456671492
 20
-119.9556179045008
 40
1.000000000000001
 50
270.0
 51
357.0000000000001
  0
ARC
  8
0
  6
CONTINUOUS
 62
     7
 10
8.301035433285087
 20
-119.9556179045008
 40
1.000000000000001
 50
270.0
 51
357.0000000000002
  0
ARC
  8
0
  6
CONTINUOUS
 62
     7
 10
2.97103543328503
 20
-119.9556179045008
 40
1.000000000000001
 50
270.0
 51
357.0000000000002
  0
ARC
  8
0
  6
CONTINUOUS
 62
     7
 10
13.63103543328498
 20
-119.9556179045008
 40
1.000000000000001
 50
270.0
 51
357.0000000000002
  0
LINE
  8
0
  6
CONTINUOUS
 62
     7
 10
2.368964566714815
 20
-120.9556179045008
 11
2.97103543328503
 21
-120.9556179045008
  0
LINE
  8
0
  6
CONTINUOUS
 62
     7
 10
7.698964566714761
 20
-120.9556179045008
 11
8.301035433285087
 21
-120.9556179045008
  0
LINE
  8
0
  6
CONTINUOUS
 62
     7
 10
13.02896456671482
 20
-120.9556179045008
 11
13.63103543328498
 21
-120.9556179045008
  0
LINE
  8
0
  6
CONTINUOUS
 62
     7
 10
18.35896456671482
 20
-120.9556179045008
 11
18.96103543328503
 21
-120.9556179045008
  0
LINE
  8
0
  6
CONTINUOUS
 62
     7
 10
34.34896456671482
 20
-120.9556179045008
 11
34.95103543328498
 21
-120.9556179045008
  0
LINE
  8
0
  6
CONTINUOUS
 62
     7
 10
23.68896456671477
 20
-120.9556179045008
 11
24.29103543328509
 21
-120.9556179045008
  0
LINE
  8
0
  6
CONTINUOUS
 62
     7
 10
39.67896456671488
 20
-120.9556179045007
 11
40.28103543328504
 21
-120.9556179045007
  0
LINE
  8
0
  6
CONTINUOUS
 62
     7
 10
29.01896456671476
 20
-120.9556179045008
 11
29.62103543328498
 21
-120.9556179045008
  0
LINE
  8
0
  6
CONTINUOUS
 62
     7
 10
-40.27103543328519
 20
-120.9556179045008
 11
-39.66896456671503
 21
-120.9556179045008
  0
LINE
  8
0
  6
CONTINUOUS
 62
     7
 10
-13.62103543328525
 20
-120.9556179045008
 11
-13.01896456671486
 21
-120.9556179045008
  0
LINE
  8
0
  6
CONTINUOUS
 62
     7
 10
-61.59103543328523
 20
-120.9556179045008
 11
-60.98896456671501
 21
-120.9556179045008
  0
LINE
  8
0
  6
CONTINUOUS
 62
     7
 10
-24.28103543328519
 20
-120.9556179045008
 11
-23.67896456671492
 21
-120.9556179045008
  0
LINE
  8
0
  6
CONTINUOUS
 62
     7
 10
-18.95103543328519
 20
-120.9556179045008
 11
-18.34896456671498
 21
-120.9556179045008
  0
LINE
  8
0
  6
CONTINUOUS
 62
     7
 10
-56.2610354332852
 20
-120.9556179045008
 11
-55.65896456671501
 21
-120.9556179045008
  0
LINE
  8
0
  6
CONTINUOUS
 62
     7
 10
-34.94103543328519
 20
-120.9556179045008
 11
-34.33896456671487
 21
-120.9556179045008
  0
LINE
  8
0
  6
CONTINUOUS
 62
     7
 10
-2.961035433285186
 20
-120.9556179045008
 11
-2.358964566715027
 21
-120.9556179045008
  0
LINE
  8
0
  6
CONTINUOUS
 62
     7
 10
-50.93103543328522
 20
-120.9556179045008
 11
-50.32896456671501
 21
-120.9556179045008
  0
LINE
  8
0
  6
CONTINUOUS
 62
     7
 10
-8.291035433285243
 20
-120.9556179045008
 11
-7.688964566715028
 21
-120.9556179045008
  0
LINE
  8
0
  6
CONTINUOUS
 62
     7
 10
-45.6010354332852
 20
-120.9556179045008
 11
-44.99896456671492
 21
-120.9556179045008
  0
LINE
  8
0
  6
CONTINUOUS
 62
     7
 10
-29.61103543328525
 20
-120.9556179045008
 11
-29.00896456671492
 21
-120.9556179045008
  0
LINE
  8
0
  6
CONTINUOUS
 62
     7
 10
60.99896456671488
 20
-120.9556179045007
 11
61.6010354332851
 21
-120.9556179045007
  0
LINE
  8
0
  6
CONTINUOUS
 62
     7
 10
55.66896456671477
 20
-120.9556179045007
 11
56.2710354332851
 21
-120.9556179045007
  0
LINE
  8
0
  6
CONTINUOUS
 62
     7
 10
50.33896456671483
 20
-120.9556179045007
 11
50.94103543328509
 21
-120.9556179045007
  0
LINE
  8
0
  6
CONTINUOUS
 62
     7
 10
45.00896456671477
 20
-120.9556179045007
 11
45.6110354332851
 21
-120.9556179045007
  0
LINE
  8
0
  6
CONTINUOUS
 62
     7
 10
40.28103543328487
 20
-100.0012023167725
 11
39.67896456671455
 21
-100.0012023167725
  0
LINE
  8
0
  6
CONTINUOUS
 62
     7
 10
29.62103543328487
 20
-100.0012023167725
 11
29.0189645667146
 21
-100.0012023167725
  0
LINE
  8
0
  6
CONTINUOUS
 62
     7
 10
45.61103543328476
 20
-100.0012023167725
 11
45.0089645667146
 21
-100.0012023167725
  0
LINE
  8
0
  6
CONTINUOUS
 62
     7
 10
50.94103543328482
 20
-100.0012023167725
 11
50.3389645667146
 21
-100.0012023167725
  0
LINE
  8
0
  6
CONTINUOUS
 62
     7
 10
24.29103543328487
 20
-100.0012023167725
 11
23.6889645667146
 21
-100.0012023167725
  0
LINE
  8
0
  6
CONTINUOUS
 62
     7
 10
56.27103543328488
 20
-100.0012023167725
 11
55.66896456671455
 21
-100.0012023167725
  0
LINE
  8
0
  6
CONTINUOUS
 62
     7
 10
61.60103543328476
 20
-100.0012023167725
 11
60.9989645667146
 21
-100.0012023167725
  0
LINE
  8
0
  6
CONTINUOUS
 62
     7
 10
34.95103543328482
 20
-100.0012023167725
 11
34.3489645667146
 21
-100.0012023167725
  0
LINE
  8
0
  6
CONTINUOUS
 62
     7
 10
-23.67896456671509
 20
-100.0012023167726
 11
-24.28103543328541
 21
-100.0012023167726
  0
LINE
  8
0
  6
CONTINUOUS
 62
     7
 10
-44.9989645667151
 20
-100.0012023167726
 11
-45.60103543328542
 21
-100.0012023167726
  0
LINE
  8
0
  6
CONTINUOUS
 62
     7
 10
-55.65896456671521
 20
-100.0012023167726
 11
-56.26103543328539
 21
-100.0012023167726
  0
LINE
  8
0
  6
CONTINUOUS
 62
     7
 10
-50.32896456671521
 20
-100.0012023167726
 11
-50.93103543328542
 21
-100.0012023167726
  0
LINE
  8
0
  6
CONTINUOUS
 62
     7
 10
-39.66896456671509
 20
-100.0012023167726
 11
-40.27103543328542
 21
-100.0012023167726
  0
LINE
  8
0
  6
CONTINUOUS
 62
     7
 10
-60.98896456671521
 20
-100.0012023167726
 11
-61.59103543328542
 21
-100.0012023167726
  0
LINE
  8
0
  6
CONTINUOUS
 62
     7
 10
-29.00896456671514
 20
-100.0012023167726
 11
-29.61103543328542
 21
-100.0012023167726
  0
LINE
  8
0
  6
CONTINUOUS
 62
     7
 10
-34.3389645667152
 20
-100.0012023167726
 11
-34.94103543328536
 21
-100.0012023167726
  0
LINE
  8
0
  6
CONTINUOUS
 62
     7
 10
62.59966496803959
 20
-120.0079538607437
 11
62.62861166892453
 21
-119.4556179045008
  0
LINE
  8
0
  6
CONTINUOUS
 62
     7
 10
57.26966496803959
 20
-120.0079538607437
 11
57.29861166892447
 21
-119.4556179045008
  0
LINE
  8
0
  6
CONTINUOUS
 62
     7
 10
35.9496649680397
 20
-120.0079538607437
 11
35.97861166892447
 21
-119.4556179045008
  0
LINE
  8
0
  6
CONTINUOUS
 62
     7
 10
51.93966496803959
 20
-120.0079538607437
 11
51.96861166892447
 21
-119.4556179045008
  0
LINE
  8
0
  6
CONTINUOUS
 62
     7
 10
46.60966496803965
 20
-120.0079538607437
 11
46.63861166892453
 21
-119.4556179045008
  0
LINE
  8
0
  6
CONTINUOUS
 62
     7
 10
41.27966496803958
 20
-120.0079538607437
 11
41.30861166892446
 21
-119.4556179045008
  0
LINE
  8
0
  6
CONTINUOUS
 62
     7
 10
25.28966496803958
 20
-120.0079538607437
 11
25.31861166892452
 21
-119.4556179045008
  0
LINE
  8
0
  6
CONTINUOUS
 62
     7
 10
19.95966496803958
 20
-120.0079538607437
 11
19.98861166892446
 21
-119.4556179045008
  0
LINE
  8
0
  6
CONTINUOUS
 62
     7
 10
-1.360335031960314
 20
-120.0079538607437
 11
-1.331388331075545
 21
-119.4556179045007
  0
LINE
  8
0
  6
CONTINUOUS
 62
     7
 10
-6.69033503196037
 20
-120.0079538607437
 11
-6.66138833107549
 21
-119.4556179045008
  0
LINE
  8
0
  6
CONTINUOUS
 62
     7
 10
30.61966496803964
 20
-120.0079538607437
 11
30.64861166892452
 21
-119.4556179045008
  0
LINE
  8
0
  6
CONTINUOUS
 62
     7
 10
14.62966496803969
 20
-120.0079538607437
 11
14.65861166892451
 21
-119.4556179045008
  0
LINE
  8
0
  6
CONTINUOUS
 62
     7
 10
-38.67033503196032
 20
-120.0079538607437
 11
-38.6413883310755
 21
-119.4556179045008
  0
LINE
  8
0
  6
CONTINUOUS
 62
     7
 10
-33.34033503196044
 20
-120.0079538607437
 11
-33.3113883310755
 21
-119.4556179045008
  0
LINE
  8
0
  6
CONTINUOUS
 62
     7
 10
-54.66033503196041
 20
-120.0079538607437
 11
-54.6313883310755
 21
-119.4556179045008
  0
LINE
  8
0
  6
CONTINUOUS
 62
     7
 10
-12.02033503196043
 20
-120.0079538607437
 11
-11.99138833107549
 21
-119.4556179045008
  0
LINE
  8
0
  6
CONTINUOUS
 62
     7
 10
-44.00033503196038
 20
-120.0079538607437
 11
-43.9713883310755
 21
-119.4556179045008
  0
LINE
  8
0
  6
CONTINUOUS
 62
     7
 10
9.299664968039634
 20
-120.0079538607437
 11
9.328611668924513
 21
-119.4556179045008
  0
LINE
  8
0
  6
CONTINUOUS
 62
     7
 10
3.969664968039577
 20
-120.0079538607437
 11
3.998611668924457
 21
-119.4556179045007
  0
LINE
  8
0
  6
CONTINUOUS
 62
     7
 10
-17.35033503196043
 20
-120.0079538607437
 11
-17.32138833107555
 21
-119.4556179045008
  0
LINE
  8
0
  6
CONTINUOUS
 62
     7
 10
-28.01033503196038
 20
-120.0079538607437
 11
-27.9813883310755
 21
-119.4556179045008
  0
LINE
  8
0
  6
CONTINUOUS
 62
     7
 10
-22.68033503196038
 20
-120.0079538607437
 11
-22.65138833107549
 21
-119.4556179045008
  0
LINE
  8
0
  6
CONTINUOUS
 62
     7
 10
-49.33033503196041
 20
-120.0079538607437
 11
-49.30138833107553
 21
-119.4556179045008
  0
LINE
  8
0
  6
CONTINUOUS
 62
     7
 10
-59.99033503196041
 20
-120.0079538607437
 11
-59.9613883310755
 21
-119.4556179045008
  0
LINE
  8
0
  6
CONTINUOUS
 62
     7
 10
51.96861166892425
 20
-101.5012023167725
 11
51.93966496803937
 21
-100.9488663605296
  0
LINE
  8
0
  6
CONTINUOUS
 62
     7
 10
57.2986116689243
 20
-101.5012023167725
 11
57.26966496803942
 21
-100.9488663605296
  0
LINE
  8
0
  6
CONTINUOUS
 62
     7
 10
35.97861166892429
 20
-101.5012023167725
 11
35.94966496803936
 21
-100.9488663605296
  0
LINE
  8
0
  6
CONTINUOUS
 62
     7
 10
41.3086116689243
 20
-101.5012023167725
 11
41.27966496803942
 21
-100.9488663605296
  0
LINE
  8
0
  6
CONTINUOUS
 62
     7
 10
46.6386116689243
 20
-101.5012023167725
 11
46.60966496803953
 21
-100.9488663605296
  0
LINE
  8
0
  6
CONTINUOUS
 62
     7
 10
62.62861166892431
 20
-101.5012023167725
 11
62.59966496803943
 21
-100.9488663605296
  0
LINE
  8
0
  6
CONTINUOUS
 62
     7
 10
30.6486116689243
 20
-101.5012023167725
 11
30.61966496803936
 21
-100.9488663605296
  0
LINE
  8
0
  6
CONTINUOUS
 62
     7
 10
25.31861166892429
 20
-101.5012023167725
 11
25.28966496803941
 21
-100.9488663605296
  0
LINE
  8
0
  6
CONTINUOUS
 62
     7
 10
-33.31138833107572
 20
-101.5012023167725
 11
-33.3403350319606
 21
-100.9488663605296
  0
LINE
  8
0
  6
CONTINUOUS
 62
     7
 10
-27.98138833107572
 20
-101.5012023167725
 11
-28.0103350319606
 21
-100.9488663605296
  0
LINE
  8
0
  6
CONTINUOUS
 62
     7
 10
-43.97138833107572
 20
-101.5012023167725
 11
-44.0003350319606
 21
-100.9488663605296
  0
LINE
  8
0
  6
CONTINUOUS
 62
     7
 10
-59.96138833107572
 20
-101.5012023167725
 11
-59.9903350319606
 21
-100.9488663605296
  0
LINE
  8
0
  6
CONTINUOUS
 62
     7
 10
-22.65138833107566
 20
-101.5012023167725
 11
-22.68033503196065
 21
-100.9488663605296
  0
LINE
  8
0
  6
CONTINUOUS
 62
     7
 10
-54.6313883310757
 20
-101.5012023167725
 11
-54.66033503196063
 21
-100.9488663605296
  0
LINE
  8
0
  6
CONTINUOUS
 62
     7
 10
-49.30138833107572
 20
-101.5012023167725
 11
-49.3303350319606
 21
-100.9488663605296
  0
LINE
  8
0
  6
CONTINUOUS
 62
     7
 10
-38.64138833107572
 20
-101.5012023167725
 11
-38.6703350319606
 21
-100.9488663605296
  0
LINE
  8
0
  6
CONTINUOUS
 62
     7
 10
-62.61861166892463
 20
-119.4556179045008
 11
-62.5896649680395
 21
-120.0079538607476
  0
LINE
  8
0
  6
CONTINUOUS
 62
     7
 10
43.9813883310754
 20
-119.4556179045008
 11
44.01033503196039
 21
-120.0079538607476
  0
LINE
  8
0
  6
CONTINUOUS
 62
     7
 10
38.6513883310754
 20
-119.4556179045008
 11
38.6803350319605
 21
-120.0079538607476
  0
LINE
  8
0
  6
CONTINUOUS
 62
     7
 10
54.6413883310754
 20
-119.4556179045008
 11
54.67033503196051
 21
-120.0079538607476
  0
LINE
  8
0
  6
CONTINUOUS
 62
     7
 10
33.3213883310754
 20
-119.4556179045008
 11
33.35033503196044
 21
-120.0079538607476
  0
LINE
  8
0
  6
CONTINUOUS
 62
     7
 10
-51.92966496803991
 20
-100.9488663605296
 11
-51.95861166892482
 21
-101.5012023167725
  0
LINE
  8
0
  6
CONTINUOUS
 62
     7
 10
-57.25966496803991
 20
-100.9488663605296
 11
-57.28861166892482
 21
-101.5012023167725
  0
LINE
  8
0
  6
CONTINUOUS
 62
     7
 10
-62.58966496803991
 20
-100.9488663605296
 11
-62.61861166892482
 21
-101.5012023167725
  0
LINE
  8
0
  6
CONTINUOUS
 62
     7
 10
-41.26966496804002
 20
-100.9488663605296
 11
-41.29861166892479
 21
-101.5012023167725
  0
LINE
  8
0
  6
CONTINUOUS
 62
     7
 10
-46.59966496803991
 20
-100.9488663605296
 11
-46.62861166892482
 21
-101.5012023167725
  0
LINE
  8
0
  6
CONTINUOUS
 62
     7
 10
-30.60966496804002
 20
-100.9488663605296
 11
-30.63861166892478
 21
-101.5012023167726
  0
LINE
  8
0
  6
CONTINUOUS
 62
     7
 10
-25.27966496803991
 20
-100.9488663605296
 11
-25.30861166892484
 21
-101.5012023167726
  0
LINE
  8
0
  6
CONTINUOUS
 62
     7
 10
-35.93966496803991
 20
-100.9488663605296
 11
-35.96861166892479
 21
-101.5012023167725
  0
LINE
  8
0
  6
CONTINUOUS
 62
     7
 10
22.69033503196
 20
-100.9488663605296
 11
22.66138833107523
 21
-101.5012023167725
  0
LINE
  8
0
  6
CONTINUOUS
 62
     7
 10
28.02033503195994
 20
-100.9488663605296
 11
27.99138833107517
 21
-101.5012023167725
  0
LINE
  8
0
  6
CONTINUOUS
 62
     7
 10
33.35033503196006
 20
-100.9488663605295
 11
33.32138833107518
 21
-101.5012023167725
  0
LINE
  8
0
  6
CONTINUOUS
 62
     7
 10
49.34033503196006
 20
-100.9488663605296
 11
49.31138833107518
 21
-101.5012023167725
  0
LINE
  8
0
  6
CONTINUOUS
 62
     7
 10
44.01033503196
 20
-100.9488663605296
 11
43.98138833107517
 21
-101.5012023167725
  0
LINE
  8
0
  6
CONTINUOUS
 62
     7
 10
38.68033503196011
 20
-100.9488663605296
 11
38.65138833107518
 21
-101.5012023167725
  0
LINE
  8
0
  6
CONTINUOUS
 62
     7
 10
60.00033503196011
 20
-100.9488663605296
 11
59.97138833107524
 21
-101.5012023167725
  0
LINE
  8
0
  6
CONTINUOUS
 62
     7
 10
54.67033503196011
 20
-100.9488663605296
 11
54.64138833107518
 21
-101.5012023167725
  0
LINE
  8
0
  6
CONTINUOUS
 62
     7
 10
-9.318611668924614
 20
-119.4556179045008
 11
-9.289664968039679
 21
-120.0079538607437
  0
LINE
  8
0
  6
CONTINUOUS
 62
     7
 10
12.00138833107539
 20
-119.4556179045008
 11
12.03033503196033
 21
-120.0079538607437
  0
LINE
  8
0
  6
CONTINUOUS
 62
     7
 10
-19.97861166892473
 20
-119.4556179045008
 11
-19.94966496803985
 21
-120.0079538607437
  0
LINE
  8
0
  6
CONTINUOUS
 62
     7
 10
-25.30861166892456
 20
-119.4556179045008
 11
-25.27966496803979
 21
-120.0079538607437
  0
LINE
  8
0
  6
CONTINUOUS
 62
     7
 10
-51.9586116689246
 20
-119.4556179045008
 11
-51.92966496803972
 21
-120.0079538607437
  0
LINE
  8
0
  6
CONTINUOUS
 62
     7
 10
-41.29861166892474
 20
-119.4556179045008
 11
-41.2696649680398
 21
-120.0079538607437
  0
LINE
  8
0
  6
CONTINUOUS
 62
     7
 10
-57.2886116689246
 20
-119.4556179045008
 11
-57.25966496803971
 21
-120.0079538607437
  0
LINE
  8
0
  6
CONTINUOUS
 62
     7
 10
-46.62861166892462
 20
-119.4556179045008
 11
-46.59966496803969
 21
-120.0079538607437
  0
LINE
  8
0
  6
CONTINUOUS
 62
     7
 10
-30.63861166892467
 20
-119.4556179045008
 11
-30.60966496803979
 21
-120.0079538607437
  0
LINE
  8
0
  6
CONTINUOUS
 62
     7
 10
-35.96861166892462
 20
-119.4556179045008
 11
-35.93966496803974
 21
-120.0079538607437
  0
LINE
  8
0
  6
CONTINUOUS
 62
     7
 10
1.341388331075388
 20
-119.4556179045008
 11
1.370335031960268
 21
-120.0079538607437
  0
LINE
  8
0
  6
CONTINUOUS
 62
     7
 10
-14.64861166892462
 20
-119.4556179045008
 11
-14.61966496803974
 21
-120.0079538607437
  0
LINE
  8
0
  6
CONTINUOUS
 62
     7
 10
6.67138833107539
 20
-119.4556179045008
 11
6.700335031960325
 21
-120.0079538607437
  0
LINE
  8
0
  6
CONTINUOUS
 62
     7
 10
-3.988611668924613
 20
-119.4556179045008
 11
-3.959664968039733
 21
-120.0079538607437
  0
LINE
  8
0
  6
CONTINUOUS
 62
     7
 10
17.33138833107539
 20
-119.4556179045008
 11
17.36033503196027
 21
-120.0079538607437
  0
LINE
  8
0
  6
CONTINUOUS
 62
     7
 10
27.99138833107534
 20
-119.4556179045008
 11
28.02033503196033
 21
-120.0079538607437
  0
LINE
  8
0
  6
CONTINUOUS
 62
     7
 10
22.66138833107539
 20
-119.4556179045008
 11
22.69033503196027
 21
-120.0079538607437
  0
LINE
  8
0
  6
CONTINUOUS
 62
     7
 10
49.3113883310754
 20
-119.4556179045008
 11
49.34033503196028
 21
-120.0079538607437
  0
LINE
  8
0
  6
CONTINUOUS
 62
     7
 10
59.9713883310754
 20
-119.4556179045008
 11
60.00033503196028
 21
-120.0079538607437
  0
ARC
  8
0
  6
CONTINUOUS
 62
     7
 10
-64.0
 20
-117.9556179045008
 40
1.500000000000001
 50
180.0
 51
270.0
  0
ARC
  8
0
  6
CONTINUOUS
 62
     7
 10
64.0
 20
-103.0012023167725
 40
1.500000000000001
 50
359.9999999999998
 51
90.0
  0
ARC
  8
0
  6
CONTINUOUS
 62
     7
 10
64.0
 20
-117.9556179045008
 40
1.500000000000001
 50
270.0
 51
0.0
  0
ARC
  8
0
  6
CONTINUOUS
 62
     7
 10
-64.0
 20
-103.0012023167725
 40
1.500000000000001
 50
90.0
 51
180.0
  0
LINE
  8
0
  6
CONTINUOUS
 62
     7
 10
25.31861166892457
 20
-119.4556179045008
 11
27.99138833107534
 21
-119.4556179045008
  0
LINE
  8
0
  6
CONTINUOUS
 62
     7
 10
62.62861166892458
 20
-119.4556179045008
 11
64.0
 21
-119.4556179045008
  0
LINE
  8
0
  6
CONTINUOUS
 62
     7
 10
-17.32138833107533
 20
-119.4556179045008
 11
-14.64861166892462
 21
-119.4556179045008
  0
LINE
  8
0
  6
CONTINUOUS
 62
     7
 10
57.29861166892458
 20
-119.4556179045008
 11
59.9713883310754
 21
-119.4556179045008
  0
LINE
  8
0
  6
CONTINUOUS
 62
     7
 10
-11.99138833107549
 20
-119.4556179045008
 11
-9.318611668924614
 21
-119.4556179045008
  0
LINE
  8
0
  6
CONTINUOUS
 62
     7
 10
-38.64138833107516
 20
-119.4556179045008
 11
-35.96861166892462
 21
-119.4556179045008
  0
LINE
  8
0
  6
CONTINUOUS
 62
     7
 10
-54.63138833107531
 20
-119.4556179045008
 11
-51.9586116689246
 21
-119.4556179045008
  0
LINE
  8
0
  6
CONTINUOUS
 62
     7
 10
64.0
 20
-101.5012023167725
 11
62.62861166892431
 21
-101.5012023167725
  0
LINE
  8
0
  6
CONTINUOUS
 62
     7
 10
-1.331388331075545
 20
-119.4556179045008
 11
1.341388331075388
 21
-119.4556179045008
  0
LINE
  8
0
  6
CONTINUOUS
 62
     7
 10
46.63861166892458
 20
-119.4556179045008
 11
49.3113883310754
 21
-119.4556179045008
  0
LINE
  8
0
  6
CONTINUOUS
 62
     7
 10
-43.97138833107533
 20
-119.4556179045008
 11
-41.29861166892474
 21
-119.4556179045008
  0
LINE
  8
0
  6
CONTINUOUS
 62
     7
 10
51.96861166892458
 20
-119.4556179045008
 11
54.6413883310754
 21
-119.4556179045008
  0
LINE
  8
0
  6
CONTINUOUS
 62
     7
 10
41.30861166892458
 20
-119.4556179045008
 11
43.9813883310754
 21
-119.4556179045008
  0
LINE
  8
0
  6
CONTINUOUS
 62
     7
 10
-33.31138833107522
 20
-119.4556179045008
 11
-30.63861166892467
 21
-119.4556179045008
  0
LINE
  8
0
  6
CONTINUOUS
 62
     7
 10
-64.0
 20
-119.4556179045008
 11
-62.61861166892463
 21
-119.4556179045008
  0
LINE
  8
0
  6
CONTINUOUS
 62
     7
 10
14.65861166892451
 20
-119.4556179045008
 11
17.33138833107539
 21
-119.4556179045008
  0
LINE
  8
0
  6
CONTINUOUS
 62
     7
 10
19.98861166892468
 20
-119.4556179045008
 11
22.66138833107539
 21
-119.4556179045008
  0
LINE
  8
0
  6
CONTINUOUS
 62
     7
 10
-49.30138833107534
 20
-119.4556179045008
 11
-46.62861166892462
 21
-119.4556179045008
  0
LINE
  8
0
  6
CONTINUOUS
 62
     7
 10
30.64861166892463
 20
-119.4556179045008
 11
33.3213883310754
 21
-119.4556179045008
  0
LINE
  8
0
  6
CONTINUOUS
 62
     7
 10
3.998611668924457
 20
-119.4556179045008
 11
6.67138833107539
 21
-119.4556179045008
  0
LINE
  8
0
  6
CONTINUOUS
 62
     7
 10
9.328611668924513
 20
-119.4556179045008
 11
12.00138833107539
 21
-119.4556179045008
  0
LINE
  8
0
  6
CONTINUOUS
 62
     7
 10
-6.66138833107549
 20
-119.4556179045008
 11
-3.988611668924613
 21
-119.4556179045008
  0
LINE
  8
0
  6
CONTINUOUS
 62
     7
 10
-22.65138833107538
 20
-119.4556179045008
 11
-19.97861166892462
 21
-119.4556179045008
  0
LINE
  8
0
  6
CONTINUOUS
 62
     7
 10
-27.98138833107533
 20
-119.4556179045008
 11
-25.30861166892456
 21
-119.4556179045008
  0
LINE
  8
0
  6
CONTINUOUS
 62
     7
 10
35.97861166892458
 20
-119.4556179045008
 11
38.6513883310754
 21
-119.4556179045008
  0
LINE
  8
0
  6
CONTINUOUS
 62
     7
 10
-59.96138833107531
 20
-119.4556179045008
 11
-57.2886116689246
 21
-119.4556179045008
  0
LINE
  8
0
  6
CONTINUOUS
 62
     7
 10
-13.50000000000001
 20
-101.5012023167725
 11
-17.32138833107572
 21
-101.5012023167725
  0
LINE
  8
0
  6
CONTINUOUS
 62
     7
 10
-62.61861166892482
 20
-101.5012023167725
 11
-64.0
 21
-101.5012023167725
  0
ARC
  8
0
  6
CONTINUOUS
 62
     7
 10
13.50000000000001
 20
-103.0012023167725
 40
1.500000000000001
 50
90.0
 51
180.0
  0
LINE
  8
0
  6
CONTINUOUS
 62
     7
 10
17.33138833107517
 20
-101.5012023167725
 11
13.50000000000001
 21
-101.5012023167725
  0
ARC
  8
0
  6
CONTINUOUS
 62
     7
 10
-13.50000000000001
 20
-103.0012023167725
 40
1.500000000000001
 50
359.9999999999998
 51
90.0
  0
LINE
  8
0
  6
CONTINUOUS
 62
     7
 10
-35.96861166892479
 20
-101.5012023167725
 11
-38.64138833107572
 21
-101.5012023167725
  0
LINE
  8
0
  6
CONTINUOUS
 62
     7
 10
-30.63861166892478
 20
-101.5012023167725
 11
-33.31138833107572
 21
-101.5012023167725
  0
LINE
  8
0
  6
CONTINUOUS
 62
     7
 10
-25.30861166892484
 20
-101.5012023167725
 11
-27.98138833107572
 21
-101.5012023167725
  0
LINE
  8
0
  6
CONTINUOUS
 62
     7
 10
-51.95861166892482
 20
-101.5012023167725
 11
-54.6313883310757
 21
-101.5012023167725
  0
LINE
  8
0
  6
CONTINUOUS
 62
     7
 10
-46.62861166892482
 20
-101.5012023167725
 11
-49.30138833107572
 21
-101.5012023167725
  0
LINE
  8
0
  6
CONTINUOUS
 62
     7
 10
-41.29861166892479
 20
-101.5012023167725
 11
-43.97138833107572
 21
-101.5012023167725
  0
LINE
  8
0
  6
CONTINUOUS
 62
     7
 10
-57.28861166892482
 20
-101.5012023167725
 11
-59.96138833107572
 21
-101.5012023167725
  0
LINE
  8
0
  6
CONTINUOUS
 62
     7
 10
33.32138833107518
 20
-101.5012023167725
 11
30.6486116689243
 21
-101.5012023167725
  0
LINE
  8
0
  6
CONTINUOUS
 62
     7
 10
54.64138833107518
 20
-101.5012023167725
 11
51.96861166892425
 21
-101.5012023167725
  0
LINE
  8
0
  6
CONTINUOUS
 62
     7
 10
22.66138833107512
 20
-101.5012023167725
 11
19.98861166892429
 21
-101.5012023167725
  0
LINE
  8
0
  6
CONTINUOUS
 62
     7
 10
59.97138833107524
 20
-101.5012023167725
 11
57.2986116689243
 21
-101.5012023167725
  0
LINE
  8
0
  6
CONTINUOUS
 62
     7
 10
27.99138833107517
 20
-101.5012023167725
 11
25.31861166892429
 21
-101.5012023167725
  0
LINE
  8
0
  6
CONTINUOUS
 62
     7
 10
43.98138833107534
 20
-101.5012023167725
 11
41.3086116689243
 21
-101.5012023167725
  0
LINE
  8
0
  6
CONTINUOUS
 62
     7
 10
-19.97861166892484
 20
-101.5012023167725
 11
-22.65138833107566
 21
-101.5012023167725
  0
LINE
  8
0
  6
CONTINUOUS
 62
     7
 10
49.31138833107518
 20
-101.5012023167725
 11
46.6386116689243
 21
-101.5012023167725
  0
LINE
  8
0
  6
CONTINUOUS
 62
     7
 10
38.65138833107518
 20
-101.5012023167725
 11
35.97861166892429
 21
-101.5012023167725
  0
LINE
  8
0
  6
CONTINUOUS
 62
   252
 10
170.002792206136
 20
32.49676166361887
 11
171.7134673237653
 21
34.20743678124827
  0
LINE
  8
0
  6
CONTINUOUS
 62
   252
 10
171.231010364917
 20
31.22497982239997
 11
173.678515993715
 21
33.67248545119783
  0
LINE
  8
0
  6
CONTINUOUS
 62
   252
 10
173.0194429302867
 20
30.51341238776956
 11
176.4253305367618
 21
33.91929999424475
  0
LINE
  8
0
  6
CONTINUOUS
 62
   252
 10
175.0060305425172
 20
30.00000000000008
 11
179.1538186532709
 21
34.14778811075386
  0
LINE
  8
0
  6
CONTINUOUS
 62
   252
 10
178.6892346366753
 20
31.18320409415826
 11
180.9863360033776
 21
33.48030546086056
  0
LINE
  8
0
  6
CONTINUOUS
 62
   252
 10
180.2293278005788
 20
30.22329725806178
 11
182.3587079765167
 21
32.35267743399955
  0
LINE
  8
0
  6
CONTINUOUS
 62
   252
 10
180.6579770057658
 20
28.15194646324881
 11
183.3170312185171
 21
30.81100067600007
  0
LINE
  8
0
  6
CONTINUOUS
 62
   252
 10
179.5944593269317
 20
24.58842878441459
 11
183.7270477586703
 21
28.72101721615328
  0
LINE
  8
0
  6
CONTINUOUS
 62
   252
 10
179.6373483584228
 20
22.13131781590566
 11
182.6009046273654
 21
25.09487408484828
  0
LINE
  8
0
  6
CONTINUOUS
 62
   252
 10
179.6802373899139
 20
19.67420684739685
 11
182.4999999999999
 21
22.49396945748272
  0
LINE
  8
0
  6
CONTINUOUS
 62
   252
 10
179.7231264214051
 20
17.21709587888803
 11
182.4999999999999
 21
19.99396945748277
  0
LINE
  8
0
  6
CONTINUOUS
 62
   252
 10
179.7660154528963
 20
14.75998491037917
 11
182.4999999999999
 21
17.49396945748277
  0
LINE
  8
0
  6
CONTINUOUS
 62
   252
 10
179.8089044843874
 20
12.30287394187035
 11
182.4999999999999
 21
14.99396945748277
  0
LINE
  8
0
  6
CONTINUOUS
 62
   252
 10
179.8517935158786
 20
9.845762973361483
 11
182.4999999999999
 21
12.49396945748277
  0
LINE
  8
0
  6
CONTINUOUS
 62
   252
 10
179.8946825473697
 20
7.388652004852669
 11
182.4999999999999
 21
9.993969457482764
  0
LINE
  8
0
  6
CONTINUOUS
 62
   252
 10
179.9375715788609
 20
4.931541036343911
 11
182.4999999999999
 21
7.493969457482763
  0
LINE
  8
0
  6
CONTINUOUS
 62
   252
 10
179.9804606103521
 20
2.474430067834987
 11
182.4999999999999
 21
4.993969457482761
  0
LINE
  8
0
  6
CONTINUOUS
 62
   252
 10
180.0060305425171
 20
0.0
 11
182.4999999999999
 21
2.493969457482759
  0
LINE
  8
0
  6
CONTINUOUS
 62
     7
 10
4.000000000000004
 20
49.47720779386405
 11
0.0
 21
50.72720779386403
  0
LINE
  8
0
  6
CONTINUOUS
 62
     7
 10
0.0
 20
50.72720779386403
 11
4.000000000000004
 21
51.97720779386405
  0
LINE
  8
0
  6
CONTINUOUS
 62
     7
 10
4.000000000000004
 20
-13.75000000000004
 11
0.0
 21
-15.00000000000001
  0
LINE
  8
0
  6
CONTINUOUS
 62
     7
 10
0.0
 20
-15.00000000000001
 11
4.000000000000004
 21
-16.25000000000004
  0
TEXT
  8
0
 62
     7
 10
137.3970252525252
 20
44.22183405649037
 40
3.5
  1
断面 A-A
  7
MTXPL_HG丸ｺﾞｼｯｸM-PRO
  0
TEXT
  8
0
 62
     7
 10
5.829545454545454
 20
-13.2545454545456
 40
3.5
  1
A
  7
MTXPL_HG丸ｺﾞｼｯｸM-PRO
  0
TEXT
  8
0
 62
     7
 10
5.829545454545454
 20
52.4726623393186
 40
3.5
  1
A
  7
MTXPL_HG丸ｺﾞｼｯｸM-PRO
  0
LINE
  8
0
  6
CONTINUOUS
 62
     7
 10
0.0
 20
-12.50000000000001
 11
0.0
 21
-17.50000000000001
  0
LINE
  8
0
  6
CENTER
 62
     1
 10
0.0
 20
-12.50000000000001
 11
0.0
 21
48.22720779386407
  0
LINE
  8
0
  6
CONTINUOUS
 62
     7
 10
0.0
 20
48.22720779386408
 11
0.0
 21
53.22720779386403
  0
LINE
  8
0
  6
CONTINUOUS
 62
     7
 10
10.00000000000001
 20
-15.00000000000001
 11
0.0
 21
-15.00000000000001
  0
LINE
  8
0
  6
CONTINUOUS
 62
     7
 10
10.00000000000001
 20
50.72720779386403
 11
0.0
 21
50.72720779386403
  0
LINE
  8
0
  6
CONTINUOUS
 62
     7
 10
166.4999999999999
 20
15.70473188920457
 11
166.9999999999999
 21
15.70473188920457
  0
LINE
  8
0
  6
CONTINUOUS
 62
     7
 10
166.4999999999999
 20
21.51723188920457
 11
166.9999999999999
 21
21.51723188920457
  0
LINE
  8
0
  6
CONTINUOUS
 62
     7
 10
166.4999999999999
 20
16.85018643465908
 11
166.4999999999999
 21
15.70473188920457
  0
LINE
  8
0
  6
CONTINUOUS
 62
     7
 10
166.4999999999999
 20
16.85018643465908
 11
166.9999999999999
 21
16.85018643465908
  0
LINE
  8
0
  6
CONTINUOUS
 62
     7
 10
166.4999999999999
 20
15.00927734374996
 11
166.9999999999999
 21
15.00927734374996
  0
LINE
  8
0
  6
CONTINUOUS
 62
     7
 10
166.4999999999999
 20
13.65359552556816
 11
166.9999999999999
 21
13.65359552556816
  0
LINE
  8
0
  6
CONTINUOUS
 62
     7
 10
166.4999999999999
 20
15.70473188920457
 11
166.4999999999999
 21
15.00927734374996
  0
LINE
  8
0
  6
CONTINUOUS
 62
     7
 10
166.4999999999999
 20
13.65359552556816
 11
166.4999999999999
 21
10.67698004860268
  0
LINE
  8
0
  6
CONTINUOUS
 62
     7
 10
166.4999999999999
 20
18.96041370738638
 11
166.9999999999999
 21
18.96041370738638
  0
LINE
  8
0
  6
CONTINUOUS
 62
     7
 10
166.4999999999999
 20
6.482768110795456
 11
166.9999999999999
 21
6.482768110795456
  0
LINE
  8
0
  6
CONTINUOUS
 62
     7
 10
166.4999999999999
 20
18.96041370738638
 11
166.4999999999999
 21
18.14223188920461
  0
LINE
  8
0
  6
CONTINUOUS
 62
     7
 10
166.4999999999999
 20
18.14223188920461
 11
166.9999999999999
 21
18.14223188920461
  0
LINE
  8
0
  6
CONTINUOUS
 62
     7
 10
166.4999999999999
 20
21.51723188920457
 11
166.4999999999999
 21
20.69905007102263
  0
LINE
  8
0
  6
CONTINUOUS
 62
     7
 10
168.4999999999999
 20
0.0
 11
166.9999999999999
 21
0.0
  0
LINE
  8
0
  6
CONTINUOUS
 62
     7
 10
166.4999999999999
 20
10.60586825284088
 11
166.9999999999999
 21
10.60586825284088
  0
ARC
  8
0
  6
CONTINUOUS
 62
     7
 10
168.4999999999999
 20
2.000000000000002
 40
1.500000000000001
 50
180.0
 51
270.0000000000043
  0
LINE
  8
0
  6
CONTINUOUS
 62
     7
 10
169.5112581820098
 20
0.5000000000000004
 11
169.5112581820098
 21
0.0
  0
LINE
  8
0
  6
CONTINUOUS
 62
     7
 10
166.9999999999999
 20
13.65402079175271
 11
166.4999999999999
 21
13.65402079175271
  0
LINE
  8
0
  6
CONTINUOUS
 62
     7
 10
166.4999999999999
 20
9.407768110795466
 11
166.4999999999999
 21
9.267544941808813
  0
LINE
  8
0
  6
CONTINUOUS
 62
     7
 10
169.5112581820098
 20
0.0
 11
179.98874181799
 21
0.0
  0
LINE
  8
0
  6
CONTINUOUS
 62
     7
 10
166.4999999999999
 20
10.67698004571782
 11
166.9999999999999
 21
10.67698004571782
  0
LINE
  8
0
  6
CONTINUOUS
 62
     7
 10
166.4999999999999
 20
10.67099223795948
 11
166.4999999999999
 21
10.60586825284088
  0
LINE
  8
0
  6
CONTINUOUS
 62
     7
 10
166.4999999999999
 20
20.69905007102263
 11
166.4999999999999
 21
18.96041370738638
  0
ARC
  8
0
  6
CONTINUOUS
 62
     7
 10
171.2727922061359
 20
28.72720779386406
 40
6.052335956242938
 50
65.33181055829095
 51
225.0620638521181
  0
LINE
  8
0
  6
CONTINUOUS
 62
     7
 10
179.98874181799
 20
2.000000000000002
 11
169.5112581820098
 21
2.000000000000002
  0
LINE
  8
0
  6
CONTINUOUS
 62
     7
 10
166.9999999999999
 20
0.0
 11
166.4476640437571
 21
0.0
  0
LINE
  8
0
  6
CONTINUOUS
 62
     7
 10
166.4999999999999
 20
20.69905007102263
 11
166.9999999999999
 21
20.69905007102263
  0
LINE
  8
0
  6
CONTINUOUS
 62
     7
 10
166.4999999999999
 20
6.251173544229382
 11
166.9999999999999
 21
6.251173544229382
  0
LINE
  8
0
  6
CONTINUOUS
 62
     7
 10
166.4999999999999
 20
9.407768110795466
 11
166.9999999999999
 21
9.407768110795466
  0
LINE
  8
0
  6
CONTINUOUS
 62
     7
 10
168.4999999999999
 20
0.5000000000000004
 11
168.4999999999999
 21
0.0
  0
ARC
  8
0
  6
CONTINUOUS
 62
     7
 10
171.2727922061359
 20
28.72720779386406
 40
7.000000000000006
 50
60.21518438390967
 51
232.3816493467199
  0
LINE
  8
0
  6
CONTINUOUS
 62
     7
 10
166.4476640437571
 20
23.6559024178668
 11
166.4476640437571
 21
0.0000000000000069
  0
LINE
  8
0
  6
CONTINUOUS
 62
     7
 10
166.9999999999999
 20
0.0
 11
166.9999999999999
 21
2.000000000000002
  0
LINE
  8
0
  6
CONTINUOUS
 62
     7
 10
166.4476640437571
 20
0.0
 11
165.5
 21
0.0
  0
LINE
  8
0
  6
CONTINUOUS
 62
     7
 10
166.4999999999999
 20
6.47441938572707
 11
166.4999999999999
 21
6.251173545464394
  0
LINE
  8
0
  6
CONTINUOUS
 62
     7
 10
168.4999999999999
 20
0.0
 11
169.5112581820098
 21
0.0
  0
LINE
  8
0
  6
CONTINUOUS
 62
     7
 10
165.5
 20
24.76805761424522
 11
165.5
 21
0.0
  0
LINE
  8
0
  6
CONTINUOUS
 62
     7
 10
179.5591453443918
 20
26.61156548915039
 11
179.98874181799
 21
2.000000000000002
  0
LINE
  8
0
  6
CONTINUOUS
 62
     7
 10
170.002792206136
 20
30.88060046590485
 11
170.002792206136
 21
33.02663798866867
  0
ARC
  8
0
  6
CONTINUOUS
 62
     7
 10
171.2727922061359
 20
28.72720779386367
 40
5.500000000000004
 50
50.97500141420062
 51
90.93276319346943
  0
ARC
  8
0
  6
CONTINUOUS
 62
     7
 10
185.4999999999999
 20
24.32760627482033
 40
3.000000000000003
 50
148.8285865372662
 51
180.0
  0
LINE
  8
0
  6
CONTINUOUS
 62
     7
 10
182.4999999999999
 20
24.32760627482033
 11
182.4999999999999
 21
0.0
  0
LINE
  8
0
  6
CONTINUOUS
 62
     7
 10
174.7640810616778
 20
33.00000000000009
 11
174.735918938322
 21
32.99999999999997
  0
ARC
  8
0
  6
CONTINUOUS
 62
     7
 10
178.2272077938642
 20
28.72720779386406
 40
5.500000000000004
 50
328.8285865372657
 51
129.0249985858029
  0
LINE
  8
0
  6
CONTINUOUS
 62
     7
 10
179.98874181799
 20
0.0
 11
179.98874181799
 21
2.000000000000002
  0
ARC
  8
0
  6
CONTINUOUS
 62
     7
 10
178.2272077938642
 20
28.72720779386406
 40
2.500000000000002
 50
302.1931442192066
 51
149.3949763859436
  0
LINE
  8
0
  6
CONTINUOUS
 62
     7
 10
176.0754643147292
 20
29.99999999999997
 11
173.4245356852706
 21
30.00000000000008
  0
LINE
  8
0
  6
CONTINUOUS
 62
     7
 10
183.9999874999217
 20
24.76803938808358
 11
183.0523359562412
 21
24.97445035504792
  0
LINE
  8
0
  6
CONTINUOUS
 62
     7
 10
182.4999999999999
 20
0.0
 11
179.98874181799
 21
0.0
  0
ARC
  8
0
  6
CONTINUOUS
 62
     7
 10
171.2727922061358
 20
28.72720779386389
 40
2.500000000000002
 50
30.60502361406208
 51
120.5307023386895
  0
LINE
  8
0
  6
CONTINUOUS
 62
     7
 10
183.0523359562412
 20
24.97445035504792
 11
183.0523359562428
 21
0.0000000000000035
  0
ARC
  8
0
  6
CONTINUOUS
 62
     7
 10
171.2027922061359
 20
33.02663798866867
 40
1.199999999999979
 50
90.93276319346965
 51
180.0
  0
LINE
  8
0
  6
CONTINUOUS
 62
     7
 10
174.1510010083783
 20
33.41398857502897
 11
173.8970648977565
 21
34.22719529378509
  0
ARC
  8
0
  6
CONTINUOUS
 62
     7
 10
178.2272077938642
 20
28.72720779386406
 40
7.000000000000006
 50
325.5563468193531
 51
0.0
  0
LINE
  8
0
  6
CONTINUOUS
 62
     7
 10
173.8970807749409
 20
34.22720779386324
 11
171.2727922061359
 21
34.22720779386324
  0
LINE
  8
0
  6
CONTINUOUS
 62
     7
 10
166.5668678374597
 20
25.88040681095349
 11
167.8503017561895
 21
26.65680707901985
  0
LINE
  8
0
  6
CONTINUOUS
 62
     7
 10
183.9999999999997
 20
0.0
 11
183.0523359562428
 21
0.0
  0
LINE
  8
0
  6
CONTINUOUS
 62
     7
 10
183.0523359562428
 20
0.0
 11
182.4999999999997
 21
0.0
  0
ARC
  8
0
  6
CONTINUOUS
 62
     7
 10
171.2727922061359
 20
28.72720779386367
 40
5.500000000000004
 50
90.96670073385042
 51
211.1714134627302
  0
LINE
  8
0
  6
CONTINUOUS
 62
     7
 10
168.4999999999999
 20
7.499999999999895
 11
169.607261039909
 21
7.500000045496502
  0
LINE
  8
0
  6
CONTINUOUS
 62
     7
 10
168.4999999999999
 20
24.32760627482056
 11
168.4999999999999
 21
7.499999999999895
  0
ARC
  8
0
  6
CONTINUOUS
 62
     7
 10
163.9999999999999
 20
24.32760627482056
 40
4.500000000000004
 50
0.0
 51
31.17141346273047
  0
LINE
  8
0
  6
CONTINUOUS
 62
     7
 10
171.18
 20
34.22642151720179
 11
171.18
 21
34.22720779386324
  0
LINE
  8
0
  6
CONTINUOUS
 62
     7
 10
169.607261039909
 20
7.500000045496502
 11
169.940854655608
 21
26.61156548915017
  0
LINE
  8
0
  6
CONTINUOUS
 62
     7
 10
182.9569302728054
 20
24.95090062952626
 11
182.5957739924291
 21
25.07958453045617
  0
ARC
  8
0
  6
CONTINUOUS
 62
     7
 10
178.2272077938642
 20
28.72720779386406
 40
7.000000000000006
 50
0.0
 51
128.213376101148
  0
LINE
  8
0
  6
CONTINUOUS
 62
     7
 10
183.9999999999999
 20
24.76805761424477
 11
183.9999999999999
 21
0.0
  0
LINE
  8
0
  6
CONTINUOUS
 62
     7
 10
183.0523359562412
 20
24.97445035504792
 11
182.9569302728054
 21
24.95090062952626
  0
ARC
  8
0
  6
CONTINUOUS
 62
     7
 10
178.2272077938642
 20
28.72720779386406
 40
6.052335956242938
 50
321.3954180465083
 51
130.5658506033434
  0
LINE
  8
0
  6
CONTINUOUS
 62
     7
 10
171.2727922061359
 20
34.22720779386324
 11
171.18
 21
34.22720779386324
  0
ARC
  8
0
  6
CONTINUOUS
 62
     7
 10
171.2727922061359
 20
28.72720779386367
 40
4.000000000000059
 50
108.511802668099
 51
211.17141346273
  0
LINE
  8
0
  6
CONTINUOUS
 62
     7
 10
166.9999999999999
 20
7.499999999999895
 11
166.9999999999999
 21
24.32760627482056
  0
ARC
  8
0
  6
CONTINUOUS
 62
     7
 10
163.9999999999999
 20
24.32760627482056
 40
3.000000000000003
 50
0.0
 51
31.17141346273045
  0
LINE
  8
0
  6
CONTINUOUS
 62
     7
 10
169.5112581820098
 20
2.000000000000002
 11
169.5112581820098
 21
0.5000000000000004
  0
LINE
  8
0
  6
CONTINUOUS
 62
     7
 10
169.5112581820098
 20
2.000000000000113
 11
169.607261039909
 21
7.500000045496502
  0
LINE
  8
0
  6
CONTINUOUS
 62
     7
 10
168.4999999999999
 20
0.5000000000000004
 11
169.5112581820098
 21
0.5000000000000004
  0
LINE
  8
0
  6
CONTINUOUS
 62
     7
 10
166.4999999999999
 20
9.244131747159212
 11
166.9999999999999
 21
9.244131747159212
  0
LINE
  8
0
  6
CONTINUOUS
 62
     7
 10
166.9999999999999
 20
24.32760627482056
 11
168.4999999999999
 21
24.32760627482056
  0
ARC
  8
0
  6
CONTINUOUS
 62
     7
 10
171.2727922061358
 20
28.72720779386389
 40
2.500000000000002
 50
120.5307023386894
 51
237.8068557807886
  0
LINE
  8
0
  6
CONTINUOUS
 62
     7
 10
168.4999999999999
 20
7.499999999999895
 11
168.4999999999999
 21
0.5000000000000004
  0
LINE
  8
0
  6
CONTINUOUS
 62
     7
 10
166.4999999999999
 20
9.244131747159212
 11
166.4999999999999
 21
8.875949928977223
  0
LINE
  8
0
  6
CONTINUOUS
 62
     7
 10
166.9999999999999
 20
2.000000000000002
 11
166.9999999999999
 21
7.499999999999895
  0
LINE
  8
0
  6
CONTINUOUS
 62
     7
 10
166.4999999999999
 20
8.875949928977223
 11
166.9999999999999
 21
8.875949928977223
  0
LINE
  8
0
  6
CONTINUOUS
 62
     7
 10
166.4999999999999
 20
8.875949928977223
 11
166.4999999999999
 21
6.482768110795456
  0
LINE
  8
0
  6
CONTINUOUS
 62
     7
 10
166.9999999999999
 20
7.499999999999895
 11
168.4999999999999
 21
7.499999999999895
  0
ENDSEC
  0
EOF
