  0
SECTION
  2
HEADER
  9
$ACADVER
  1
AC1004
  9
$INSBASE
 10
0.0
 20
0.0
  9
$EXTMIN
 10
-53.00000000000002
 20
-122.4405005572798
  9
$EXTMAX
 10
175.4354646832806
 20
54.27115801003835
  9
$LIMMIN
 10
0.0
 20
0.0
  9
$LIMMAX
 10
12.0
 20
9.0
  9
$ORTHOMODE
 70
     0
  9
$REGENMODE
 70
     1
  9
$FILLMODE
 70
     1
  9
$QTEXTMODE
 70
     0
  9
$DRAGMODE
 70
     2
  9
$LTSCALE
 40
1.0
  9
$OSMODE
 70
    37
  9
$ATTMODE
 70
     1
  9
$TEXTSIZE
 40
0.2
  9
$TRACEWID
 40
0.05
  9
$TEXTSTYLE
  7
STANDARD
  9
$CLAYER
  8
0
  9
$CELTYPE
  6
BYLAYER
  9
$CECOLOR
 62
   256
  9
$DIMSCALE
 40
1.0
  9
$DIMASZ
 40
2.5
  9
$DIMEXO
 40
0.0625
  9
$DIMDLI
 40
0.38
  9
$DIMRND
 40
0.0
  9
$DIMDLE
 40
0.0
  9
$DIMEXE
 40
1.25
  9
$DIMTP
 40
0.0
  9
$DIMTM
 40
0.0
  9
$DIMTXT
 40
4.0
  9
$DIMCEN
 40
0.09
  9
$DIMTSZ
 40
0.0
  9
$DIMTOL
 70
     0
  9
$DIMLIM
 70
     0
  9
$DIMTIH
 70
     1
  9
$DIMTOH
 70
     1
  9
$DIMSE1
 70
     0
  9
$DIMSE2
 70
     0
  9
$DIMTAD
 70
     1
  9
$DIMZIN
 70
     0
  9
$DIMBLK
  1

  9
$DIMASO
 70
     1
  9
$DIMSHO
 70
     1
  9
$DIMPOST
  1

  9
$DIMAPOST
  1

  9
$DIMALT
 70
     0
  9
$DIMALTD
 70
     2
  9
$DIMALTF
 40
25.4
  9
$DIMLFAC
 40
1.0
  9
$DIMTOFL
 70
     0
  9
$DIMTVP
 40
0.0
  9
$DIMTIX
 70
     0
  9
$DIMSOXD
 70
     0
  9
$DIMSAH
 70
     0
  9
$DIMBLK1
  1

  9
$DIMBLK2
  1

  9
$LUNITS
 70
     2
  9
$LUPREC
 70
     4
  9
$SKETCHINC
 40
0.1
  9
$FILLETRAD
 40
0.0
  9
$AUNITS
 70
     0
  9
$AUPREC
 70
     0
  9
$MENU
  1
.
  9
$ELEVATION
 40
0.0
  9
$THICKNESS
 40
0.0
  9
$LIMCHECK
 70
     0
  9
$CHAMFERA
 40
0.0
  9
$CHAMFERB
 40
0.0
  9
$SKPOLY
 70
     0
  9
$TDCREATE
 40
2460334.850668808
  9
$TDUPDATE
 40
2460334.850668993
  9
$TDINDWG
 40
0.0000000116
  9
$TDUSRTIMER
 40
0.0000000116
  9
$USRTIMER
 70
     1
  9
$ANGBASE
 50
0.0
  9
$ANGDIR
 70
     0
  9
$PDMODE
 70
     0
  9
$PDSIZE
 40
0.0
  9
$PLINEWID
 40
0.0
  9
$COORDS
 70
     1
  9
$SPLFRAME
 70
     0
  9
$SPLINETYPE
 70
     6
  9
$SPLINESEGS
 70
     8
  9
$ATTDIA
 70
     0
  9
$ATTREQ
 70
     1
  9
$SURFTAB1
 70
     6
  9
$SURFTAB2
 70
     6
  9
$SURFTYPE
 70
     6
  9
$SURFU
 70
     6
  9
$SURFV
 70
     6
  9
$UCSNAME
  2

  9
$UCSORG
 10
0.0
 20
0.0
 30
0.0
  9
$UCSXDIR
 10
1.0
 20
0.0
 30
0.0
  9
$UCSYDIR
 10
0.0
 20
1.0
 30
0.0
  9
$USERI1
 70
     0
  9
$USERI2
 70
     0
  9
$USERI3
 70
     0
  9
$USERI4
 70
     0
  9
$USERI5
 70
     0
  9
$USERR1
 40
0.0
  9
$USERR2
 40
0.0
  9
$USERR3
 40
0.0
  9
$USERR4
 40
0.0
  9
$USERR5
 40
0.0
  9
$WORLDVIEW
 70
     1
  0
ENDSEC
  0
SECTION
  2
TABLES
  0
TABLE
  2
LTYPE
 70
     2
  0
LTYPE
  2
CONTINUOUS
 70
     0
  3
Solid line
 72
    65
 73
     0
 40
0.0
  0
LTYPE
  2
CENTER
 70
     0
  3

 72
    65
 73
     0
 40
0.0
  0
ENDTAB
  0
TABLE
  2
LAYER
 70
     1
  0
LAYER
  2
0
 70
     0
 62
     7
  6
CONTINUOUS
  0
ENDTAB
  0
TABLE
  2
STYLE
 70
     3
  0
STYLE
  2
STANDARD
 70
     0
 40
0.0
 41
1.0
 50
0.0
 71
     0
 42
0.2
  3
txt
  4

  0
STYLE
  2
HG丸ｺﾞｼｯｸM-PRO
 70
     0
 40
0.0
 41
1.0
 50
0.0
 71
     0
 42
0.2
  3
HGRSMP.TTF
  4

  0
STYLE
  2
MTXPL_HG丸ｺﾞｼｯｸM-PRO
 70
     0
 40
0.2
 41
1.0
 50
0.0
 71
     0
 42
0.2
  3
txt.shx
  4

  0
ENDTAB
  0
TABLE
  2
VIEW
 70
     0
  0
ENDTAB
  0
ENDSEC
  0
SECTION
  2
BLOCKS
  0
ENDSEC
  0
SECTION
  2
ENTITIES
  0
TEXT
  8
0
 62
     7
 10
6.068181818181818
 20
-13.6681818181879
 40
3.5
  1
A
  7
MTXPL_HG丸ｺﾞｼｯｸM-PRO
  0
TEXT
  8
0
 62
     7
 10
126.4909563853322
 20
47.35614790902826
 40
3.5
  1
断面 A-A
  7
MTXPL_HG丸ｺﾞｼｯｸM-PRO
  0
TEXT
  8
0
 62
     7
 10
6.068181818181818
 20
50.77115801003835
 40
3.5
  1
A
  7
MTXPL_HG丸ｺﾞｼｯｸM-PRO
  0
LINE
  8
0
  6
CONTINUOUS
 62
     7
 10
-36.90035539880021
 20
17.82223520422221
 11
-36.79146304754799
 21
17.76605443678542
  0
LINE
  8
0
  6
CONTINUOUS
 62
     7
 10
-38.12890321061735
 20
22.86649767270127
 11
-38.15957384638541
 21
22.71690449166081
  0
LINE
  8
0
  6
CONTINUOUS
 62
     7
 10
-36.79146304754799
 20
17.76605443678542
 11
-36.67904309831732
 21
17.71913434267691
  0
LINE
  8
0
  6
CONTINUOUS
 62
     7
 10
-37.45728589678582
 20
24.33781608382751
 11
-37.54569166650412
 21
24.2272424824953
  0
LINE
  8
0
  6
CONTINUOUS
 62
     7
 10
-36.23343010073721
 20
24.96167184940134
 11
-36.36373459198
 21
24.94984055624899
  0
LINE
  8
0
  6
CONTINUOUS
 62
     7
 10
-36.49023010853875
 20
24.92903268962587
 11
-36.61291665041338
 21
24.89924824953188
  0
LINE
  8
0
  6
CONTINUOUS
 62
     7
 10
-37.87160528292949
 20
23.66679347378597
 11
-37.92321137957744
 21
23.54498980279057
  0
LINE
  8
0
  6
CONTINUOUS
 62
     7
 10
-37.97132823274535
 20
23.41855454678782
 11
-38.01595584243322
 21
23.28748770577754
  0
LINE
  8
0
  6
CONTINUOUS
 62
     7
 10
-38.09474333136919
 20
23.01145926873416
 11
-38.12890321061735
 21
22.86649767270127
  0
LINE
  8
0
  6
CONTINUOUS
 62
     7
 10
-38.27807312616071
 20
21.49414381002557
 11
-38.27964876252104
 21
21.2967672105025
  0
LINE
  8
0
  6
CONTINUOUS
 62
     7
 10
-37.06557307107189
 20
24.69034475444692
 11
-37.16921473952639
 21
24.61567744699838
  0
LINE
  8
0
  6
CONTINUOUS
 62
     7
 10
-37.92321137957744
 20
23.54498980279057
 11
-37.97132823274535
 21
23.41855454678782
  0
LINE
  8
0
  6
CONTINUOUS
 62
     7
 10
-38.26846655482774
 20
20.9125818137304
 11
-38.25570871077433
 21
20.7257730164816
  0
LINE
  8
0
  6
CONTINUOUS
 62
     7
 10
-38.2158595422536
 20
20.36272322425781
 11
-38.18876821778644
 21
20.18648222928299
  0
LINE
  8
0
  6
CONTINUOUS
 62
     7
 10
-37.69585153210625
 20
24.00441497672701
 11
-37.75792535919392
 21
23.89650606075422
  0
LINE
  8
0
  6
CONTINUOUS
 62
     7
 10
-38.07882728355727
 20
19.67889484890711
 11
-38.03262465187179
 21
19.51674425696448
  0
LINE
  8
0
  6
CONTINUOUS
 62
     7
 10
-37.39190318538243
 20
18.24204914132832
 11
-37.30064882402312
 21
18.13956500725083
  0
LINE
  8
0
  6
CONTINUOUS
 62
     7
 10
-38.23065029280992
 20
22.24033543849441
 11
-38.24736395465822
 21
22.07221591742403
  0
LINE
  8
0
  6
CONTINUOUS
 62
     7
 10
-38.27171966299592
 20
21.69504301030684
 11
-38.27807312616071
 21
21.49414381002557
  0
LINE
  8
0
  6
CONTINUOUS
 62
     7
 10
-37.72164465103361
 20
18.74459241092019
 11
-37.64450068158875
 21
18.60506558352998
  0
LINE
  8
0
  6
CONTINUOUS
 62
     7
 10
-37.47962994876314
 20
18.35379394873404
 11
-37.39190318538243
 21
18.24204914132832
  0
LINE
  8
0
  6
CONTINUOUS
 62
     7
 10
-37.00572015207393
 20
17.88767664498703
 11
-36.90035539880021
 21
17.82223520422221
  0
LINE
  8
0
  6
CONTINUOUS
 62
     7
 10
-36.36373459198
 20
24.94984055624899
 11
-36.49023010853875
 21
24.92903268962587
  0
LINE
  8
0
  6
CONTINUOUS
 62
     7
 10
-36.73179421760414
 20
24.86048723596701
 11
-36.84686281011085
 21
24.81274964893121
  0
LINE
  8
0
  6
CONTINUOUS
 62
     7
 10
-37.54569166650412
 20
24.2272424824953
 11
-37.63028846153843
 21
24.10769230769233
  0
LINE
  8
0
  6
CONTINUOUS
 62
     7
 10
-37.75792535919392
 20
23.89650606075422
 11
-37.81650994280167
 21
23.78396555977391
  0
LINE
  8
0
  6
CONTINUOUS
 62
     7
 10
-38.27644657207674
 20
21.10291321173741
 11
-38.26846655482774
 21
20.9125818137304
  0
LINE
  8
0
  6
CONTINUOUS
 62
     7
 10
-36.84686281011085
 20
24.81274964893121
 11
-36.95812242793339
 21
24.75603548842448
  0
LINE
  8
0
  6
CONTINUOUS
 62
     7
 10
-36.09931663481042
 20
24.9645265690826
 11
-36.23343010073721
 21
24.96167184940134
  0
LINE
  8
0
  6
CONTINUOUS
 62
     7
 10
-37.63028846153843
 20
24.10769230769233
 11
-37.69585153210625
 21
24.00441497672701
  0
LINE
  8
0
  6
CONTINUOUS
 62
     7
 10
-38.05709420864123
 20
23.15178927975958
 11
-38.09474333136919
 21
23.01145926873416
  0
LINE
  8
0
  6
CONTINUOUS
 62
     7
 10
-38.23817303991622
 20
20.5424868199906
 11
-38.2158595422536
 21
20.36272322425781
  0
LINE
  8
0
  6
CONTINUOUS
 62
     7
 10
-38.18876821778644
 20
20.18648222928299
 11
-38.15689906651459
 21
20.01376383506626
  0
LINE
  8
0
  6
CONTINUOUS
 62
     7
 10
-38.15689906651459
 20
20.01376383506626
 11
-38.12025208843822
 21
19.84456804160756
  0
LINE
  8
0
  6
CONTINUOUS
 62
     7
 10
-37.2058668646853
 20
18.04634154650131
 11
-37.10755730736892
 21
17.96237875908013
  0
LINE
  8
0
  6
CONTINUOUS
 62
     7
 10
-37.10755730736892
 20
17.96237875908013
 11
-37.00572015207393
 21
17.88767664498703
  0
LINE
  8
0
  6
CONTINUOUS
 62
     7
 10
-38.01595584243322
 20
23.28748770577754
 11
-38.05709420864123
 21
23.15178927975958
  0
LINE
  8
0
  6
CONTINUOUS
 62
     7
 10
-38.27964876252104
 20
21.2967672105025
 11
-38.27644657207674
 21
21.10291321173741
  0
LINE
  8
0
  6
CONTINUOUS
 62
     7
 10
-38.25570871077433
 20
20.7257730164816
 11
-38.23817303991622
 21
20.5424868199906
  0
LINE
  8
0
  6
CONTINUOUS
 62
     7
 10
-38.15957384638541
 20
22.71690449166081
 11
-38.18675523867365
 21
22.56267972561293
  0
LINE
  8
0
  6
CONTINUOUS
 62
     7
 10
-38.03262465187179
 20
19.51674425696448
 11
-37.98164419338163
 21
19.35811626578004
  0
LINE
  8
0
  6
CONTINUOUS
 62
     7
 10
-37.92588590808704
 20
19.20301087535364
 11
-37.86534979598771
 21
19.05142808568522
  0
LINE
  8
0
  6
CONTINUOUS
 62
     7
 10
-37.86534979598771
 20
19.05142808568522
 11
-37.79526102250003
 21
18.89337991163864
  0
LINE
  8
0
  6
CONTINUOUS
 62
     7
 10
-38.18675523867365
 20
22.56267972561293
 11
-38.21044738748175
 21
22.40382337455754
  0
LINE
  8
0
  6
CONTINUOUS
 62
     7
 10
-37.2690474332969
 20
24.53203356607892
 11
-37.36507115238336
 21
24.43941311168873
  0
LINE
  8
0
  6
CONTINUOUS
 62
     7
 10
-37.36507115238336
 20
24.43941311168873
 11
-37.45728589678582
 21
24.33781608382751
  0
LINE
  8
0
  6
CONTINUOUS
 62
     7
 10
-36.61291665041338
 20
24.89924824953188
 11
-36.73179421760414
 21
24.86048723596701
  0
LINE
  8
0
  6
CONTINUOUS
 62
     7
 10
-38.21044738748175
 20
22.40382337455754
 11
-38.23065029280992
 21
22.24033543849441
  0
LINE
  8
0
  6
CONTINUOUS
 62
     7
 10
-38.24736395465822
 20
22.07221591742403
 11
-38.26058837302648
 21
21.89946481134603
  0
LINE
  8
0
  6
CONTINUOUS
 62
     7
 10
-38.12025208843822
 20
19.84456804160756
 11
-38.07882728355727
 21
19.67889484890711
  0
LINE
  8
0
  6
CONTINUOUS
 62
     7
 10
-37.79526102250003
 20
18.89337991163864
 11
-37.72164465103361
 21
18.74459241092019
  0
LINE
  8
0
  6
CONTINUOUS
 62
     7
 10
-37.64450068158875
 20
18.60506558352998
 11
-37.56382911416522
 21
18.47479942946789
  0
LINE
  8
0
  6
CONTINUOUS
 62
     7
 10
-38.26058837302648
 20
21.89946481134603
 11
-38.27171966299592
 21
21.69504301030684
  0
LINE
  8
0
  6
CONTINUOUS
 62
     7
 10
-35.96139419419958
 20
24.95840471529298
 11
-36.09931663481042
 21
24.9645265690826
  0
LINE
  8
0
  6
CONTINUOUS
 62
     7
 10
-37.16921473952639
 20
24.61567744699838
 11
-37.2690474332969
 21
24.53203356607892
  0
LINE
  8
0
  6
CONTINUOUS
 62
     7
 10
-36.95812242793339
 20
24.75603548842448
 11
-37.06557307107189
 21
24.69034475444692
  0
LINE
  8
0
  6
CONTINUOUS
 62
     7
 10
-37.98164419338163
 20
19.35811626578004
 11
-37.92588590808704
 21
19.20301087535364
  0
LINE
  8
0
  6
CONTINUOUS
 62
     7
 10
-37.81650994280167
 20
23.78396555977391
 11
-37.87160528292949
 21
23.66679347378597
  0
LINE
  8
0
  6
CONTINUOUS
 62
     7
 10
-37.56382911416522
 20
18.47479942946789
 11
-37.47962994876314
 21
18.35379394873404
  0
LINE
  8
0
  6
CONTINUOUS
 62
     7
 10
-37.30064882402312
 20
18.13956500725083
 11
-37.2058668646853
 21
18.04634154650131
  0
LINE
  8
0
  6
CONTINUOUS
 62
     7
 10
-33.94189599829433
 20
22.8010557339916
 11
-33.98656343890843
 21
22.96867566975464
  0
LINE
  8
0
  6
CONTINUOUS
 62
     7
 10
-32.34380396136466
 20
24.19858527811991
 11
-32.24636375073614
 21
23.99033007350743
  0
LINE
  8
0
  6
CONTINUOUS
 62
     7
 10
-32.24636375073614
 20
23.99033007350743
 11
-32.15796139624011
 21
23.77504502595601
  0
LINE
  8
0
  6
CONTINUOUS
 62
     7
 10
-32.15796139624011
 20
23.77504502595601
 11
-32.07859689787651
 21
23.55273013546572
  0
LINE
  8
0
  6
CONTINUOUS
 62
     7
 10
-32.07859689787651
 20
23.55273013546572
 11
-32.00827025564562
 21
23.32338540203671
  0
LINE
  8
0
  6
CONTINUOUS
 62
     7
 10
-32.00827025564562
 20
23.32338540203671
 11
-31.94698146954705
 21
23.08701082566866
  0
LINE
  8
0
  6
CONTINUOUS
 62
     7
 10
-34.56402027027022
 20
18.3466216216217
 11
-34.48543291341149
 21
18.46167451398806
  0
LINE
  8
0
  6
CONTINUOUS
 62
     7
 10
-31.94698146954705
 20
23.08701082566866
 11
-31.89473053958103
 21
22.84360640636179
  0
LINE
  8
0
  6
CONTINUOUS
 62
     7
 10
-31.89473053958103
 20
22.84360640636179
 11
-31.85151746574738
 21
22.5931721441161
  0
LINE
  8
0
  6
CONTINUOUS
 62
     7
 10
-36.56309555110793
 20
17.68147492189653
 11
-36.44362040591997
 21
17.65307617444417
  0
LINE
  8
0
  6
CONTINUOUS
 62
     7
 10
-34.6417487440373
 20
18.2446242303328
 11
-34.56402027027022
 21
18.3466216216217
  0
LINE
  8
0
  6
CONTINUOUS
 62
     7
 10
-34.41098841040274
 20
18.58098859649271
 11
-34.34068676124397
 21
18.70456386913571
  0
LINE
  8
0
  6
CONTINUOUS
 62
     7
 10
-35.53365818751985
 20
17.67137573597821
 11
-35.417459077837
 21
17.70442752181805
  0
LINE
  8
0
  6
CONTINUOUS
 62
     7
 10
-34.34068676124397
 20
18.70456386913571
 11
-34.27452796593528
 21
18.8324003319168
  0
LINE
  8
0
  6
CONTINUOUS
 62
     7
 10
-34.05132132320099
 20
19.3863580844239
 11
-34.00587679714256
 21
19.53550049789632
  0
LINE
  8
0
  6
CONTINUOUS
 62
     7
 10
-33.7790709501753
 20
21.51808102779168
 11
-33.78627663174449
 21
21.71310975251939
  0
LINE
  8
0
  6
CONTINUOUS
 62
     7
 10
-33.79883399317718
 20
21.9042229359665
 11
-33.81674303447362
 21
22.09142057813285
  0
LINE
  8
0
  6
CONTINUOUS
 62
     7
 10
-34.03658255938602
 20
23.13238006423695
 11
-34.09195335972714
 21
23.29216891743874
  0
LINE
  8
0
  6
CONTINUOUS
 62
     7
 10
-35.65413181230437
 20
17.6459845729659
 11
-35.53365818751985
 21
17.67137573597821
  0
LINE
  8
0
  6
CONTINUOUS
 62
     7
 10
-35.417459077837
 20
17.70442752181805
 11
-35.3055344832559
 21
17.74513993048554
  0
LINE
  8
0
  6
CONTINUOUS
 62
     7
 10
-34.10090870310955
 20
19.24147686108985
 11
-34.05132132320099
 21
19.3863580844239
  0
LINE
  8
0
  6
CONTINUOUS
 62
     7
 10
-33.92741630657564
 20
19.84656889525593
 11
-33.89440034206709
 21
20.00849487914302
  0
LINE
  8
0
  6
CONTINUOUS
 62
     7
 10
-33.78071462662741
 20
21.11627695449425
 11
-33.77721694846952
 21
21.31913676178332
  0
LINE
  8
0
  6
CONTINUOUS
 62
     7
 10
-33.78627663174449
 20
21.71310975251939
 11
-33.79883399317718
 21
21.9042229359665
  0
LINE
  8
0
  6
CONTINUOUS
 62
     7
 10
-33.81674303447362
 20
22.09142057813285
 11
-33.8400037556334
 21
22.27470267901849
  0
LINE
  8
0
  6
CONTINUOUS
 62
     7
 10
-33.11824020391846
 20
25.3004898040784
 11
-32.9665728564949
 21
25.13441365709912
  0
LINE
  8
0
  6
CONTINUOUS
 62
     7
 10
-32.9665728564949
 20
25.13441365709912
 11
-32.82394336520383
 21
24.96130766718102
  0
LINE
  8
0
  6
CONTINUOUS
 62
     7
 10
-32.56579795101921
 20
24.59400615852819
 11
-32.45028202812572
 21
24.39981063979352
  0
LINE
  8
0
  6
CONTINUOUS
 62
     7
 10
-35.19788440377663
 20
17.79351296198073
 11
-35.09450883939896
 21
17.8495466163035
  0
LINE
  8
0
  6
CONTINUOUS
 62
     7
 10
-35.3055344832559
 20
17.74513993048554
 11
-35.19788440377663
 21
17.79351296198073
  0
LINE
  8
0
  6
CONTINUOUS
 62
     7
 10
-33.77721694846952
 20
21.31913676178332
 11
-33.7790709501753
 21
21.51808102779168
  0
LINE
  8
0
  6
CONTINUOUS
 62
     7
 10
-35.9079026071788
 20
17.61818411542476
 11
-35.7788799521907
 21
17.62825403278151
  0
LINE
  8
0
  6
CONTINUOUS
 62
     7
 10
-35.7788799521907
 20
17.62825403278151
 11
-35.65413181230437
 21
17.6459845729659
  0
LINE
  8
0
  6
CONTINUOUS
 62
     7
 10
-35.09450883939896
 20
17.8495466163035
 11
-34.99540779012322
 21
17.91324089345414
  0
LINE
  8
0
  6
CONTINUOUS
 62
     7
 10
-34.27452796593528
 20
18.8324003319168
 11
-34.21251202447684
 21
18.96449798483618
  0
LINE
  8
0
  6
CONTINUOUS
 62
     7
 10
-33.86552723140873
 20
20.17468205316841
 11
-33.84079697460041
 21
20.3451304173321
  0
LINE
  8
0
  6
CONTINUOUS
 62
     7
 10
-33.98656343890843
 20
22.96867566975464
 11
-34.03658255938602
 21
23.13238006423695
  0
LINE
  8
0
  6
CONTINUOUS
 62
     7
 10
-32.69035173004531
 20
24.7811718343241
 11
-32.56579795101921
 21
24.59400615852819
  0
LINE
  8
0
  6
CONTINUOUS
 62
     7
 10
-32.45028202812572
 20
24.39981063979352
 11
-32.34380396136466
 21
24.19858527811991
  0
LINE
  8
0
  6
CONTINUOUS
 62
     7
 10
-34.00587679714256
 20
19.53550049789632
 11
-33.964575124934
 21
19.68890410150703
  0
LINE
  8
0
  6
CONTINUOUS
 62
     7
 10
-36.04119977726861
 20
17.6157748208956
 11
-35.9079026071788
 21
17.61818411542476
  0
LINE
  8
0
  6
CONTINUOUS
 62
     7
 10
-34.21251202447684
 20
18.96449798483618
 11
-34.15463893686815
 21
19.10085682789392
  0
LINE
  8
0
  6
CONTINUOUS
 62
     7
 10
-36.44362040591997
 20
17.65307617444417
 11
-36.32061766275352
 21
17.63393810032021
  0
LINE
  8
0
  6
CONTINUOUS
 62
     7
 10
-36.17877146246023
 20
17.62102614919403
 11
-36.04119977726861
 21
17.6157748208956
  0
LINE
  8
0
  6
CONTINUOUS
 62
     7
 10
-34.15463893686815
 20
19.10085682789392
 11
-34.10090870310955
 21
19.24147686108985
  0
LINE
  8
0
  6
CONTINUOUS
 62
     7
 10
-33.82020957164211
 20
20.51983997163403
 11
-33.8037650225338
 21
20.69881071607416
  0
LINE
  8
0
  6
CONTINUOUS
 62
     7
 10
-34.48543291341149
 20
18.46167451398806
 11
-34.41098841040274
 21
18.58098859649271
  0
LINE
  8
0
  6
CONTINUOUS
 62
     7
 10
-33.964575124934
 20
19.68890410150703
 11
-33.92741630657564
 21
19.84656889525593
  0
LINE
  8
0
  6
CONTINUOUS
 62
     7
 10
-33.78956398464883
 20
20.90950160592448
 11
-33.78071462662741
 21
21.11627695449425
  0
LINE
  8
0
  6
CONTINUOUS
 62
     7
 10
-34.09195335972714
 20
23.29216891743874
 11
-34.15267583993181
 21
23.4480422293597
  0
LINE
  8
0
  6
CONTINUOUS
 62
     7
 10
-33.89440034206709
 20
20.00849487914302
 11
-33.86552723140873
 21
20.17468205316841
  0
LINE
  8
0
  6
CONTINUOUS
 62
     7
 10
-33.84079697460041
 20
20.3451304173321
 11
-33.82020957164211
 21
20.51983997163403
  0
LINE
  8
0
  6
CONTINUOUS
 62
     7
 10
-36.67904309831732
 20
17.71913434267691
 11
-36.56309555110793
 21
17.68147492189653
  0
LINE
  8
0
  6
CONTINUOUS
 62
     7
 10
-34.7237517329062
 20
18.15028746187164
 11
-34.6417487440373
 21
18.2446242303328
  0
LINE
  8
0
  6
CONTINUOUS
 62
     7
 10
-33.8037650225338
 20
20.69881071607416
 11
-33.78956398464883
 21
20.90950160592448
  0
LINE
  8
0
  6
CONTINUOUS
 62
     7
 10
-33.8400037556334
 20
22.27470267901849
 11
-33.86861615665693
 21
22.45406923862348
  0
LINE
  8
0
  6
CONTINUOUS
 62
     7
 10
-34.90058125594913
 20
17.9845957934322
 11
-34.81002923687676
 21
18.06361131623807
  0
LINE
  8
0
  6
CONTINUOUS
 62
     7
 10
-34.81002923687676
 20
18.06361131623807
 11
-34.7237517329062
 21
18.15028746187164
  0
LINE
  8
0
  6
CONTINUOUS
 62
     7
 10
-34.99540779012322
 20
17.91324089345414
 11
-34.90058125594913
 21
17.9845957934322
  0
LINE
  8
0
  6
CONTINUOUS
 62
     7
 10
-36.32061766275352
 20
17.63393810032021
 11
-36.17877146246023
 21
17.62102614919403
  0
LINE
  8
0
  6
CONTINUOUS
 62
     7
 10
-33.86861615665693
 20
22.45406923862348
 11
-33.90258023754383
 21
22.62952025694787
  0
LINE
  8
0
  6
CONTINUOUS
 62
     7
 10
-33.90258023754383
 20
22.62952025694787
 11
-33.94189599829433
 21
22.8010557339916
  0
LINE
  8
0
  6
CONTINUOUS
 62
     7
 10
-34.15267583993181
 20
23.4480422293597
 11
-34.21874999999996
 21
23.60000000000001
  0
LINE
  8
0
  6
CONTINUOUS
 62
     7
 10
-32.82394336520383
 20
24.96130766718102
 11
-32.69035173004531
 21
24.7811718343241
  0
LINE
  8
0
  6
CONTINUOUS
 62
     7
 10
-38.21964714064813
 20
16.6586061403044
 11
-38.38304081201099
 21
16.7742916049905
  0
LINE
  8
0
  6
CONTINUOUS
 62
     7
 10
-38.54107741131851
 20
16.90003667530132
 11
-38.69375693857052
 21
17.03584135123698
  0
LINE
  8
0
  6
CONTINUOUS
 62
     7
 10
-38.69375693857052
 20
17.03584135123698
 11
-38.84107939376724
 21
17.18170563279758
  0
LINE
  8
0
  6
CONTINUOUS
 62
     7
 10
-38.98304477690839
 20
17.33762951998296
 11
-39.12102371351861
 21
17.50513989557389
  0
LINE
  8
0
  6
CONTINUOUS
 62
     7
 10
-39.12102371351861
 20
17.50513989557389
 11
-39.25103421757603
 21
17.67957840234202
  0
LINE
  8
0
  6
CONTINUOUS
 62
     7
 10
-39.48714992803315
 20
18.04923980941042
 11
-39.59325513443262
 21
18.24446270971059
  0
LINE
  8
0
  6
CONTINUOUS
 62
     7
 10
-40.06254928922453
 20
19.5612908662362
 11
-40.1128754677556
 21
19.80501068477802
  0
LINE
  8
0
  6
CONTINUOUS
 62
     7
 10
-40.1128754677556
 20
19.80501068477802
 11
-40.1552332137341
 21
20.05565863449704
  0
LINE
  8
0
  6
CONTINUOUS
 62
     7
 10
-39.69139190827953
 20
18.44661374118811
 11
-39.78156024957391
 21
18.65569290384311
  0
LINE
  8
0
  6
CONTINUOUS
 62
     7
 10
-31.78564362352992
 20
20.87544051523765
 11
-31.810954820083
 21
20.58152795502249
  0
LINE
  8
0
  6
CONTINUOUS
 62
     7
 10
-31.95328375691409
 20
19.74230237823899
 11
-32.02285851824843
 21
19.47673122059862
  0
LINE
  8
0
  6
CONTINUOUS
 62
     7
 10
-34.97198034101079
 20
16.20207368971183
 11
-35.18181741824689
 21
16.14732716141559
  0
LINE
  8
0
  6
CONTINUOUS
 62
     7
 10
-36.29107146397232
 20
16.05502980281243
 11
-36.50803585588918
 21
16.07011921124973
  0
LINE
  8
0
  6
CONTINUOUS
 62
     7
 10
-32.10349917077793
 20
19.21824541360201
 11
-32.19520571450257
 21
18.96684495724893
  0
LINE
  8
0
  6
CONTINUOUS
 62
     7
 10
-35.39641292276391
 20
16.10474652829635
 11
-35.61576685456175
 21
16.07433179035394
  0
LINE
  8
0
  6
CONTINUOUS
 62
     7
 10
-33.29757587352555
 20
17.24225772734061
 11
-33.4645871052337
 21
17.0780181424518
  0
LINE
  8
0
  6
CONTINUOUS
 62
     7
 10
-31.89477488677522
 20
20.0149588865231
 11
-31.95328375691409
 21
19.74230237823899
  0
LINE
  8
0
  6
CONTINUOUS
 62
     7
 10
-32.41181647553793
 20
18.48530009647425
 11
-32.53672069284841
 21
18.25515569205227
  0
LINE
  8
0
  6
CONTINUOUS
 62
     7
 10
-37.69732369422712
 20
16.37190737999572
 11
-37.87678858175619
 21
16.45741402780715
  0
LINE
  8
0
  6
CONTINUOUS
 62
     7
 10
-35.18181741824689
 20
16.14732716141559
 11
-35.39641292276391
 21
16.10474652829635
  0
LINE
  8
0
  6
CONTINUOUS
 62
     7
 10
-34.56658146838137
 20
16.34806443183506
 11
-34.76690169105573
 21
16.268986113185
  0
LINE
  8
0
  6
CONTINUOUS
 62
     7
 10
-37.87678858175619
 20
16.45741402780715
 11
-38.05089639722986
 21
16.55298028124341
  0
LINE
  8
0
  6
CONTINUOUS
 62
     7
 10
-38.84107939376724
 20
17.18170563279758
 11
-38.98304477690839
 21
17.33762951998296
  0
LINE
  8
0
  6
CONTINUOUS
 62
     7
 10
-35.61576685456175
 20
16.07433179035394
 11
-35.8398792136404
 21
16.05608294758854
  0
LINE
  8
0
  6
CONTINUOUS
 62
     7
 10
-38.05089639722986
 20
16.55298028124341
 11
-38.21964714064813
 21
16.6586061403044
  0
LINE
  8
0
  6
CONTINUOUS
 62
     7
 10
-39.25103421757603
 20
17.67957840234202
 11
-39.37307628908082
 21
17.86094504028751
  0
LINE
  8
0
  6
CONTINUOUS
 62
     7
 10
-39.37307628908082
 20
17.86094504028751
 11
-39.48714992803315
 21
18.04923980941042
  0
LINE
  8
0
  6
CONTINUOUS
 62
     7
 10
-39.59325513443262
 20
18.24446270971059
 11
-39.69139190827953
 21
18.44661374118811
  0
LINE
  8
0
  6
CONTINUOUS
 62
     7
 10
-39.78156024957391
 20
18.65569290384311
 11
-39.8637601583155
 21
18.87170019767531
  0
LINE
  8
0
  6
CONTINUOUS
 62
     7
 10
-34.76690169105573
 20
16.268986113185
 11
-34.97198034101079
 21
16.20207368971183
  0
LINE
  8
0
  6
CONTINUOUS
 62
     7
 10
-31.77610538104192
 20
21.79969029974571
 11
-31.76821890400927
 21
21.48452168759934
  0
LINE
  8
0
  6
CONTINUOUS
 62
     7
 10
-37.32232270300284
 20
16.23107290124759
 11
-37.5125017346426
 21
16.29646033780918
  0
LINE
  8
0
  6
CONTINUOUS
 62
     7
 10
-37.5125017346426
 20
16.29646033780918
 11
-37.69732369422712
 21
16.37190737999572
  0
LINE
  8
0
  6
CONTINUOUS
 62
     7
 10
-38.38304081201099
 20
16.7742916049905
 11
-38.54107741131851
 21
16.90003667530132
  0
LINE
  8
0
  6
CONTINUOUS
 62
     7
 10
-39.8637601583155
 20
18.87170019767531
 11
-39.93799163450451
 21
19.09463562268487
  0
LINE
  8
0
  6
CONTINUOUS
 62
     7
 10
-39.93799163450451
 20
19.09463562268487
 11
-40.00425467814084
 21
19.32449917887191
  0
LINE
  8
0
  6
CONTINUOUS
 62
     7
 10
-40.00425467814084
 20
19.32449917887191
 11
-40.06254928922453
 21
19.5612908662362
  0
LINE
  8
0
  6
CONTINUOUS
 62
     7
 10
-31.810954820083
 20
20.58152795502249
 11
-31.84733190783151
 21
20.29470074545103
  0
LINE
  8
0
  6
CONTINUOUS
 62
     7
 10
-31.84733190783151
 20
20.29470074545103
 11
-31.89477488677522
 21
20.0149588865231
  0
LINE
  8
0
  6
CONTINUOUS
 62
     7
 10
-31.79220488647794
 20
22.07121409080803
 11
-31.77610538104192
 21
21.79969029974571
  0
LINE
  8
0
  6
CONTINUOUS
 62
     7
 10
-37.12678659930751
 20
16.17574507031094
 11
-37.32232270300284
 21
16.23107290124759
  0
LINE
  8
0
  6
CONTINUOUS
 62
     7
 10
-32.97782869195159
 20
17.6072345826489
 11
-33.13532306909816
 21
17.41866320740631
  0
LINE
  8
0
  6
CONTINUOUS
 62
     7
 10
-35.8398792136404
 20
16.05608294758854
 11
-36.06874999999992
 21
16.05000000000001
  0
LINE
  8
0
  6
CONTINUOUS
 62
     7
 10
-33.99417136404359
 20
16.65829475884717
 11
-34.18021630487533
 21
16.54271875466634
  0
LINE
  8
0
  6
CONTINUOUS
 62
     7
 10
-31.85151746574738
 20
22.5931721441161
 11
-31.81734224804655
 21
22.33570803893148
  0
LINE
  8
0
  6
CONTINUOUS
 62
     7
 10
-32.67269080135432
 20
18.0320966382741
 11
-32.81972680105532
 21
17.81612293513973
  0
LINE
  8
0
  6
CONTINUOUS
 62
     7
 10
-32.81972680105532
 20
17.81612293513973
 11
-32.97782869195159
 21
17.6072345826489
  0
LINE
  8
0
  6
CONTINUOUS
 62
     7
 10
-33.13532306909816
 20
17.41866320740631
 11
-33.29757587352555
 21
17.24225772734061
  0
LINE
  8
0
  6
CONTINUOUS
 62
     7
 10
-31.81734224804655
 20
22.33570803893148
 11
-31.79220488647794
 21
22.07121409080803
  0
LINE
  8
0
  6
CONTINUOUS
 62
     7
 10
-33.4645871052337
 20
17.0780181424518
 11
-33.63635676422283
 21
16.92594445273998
  0
LINE
  8
0
  6
CONTINUOUS
 62
     7
 10
-31.76821890400927
 20
21.48452168759934
 11
-31.77139831817205
 21
21.17643842609673
  0
LINE
  8
0
  6
CONTINUOUS
 62
     7
 10
-33.81288485049272
 20
16.78603665820516
 11
-33.99417136404359
 21
16.65829475884717
  0
LINE
  8
0
  6
CONTINUOUS
 62
     7
 10
-32.19520571450257
 20
18.96684495724893
 11
-32.29797814942265
 21
18.72252985153971
  0
LINE
  8
0
  6
CONTINUOUS
 62
     7
 10
-32.53672069284841
 20
18.25515569205227
 11
-32.67269080135432
 21
18.0320966382741
  0
LINE
  8
0
  6
CONTINUOUS
 62
     7
 10
-32.29797814942265
 20
18.72252985153971
 11
-32.41181647553793
 21
18.48530009647425
  0
LINE
  8
0
  6
CONTINUOUS
 62
     7
 10
-34.18021630487533
 20
16.54271875466634
 11
-34.37101967298795
 21
16.43930864566218
  0
LINE
  8
0
  6
CONTINUOUS
 62
     7
 10
-32.02285851824843
 20
19.47673122059862
 11
-32.10349917077793
 21
19.21824541360201
  0
LINE
  8
0
  6
CONTINUOUS
 62
     7
 10
-33.63635676422283
 20
16.92594445273998
 11
-33.81288485049272
 21
16.78603665820516
  0
LINE
  8
0
  6
CONTINUOUS
 62
     7
 10
-34.37101967298795
 20
16.43930864566218
 11
-34.56658146838137
 21
16.34806443183506
  0
LINE
  8
0
  6
CONTINUOUS
 62
     7
 10
-36.06874999999992
 20
16.05000000000001
 11
-36.29107146397232
 21
16.05502980281243
  0
LINE
  8
0
  6
CONTINUOUS
 62
     7
 10
-36.50803585588918
 20
16.07011921124973
 11
-36.7196431757506
 21
16.09526822531193
  0
LINE
  8
0
  6
CONTINUOUS
 62
     7
 10
-36.7196431757506
 20
16.09526822531193
 11
-36.92589342355673
 21
16.13047684499891
  0
LINE
  8
0
  6
CONTINUOUS
 62
     7
 10
-36.92589342355673
 20
16.13047684499891
 11
-37.12678659930751
 21
16.17574507031094
  0
LINE
  8
0
  6
CONTINUOUS
 62
     7
 10
-31.77139831817205
 20
21.17643842609673
 11
-31.78564362352992
 21
20.87544051523765
  0
LINE
  8
0
  6
CONTINUOUS
 62
     7
 10
-37.59144379931855
 20
26.25617630245702
 11
-37.39103524031562
 21
26.33412952833569
  0
LINE
  8
0
  6
CONTINUOUS
 62
     7
 10
-39.77407539873434
 20
23.91419817853452
 11
-39.6682500772847
 21
24.14896631776281
  0
LINE
  8
0
  6
CONTINUOUS
 62
     7
 10
-34.45612255097963
 20
26.23762245101957
 11
-34.27386213483352
 21
26.15464716457172
  0
LINE
  8
0
  6
CONTINUOUS
 62
     7
 10
-14.87499999999997
 20
16.15
 11
-14.87499999999997
 21
20.24999999999999
  0
LINE
  8
0
  6
CONTINUOUS
 62
     7
 10
-40.2368644730623
 20
21.77282904126892
 11
-40.21633103989469
 21
22.0660914079282
  0
LINE
  8
0
  6
CONTINUOUS
 62
     7
 10
-39.13833393113347
 20
25.01492109038739
 11
-38.98928275197283
 21
25.20080955209836
  0
LINE
  8
0
  6
CONTINUOUS
 62
     7
 10
-35.63983578443624
 20
26.53047640318873
 11
-35.43181801498152
 21
26.50607190717458
  0
LINE
  8
0
  6
CONTINUOUS
 62
     7
 10
-19.125
 20
26.45000000000003
 11
-19.125
 21
21.99999999999996
  0
LINE
  8
0
  6
CONTINUOUS
 62
     7
 10
-14.87499999999997
 20
21.99999999999996
 11
-14.87499999999997
 21
26.45000000000003
  0
LINE
  8
0
  6
CONTINUOUS
 62
     7
 10
-14.87499999999997
 20
20.24999999999999
 11
-19.12499999999995
 21
20.24999999999999
  0
LINE
  8
0
  6
CONTINUOUS
 62
     7
 10
-40.23449585635363
 20
20.84917127071823
 11
-40.24594688129174
 21
21.16436897266388
  0
LINE
  8
0
  6
CONTINUOUS
 62
     7
 10
-39.42461497627958
 20
24.5965672609329
 11
-39.28680519672412
 21
24.80940006487464
  0
LINE
  8
0
  6
CONTINUOUS
 62
     7
 10
-40.21633103989469
 20
22.0660914079282
 11
-40.18513612069191
 21
22.35204199615848
  0
LINE
  8
0
  6
CONTINUOUS
 62
     7
 10
-38.98928275197283
 20
25.20080955209836
 11
-38.8345251972741
 21
25.37470520982793
  0
LINE
  8
0
  6
CONTINUOUS
 62
     7
 10
-40.18513612069191
 20
22.35204199615848
 11
-40.14327971545384
 21
22.63068080596003
  0
LINE
  8
0
  6
CONTINUOUS
 62
     7
 10
-38.8345251972741
 20
25.37470520982793
 11
-38.67406126703732
 21
25.53660806357599
  0
LINE
  8
0
  6
CONTINUOUS
 62
     7
 10
-37.1849203057747
 20
26.40008995023307
 11
-36.97309899569579
 21
26.45405756814917
  0
LINE
  8
0
  6
CONTINUOUS
 62
     7
 10
-36.53233724892391
 20
26.52601439203733
 11
-36.30339681223088
 21
26.54400359800935
  0
LINE
  8
0
  6
CONTINUOUS
 62
     7
 10
-34.09589461090562
 20
26.06191007971809
 11
-33.92221997919581
 21
25.95941119645889
  0
LINE
  8
0
  6
CONTINUOUS
 62
     7
 10
-33.58774939243047
 20
25.72512803472371
 11
-33.426953437375
 21
25.5933437562475
  0
LINE
  8
0
  6
CONTINUOUS
 62
     7
 10
-39.55176326979981
 20
24.37642267856232
 11
-39.42461497627958
 21
24.5965672609329
  0
LINE
  8
0
  6
CONTINUOUS
 62
     7
 10
-21.125
 20
16.15
 11
-21.125
 21
26.45000000000003
  0
LINE
  8
0
  6
CONTINUOUS
 62
     7
 10
-21.125
 20
26.45000000000003
 11
-19.125
 21
26.45000000000003
  0
LINE
  8
0
  6
CONTINUOUS
 62
     7
 10
-35.43181801498152
 20
26.50607190717458
 11
-35.22809313774489
 21
26.47190561275492
  0
LINE
  8
0
  6
CONTINUOUS
 62
     7
 10
-19.125
 20
21.99999999999996
 11
-14.87499999999997
 21
21.99999999999996
  0
LINE
  8
0
  6
CONTINUOUS
 62
     7
 10
-12.87499999999997
 20
26.45000000000003
 11
-12.87499999999997
 21
16.15
  0
LINE
  8
0
  6
CONTINUOUS
 62
     7
 10
-39.95374158352788
 20
23.42272656479133
 11
-39.86923923414881
 21
23.67211826087728
  0
LINE
  8
0
  6
CONTINUOUS
 62
     7
 10
-38.15843122309897
 20
25.95035980093252
 11
-37.97514179071021
 21
26.06429143875544
  0
LINE
  8
0
  6
CONTINUOUS
 62
     7
 10
-36.30339681223088
 20
26.54400359800935
 11
-36.06874999999992
 21
26.55000000000002
  0
LINE
  8
0
  6
CONTINUOUS
 62
     7
 10
-40.24673642019471
 20
21.47225489618087
 11
-40.2368644730623
 21
21.77282904126892
  0
LINE
  8
0
  6
CONTINUOUS
 62
     7
 10
-39.28680519672412
 20
24.80940006487464
 11
-39.13833393113347
 21
25.01492109038739
  0
LINE
  8
0
  6
CONTINUOUS
 62
     7
 10
-33.426953437375
 20
25.5933437562475
 11
-33.27045037453774
 21
25.45179767936567
  0
LINE
  8
0
  6
CONTINUOUS
 62
     7
 10
-35.85214644610901
 20
26.54511910079721
 11
-35.63983578443624
 21
26.53047640318873
  0
LINE
  8
0
  6
CONTINUOUS
 62
     7
 10
-37.39103524031562
 20
26.33412952833569
 11
-37.1849203057747
 21
26.40008995023307
  0
LINE
  8
0
  6
CONTINUOUS
 62
     7
 10
-40.24594688129174
 20
21.16436897266388
 11
-40.24673642019471
 21
21.47225489618087
  0
LINE
  8
0
  6
CONTINUOUS
 62
     7
 10
-40.14327971545384
 20
22.63068080596003
 11
-40.09076182418042
 21
22.90200783733259
  0
LINE
  8
0
  6
CONTINUOUS
 62
     7
 10
-38.67406126703732
 20
25.53660806357599
 11
-38.50789096126261
 21
25.68651811334288
  0
LINE
  8
0
  6
CONTINUOUS
 62
     7
 10
-34.27386213483352
 20
26.15464716457172
 11
-34.09589461090562
 21
26.06191007971809
  0
LINE
  8
0
  6
CONTINUOUS
 62
     7
 10
-19.125
 20
20.24999999999999
 11
-19.125
 21
16.15
  0
LINE
  8
0
  6
CONTINUOUS
 62
     7
 10
-19.125
 20
16.15
 11
-21.125
 21
16.15
  0
LINE
  8
0
  6
CONTINUOUS
 62
     7
 10
-12.87499999999997
 20
16.15
 11
-14.87499999999997
 21
16.15
  0
LINE
  8
0
  6
CONTINUOUS
 62
     7
 10
-36.75557131007895
 20
26.49603238208387
 11
-36.53233724892391
 21
26.52601439203733
  0
LINE
  8
0
  6
CONTINUOUS
 62
     7
 10
-35.22809313774489
 20
26.47190561275492
 11
-35.02866115272646
 21
26.42797751992964
  0
LINE
  8
0
  6
CONTINUOUS
 62
     7
 10
-33.75283823970415
 20
25.84715051479408
 11
-33.58774939243047
 21
25.72512803472371
  0
LINE
  8
0
  6
CONTINUOUS
 62
     7
 10
-14.87499999999997
 20
26.45000000000003
 11
-12.87499999999997
 21
26.45000000000003
  0
LINE
  8
0
  6
CONTINUOUS
 62
     7
 10
-36.97309899569579
 20
26.45405756814917
 11
-36.75557131007895
 21
26.49603238208387
  0
LINE
  8
0
  6
CONTINUOUS
 62
     7
 10
-40.02758244687171
 20
23.16602309027643
 11
-39.95374158352788
 21
23.42272656479133
  0
LINE
  8
0
  6
CONTINUOUS
 62
     7
 10
-38.33601427994981
 20
25.82443535912837
 11
-38.15843122309897
 21
25.95035980093252
  0
LINE
  8
0
  6
CONTINUOUS
 62
     7
 10
-33.92221997919581
 20
25.95941119645889
 11
-33.75283823970415
 21
25.84715051479408
  0
LINE
  8
0
  6
CONTINUOUS
 62
     7
 10
-36.06874999999992
 20
26.55000000000002
 11
-35.85214644610901
 21
26.54511910079721
  0
LINE
  8
0
  6
CONTINUOUS
 62
     7
 10
-39.86923923414881
 20
23.67211826087728
 11
-39.77407539873434
 21
23.91419817853452
  0
LINE
  8
0
  6
CONTINUOUS
 62
     7
 10
-35.02866115272646
 20
26.42797751992964
 11
-34.83352205992601
 21
26.37428762869853
  0
LINE
  8
0
  6
CONTINUOUS
 62
     7
 10
-40.21604340803303
 20
20.57773892746712
 11
-40.23449585635363
 21
20.84917127071823
  0
LINE
  8
0
  6
CONTINUOUS
 62
     7
 10
-33.27045037453774
 20
25.45179767936567
 11
-33.11824020391846
 21
25.3004898040784
  0
LINE
  8
0
  6
CONTINUOUS
 62
     7
 10
-44.71875000000003
 20
23.60000000000001
 11
-44.78945669054263
 21
23.7458722901876
  0
LINE
  8
0
  6
CONTINUOUS
 62
     7
 10
-39.6682500772847
 20
24.14896631776281
 11
-39.55176326979981
 21
24.37642267856232
  0
LINE
  8
0
  6
CONTINUOUS
 62
     7
 10
-40.1552332137341
 20
20.05565863449704
 11
-40.18962252715991
 21
20.31323471539342
  0
LINE
  8
0
  6
CONTINUOUS
 62
     7
 10
-40.18962252715991
 20
20.31323471539342
 11
-40.21604340803303
 21
20.57773892746712
  0
LINE
  8
0
  6
CONTINUOUS
 62
     7
 10
-37.78614598278335
 20
26.1662302725969
 11
-37.59144379931855
 21
26.25617630245702
  0
LINE
  8
0
  6
CONTINUOUS
 62
     7
 10
-34.64267585934372
 20
26.3108359390618
 11
-34.45612255097963
 21
26.23762245101957
  0
LINE
  8
0
  6
CONTINUOUS
 62
     7
 10
-37.97514179071021
 20
26.06429143875544
 11
-37.78614598278335
 21
26.1662302725969
  0
LINE
  8
0
  6
CONTINUOUS
 62
     7
 10
-34.83352205992601
 20
26.37428762869853
 11
-34.64267585934372
 21
26.3108359390618
  0
LINE
  8
0
  6
CONTINUOUS
 62
     7
 10
-40.09076182418042
 20
22.90200783733259
 11
-40.02758244687171
 21
23.16602309027643
  0
LINE
  8
0
  6
CONTINUOUS
 62
     7
 10
-38.50789096126261
 20
25.68651811334288
 11
-38.33601427994981
 21
25.82443535912837
  0
LINE
  8
0
  6
CONTINUOUS
 62
     7
 10
-47.7690474332969
 20
24.53203356607892
 11
-47.86507115238342
 21
24.43941311168873
  0
LINE
  8
0
  6
CONTINUOUS
 62
     7
 10
-48.65689906651463
 20
20.01376383506626
 11
-48.62025208843823
 21
19.84456804160756
  0
LINE
  8
0
  6
CONTINUOUS
 62
     7
 10
-48.77807312616073
 20
21.49414381002557
 11
-48.779648762521
 21
21.2967672105025
  0
LINE
  8
0
  6
CONTINUOUS
 62
     7
 10
-48.62025208843823
 20
19.84456804160756
 11
-48.57882728355733
 21
19.67889484890711
  0
LINE
  8
0
  6
CONTINUOUS
 62
     7
 10
-44.86407676217041
 20
23.8834891607505
 11
-44.94261021488338
 21
24.01285061168873
  0
LINE
  8
0
  6
CONTINUOUS
 62
     7
 10
-45.7117595556541
 20
24.7505471127028
 11
-45.8255134381339
 21
24.80560978701823
  0
LINE
  8
0
  6
CONTINUOUS
 62
     7
 10
-48.04569166650413
 20
24.2272424824953
 11
-48.13028846153852
 21
24.10769230769233
  0
LINE
  8
0
  6
CONTINUOUS
 62
     7
 10
-48.55709420864121
 20
23.15178927975958
 11
-48.5947433313692
 21
23.01145926873416
  0
LINE
  8
0
  6
CONTINUOUS
 62
     7
 10
-46.46139419419959
 20
24.95840471529298
 11
-46.59931663481043
 21
24.9645265690826
  0
LINE
  8
0
  6
CONTINUOUS
 62
     7
 10
-48.53262465187183
 20
19.51674425696448
 11
-48.48164419338172
 21
19.35811626578004
  0
LINE
  8
0
  6
CONTINUOUS
 62
     7
 10
-46.86373459198001
 20
24.94984055624899
 11
-46.99023010853881
 21
24.92903268962587
  0
LINE
  8
0
  6
CONTINUOUS
 62
     7
 10
-48.36534979598783
 20
19.05142808568522
 11
-48.29526102250012
 21
18.89337991163864
  0
LINE
  8
0
  6
CONTINUOUS
 62
     7
 10
-44.94261021488338
 20
24.01285061168873
 11
-45.0250570486816
 21
24.133956643002
  0
LINE
  8
0
  6
CONTINUOUS
 62
     7
 10
-48.37160528292952
 20
23.66679347378597
 11
-48.42321137957742
 21
23.54498980279057
  0
LINE
  8
0
  6
CONTINUOUS
 62
     7
 10
-45.0250570486816
 20
24.133956643002
 11
-45.11141726356493
 21
24.24680725469069
  0
LINE
  8
0
  6
CONTINUOUS
 62
     7
 10
-47.11291665041345
 20
24.89924824953188
 11
-47.2317942176042
 21
24.86048723596701
  0
LINE
  8
0
  6
CONTINUOUS
 62
     7
 10
-48.71044738748173
 20
22.40382337455754
 11
-48.7306502928099
 21
22.24033543849441
  0
LINE
  8
0
  6
CONTINUOUS
 62
     7
 10
-48.68876821778642
 20
20.18648222928299
 11
-48.65689906651463
 21
20.01376383506626
  0
LINE
  8
0
  6
CONTINUOUS
 62
     7
 10
-46.59931663481043
 20
24.9645265690826
 11
-46.73343010073733
 21
24.96167184940134
  0
LINE
  8
0
  6
CONTINUOUS
 62
     7
 10
-46.99023010853881
 20
24.92903268962587
 11
-47.11291665041345
 21
24.89924824953188
  0
LINE
  8
0
  6
CONTINUOUS
 62
     7
 10
-48.68675523867361
 20
22.56267972561293
 11
-48.71044738748173
 21
22.40382337455754
  0
LINE
  8
0
  6
CONTINUOUS
 62
     7
 10
-48.76058837302652
 20
21.89946481134603
 11
-48.77171966299593
 21
21.69504301030684
  0
LINE
  8
0
  6
CONTINUOUS
 62
     7
 10
-48.779648762521
 20
21.2967672105025
 11
-48.77644657207672
 21
21.10291321173741
  0
LINE
  8
0
  6
CONTINUOUS
 62
     7
 10
-47.2317942176042
 20
24.86048723596701
 11
-47.3468628101108
 21
24.81274964893121
  0
LINE
  8
0
  6
CONTINUOUS
 62
     7
 10
-47.95728589678583
 20
24.33781608382751
 11
-48.04569166650413
 21
24.2272424824953
  0
LINE
  8
0
  6
CONTINUOUS
 62
     7
 10
-48.1958515321062
 20
24.00441497672701
 11
-48.25792535919393
 21
23.89650606075422
  0
LINE
  8
0
  6
CONTINUOUS
 62
     7
 10
-45.39397819472624
 20
24.53582657200814
 11
-45.49599193395032
 21
24.61565550519779
  0
LINE
  8
0
  6
CONTINUOUS
 62
     7
 10
-48.48164419338172
 20
19.35811626578004
 11
-48.42588590808703
 21
19.20301087535364
  0
LINE
  8
0
  6
CONTINUOUS
 62
     7
 10
-46.0647613463489
 20
24.89096887677494
 11
-46.19025537208421
 21
24.92126529221606
  0
LINE
  8
0
  6
CONTINUOUS
 62
     7
 10
-44.78945669054263
 20
23.7458722901876
 11
-44.86407676217041
 21
23.8834891607505
  0
LINE
  8
0
  6
CONTINUOUS
 62
     7
 10
-46.73343010073733
 20
24.96167184940134
 11
-46.86373459198001
 21
24.94984055624899
  0
LINE
  8
0
  6
CONTINUOUS
 62
     7
 10
-48.25792535919393
 20
23.89650606075422
 11
-48.31650994280173
 21
23.78396555977391
  0
LINE
  8
0
  6
CONTINUOUS
 62
     7
 10
-45.60191905425964
 20
24.68722901876269
 11
-45.7117595556541
 21
24.7505471127028
  0
LINE
  8
0
  6
CONTINUOUS
 62
     7
 10
-45.8255134381339
 20
24.80560978701823
 11
-45.94318070169884
 21
24.85241704170887
  0
LINE
  8
0
  6
CONTINUOUS
 62
     7
 10
-45.11141726356493
 20
24.24680725469069
 11
-45.20169085953351
 21
24.35140244675454
  0
LINE
  8
0
  6
CONTINUOUS
 62
     7
 10
-47.86507115238342
 20
24.43941311168873
 11
-47.95728589678583
 21
24.33781608382751
  0
LINE
  8
0
  6
CONTINUOUS
 62
     7
 10
-48.5947433313692
 20
23.01145926873416
 11
-48.6289032106173
 21
22.86649767270127
  0
LINE
  8
0
  6
CONTINUOUS
 62
     7
 10
-48.57882728355733
 20
19.67889484890711
 11
-48.53262465187183
 21
19.51674425696448
  0
LINE
  8
0
  6
CONTINUOUS
 62
     7
 10
-48.42588590808703
 20
19.20301087535364
 11
-48.36534979598783
 21
19.05142808568522
  0
LINE
  8
0
  6
CONTINUOUS
 62
     7
 10
-48.7306502928099
 20
22.24033543849441
 11
-48.74736395465823
 21
22.07221591742403
  0
LINE
  8
0
  6
CONTINUOUS
 62
     7
 10
-48.6289032106173
 20
22.86649767270127
 11
-48.65957384638541
 21
22.71690449166081
  0
LINE
  8
0
  6
CONTINUOUS
 62
     7
 10
-48.65957384638541
 20
22.71690449166081
 11
-48.68675523867361
 21
22.56267972561293
  0
LINE
  8
0
  6
CONTINUOUS
 62
     7
 10
-46.19025537208421
 20
24.92126529221606
 11
-46.3196627789047
 21
24.94330628803254
  0
LINE
  8
0
  6
CONTINUOUS
 62
     7
 10
-47.3468628101108
 20
24.81274964893121
 11
-47.4581224279334
 21
24.75603548842448
  0
LINE
  8
0
  6
CONTINUOUS
 62
     7
 10
-48.76846655482772
 20
20.9125818137304
 11
-48.75570871077431
 21
20.7257730164816
  0
LINE
  8
0
  6
CONTINUOUS
 62
     7
 10
-48.75570871077431
 20
20.7257730164816
 11
-48.73817303991623
 21
20.5424868199906
  0
LINE
  8
0
  6
CONTINUOUS
 62
     7
 10
-45.29587783658723
 20
24.44774221919371
 11
-45.39397819472624
 21
24.53582657200814
  0
LINE
  8
0
  6
CONTINUOUS
 62
     7
 10
-48.4713282327453
 20
23.41855454678782
 11
-48.51595584243321
 21
23.28748770577754
  0
LINE
  8
0
  6
CONTINUOUS
 62
     7
 10
-48.51595584243321
 20
23.28748770577754
 11
-48.55709420864121
 21
23.15178927975958
  0
LINE
  8
0
  6
CONTINUOUS
 62
     7
 10
-45.49599193395032
 20
24.61565550519779
 11
-45.60191905425964
 21
24.68722901876269
  0
LINE
  8
0
  6
CONTINUOUS
 62
     7
 10
-48.13028846153852
 20
24.10769230769233
 11
-48.1958515321062
 21
24.00441497672701
  0
LINE
  8
0
  6
CONTINUOUS
 62
     7
 10
-47.4581224279334
 20
24.75603548842448
 11
-47.5655730710719
 21
24.69034475444692
  0
LINE
  8
0
  6
CONTINUOUS
 62
     7
 10
-48.74736395465823
 20
22.07221591742403
 11
-48.76058837302652
 21
21.89946481134603
  0
LINE
  8
0
  6
CONTINUOUS
 62
     7
 10
-45.94318070169884
 20
24.85241704170887
 11
-46.0647613463489
 21
24.89096887677494
  0
LINE
  8
0
  6
CONTINUOUS
 62
     7
 10
-48.77171966299593
 20
21.69504301030684
 11
-48.77807312616073
 21
21.49414381002557
  0
LINE
  8
0
  6
CONTINUOUS
 62
     7
 10
-46.3196627789047
 20
24.94330628803254
 11
-46.46139419419959
 21
24.95840471529298
  0
LINE
  8
0
  6
CONTINUOUS
 62
     7
 10
-48.42321137957742
 20
23.54498980279057
 11
-48.4713282327453
 21
23.41855454678782
  0
LINE
  8
0
  6
CONTINUOUS
 62
     7
 10
-47.66921473952645
 20
24.61567744699838
 11
-47.7690474332969
 21
24.53203356607892
  0
LINE
  8
0
  6
CONTINUOUS
 62
     7
 10
-48.31650994280173
 20
23.78396555977391
 11
-48.37160528292952
 21
23.66679347378597
  0
LINE
  8
0
  6
CONTINUOUS
 62
     7
 10
-48.77644657207672
 20
21.10291321173741
 11
-48.76846655482772
 21
20.9125818137304
  0
LINE
  8
0
  6
CONTINUOUS
 62
     7
 10
-47.5655730710719
 20
24.69034475444692
 11
-47.66921473952645
 21
24.61567744699838
  0
LINE
  8
0
  6
CONTINUOUS
 62
     7
 10
-48.73817303991623
 20
20.5424868199906
 11
-48.71585954225363
 21
20.36272322425781
  0
LINE
  8
0
  6
CONTINUOUS
 62
     7
 10
-45.20169085953351
 20
24.35140244675454
 11
-45.29587783658723
 21
24.44774221919371
  0
LINE
  8
0
  6
CONTINUOUS
 62
     7
 10
-48.71585954225363
 20
20.36272322425781
 11
-48.68876821778642
 21
20.18648222928299
  0
LINE
  8
0
  6
CONTINUOUS
 62
     7
 10
3.18524501968126
 20
11.7744459606548
 11
3.139567184770931
 21
12.05002193649124
  0
ARC
  8
0
  6
CONTINUOUS
 62
     7
 10
16.4458873373936
 20
14.04918167874408
 40
13.45566035834506
 50
177.8161348061431
 51
188.544290182604
  0
LINE
  8
0
  6
CONTINUOUS
 62
     7
 10
-5.261397525438582
 20
0.0
 11
-5.769110831380597
 21
0.0
  0
LINE
  8
0
  6
CONTINUOUS
 62
     7
 10
-5.261397525438582
 20
0.0
 11
-3.183531195472211
 21
11.78416554465539
  0
LINE
  8
0
  6
CONTINUOUS
 62
     7
 10
-3.183531195472211
 20
11.78416554465539
 11
-3.139661967725305
 21
12.04940601534643
  0
ARC
  8
0
  6
CONTINUOUS
 62
     7
 10
-15.48017999366336
 20
13.92747483676909
 40
12.4826090079958
 50
351.3467144419908
 51
1.130334616385369
  0
ARC
  8
0
  6
CONTINUOUS
 62
     7
 10
-3.500000000000003
 20
31.49999999999997
 40
1.500000000000001
 50
90.0
 51
180.0
  0
LINE
  8
0
  6
CONTINUOUS
 62
     7
 10
-5.098932379033694
 20
31.49999999999997
 11
-11.00000000000001
 21
31.49999999999997
  0
LINE
  8
0
  6
CONTINUOUS
 62
     7
 10
3.500000000000003
 20
31.49999999999997
 11
3.000000000000003
 21
31.49999999999997
  0
LINE
  8
0
  6
CONTINUOUS
 62
     7
 10
-3.000000000000003
 20
14.17371653158334
 11
-3.000000000000003
 21
29.99999999999997
  0
LINE
  8
0
  6
CONTINUOUS
 62
     7
 10
5.261397525438582
 20
0.0
 11
3.18524501968126
 21
11.7744459606548
  0
LINE
  8
0
  6
CONTINUOUS
 62
     7
 10
3.000000000000003
 20
14.5619285843972
 11
3.000000000000003
 21
29.99999999999997
  0
ARC
  8
0
  6
CONTINUOUS
 62
     7
 10
3.500000000000003
 20
31.49999999999997
 40
1.500000000000001
 50
0.0
 51
90.0
  0
LINE
  8
0
  6
CONTINUOUS
 62
     7
 10
-11.00000000000001
 20
31.49999999999997
 11
-11.00000000000001
 21
32.99999999999997
  0
LINE
  8
0
  6
CONTINUOUS
 62
     7
 10
-11.00000000000001
 20
32.99999999999997
 11
-3.516940441151251
 21
32.99999999999997
  0
LINE
  8
0
  6
CONTINUOUS
 62
     7
 10
5.76911083138143
 20
0.0
 11
5.261397525438582
 21
0.0
  0
LINE
  8
0
  6
CONTINUOUS
 62
     7
 10
-3.000000000000003
 20
29.99999999999997
 11
3.000000000000003
 21
29.99999999999997
  0
LINE
  8
0
  6
CONTINUOUS
 62
     7
 10
3.500000000000003
 20
32.99999999999997
 11
3.500000000000003
 21
31.49999999999997
  0
LINE
  8
0
  6
CONTINUOUS
 62
     7
 10
3.520042592980221
 20
32.99999999999997
 11
11.00000000000001
 21
32.99999999999997
  0
LINE
  8
0
  6
CONTINUOUS
 62
     7
 10
13.38481042052453
 20
0.0
 11
7.292309123729745
 21
0.0
  0
LINE
  8
0
  6
CONTINUOUS
 62
     7
 10
-34.21874999999996
 20
23.60000000000001
 11
-34.28945669054262
 21
23.7458722901876
  0
LINE
  8
0
  6
CONTINUOUS
 62
     7
 10
-34.28945669054262
 20
23.7458722901876
 11
-34.36407676217029
 21
23.8834891607505
  0
LINE
  8
0
  6
CONTINUOUS
 62
     7
 10
-34.36407676217029
 20
23.8834891607505
 11
-34.44261021488332
 21
24.01285061168873
  0
LINE
  8
0
  6
CONTINUOUS
 62
     7
 10
-5.000000000000004
 20
13.92851705473491
 11
-5.000000000000004
 21
31.49999999999997
  0
LINE
  8
0
  6
CONTINUOUS
 62
     7
 10
-34.44261021488332
 20
24.01285061168873
 11
-34.52505704868148
 21
24.133956643002
  0
LINE
  8
0
  6
CONTINUOUS
 62
     7
 10
-34.52505704868148
 20
24.133956643002
 11
-34.61141726356492
 21
24.24680725469069
  0
LINE
  8
0
  6
CONTINUOUS
 62
     7
 10
-7.333931969865592
 20
0.0
 11
-7.292250749210027
 21
0.0
  0
LINE
  8
0
  6
CONTINUOUS
 62
     7
 10
11.00000000000001
 20
31.49999999999997
 11
5.000000000000005
 21
31.49999999999997
  0
LINE
  8
0
  6
CONTINUOUS
 62
     7
 10
-34.61141726356492
 20
24.24680725469069
 11
-34.70169085953339
 21
24.35140244675454
  0
LINE
  8
0
  6
CONTINUOUS
 62
     7
 10
-34.70169085953339
 20
24.35140244675454
 11
-34.79587783658722
 21
24.44774221919371
  0
LINE
  8
0
  6
CONTINUOUS
 62
     7
 10
-34.79587783658722
 20
24.44774221919371
 11
-34.89397819472612
 21
24.53582657200814
  0
ARC
  8
0
  6
CONTINUOUS
 62
     7
 10
-203937.5833238716
 20
35958.97019388905
 40
207070.3413740327
 50
349.9995552969335
 51
350.0023428496268
  0
LINE
  8
0
  6
CONTINUOUS
 62
     7
 10
-13.38481042052447
 20
0.0
 11
-7.333931969865592
 21
0.0
  0
LINE
  8
0
  6
CONTINUOUS
 62
     7
 10
-34.89397819472612
 20
24.53582657200814
 11
-34.99599193395031
 21
24.61565550519779
  0
LINE
  8
0
  6
CONTINUOUS
 62
     7
 10
-34.99599193395031
 20
24.61565550519779
 11
-35.10191905425958
 21
24.68722901876269
  0
LINE
  8
0
  6
CONTINUOUS
 62
     7
 10
-35.10191905425958
 20
24.68722901876269
 11
-35.21175955565408
 21
24.7505471127028
  0
LINE
  8
0
  6
CONTINUOUS
 62
     7
 10
3.500000000000003
 20
32.99999999999997
 11
3.520042592980221
 21
32.99999999999997
  0
LINE
  8
0
  6
CONTINUOUS
 62
     7
 10
11.00000000000001
 20
32.99999999999997
 11
11.00000000000001
 21
31.49999999999997
  0
ARC
  8
0
  6
CONTINUOUS
 62
     7
 10
-38.96195531839469
 20
16.34310036602044
 40
28.07079875129958
 50
346.7753606256468
 51
354.9527797799079
  0
LINE
  8
0
  6
CONTINUOUS
 62
     7
 10
-3.516940441151251
 20
32.99999999999997
 11
-3.500000000000003
 21
32.99999999999997
  0
LINE
  8
0
  6
CONTINUOUS
 62
     7
 10
-11.00000000000001
 20
13.87352341710174
 11
-11.00000000000001
 21
31.49999999999997
  0
LINE
  8
0
  6
CONTINUOUS
 62
     7
 10
11.00000000000001
 20
13.87352341710174
 11
11.00000000000001
 21
31.49999999999997
  0
ARC
  8
0
  6
CONTINUOUS
 62
     7
 10
38.96195531835528
 20
16.34310036601466
 40
28.07079875125984
 50
185.0472202200875
 51
193.2246393743571
  0
ARC
  8
0
  6
CONTINUOUS
 62
     7
 10
203937.583277356
 20
35958.97018568838
 40
207070.3413267997
 50
189.9976571503731
 51
190.000444703067
  0
ARC
  8
0
  6
CONTINUOUS
 62
     7
 10
-15.02565876433626
 20
13.87786762959231
 40
10.02578670345516
 50
350.0084553438713
 51
0.2894546558265461
  0
LINE
  8
0
  6
CONTINUOUS
 62
     7
 10
-35.5647613463489
 20
24.89096887677494
 11
-35.6902553720842
 21
24.92126529221606
  0
LINE
  8
0
  6
CONTINUOUS
 62
     7
 10
-35.81966277890458
 20
24.94330628803254
 11
-35.96139419419958
 21
24.95840471529298
  0
LINE
  8
0
  6
CONTINUOUS
 62
     7
 10
-35.6902553720842
 20
24.92126529221606
 11
-35.81966277890458
 21
24.94330628803254
  0
LINE
  8
0
  6
CONTINUOUS
 62
     7
 10
-35.44318070169883
 20
24.85241704170887
 11
-35.5647613463489
 21
24.89096887677494
  0
LINE
  8
0
  6
CONTINUOUS
 62
     7
 10
-35.21175955565408
 20
24.7505471127028
 11
-35.32551343813384
 21
24.80560978701823
  0
LINE
  8
0
  6
CONTINUOUS
 62
     7
 10
-35.32551343813384
 20
24.80560978701823
 11
-35.44318070169883
 21
24.85241704170887
  0
LINE
  8
0
  6
CONTINUOUS
 62
     7
 10
-51.50000000000001
 20
-108.0011607290595
 11
-13.38481042052447
 21
-108.0011607290595
  0
LINE
  8
0
  6
CONTINUOUS
 62
     7
 10
50.52365194784647
 20
-118.5248126769061
 11
-50.52365194784652
 21
-118.5248126769061
  0
LINE
  8
0
  6
CONTINUOUS
 62
     7
 10
52.99999999999999
 20
-109.5011607290595
 11
52.99999999999999
 21
-119.5011607290595
  0
LINE
  8
0
  6
CONTINUOUS
 62
     7
 10
-50.00000000000001
 20
-114.6766542727454
 11
-50.00000000000001
 21
-110.0011607290595
  0
LINE
  8
0
  6
CONTINUOUS
 62
     7
 10
50.52365194784647
 20
-109.477508781213
 11
50.52365194784647
 21
-118.5248126769061
  0
LINE
  8
0
  6
CONTINUOUS
 62
     7
 10
-12.87499999999997
 20
-107.5011607290595
 11
-12.87499999999997
 21
-108.0011607290595
  0
LINE
  8
0
  6
CONTINUOUS
 62
     7
 10
-27.05000000000002
 20
-107.5011607290595
 11
-28.75
 21
-107.5011607290595
  0
LINE
  8
0
  6
CONTINUOUS
 62
     7
 10
-5.261397525438582
 20
-100.0011607290595
 11
-5.769110831380597
 21
-100.0011607290595
  0
LINE
  8
0
  6
CONTINUOUS
 62
     7
 10
51.49999999999999
 20
-121.0011607290596
 11
-51.50000000000001
 21
-121.0011607290596
  0
LINE
  8
0
  6
CONTINUOUS
 62
     7
 10
49.99999999999999
 20
-110.0011607290595
 11
49.99999999999999
 21
-114.6766542727453
  0
LINE
  8
0
  6
CONTINUOUS
 62
     7
 10
49.99999999999999
 20
-114.6766542727453
 11
49.97948465822488
 21
-118.058703855165
  0
LINE
  8
0
  6
CONTINUOUS
 62
     7
 10
-50.05754312610549
 20
-118.058703855165
 11
50.05754312610561
 21
-118.058703855165
  0
LINE
  8
0
  6
CONTINUOUS
 62
     7
 10
-14.87499999999997
 20
-107.5011607290595
 11
-19.125
 21
-107.5011607290595
  0
LINE
  8
0
  6
CONTINUOUS
 62
     7
 10
52.88581929876701
 20
-120.5740147670295
 11
52.9711779206049
 21
-120.3504844376257
  0
LINE
  8
0
  6
CONTINUOUS
 62
     7
 10
-27.05000000000002
 20
-107.5011607290595
 11
-27.05000000000002
 21
-108.0011607290595
  0
LINE
  8
0
  6
CONTINUOUS
 62
     7
 10
51.49999999999999
 20
-121.3095906922496
 11
-51.50000000000001
 21
-121.3095906922496
  0
LINE
  8
0
  6
CONTINUOUS
 62
     7
 10
-51.50000000000001
 20
-121.0011607290596
 11
-51.50000000000001
 21
-121.3095906922496
  0
ARC
  8
0
  6
CONTINUOUS
 62
     7
 10
-51.50000000000001
 20
-109.5011607290595
 40
1.500000000000001
 50
90.0
 51
180.0
  0
LINE
  8
0
  6
CONTINUOUS
 62
     7
 10
-21.125
 20
-107.5011607290595
 11
-21.125
 21
-108.0011607290595
  0
LINE
  8
0
  6
CONTINUOUS
 62
     7
 10
-28.75
 20
-107.5011607290595
 11
-28.75
 21
-108.0011607290595
  0
LINE
  8
0
  6
CONTINUOUS
 62
     7
 10
-53.00000000000002
 20
-119.5011607290595
 11
-53.00000000000002
 21
-109.5011607290595
  0
LINE
  8
0
  6
CONTINUOUS
 62
     7
 10
-52.9711779206048
 20
-120.3504844376257
 11
-52.88581929876693
 21
-120.5740147670295
  0
LINE
  8
0
  6
CONTINUOUS
 62
     7
 10
-52.88581929876693
 20
-120.5740147670295
 11
-52.74720441845382
 21
-120.7800214984493
  0
LINE
  8
0
  6
CONTINUOUS
 62
     7
 10
5.76911083138143
 20
-100.0011607290595
 11
5.261397525438582
 21
-100.0011607290595
  0
LINE
  8
0
  6
CONTINUOUS
 62
     7
 10
-42.26796868426575
 20
-107.5011607290596
 11
-50.74770347904433
 21
-107.5011607290595
  0
LINE
  8
0
  6
CONTINUOUS
 62
     7
 10
-52.33335534952943
 20
-121.1087749319774
 11
-52.07402514854761
 21
-121.2188878240021
  0
LINE
  8
0
  6
CONTINUOUS
 62
     7
 10
50.52365194784647
 20
-118.5248126769061
 11
50.05754312610561
 21
-118.058703855165
  0
LINE
  8
0
  6
CONTINUOUS
 62
     7
 10
-51.79263548302421
 20
-121.2866950081124
 11
-51.50000000000001
 21
-121.3095906922496
  0
LINE
  8
0
  6
CONTINUOUS
 62
     7
 10
-50.52365194784652
 20
-118.5248126769061
 11
-50.52365194784652
 21
-109.477508781213
  0
ARC
  8
0
  6
CONTINUOUS
 62
     7
 10
-5.777410092996704
 20
-101.5188825739326
 40
1.517744535865118
 50
89.686696263984
 51
167.634133858574
  0
LINE
  8
0
  6
CONTINUOUS
 62
     7
 10
51.49999999999999
 20
-121.3095906922496
 11
51.79263548302421
 21
-121.2866950081124
  0
LINE
  8
0
  6
CONTINUOUS
 62
     7
 10
51.49999999999999
 20
-122.4405005572798
 11
51.49999999999999
 21
-121.3095906922496
  0
LINE
  8
0
  6
CONTINUOUS
 62
     7
 10
-7.259943006014124
 20
-101.193852363078
 11
-7.284126955339199
 21
-101.3466626113516
  0
LINE
  8
0
  6
CONTINUOUS
 62
     7
 10
-14.87499999999997
 20
-107.5011607290595
 11
-14.87499999999997
 21
-108.0011607290595
  0
LINE
  8
0
  6
CONTINUOUS
 62
     7
 10
52.5606601717799
 20
-120.9605879087267
 11
52.74720441845376
 21
-120.7800214984493
  0
LINE
  8
0
  6
CONTINUOUS
 62
     7
 10
52.9711779206049
 20
-120.3504844376257
 11
52.99999999999999
 21
-120.1180206554397
  0
LINE
  8
0
  6
CONTINUOUS
 62
     7
 10
51.49999999999999
 20
-121.3095906922496
 11
51.49999999999999
 21
-121.0011607290596
  0
ARC
  8
0
  6
CONTINUOUS
 62
     7
 10
51.49999999999999
 20
-119.5011607290595
 40
1.500000000000001
 50
270.0
 51
0.0
  0
LINE
  8
0
  6
CONTINUOUS
 62
     7
 10
-52.56066017177982
 20
-120.9605879087267
 11
-52.33335534952943
 21
-121.1087749319774
  0
LINE
  8
0
  6
CONTINUOUS
 62
     7
 10
-52.07402514854761
 20
-121.2188878240021
 11
-51.79263548302421
 21
-121.2866950081124
  0
ARC
  8
0
  6
CONTINUOUS
 62
     7
 10
5.78076411144851
 20
-101.512646081458
 40
1.511530274077078
 50
0.4353657763530385
 51
90.44173139713251
  0
LINE
  8
0
  6
CONTINUOUS
 62
     7
 10
-52.74720441845382
 20
-120.7800214984493
 11
-52.56066017177982
 21
-120.9605879087267
  0
LINE
  8
0
  6
CONTINUOUS
 62
     7
 10
52.99999999999999
 20
-120.1180206554396
 11
52.99999999999999
 21
-120.9405005572797
  0
LINE
  8
0
  6
CONTINUOUS
 62
     7
 10
-53.00000000000002
 20
-120.9405005572797
 11
-53.00000000000002
 21
-120.1180206554396
  0
LINE
  8
0
  6
CONTINUOUS
 62
     7
 10
-19.125
 20
-107.5011607290595
 11
-19.125
 21
-108.0011607290595
  0
LINE
  8
0
  6
CONTINUOUS
 62
     7
 10
52.33335534952948
 20
-121.1087749319774
 11
52.5606601717799
 21
-120.9605879087267
  0
LINE
  8
0
  6
CONTINUOUS
 62
     7
 10
-50.52365194784652
 20
-118.5248126769061
 11
-50.05754312610549
 21
-118.058703855165
  0
LINE
  8
0
  6
CONTINUOUS
 62
     7
 10
-24.24999999999999
 20
-107.5011607290595
 11
-24.24999999999999
 21
-108.0011607290595
  0
LINE
  8
0
  6
CONTINUOUS
 62
     7
 10
-7.284126955339199
 20
-101.3466626113516
 11
-7.292250749210083
 21
-101.5011607290595
  0
ARC
  8
0
  6
CONTINUOUS
 62
     7
 10
51.49999999999999
 20
-109.5011607290595
 40
1.500000000000001
 50
0.0
 51
90.0
  0
LINE
  8
0
  6
CONTINUOUS
 62
     7
 10
-19.125
 20
-107.5011607290595
 11
-21.125
 21
-107.5011607290595
  0
LINE
  8
0
  6
CONTINUOUS
 62
     7
 10
-12.87499999999997
 20
-107.5011607290595
 11
-14.87499999999997
 21
-107.5011607290595
  0
ARC
  8
0
  6
CONTINUOUS
 62
     7
 10
-51.50000000000001
 20
-119.5011607290595
 40
1.500000000000001
 50
180.0
 51
270.0
  0
LINE
  8
0
  6
CONTINUOUS
 62
     7
 10
13.38481042052453
 20
-108.0011607290595
 11
51.49999999999999
 21
-108.0011607290595
  0
LINE
  8
0
  6
CONTINUOUS
 62
     7
 10
-31.76796868426562
 20
-107.5011607290595
 11
-40.24770347904433
 21
-107.5011607290595
  0
LINE
  8
0
  6
CONTINUOUS
 62
     7
 10
-24.24999999999999
 20
-107.5011607290595
 11
-27.05000000000002
 21
-107.5011607290595
  0
LINE
  8
0
  6
CONTINUOUS
 62
     7
 10
51.79263548302421
 20
-121.2866950081124
 11
52.0740251485477
 21
-121.2188878240021
  0
LINE
  8
0
  6
CONTINUOUS
 62
     7
 10
52.0740251485477
 20
-121.2188878240021
 11
52.33335534952948
 21
-121.1087749319774
  0
LINE
  8
0
  6
CONTINUOUS
 62
     7
 10
52.74720441845376
 20
-120.7800214984493
 11
52.88581929876701
 21
-120.5740147670295
  0
LINE
  8
0
  6
CONTINUOUS
 62
     7
 10
-53.00000000000002
 20
-120.1180206554397
 11
-52.9711779206048
 21
-120.3504844376257
  0
LINE
  8
0
  6
CONTINUOUS
 62
     7
 10
7.292250749210083
 20
0.0
 11
5.76911083138143
 21
0.0
  0
LINE
  8
0
  6
CONTINUOUS
 62
     7
 10
23.70770513428871
 20
13.49864485459812
 11
20.34954037892184
 21
13.49864485459812
  0
LINE
  8
0
  6
CONTINUOUS
 62
     7
 10
-3.500000000000003
 20
32.99999999999997
 11
-3.000000000000003
 21
32.99999999999997
  0
LINE
  8
0
  6
CONTINUOUS
 62
     7
 10
-3.500000000000003
 20
31.49999999999997
 11
-3.500000000000003
 21
32.99999999999997
  0
LINE
  8
0
  6
CONTINUOUS
 62
     7
 10
25.59979408283841
 20
26.4941301454018
 11
29.14968646519289
 21
26.4941301454018
  0
LINE
  8
0
  6
CONTINUOUS
 62
     7
 10
49.99999999999999
 20
-114.6766542727453
 11
-50.00000000000001
 21
-114.6766542727454
  0
LINE
  8
0
  6
CONTINUOUS
 62
     7
 10
3.000000000000003
 20
31.49999999999997
 11
-3.000000000000003
 21
31.49999999999997
  0
ARC
  8
0
  6
CONTINUOUS
 62
     7
 10
51.49999999999999
 20
-120.9405005572797
 40
1.500000000000001
 50
270.0
 51
0.0000000000000568
  0
ARC
  8
0
  6
CONTINUOUS
 62
     7
 10
15.06473685315229
 20
13.87972414674732
 40
10.06487296421654
 50
182.1621490581964
 51
190.4270619268501
  0
ARC
  8
0
  6
CONTINUOUS
 62
     7
 10
-15.05602185443233
 20
13.87894956838914
 40
11.55612468878681
 50
349.624320111801
 51
358.1208143166969
  0
LINE
  8
0
  6
CONTINUOUS
 62
     7
 10
-51.50000000000001
 20
-121.3095906922496
 11
-51.50000000000001
 21
-122.4405005572798
  0
LINE
  8
0
  6
CONTINUOUS
 62
     7
 10
-3.000000000000003
 20
-100.0011607290595
 11
3.000000000000003
 21
-100.0011607290595
  0
LINE
  8
0
  6
CONTINUOUS
 62
     7
 10
47.55482212013018
 20
26.4941301454018
 11
50.9119663547194
 21
26.4941301454018
  0
LINE
  8
0
  6
CONTINUOUS
 62
     7
 10
40.17517581700181
 20
13.49864485459812
 11
36.81705448805078
 21
13.49864485459812
  0
LINE
  8
0
  6
CONTINUOUS
 62
     7
 10
-5.769110831380597
 20
-0.0000000000000555
 11
-7.292250749210083
 21
-0.0000000000000555
  0
LINE
  8
0
  6
CONTINUOUS
 62
     7
 10
3.000000000000003
 20
32.99999999999997
 11
3.500000000000003
 21
32.99999999999997
  0
LINE
  8
0
  6
CONTINUOUS
 62
     7
 10
-7.292250749210027
 20
0.0
 11
-5.151929476582994
 21
12.13836512159039
  0
LINE
  8
0
  6
CONTINUOUS
 62
     7
 10
-49.97948465822491
 20
-118.058703855165
 11
-50.00000000000001
 21
-114.6766542727454
  0
LINE
  8
0
  6
CONTINUOUS
 62
     7
 10
46.97577428813659
 20
16.7504583169884
 11
44.25300313962527
 21
23.4926699717054
  0
LINE
  8
0
  6
CONTINUOUS
 62
     7
 10
37.34047308104754
 20
26.4941301454018
 11
40.69835556471018
 21
26.4941301454018
  0
LINE
  8
0
  6
CONTINUOUS
 62
     7
 10
42.59155188686975
 20
13.49864485459812
 11
37.34047308104754
 21
26.49413014540181
  0
LINE
  8
0
  6
CONTINUOUS
 62
     7
 10
22.41998057077826
 20
24.60434120052351
 11
20.57407038559955
 21
24.60434120052357
  0
ARC
  8
0
  6
CONTINUOUS
 62
     7
 10
20.57407038559955
 20
21.71434120052351
 40
2.890000000000004
 50
90.0
 51
180.0
  0
LINE
  8
0
  6
CONTINUOUS
 62
     7
 10
36.81705448805078
 20
13.49864485459812
 11
31.56597568222869
 21
26.4941301454018
  0
LINE
  8
0
  6
CONTINUOUS
 62
     7
 10
30.14606215570287
 20
15.71669248223462
 11
27.37510939855231
 21
22.57472238863339
  0
LINE
  8
0
  6
CONTINUOUS
 62
     7
 10
-3.500000000000003
 20
31.49999999999997
 11
-3.500000000000003
 21
16.49999999999996
  0
LINE
  8
0
  6
CONTINUOUS
 62
     7
 10
31.56597568222869
 20
26.4941301454018
 11
34.92409701117971
 21
26.4941301454018
  0
LINE
  8
0
  6
CONTINUOUS
 62
     7
 10
5.76911083138143
 20
0.0
 11
3.685332699378263
 21
11.81769303614649
  0
LINE
  8
0
  6
CONTINUOUS
 62
     7
 10
29.14968646519289
 20
26.4941301454018
 11
31.82514453338653
 21
19.87329532362492
  0
LINE
  8
0
  6
CONTINUOUS
 62
     7
 10
-3.500000000000003
 20
16.49999999999996
 11
-3.506112112473037
 21
13.49999999999996
  0
LINE
  8
0
  6
CONTINUOUS
 62
     7
 10
3.500000000000003
 20
13.92851857569855
 11
3.500000000000003
 21
31.49999999999997
  0
ARC
  8
0
  6
CONTINUOUS
 62
     7
 10
14.88732868155418
 20
13.87597880334046
 40
11.38744988702151
 50
179.7356460030164
 51
187.889990024727
  0
LINE
  8
0
  6
CONTINUOUS
 62
     7
 10
5.000000000000004
 20
14.99999999999996
 11
5.007029492217818
 21
13.49999999999996
  0
LINE
  8
0
  6
CONTINUOUS
 62
     7
 10
5.166074211156779
 20
12.05814634555963
 11
7.292250749210083
 21
0.0000000000000035
  0
LINE
  8
0
  6
CONTINUOUS
 62
     7
 10
-3.000000000000003
 20
31.49999999999997
 11
-3.500000000000003
 21
31.49999999999997
  0
LINE
  8
0
  6
CONTINUOUS
 62
     7
 10
-3.000000000000003
 20
32.99999999999997
 11
3.000000000000003
 21
32.99999999999997
  0
LINE
  8
0
  6
CONTINUOUS
 62
     7
 10
34.92409701117971
 20
26.4941301454018
 11
40.17517581700181
 21
13.49864485459812
  0
ARC
  8
0
  6
CONTINUOUS
 62
     7
 10
-51.50000000000001
 20
-120.9405005572797
 40
1.500000000000001
 50
179.9999999999999
 51
270.0
  0
LINE
  8
0
  6
CONTINUOUS
 62
     7
 10
-51.50000000000001
 20
-122.4405005572798
 11
51.49999999999999
 21
-122.4405005572798
  0
LINE
  8
0
  6
CONTINUOUS
 62
     7
 10
50.9119663547194
 20
26.4941301454018
 11
46.97577428813659
 21
16.7504583169884
  0
LINE
  8
0
  6
CONTINUOUS
 62
     7
 10
44.25300313962527
 20
23.4926699717054
 11
46.34127092281048
 21
23.4926699717054
  0
LINE
  8
0
  6
CONTINUOUS
 62
     7
 10
27.37510939855231
 20
22.5747223886335
 11
23.70770513428871
 21
13.49864485459812
  0
LINE
  8
0
  6
CONTINUOUS
 62
     7
 10
-3.688862842025908
 20
11.79767260232822
 11
-5.769110831380542
 21
-0.0000000000000538
  0
LINE
  8
0
  6
CONTINUOUS
 62
     7
 10
17.6840703855996
 20
21.71434120052351
 11
17.6840703855996
 21
13.49864485459801
  0
LINE
  8
0
  6
CONTINUOUS
 62
     7
 10
23.18350486580256
 20
26.4941301454018
 11
22.41998057077837
 21
24.60434120052357
  0
LINE
  8
0
  6
CONTINUOUS
 62
     7
 10
46.34127092281048
 20
23.4926699717054
 11
47.55482212013018
 21
26.4941301454018
  0
LINE
  8
0
  6
CONTINUOUS
 62
     7
 10
14.28782066415807
 20
13.49864485459812
 11
14.28782066415807
 21
22.15913014540183
  0
LINE
  8
0
  6
CONTINUOUS
 62
     7
 10
20.34954037892167
 20
13.49864485459812
 11
25.5997940828383
 21
26.4941301454018
  0
LINE
  8
0
  6
CONTINUOUS
 62
     7
 10
45.94869612145885
 20
13.49864485459812
 11
42.59155188686975
 21
13.49864485459812
  0
LINE
  8
0
  6
CONTINUOUS
 62
     7
 10
18.6228206641581
 20
26.4941301454018
 11
23.18350486580256
 21
26.4941301454018
  0
LINE
  8
0
  6
CONTINUOUS
 62
     7
 10
-31.76796862546793
 20
-108.0011607290595
 11
-31.76796862546793
 21
-107.5011607290595
  0
LINE
  8
0
  6
CONTINUOUS
 62
     7
 10
-42.26796862546789
 20
-108.0011607290595
 11
-42.26796862546789
 21
-107.5011607290595
  0
LINE
  8
0
  6
CONTINUOUS
 62
     7
 10
-50.747703571244
 20
-107.5011607290595
 11
-50.747703571244
 21
-108.0011607290595
  0
LINE
  8
0
  6
CONTINUOUS
 62
     7
 10
40.69835556471018
 20
26.4941301454018
 11
45.94869612145885
 21
13.49864485459812
  0
LINE
  8
0
  6
CONTINUOUS
 62
     7
 10
17.6840703855996
 20
13.49864485459812
 11
14.28782066415807
 21
13.49864485459812
  0
ARC
  8
0
  6
CONTINUOUS
 62
     7
 10
18.62282066415816
 20
22.15913014540183
 40
4.334999999999978
 50
90.00000000000063
 51
180.0
  0
LINE
  8
0
  6
CONTINUOUS
 62
     7
 10
31.82514453338653
 20
19.87329532362481
 11
30.14606215570298
 21
15.71669248223462
  0
LINE
  8
0
  6
CONTINUOUS
 62
     7
 10
-40.24770357124391
 20
-107.5011607290595
 11
-40.24770357124391
 21
-108.0011607290595
  0
LINE
  8
0
  6
CONTINUOUS
 62
     7
 10
-5.000000000000004
 20
31.49999999999997
 11
-3.500000000000003
 21
31.49999999999997
  0
LINE
  8
0
  6
CONTINUOUS
 62
     7
 10
3.685332699378263
 20
11.81769303614649
 11
3.60767853698768
 21
12.31280653336941
  0
LINE
  8
0
  6
CONTINUOUS
 62
     7
 10
3.500000000000003
 20
31.49999999999997
 11
5.000000000000004
 21
31.49999999999997
  0
LINE
  8
0
  6
CONTINUOUS
 62
     7
 10
5.000000000000004
 20
31.49999999999997
 11
5.000000000000004
 21
14.99999999999996
  0
LINE
  8
0
  6
CONTINUOUS
 62
     7
 10
42.59155188686975
 20
-107.5006607290595
 11
42.59155188686975
 21
-108.0006607290595
  0
LINE
  8
0
  6
CONTINUOUS
 62
     7
 10
45.94869612145885
 20
-107.5006607290595
 11
42.59155188686975
 21
-107.5006607290595
  0
LINE
  8
0
  6
CENTER
 62
     1
 10
0.0
 20
-12.50000000000612
 11
0.0
 21
46.93933982822035
  0
LINE
  8
0
  6
CONTINUOUS
 62
     7
 10
46.97577428813659
 20
-107.5006607290595
 11
45.94869612145885
 21
-107.5006607290595
  0
LINE
  8
0
  6
CONTINUOUS
 62
     7
 10
167.6716183987462
 20
29.99999999999997
 11
152.9961248550604
 21
29.99999999999997
  0
LINE
  8
0
  6
CONTINUOUS
 62
     7
 10
171.3717553272367
 20
8.480144661667078
 11
173.9961248550604
 21
11.1045141894906
  0
LINE
  8
0
  6
CONTINUOUS
 62
     7
 10
162.8916106655697
 20
29.99999999999997
 11
165.9090546615695
 21
33.01744399599971
  0
LINE
  8
0
  6
CONTINUOUS
 62
     7
 10
46.97577428813659
 20
-108.0006607290595
 11
45.94869612145885
 21
-108.0006607290595
  0
ARC
  8
0
  6
CONTINUOUS
 62
     7
 10
165.6835170761267
 20
34.49999999999997
 40
1.500000000000001
 50
269.9999999999999
 51
307.4032634335555
  0
LINE
  8
0
  6
CONTINUOUS
 62
     7
 10
162.4724729072139
 20
0.0
 11
152.9961248550604
 21
0.0
  0
LINE
  8
0
  6
CONTINUOUS
 62
     7
 10
160.3916106655697
 20
29.99999999999997
 11
163.3916106655697
 21
32.99999999999997
  0
LINE
  8
0
  6
CONTINUOUS
 62
     7
 10
171.5197768029069
 20
0.0
 11
162.4724729072139
 21
0.0
  0
LINE
  8
0
  6
CONTINUOUS
 62
     7
 10
171.157310169781
 20
20.76569950421131
 11
173.9961248550604
 21
23.60451418949055
  0
LINE
  8
0
  6
CONTINUOUS
 62
     7
 10
165.6835170761267
 20
32.99999999999997
 11
154.4961248550604
 21
32.99999999999997
  0
LINE
  8
0
  6
CONTINUOUS
 62
     7
 10
171.414644358728
 20
6.023033693158153
 11
173.9961248550604
 21
8.604514189490597
  0
LINE
  8
0
  6
CONTINUOUS
 62
     7
 10
42.59155188686975
 20
-107.5006607290595
 11
40.17517581700181
 21
-107.5006607290595
  0
LINE
  8
0
  6
CONTINUOUS
 62
     7
 10
36.81705448805078
 20
-107.5006607290595
 11
31.82514453338653
 21
-107.5006607290595
  0
LINE
  8
0
  6
CONTINUOUS
 62
     7
 10
0.0
 20
46.93933982822035
 11
0.0
 21
51.9393398282203
  0
LINE
  8
0
  6
CONTINUOUS
 62
     7
 10
171.1144211382898
 20
23.22281047272012
 11
175.1766114702269
 21
27.28500080465718
  0
LINE
  8
0
  6
CONTINUOUS
 62
     7
 10
46.97577428813659
 20
-107.5006607290595
 11
46.97577428813659
 21
-108.0006607290595
  0
LINE
  8
0
  6
CONTINUOUS
 62
     7
 10
152.9961248550604
 20
0.0
 11
152.9961248550604
 21
29.99999999999997
  0
LINE
  8
0
  6
CONTINUOUS
 62
     7
 10
152.9961248550604
 20
31.49999999999997
 11
152.9961248550604
 21
29.99999999999997
  0
LINE
  8
0
  6
CONTINUOUS
 62
     7
 10
171.2001992012722
 20
18.3085885357025
 11
173.9961248550604
 21
21.10451418949061
  0
LINE
  8
0
  6
CONTINUOUS
 62
     7
 10
36.81705448805078
 20
-107.5006607290595
 11
36.81705448805078
 21
-108.0006607290595
  0
LINE
  8
0
  6
CONTINUOUS
 62
     7
 10
40.17517581700181
 20
-107.5006607290595
 11
40.17517581700181
 21
-108.0006607290595
  0
LINE
  8
0
  6
CONTINUOUS
 62
     7
 10
40.17517581700181
 20
-107.5006607290595
 11
36.81705448805078
 21
-107.5006607290595
  0
LINE
  8
0
  6
CONTINUOUS
 62
     7
 10
23.70770513428871
 20
-107.5006607290595
 11
23.70770513428871
 21
-108.0006607290595
  0
LINE
  8
0
  6
CONTINUOUS
 62
     7
 10
0.0
 20
-15.00000000000612
 11
4.000000000000004
 21
-16.25000000000609
  0
LINE
  8
0
  6
CONTINUOUS
 62
     7
 10
4.000000000000004
 20
-13.75000000000609
 11
0.0
 21
-15.00000000000612
  0
LINE
  8
0
  6
CONTINUOUS
 62
     7
 10
171.3288662957457
 20
10.93725563017589
 11
173.9961248550604
 21
13.6045141894906
  0
LINE
  8
0
  6
CONTINUOUS
 62
     7
 10
10.00000000000001
 20
-15.00000000000612
 11
0.0
 21
-15.00000000000612
  0
LINE
  8
0
  6
CONTINUOUS
 62
     7
 10
4.000000000000004
 20
48.18933982822032
 11
0.0
 21
49.4393398282203
  0
LINE
  8
0
  6
CONTINUOUS
 62
     7
 10
45.94869612145885
 20
-107.5006607290595
 11
45.94869612145885
 21
-108.0006607290595
  0
LINE
  8
0
  6
CONTINUOUS
 62
     7
 10
171.2859772642545
 20
13.3943665986847
 11
173.9961248550604
 21
16.1045141894906
  0
LINE
  8
0
  6
CONTINUOUS
 62
     7
 10
171.5004224217103
 20
1.108811756140637
 11
173.9961248550604
 21
3.604514189490593
  0
LINE
  8
0
  6
CONTINUOUS
 62
     7
 10
173.9961248550604
 20
0.0
 11
171.5197768029069
 21
0.0
  0
ARC
  8
0
  6
CONTINUOUS
 62
     7
 10
154.4961248550604
 20
31.49999999999997
 40
1.500000000000001
 50
90.0
 51
180.0
  0
ARC
  8
0
  6
CONTINUOUS
 62
     7
 10
175.4961248550604
 20
24.68739222106631
 40
1.500000000000001
 50
142.5967365664451
 51
180.0000000000006
  0
LINE
  8
0
  6
CONTINUOUS
 62
     7
 10
162.4724729072139
 20
0.0
 11
162.9961248550604
 21
29.99999999999997
  0
ARC
  8
0
  6
CONTINUOUS
 62
     7
 10
169.9354646832806
 20
28.93933982822011
 40
2.500000000000002
 50
296.5693895436377
 51
154.8959097497782
  0
LINE
  8
0
  6
CONTINUOUS
 62
     7
 10
173.9961248550604
 20
24.68739222106631
 11
173.9961248550604
 21
0.0
  0
LINE
  8
0
  6
CONTINUOUS
 62
     7
 10
171.3749233777853
 20
30.98331271221549
 11
173.5102132165485
 21
33.11860255097881
  0
LINE
  8
0
  6
CONTINUOUS
 62
     7
 10
172.3740787415347
 20
29.48246807596488
 11
174.6540874248285
 21
31.7624767592587
  0
LINE
  8
0
  6
CONTINUOUS
 62
     7
 10
165.3916106655697
 20
29.99999999999997
 11
169.8287312678011
 21
34.43712060223131
  0
LINE
  8
0
  6
CONTINUOUS
 62
     7
 10
171.0536679811659
 20
26.70335651330069
 11
171.5197768029069
 21
-0.0000000000000035
  0
ARC
  8
0
  6
CONTINUOUS
 62
     7
 10
169.9354646832806
 20
28.93933982822011
 40
5.500000000000004
 50
322.5967365664446
 51
127.4032634335553
  0
LINE
  8
0
  6
CONTINUOUS
 62
     7
 10
10.00000000000001
 20
49.4393398282203
 11
0.0
 21
49.4393398282203
  0
LINE
  8
0
  6
CONTINUOUS
 62
     7
 10
171.0715321067987
 20
25.67992144122899
 11
175.3380244319742
 21
29.9464137664045
  0
LINE
  8
0
  6
CONTINUOUS
 62
     7
 10
0.0
 20
-12.50000000000612
 11
0.0
 21
-17.50000000000612
  0
LINE
  8
0
  6
CONTINUOUS
 62
     7
 10
157.8916106655697
 20
29.99999999999997
 11
160.8916106655697
 21
32.99999999999997
  0
LINE
  8
0
  6
CONTINUOUS
 62
     7
 10
171.4575333902191
 20
3.565922724649451
 11
173.9961248550604
 21
6.104514189490595
  0
LINE
  8
0
  6
CONTINUOUS
 62
     7
 10
172.8916106655697
 20
0.0
 11
173.9961248550604
 21
1.104514189490591
  0
LINE
  8
0
  6
CONTINUOUS
 62
     7
 10
152.9961248550604
 20
30.10451418949056
 11
155.8916106655698
 21
32.99999999999997
  0
LINE
  8
0
  6
CONTINUOUS
 62
     7
 10
155.3916106655697
 20
29.99999999999997
 11
158.3916106655697
 21
32.99999999999997
  0
LINE
  8
0
  6
CONTINUOUS
 62
     7
 10
0.0
 20
49.4393398282203
 11
4.000000000000004
 21
50.68933982822021
  0
LINE
  8
0
  6
CONTINUOUS
 62
     7
 10
171.2430882327634
 20
15.85147756719363
 11
173.9961248550604
 21
18.6045141894906
  0
LINE
  8
0
  6
CONTINUOUS
 62
     7
 10
169.2264015930981
 20
31.33479092752845
 11
171.9474507522148
 21
34.05584008664508
  0
LINE
  8
0
  6
CONTINUOUS
 62
     7
 10
50.9119663547194
 20
-107.5006607290595
 11
50.9119663547194
 21
-108.0006607290595
  0
LINE
  8
0
  6
CONTINUOUS
 62
     7
 10
50.9119663547194
 20
-107.5006607290595
 11
46.97577428813659
 21
-107.5006607290595
  0
LINE
  8
0
  6
CONTINUOUS
 62
     7
 10
50.9119663547194
 20
-108.0006607290595
 11
46.97577428813659
 21
-108.0006607290595
  0
LINE
  8
0
  6
CONTINUOUS
 62
     7
 10
31.82514453338653
 20
-107.5006607290595
 11
30.14606215570287
 21
-107.5006607290595
  0
LINE
  8
0
  6
CONTINUOUS
 62
     7
 10
17.6840703855996
 20
-107.5006607290595
 11
20.34954037892167
 21
-107.5006607290595
  0
ARC
  8
0
  6
CONTINUOUS
 62
     7
 10
13.34846239002946
 20
-101.9299008629767
 40
6.071368671134114
 50
175.9505897382515
 51
270.3430200494437
  0
LINE
  8
0
  6
CONTINUOUS
 62
     7
 10
-5.261397525438582
 20
-100.0011607290595
 11
-3.000000000000003
 21
-100.0011607290595
  0
ARC
  8
0
  6
CONTINUOUS
 62
     7
 10
11.00204143464978
 20
-101.9986157434106
 40
8.002545246032
 50
257.6116565453856
 51
269.9853839513236
  0
LINE
  8
0
  6
CONTINUOUS
 62
     7
 10
30.14606215570287
 20
-107.5006607290595
 11
30.14606215570287
 21
-108.0006607290595
  0
LINE
  8
0
  6
CONTINUOUS
 62
     7
 10
10.4941838773947
 20
-109.477508781213
 11
50.52365194784647
 21
-109.477508781213
  0
LINE
  8
0
  6
CONTINUOUS
 62
     7
 10
20.34954037892167
 20
-107.5006607290595
 11
20.34954037892167
 21
-108.0006607290595
  0
LINE
  8
0
  6
CONTINUOUS
 62
     7
 10
27.37510939855231
 20
-107.5006607290595
 11
27.37510939855231
 21
-108.0006607290595
  0
LINE
  8
0
  6
CONTINUOUS
 62
     7
 10
17.6840703855996
 20
-107.5006607290595
 11
17.6840703855996
 21
-108.0006607290595
  0
LINE
  8
0
  6
CONTINUOUS
 62
     7
 10
50.52365194784647
 20
-109.477508781213
 11
49.99999999999999
 21
-110.0011607290595
  0
LINE
  8
0
  6
CONTINUOUS
 62
     7
 10
27.37510939855231
 20
-107.5006607290595
 11
23.70770513428871
 21
-107.5006607290595
  0
ARC
  8
0
  6
CONTINUOUS
 62
     7
 10
-13.35010120371882
 20
-101.928364775255
 40
6.072895143691858
 50
269.6725281083517
 51
4.033862103953937
  0
LINE
  8
0
  6
CONTINUOUS
 62
     7
 10
-8.927085877736717
 20
-109.7005036076654
 11
-9.285202397850412
 21
-109.8148292855621
  0
ARC
  8
0
  6
CONTINUOUS
 62
     7
 10
-13.26895893346131
 20
-101.9647559625358
 40
8.008797133547073
 50
290.2713050738912
 51
1.006515753706083
  0
LINE
  8
0
  6
CONTINUOUS
 62
     7
 10
-9.039551708394377
 20
-109.6833334021377
 11
-8.927085877736717
 21
-109.7005036076654
  0
LINE
  8
0
  6
CONTINUOUS
 62
     7
 10
5.261397525438582
 20
-100.0011607290595
 11
3.000000000000003
 21
-100.0011607290595
  0
LINE
  8
0
  6
CONTINUOUS
 62
     7
 10
9.505267346630985
 20
-109.6146845154282
 11
9.039551708394322
 21
-109.6833334021377
  0
ARC
  8
0
  6
CONTINUOUS
 62
     7
 10
-11.00204143465006
 20
-101.9986157434083
 40
8.002545246034387
 50
270.0146160486786
 51
282.3883434546126
  0
LINE
  8
0
  6
CONTINUOUS
 62
     7
 10
11.00000000000001
 20
-110.0011607290595
 11
49.99999999999999
 21
-110.0011607290595
  0
LINE
  8
0
  6
CONTINUOUS
 62
     7
 10
9.039551708394322
 20
-109.6833334021377
 11
8.927085877736662
 21
-109.7005036076654
  0
LINE
  8
0
  6
CONTINUOUS
 62
     7
 10
14.28782066415807
 20
-107.5006607290595
 11
14.28782066415807
 21
-108.0006607290595
  0
ARC
  8
0
  6
CONTINUOUS
 62
     7
 10
-11.00089809499971
 20
-101.9990811782134
 40
8.002079601243938
 50
270.00643046005
 51
0.9845993642397843
  0
LINE
  8
0
  6
CONTINUOUS
 62
     7
 10
-10.4941838773947
 20
-109.477508781213
 11
-9.50526734663093
 21
-109.6146845154282
  0
LINE
  8
0
  6
CONTINUOUS
 62
     7
 10
31.82514453338653
 20
-107.5006607290595
 11
31.82514453338653
 21
-108.0006607290595
  0
LINE
  8
0
  6
CONTINUOUS
 62
     7
 10
23.70770513428871
 20
-107.5006607290595
 11
20.34954037892167
 21
-107.5006607290595
  0
LINE
  8
0
  6
CONTINUOUS
 62
     7
 10
-9.50526734663093
 20
-109.6146845154282
 11
-9.039551708394377
 21
-109.6833334021377
  0
LINE
  8
0
  6
CONTINUOUS
 62
     7
 10
-50.00000000000001
 20
-110.0011607290595
 11
-11.00000000000001
 21
-110.0011607290595
  0
ARC
  8
0
  6
CONTINUOUS
 62
     7
 10
13.26895893346125
 20
-101.9647559625358
 40
8.008797133547073
 50
178.9934842462951
 51
249.7286949261093
  0
LINE
  8
0
  6
CONTINUOUS
 62
     7
 10
-3.000000000000003
 20
-101.8615762034837
 11
-3.000000000000003
 21
-100.0011607290595
  0
LINE
  8
0
  6
CONTINUOUS
 62
     7
 10
-50.52365194784652
 20
-109.477508781213
 11
-10.49418387739471
 21
-109.477508781213
  0
LINE
  8
0
  6
CONTINUOUS
 62
     7
 10
3.000000000000003
 20
-101.861576203484
 11
3.000000000000003
 21
-100.0011607290595
  0
LINE
  8
0
  6
CONTINUOUS
 62
     7
 10
5.261397525438582
 20
-101.8240725482429
 11
5.261397525438582
 21
-100.0011607290595
  0
LINE
  8
0
  6
CONTINUOUS
 62
     7
 10
10.4941838773947
 20
-109.477508781213
 11
9.505267346630985
 21
-109.6146845154282
  0
LINE
  8
0
  6
CONTINUOUS
 62
     7
 10
8.927085877736662
 20
-109.7005036076654
 11
9.285202397850467
 21
-109.8148292855621
  0
LINE
  8
0
  6
CONTINUOUS
 62
     7
 10
30.14606215570287
 20
-107.5006607290595
 11
27.37510939855231
 21
-107.5006607290595
  0
LINE
  8
0
  6
CONTINUOUS
 62
     7
 10
-5.261397525438582
 20
-101.8240725482427
 11
-5.261397525438582
 21
-100.0011607290595
  0
LINE
  8
0
  6
CONTINUOUS
 62
     7
 10
17.6840703855996
 20
-107.5006607290595
 11
14.28782066415807
 21
-107.5006607290595
  0
LINE
  8
0
  6
CONTINUOUS
 62
     7
 10
-50.52365194784652
 20
-109.477508781213
 11
-50.00000000000001
 21
-110.0011607290595
  0
ARC
  8
0
  6
CONTINUOUS
 62
     7
 10
11.00089809499982
 20
-101.9990811782133
 40
8.00207960124405
 50
179.0154006357634
 51
269.9935695399496
  0
LINE
  8
0
  6
CONTINUOUS
 62
     7
 10
-47.06309555110793
 20
17.68147492189653
 11
-46.94362040592004
 21
17.65307617444417
  0
LINE
  8
0
  6
CONTINUOUS
 62
     7
 10
-45.31002923687682
 20
18.06361131623807
 11
-45.22375173290622
 21
18.15028746187164
  0
LINE
  8
0
  6
CONTINUOUS
 62
     7
 10
-45.22375173290622
 20
18.15028746187164
 11
-45.14174874403742
 21
18.2446242303328
  0
LINE
  8
0
  6
CONTINUOUS
 62
     7
 10
-45.14174874403742
 20
18.2446242303328
 11
-45.06402027027034
 21
18.3466216216217
  0
LINE
  8
0
  6
CONTINUOUS
 62
     7
 10
-48.06382911416524
 20
18.47479942946789
 11
-47.97962994876312
 21
18.35379394873404
  0
LINE
  8
0
  6
CONTINUOUS
 62
     7
 10
-44.9854329134115
 20
18.46167451398806
 11
-44.91098841040281
 21
18.58098859649271
  0
LINE
  8
0
  6
CONTINUOUS
 62
     7
 10
-44.84068676124409
 20
18.70456386913571
 11
-44.77452796593539
 21
18.8324003319168
  0
LINE
  8
0
  6
CONTINUOUS
 62
     7
 10
-44.77452796593539
 20
18.8324003319168
 11
-44.71251202447684
 21
18.96449798483618
  0
LINE
  8
0
  6
CONTINUOUS
 62
     7
 10
-45.80553448325592
 20
17.74513993048554
 11
-45.69788440377659
 21
17.79351296198073
  0
LINE
  8
0
  6
CONTINUOUS
 62
     7
 10
-48.14450068158874
 20
18.60506558352998
 11
-48.06382911416524
 21
18.47479942946789
  0
LINE
  8
0
  6
CONTINUOUS
 62
     7
 10
-47.89190318538245
 20
18.24204914132832
 11
-47.80064882402324
 21
18.13956500725083
  0
LINE
  8
0
  6
CONTINUOUS
 62
     7
 10
-46.82061766275353
 20
17.63393810032021
 11
-46.67877146246013
 21
17.62102614919403
  0
LINE
  8
0
  6
CONTINUOUS
 62
     7
 10
-47.50572015207393
 20
17.88767664498703
 11
-47.40035539880022
 21
17.82223520422221
  0
LINE
  8
0
  6
CONTINUOUS
 62
     7
 10
-47.70586686468531
 20
18.04634154650131
 11
-47.60755730736893
 21
17.96237875908013
  0
LINE
  8
0
  6
CONTINUOUS
 62
     7
 10
-48.29526102250012
 20
18.89337991163864
 11
-48.22164465103371
 21
18.74459241092019
  0
LINE
  8
0
  6
CONTINUOUS
 62
     7
 10
-46.4079026071788
 20
17.61818411542476
 11
-46.27887995219071
 21
17.62825403278151
  0
LINE
  8
0
  6
CONTINUOUS
 62
     7
 10
-46.27887995219071
 20
17.62825403278151
 11
-46.15413181230443
 21
17.6459845729659
  0
LINE
  8
0
  6
CONTINUOUS
 62
     7
 10
-46.03365818751981
 20
17.67137573597821
 11
-45.91745907783701
 21
17.70442752181805
  0
LINE
  8
0
  6
CONTINUOUS
 62
     7
 10
-45.69788440377659
 20
17.79351296198073
 11
-45.59450883939903
 21
17.8495466163035
  0
LINE
  8
0
  6
CONTINUOUS
 62
     7
 10
-45.06402027027034
 20
18.3466216216217
 11
-44.9854329134115
 21
18.46167451398806
  0
LINE
  8
0
  6
CONTINUOUS
 62
     7
 10
-45.49540779012323
 20
17.91324089345414
 11
-45.40058125594914
 21
17.9845957934322
  0
LINE
  8
0
  6
CONTINUOUS
 62
     7
 10
-46.94362040592004
 20
17.65307617444417
 11
-46.82061766275353
 21
17.63393810032021
  0
LINE
  8
0
  6
CONTINUOUS
 62
     7
 10
-47.80064882402324
 20
18.13956500725083
 11
-47.70586686468531
 21
18.04634154650131
  0
LINE
  8
0
  6
CONTINUOUS
 62
     7
 10
-44.91098841040281
 20
18.58098859649271
 11
-44.84068676124409
 21
18.70456386913571
  0
LINE
  8
0
  6
CONTINUOUS
 62
     7
 10
-47.60755730736893
 20
17.96237875908013
 11
-47.50572015207393
 21
17.88767664498703
  0
LINE
  8
0
  6
CONTINUOUS
 62
     7
 10
-46.54119977726862
 20
17.6157748208956
 11
-46.4079026071788
 21
17.61818411542476
  0
LINE
  8
0
  6
CONTINUOUS
 62
     7
 10
-48.22164465103371
 20
18.74459241092019
 11
-48.14450068158874
 21
18.60506558352998
  0
LINE
  8
0
  6
CONTINUOUS
 62
     7
 10
-46.67877146246013
 20
17.62102614919403
 11
-46.54119977726862
 21
17.6157748208956
  0
LINE
  8
0
  6
CONTINUOUS
 62
     7
 10
-47.97962994876312
 20
18.35379394873404
 11
-47.89190318538245
 21
18.24204914132832
  0
LINE
  8
0
  6
CONTINUOUS
 62
     7
 10
-46.15413181230443
 20
17.6459845729659
 11
-46.03365818751981
 21
17.67137573597821
  0
LINE
  8
0
  6
CONTINUOUS
 62
     7
 10
-47.40035539880022
 20
17.82223520422221
 11
-47.29146304754806
 21
17.76605443678542
  0
LINE
  8
0
  6
CONTINUOUS
 62
     7
 10
-45.59450883939903
 20
17.8495466163035
 11
-45.49540779012323
 21
17.91324089345414
  0
LINE
  8
0
  6
CONTINUOUS
 62
     7
 10
-45.40058125594914
 20
17.9845957934322
 11
-45.31002923687682
 21
18.06361131623807
  0
LINE
  8
0
  6
CONTINUOUS
 62
     7
 10
-47.29146304754806
 20
17.76605443678542
 11
-47.17904309831733
 21
17.71913434267691
  0
LINE
  8
0
  6
CONTINUOUS
 62
     7
 10
-47.17904309831733
 20
17.71913434267691
 11
-47.06309555110793
 21
17.68147492189653
  0
LINE
  8
0
  6
CONTINUOUS
 62
     7
 10
-45.91745907783701
 20
17.70442752181805
 11
-45.80553448325592
 21
17.74513993048554
  0
LINE
  8
0
  6
CONTINUOUS
 62
     7
 10
-42.57859689787652
 20
23.55273013546572
 11
-42.50827025564552
 21
23.32338540203671
  0
LINE
  8
0
  6
CONTINUOUS
 62
     7
 10
-44.6546389368681
 20
19.10085682789392
 11
-44.60090870310962
 21
19.24147686108985
  0
LINE
  8
0
  6
CONTINUOUS
 62
     7
 10
-44.65267583993182
 20
23.4480422293597
 11
-44.71875000000003
 21
23.60000000000001
  0
LINE
  8
0
  6
CONTINUOUS
 62
     7
 10
-42.27139831817189
 20
21.17643842609673
 11
-42.28564362352982
 21
20.87544051523765
  0
LINE
  8
0
  6
CONTINUOUS
 62
     7
 10
-44.40258023754379
 20
22.62952025694787
 11
-44.44189599829429
 21
22.8010557339916
  0
LINE
  8
0
  6
CONTINUOUS
 62
     7
 10
-42.50827025564552
 20
23.32338540203671
 11
-42.446981469547
 21
23.08701082566866
  0
LINE
  8
0
  6
CONTINUOUS
 62
     7
 10
-42.28564362352982
 20
20.87544051523765
 11
-42.31095482008301
 21
20.58152795502249
  0
LINE
  8
0
  6
CONTINUOUS
 62
     7
 10
-42.74636375073609
 20
23.99033007350743
 11
-42.65796139624
 21
23.77504502595601
  0
LINE
  8
0
  6
CONTINUOUS
 62
     7
 10
-44.36552723140868
 20
20.17468205316841
 11
-44.34079697460042
 21
20.3451304173321
  0
LINE
  8
0
  6
CONTINUOUS
 62
     7
 10
-42.27610538104182
 20
21.79969029974571
 11
-42.26821890400922
 21
21.48452168759934
  0
LINE
  8
0
  6
CONTINUOUS
 62
     7
 10
-44.27721694846953
 20
21.31913676178332
 11
-44.27907095017519
 21
21.51808102779168
  0
LINE
  8
0
  6
CONTINUOUS
 62
     7
 10
-44.46457512493402
 20
19.68890410150703
 11
-44.42741630657559
 21
19.84656889525593
  0
LINE
  8
0
  6
CONTINUOUS
 62
     7
 10
-44.50587679714252
 20
19.53550049789632
 11
-44.46457512493402
 21
19.68890410150703
  0
LINE
  8
0
  6
CONTINUOUS
 62
     7
 10
-44.34079697460042
 20
20.3451304173321
 11
-44.32020957164212
 21
20.51983997163403
  0
LINE
  8
0
  6
CONTINUOUS
 62
     7
 10
-42.35151746574744
 20
22.5931721441161
 11
-42.31734224804639
 21
22.33570803893148
  0
LINE
  8
0
  6
CONTINUOUS
 62
     7
 10
-42.39477488677512
 20
20.0149588865231
 11
-42.4532837569141
 21
19.74230237823899
  0
LINE
  8
0
  6
CONTINUOUS
 62
     7
 10
-44.31674303447353
 20
22.09142057813285
 11
-44.3400037556334
 21
22.27470267901849
  0
LINE
  8
0
  6
CONTINUOUS
 62
     7
 10
-44.28071462662741
 20
21.11627695449425
 11
-44.27721694846953
 21
21.31913676178332
  0
LINE
  8
0
  6
CONTINUOUS
 62
     7
 10
-42.4532837569141
 20
19.74230237823899
 11
-42.52285851824833
 21
19.47673122059862
  0
LINE
  8
0
  6
CONTINUOUS
 62
     7
 10
-44.2988339931773
 20
21.9042229359665
 11
-44.31674303447353
 21
22.09142057813285
  0
LINE
  8
0
  6
CONTINUOUS
 62
     7
 10
-44.53658255938603
 20
23.13238006423695
 11
-44.5919533597271
 21
23.29216891743874
  0
LINE
  8
0
  6
CONTINUOUS
 62
     7
 10
-42.91181647553793
 20
18.48530009647425
 11
-43.03672069284842
 21
18.25515569205227
  0
LINE
  8
0
  6
CONTINUOUS
 62
     7
 10
-43.03672069284842
 20
18.25515569205227
 11
-43.17269080135421
 21
18.0320966382741
  0
LINE
  8
0
  6
CONTINUOUS
 62
     7
 10
-43.17269080135421
 20
18.0320966382741
 11
-43.31972680105533
 21
17.81612293513973
  0
LINE
  8
0
  6
CONTINUOUS
 62
     7
 10
-44.39440034206709
 20
20.00849487914302
 11
-44.36552723140868
 21
20.17468205316841
  0
LINE
  8
0
  6
CONTINUOUS
 62
     7
 10
-42.446981469547
 20
23.08701082566866
 11
-42.39473053958093
 21
22.84360640636179
  0
LINE
  8
0
  6
CONTINUOUS
 62
     7
 10
-42.31095482008301
 20
20.58152795502249
 11
-42.34733190783141
 21
20.29470074545103
  0
LINE
  8
0
  6
CONTINUOUS
 62
     7
 10
-42.7979781494226
 20
18.72252985153971
 11
-42.91181647553793
 21
18.48530009647425
  0
LINE
  8
0
  6
CONTINUOUS
 62
     7
 10
-43.4778286919516
 20
17.6072345826489
 11
-43.63532306909801
 21
17.41866320740631
  0
LINE
  8
0
  6
CONTINUOUS
 62
     7
 10
-44.36861615665683
 20
22.45406923862348
 11
-44.40258023754379
 21
22.62952025694787
  0
LINE
  8
0
  6
CONTINUOUS
 62
     7
 10
-42.65796139624
 20
23.77504502595601
 11
-42.57859689787652
 21
23.55273013546572
  0
LINE
  8
0
  6
CONTINUOUS
 62
     7
 10
-44.5919533597271
 20
23.29216891743874
 11
-44.65267583993182
 21
23.4480422293597
  0
LINE
  8
0
  6
CONTINUOUS
 62
     7
 10
-44.32020957164212
 20
20.51983997163403
 11
-44.3037650225338
 21
20.69881071607416
  0
LINE
  8
0
  6
CONTINUOUS
 62
     7
 10
-42.95028202812573
 20
24.39981063979352
 11
-42.84380396136461
 21
24.19858527811991
  0
LINE
  8
0
  6
CONTINUOUS
 62
     7
 10
-42.31734224804639
 20
22.33570803893148
 11
-42.29220488647789
 21
22.07121409080803
  0
LINE
  8
0
  6
CONTINUOUS
 62
     7
 10
-42.26821890400922
 20
21.48452168759934
 11
-42.27139831817189
 21
21.17643842609673
  0
LINE
  8
0
  6
CONTINUOUS
 62
     7
 10
-42.69520571450263
 20
18.96684495724893
 11
-42.7979781494226
 21
18.72252985153971
  0
LINE
  8
0
  6
CONTINUOUS
 62
     7
 10
-44.71251202447684
 20
18.96449798483618
 11
-44.6546389368681
 21
19.10085682789392
  0
LINE
  8
0
  6
CONTINUOUS
 62
     7
 10
-44.3037650225338
 20
20.69881071607416
 11
-44.28956398464884
 21
20.90950160592448
  0
LINE
  8
0
  6
CONTINUOUS
 62
     7
 10
-44.28956398464884
 20
20.90950160592448
 11
-44.28071462662741
 21
21.11627695449425
  0
LINE
  8
0
  6
CONTINUOUS
 62
     7
 10
-44.27907095017519
 20
21.51808102779168
 11
-44.2862766317445
 21
21.71310975251939
  0
LINE
  8
0
  6
CONTINUOUS
 62
     7
 10
-43.61824020391841
 20
25.3004898040784
 11
-43.46657285649491
 21
25.13441365709912
  0
LINE
  8
0
  6
CONTINUOUS
 62
     7
 10
-44.48656343890844
 20
22.96867566975464
 11
-44.53658255938603
 21
23.13238006423695
  0
LINE
  8
0
  6
CONTINUOUS
 62
     7
 10
-43.46657285649491
 20
25.13441365709912
 11
-43.32394336520384
 21
24.96130766718102
  0
LINE
  8
0
  6
CONTINUOUS
 62
     7
 10
-44.2862766317445
 20
21.71310975251939
 11
-44.2988339931773
 21
21.9042229359665
  0
LINE
  8
0
  6
CONTINUOUS
 62
     7
 10
-44.60090870310962
 20
19.24147686108985
 11
-44.55132132320099
 21
19.3863580844239
  0
LINE
  8
0
  6
CONTINUOUS
 62
     7
 10
-44.55132132320099
 20
19.3863580844239
 11
-44.50587679714252
 21
19.53550049789632
  0
LINE
  8
0
  6
CONTINUOUS
 62
     7
 10
-43.06579795101933
 20
24.59400615852819
 11
-42.95028202812573
 21
24.39981063979352
  0
LINE
  8
0
  6
CONTINUOUS
 62
     7
 10
-44.42741630657559
 20
19.84656889525593
 11
-44.39440034206709
 21
20.00849487914302
  0
LINE
  8
0
  6
CONTINUOUS
 62
     7
 10
-44.3400037556334
 20
22.27470267901849
 11
-44.36861615665683
 21
22.45406923862348
  0
LINE
  8
0
  6
CONTINUOUS
 62
     7
 10
-44.44189599829429
 20
22.8010557339916
 11
-44.48656343890844
 21
22.96867566975464
  0
LINE
  8
0
  6
CONTINUOUS
 62
     7
 10
-43.19035173004531
 20
24.7811718343241
 11
-43.06579795101933
 21
24.59400615852819
  0
LINE
  8
0
  6
CONTINUOUS
 62
     7
 10
-42.84380396136461
 20
24.19858527811991
 11
-42.74636375073609
 21
23.99033007350743
  0
LINE
  8
0
  6
CONTINUOUS
 62
     7
 10
-42.39473053958093
 20
22.84360640636179
 11
-42.35151746574744
 21
22.5931721441161
  0
LINE
  8
0
  6
CONTINUOUS
 62
     7
 10
-42.29220488647789
 20
22.07121409080803
 11
-42.27610538104182
 21
21.79969029974571
  0
LINE
  8
0
  6
CONTINUOUS
 62
     7
 10
-42.34733190783141
 20
20.29470074545103
 11
-42.39477488677512
 21
20.0149588865231
  0
LINE
  8
0
  6
CONTINUOUS
 62
     7
 10
-43.32394336520384
 20
24.96130766718102
 11
-43.19035173004531
 21
24.7811718343241
  0
LINE
  8
0
  6
CONTINUOUS
 62
     7
 10
-42.52285851824833
 20
19.47673122059862
 11
-42.60349917077782
 21
19.21824541360201
  0
LINE
  8
0
  6
CONTINUOUS
 62
     7
 10
-42.60349917077782
 20
19.21824541360201
 11
-42.69520571450263
 21
18.96684495724893
  0
LINE
  8
0
  6
CONTINUOUS
 62
     7
 10
-43.31972680105533
 20
17.81612293513973
 11
-43.4778286919516
 21
17.6072345826489
  0
LINE
  8
0
  6
CONTINUOUS
 62
     7
 10
-49.6210237135185
 20
17.50513989557389
 11
-49.75103421757604
 21
17.67957840234202
  0
LINE
  8
0
  6
CONTINUOUS
 62
     7
 10
-50.28156024957381
 20
18.65569290384311
 11
-50.36376015831554
 21
18.87170019767531
  0
LINE
  8
0
  6
CONTINUOUS
 62
     7
 10
-50.09325513443263
 20
18.24446270971059
 11
-50.19139190827951
 21
18.44661374118811
  0
LINE
  8
0
  6
CONTINUOUS
 62
     7
 10
-45.68181741824701
 20
16.14732716141559
 11
-45.89641292276391
 21
16.10474652829635
  0
LINE
  8
0
  6
CONTINUOUS
 62
     7
 10
-45.06658146838144
 20
16.34806443183506
 11
-45.26690169105574
 21
16.268986113185
  0
LINE
  8
0
  6
CONTINUOUS
 62
     7
 10
-48.3767885817562
 20
16.45741402780715
 11
-48.55089639722981
 21
16.55298028124341
  0
LINE
  8
0
  6
CONTINUOUS
 62
     7
 10
-48.71964714064814
 20
16.6586061403044
 11
-48.883040812011
 21
16.7742916049905
  0
LINE
  8
0
  6
CONTINUOUS
 62
     7
 10
-50.43799163450452
 20
19.09463562268487
 11
-50.50425467814082
 21
19.32449917887191
  0
LINE
  8
0
  6
CONTINUOUS
 62
     7
 10
-44.8710196729879
 20
16.43930864566218
 11
-45.06658146838144
 21
16.34806443183506
  0
LINE
  8
0
  6
CONTINUOUS
 62
     7
 10
-47.62678659930752
 20
16.17574507031094
 11
-47.8223227030028
 21
16.23107290124759
  0
LINE
  8
0
  6
CONTINUOUS
 62
     7
 10
-48.883040812011
 20
16.7742916049905
 11
-49.04107741131841
 21
16.90003667530132
  0
LINE
  8
0
  6
CONTINUOUS
 62
     7
 10
-50.50425467814082
 20
19.32449917887191
 11
-50.5625492892246
 21
19.5612908662362
  0
LINE
  8
0
  6
CONTINUOUS
 62
     7
 10
-50.5625492892246
 20
19.5612908662362
 11
-50.61287546775561
 21
19.80501068477802
  0
LINE
  8
0
  6
CONTINUOUS
 62
     7
 10
-50.68962252715991
 20
20.31323471539342
 11
-50.71604340803301
 21
20.57773892746712
  0
LINE
  8
0
  6
CONTINUOUS
 62
     7
 10
-50.74594688129172
 20
21.16436897266388
 11
-50.74673642019473
 21
21.47225489618087
  0
LINE
  8
0
  6
CONTINUOUS
 62
     7
 10
-49.48304477690843
 20
17.33762951998296
 11
-49.6210237135185
 21
17.50513989557389
  0
LINE
  8
0
  6
CONTINUOUS
 62
     7
 10
-46.1157668545617
 20
16.07433179035394
 11
-46.33987921364041
 21
16.05608294758854
  0
LINE
  8
0
  6
CONTINUOUS
 62
     7
 10
-46.79107146397232
 20
16.05502980281243
 11
-47.00803585588925
 21
16.07011921124973
  0
LINE
  8
0
  6
CONTINUOUS
 62
     7
 10
-47.42589342355679
 20
16.13047684499891
 11
-47.62678659930752
 21
16.17574507031094
  0
LINE
  8
0
  6
CONTINUOUS
 62
     7
 10
-48.55089639722981
 20
16.55298028124341
 11
-48.71964714064814
 21
16.6586061403044
  0
LINE
  8
0
  6
CONTINUOUS
 62
     7
 10
-50.19139190827951
 20
18.44661374118811
 11
-50.28156024957381
 21
18.65569290384311
  0
LINE
  8
0
  6
CONTINUOUS
 62
     7
 10
-50.61287546775561
 20
19.80501068477802
 11
-50.65523321373414
 21
20.05565863449704
  0
LINE
  8
0
  6
CONTINUOUS
 62
     7
 10
-48.19732369422711
 20
16.37190737999572
 11
-48.3767885817562
 21
16.45741402780715
  0
LINE
  8
0
  6
CONTINUOUS
 62
     7
 10
-50.73449585635362
 20
20.84917127071823
 11
-50.74594688129172
 21
21.16436897266388
  0
LINE
  8
0
  6
CONTINUOUS
 62
     7
 10
-43.7975758735254
 20
17.24225772734061
 11
-43.96458710523371
 21
17.0780181424518
  0
LINE
  8
0
  6
CONTINUOUS
 62
     7
 10
-48.01250173464261
 20
16.29646033780918
 11
-48.19732369422711
 21
16.37190737999572
  0
LINE
  8
0
  6
CONTINUOUS
 62
     7
 10
-50.74673642019473
 20
21.47225489618087
 11
-50.73686447306233
 21
21.77282904126892
  0
LINE
  8
0
  6
CONTINUOUS
 62
     7
 10
-50.73686447306233
 20
21.77282904126892
 11
-50.71633103989473
 21
22.0660914079282
  0
LINE
  8
0
  6
CONTINUOUS
 62
     7
 10
-50.71633103989473
 20
22.0660914079282
 11
-50.68513612069192
 21
22.35204199615848
  0
LINE
  8
0
  6
CONTINUOUS
 62
     7
 10
-50.36376015831554
 20
18.87170019767531
 11
-50.43799163450452
 21
19.09463562268487
  0
LINE
  8
0
  6
CONTINUOUS
 62
     7
 10
-50.64327971545371
 20
22.63068080596003
 11
-50.5907618241804
 21
22.90200783733259
  0
LINE
  8
0
  6
CONTINUOUS
 62
     7
 10
-50.65523321373414
 20
20.05565863449704
 11
-50.68962252715991
 21
20.31323471539342
  0
LINE
  8
0
  6
CONTINUOUS
 62
     7
 10
-50.5907618241804
 20
22.90200783733259
 11
-50.52758244687172
 21
23.16602309027643
  0
LINE
  8
0
  6
CONTINUOUS
 62
     7
 10
-50.52758244687172
 20
23.16602309027643
 11
-50.45374158352783
 21
23.42272656479133
  0
LINE
  8
0
  6
CONTINUOUS
 62
     7
 10
-50.45374158352783
 20
23.42272656479133
 11
-50.36923923414871
 21
23.67211826087728
  0
LINE
  8
0
  6
CONTINUOUS
 62
     7
 10
-50.36923923414871
 20
23.67211826087728
 11
-50.2740753987343
 21
23.91419817853452
  0
LINE
  8
0
  6
CONTINUOUS
 62
     7
 10
-47.8223227030028
 20
16.23107290124759
 11
-48.01250173464261
 21
16.29646033780918
  0
LINE
  8
0
  6
CONTINUOUS
 62
     7
 10
-50.68513612069192
 20
22.35204199615848
 11
-50.64327971545371
 21
22.63068080596003
  0
LINE
  8
0
  6
CONTINUOUS
 62
     7
 10
-50.2740753987343
 20
23.91419817853452
 11
-50.16825007728462
 21
24.14896631776281
  0
LINE
  8
0
  6
CONTINUOUS
 62
     7
 10
-49.98714992803302
 20
18.04923980941042
 11
-50.09325513443263
 21
18.24446270971059
  0
LINE
  8
0
  6
CONTINUOUS
 62
     7
 10
-50.71604340803301
 20
20.57773892746712
 11
-50.73449585635362
 21
20.84917127071823
  0
LINE
  8
0
  6
CONTINUOUS
 62
     7
 10
-50.16825007728462
 20
24.14896631776281
 11
-50.05176326979971
 21
24.37642267856232
  0
LINE
  8
0
  6
CONTINUOUS
 62
     7
 10
-49.75103421757604
 20
17.67957840234202
 11
-49.8730762890808
 21
17.86094504028751
  0
LINE
  8
0
  6
CONTINUOUS
 62
     7
 10
-46.33987921364041
 20
16.05608294758854
 11
-46.56874999999999
 21
16.05000000000001
  0
LINE
  8
0
  6
CONTINUOUS
 62
     7
 10
-43.63532306909801
 20
17.41866320740631
 11
-43.7975758735254
 21
17.24225772734061
  0
LINE
  8
0
  6
CONTINUOUS
 62
     7
 10
-45.26690169105574
 20
16.268986113185
 11
-45.47198034101091
 21
16.20207368971183
  0
LINE
  8
0
  6
CONTINUOUS
 62
     7
 10
-46.56874999999999
 20
16.05000000000001
 11
-46.79107146397232
 21
16.05502980281243
  0
LINE
  8
0
  6
CONTINUOUS
 62
     7
 10
-47.00803585588925
 20
16.07011921124973
 11
-47.21964317575073
 21
16.09526822531193
  0
LINE
  8
0
  6
CONTINUOUS
 62
     7
 10
-43.96458710523371
 20
17.0780181424518
 11
-44.13635676422273
 21
16.92594445273998
  0
LINE
  8
0
  6
CONTINUOUS
 62
     7
 10
-49.8730762890808
 20
17.86094504028751
 11
-49.98714992803302
 21
18.04923980941042
  0
LINE
  8
0
  6
CONTINUOUS
 62
     7
 10
-44.68021630487534
 20
16.54271875466634
 11
-44.8710196729879
 21
16.43930864566218
  0
LINE
  8
0
  6
CONTINUOUS
 62
     7
 10
-45.89641292276391
 20
16.10474652829635
 11
-46.1157668545617
 21
16.07433179035394
  0
LINE
  8
0
  6
CONTINUOUS
 62
     7
 10
-47.21964317575073
 20
16.09526822531193
 11
-47.42589342355679
 21
16.13047684499891
  0
LINE
  8
0
  6
CONTINUOUS
 62
     7
 10
-44.31288485049273
 20
16.78603665820516
 11
-44.49417136404365
 21
16.65829475884717
  0
LINE
  8
0
  6
CONTINUOUS
 62
     7
 10
-44.49417136404365
 20
16.65829475884717
 11
-44.68021630487534
 21
16.54271875466634
  0
LINE
  8
0
  6
CONTINUOUS
 62
     7
 10
-44.13635676422273
 20
16.92594445273998
 11
-44.31288485049273
 21
16.78603665820516
  0
LINE
  8
0
  6
CONTINUOUS
 62
     7
 10
-49.04107741131841
 20
16.90003667530132
 11
-49.1937569385705
 21
17.03584135123698
  0
LINE
  8
0
  6
CONTINUOUS
 62
     7
 10
-45.47198034101091
 20
16.20207368971183
 11
-45.68181741824701
 21
16.14732716141559
  0
LINE
  8
0
  6
CONTINUOUS
 62
     7
 10
-49.1937569385705
 20
17.03584135123698
 11
-49.34107939376711
 21
17.18170563279758
  0
LINE
  8
0
  6
CONTINUOUS
 62
     7
 10
-49.34107939376711
 20
17.18170563279758
 11
-49.48304477690843
 21
17.33762951998296
  0
LINE
  8
0
  6
CONTINUOUS
 62
     7
 10
-25.36393261964731
 20
17.75275503778339
 11
-25.47700847174123
 21
17.72770559469461
  0
LINE
  8
0
  6
CONTINUOUS
 62
     7
 10
-49.17406126703732
 20
25.53660806357599
 11
-49.00789096126251
 21
25.68651811334288
  0
LINE
  8
0
  6
CONTINUOUS
 62
     7
 10
-48.09144379931851
 20
26.25617630245702
 11
-47.89103524031562
 21
26.33412952833569
  0
LINE
  8
0
  6
CONTINUOUS
 62
     7
 10
-45.93181801498153
 20
26.50607190717458
 11
-45.72809313774495
 21
26.47190561275492
  0
LINE
  8
0
  6
CONTINUOUS
 62
     7
 10
-49.92461497627951
 20
24.5965672609329
 11
-49.7868051967241
 21
24.80940006487464
  0
LINE
  8
0
  6
CONTINUOUS
 62
     7
 10
-47.2555713100789
 20
26.49603238208387
 11
-47.03233724892392
 21
26.52601439203733
  0
LINE
  8
0
  6
CONTINUOUS
 62
     7
 10
-26.75
 20
19.15
 11
-24.24999999999999
 21
19.15
  0
LINE
  8
0
  6
CONTINUOUS
 62
     7
 10
-25.47700847174123
 20
17.72770559469461
 11
-25.58426971819905
 21
17.70117974653651
  0
LINE
  8
0
  6
CONTINUOUS
 62
     7
 10
-25.58426971819905
 20
17.70117974653651
 11
-25.68571635902084
 21
17.67317749330921
  0
LINE
  8
0
  6
CONTINUOUS
 62
     7
 10
-25.78134839420665
 20
17.64369883501249
 11
-25.87116582375631
 21
17.61274377164668
  0
LINE
  8
0
  6
CONTINUOUS
 62
     7
 10
-26.03335686594782
 20
17.54640442970723
 11
-26.10573047858938
 21
17.51102015113354
  0
LINE
  8
0
  6
CONTINUOUS
 62
     7
 10
-44.42221997919582
 20
25.95941119645889
 11
-44.2528382397041
 21
25.84715051479408
  0
LINE
  8
0
  6
CONTINUOUS
 62
     7
 10
-24.7113342746379
 20
17.85585617718832
 11
-24.85348315491181
 21
17.83818875944582
  0
LINE
  8
0
  6
CONTINUOUS
 62
     7
 10
-24.40959269718201
 20
17.88676179746534
 11
-24.56337078872789
 21
17.87204718986141
  0
LINE
  8
0
  6
CONTINUOUS
 62
     7
 10
-24.24999999999999
 20
17.90000000000003
 11
-24.40959269718201
 21
17.88676179746534
  0
LINE
  8
0
  6
CONTINUOUS
 62
     7
 10
-25.87116582375631
 20
17.61274377164668
 11
-25.95516864767
 21
17.58031230321155
  0
LINE
  8
0
  6
CONTINUOUS
 62
     7
 10
-26.19077874094783
 20
17.46339661720725
 11
-26.27235614767004
 21
17.4107810532117
  0
LINE
  8
0
  6
CONTINUOUS
 62
     7
 10
-25.24504216191753
 20
17.77632807580293
 11
-25.36393261964731
 21
17.75275503778339
  0
LINE
  8
0
  6
CONTINUOUS
 62
     7
 10
-47.89103524031562
 20
26.33412952833569
 11
-47.68492030577476
 21
26.40008995023307
  0
LINE
  8
0
  6
CONTINUOUS
 62
     7
 10
-45.14267585934384
 20
26.3108359390618
 11
-44.95612255097958
 21
26.23762245101957
  0
LINE
  8
0
  6
CONTINUOUS
 62
     7
 10
-44.59589461090562
 20
26.06191007971809
 11
-44.42221997919582
 21
25.95941119645889
  0
LINE
  8
0
  6
CONTINUOUS
 62
     7
 10
-48.4751417907101
 20
26.06429143875544
 11
-48.28614598278333
 21
26.1662302725969
  0
LINE
  8
0
  6
CONTINUOUS
 62
     7
 10
-49.4892827519727
 20
25.20080955209836
 11
-49.33452519727402
 21
25.37470520982793
  0
LINE
  8
0
  6
CONTINUOUS
 62
     7
 10
-46.56874999999999
 20
26.55000000000002
 11
-46.35214644610902
 21
26.54511910079721
  0
LINE
  8
0
  6
CONTINUOUS
 62
     7
 10
-43.7704503745377
 20
25.45179767936567
 11
-43.61824020391841
 21
25.3004898040784
  0
LINE
  8
0
  6
CONTINUOUS
 62
     7
 10
-25.95516864767
 20
17.58031230321155
 11
-26.03335686594782
 21
17.54640442970723
  0
LINE
  8
0
  6
CONTINUOUS
 62
     7
 10
-43.92695343737513
 20
25.5933437562475
 11
-43.7704503745377
 21
25.45179767936567
  0
LINE
  8
0
  6
CONTINUOUS
 62
     7
 10
-26.27235614767004
 20
17.4107810532117
 11
-26.35046269875629
 21
17.35317345914672
  0
LINE
  8
0
  6
CONTINUOUS
 62
     7
 10
-26.35046269875629
 20
17.35317345914672
 11
-26.42509839420654
 21
17.29057383501264
  0
LINE
  8
0
  6
CONTINUOUS
 62
     7
 10
-26.10573047858938
 20
17.51102015113354
 11
-26.19077874094783
 21
17.46339661720725
  0
LINE
  8
0
  6
CONTINUOUS
 62
     7
 10
-26.42509839420654
 20
17.29057383501264
 11
-26.49626323402082
 21
17.22298218080925
  0
LINE
  8
0
  6
CONTINUOUS
 62
     7
 10
-50.05176326979971
 20
24.37642267856232
 11
-49.92461497627951
 21
24.5965672609329
  0
LINE
  8
0
  6
CONTINUOUS
 62
     7
 10
-47.47309899569585
 20
26.45405756814917
 11
-47.2555713100789
 21
26.49603238208387
  0
LINE
  8
0
  6
CONTINUOUS
 62
     7
 10
-49.33452519727402
 20
25.37470520982793
 11
-49.17406126703732
 21
25.53660806357599
  0
LINE
  8
0
  6
CONTINUOUS
 62
     7
 10
-46.35214644610902
 20
26.54511910079721
 11
-46.1398357844362
 21
26.53047640318873
  0
LINE
  8
0
  6
CONTINUOUS
 62
     7
 10
-46.1398357844362
 20
26.53047640318873
 11
-45.93181801498153
 21
26.50607190717458
  0
LINE
  8
0
  6
CONTINUOUS
 62
     7
 10
-26.49626323402082
 20
17.22298218080925
 11
-26.56395721819904
 21
17.1503984965366
  0
LINE
  8
0
  6
CONTINUOUS
 62
     7
 10
-26.56395721819904
 20
17.1503984965366
 11
-26.62818034674119
 21
17.07282278219463
  0
LINE
  8
0
  6
CONTINUOUS
 62
     7
 10
-44.2528382397041
 20
25.84715051479408
 11
-44.08774939243054
 21
25.72512803472371
  0
LINE
  8
0
  6
CONTINUOUS
 62
     7
 10
-26.75
 20
26.45000000000003
 11
-26.75
 21
19.15
  0
LINE
  8
0
  6
CONTINUOUS
 62
     7
 10
-26.62818034674119
 20
17.07282278219463
 11
-26.68893261964739
 21
16.9902550377834
  0
LINE
  8
0
  6
CONTINUOUS
 62
     7
 10
-49.00789096126251
 20
25.68651811334288
 11
-48.83601427994982
 21
25.82443535912837
  0
LINE
  8
0
  6
CONTINUOUS
 62
     7
 10
-45.72809313774495
 20
26.47190561275492
 11
-45.52866115272641
 21
26.42797751992964
  0
LINE
  8
0
  6
CONTINUOUS
 62
     7
 10
-25.68571635902084
 20
17.67317749330921
 11
-25.78134839420665
 21
17.64369883501249
  0
LINE
  8
0
  6
CONTINUOUS
 62
     7
 10
-49.6383339311334
 20
25.01492109038739
 11
-49.4892827519727
 21
25.20080955209836
  0
LINE
  8
0
  6
CONTINUOUS
 62
     7
 10
-48.83601427994982
 20
25.82443535912837
 11
-48.65843122309902
 21
25.95035980093252
  0
LINE
  8
0
  6
CONTINUOUS
 62
     7
 10
-48.65843122309902
 20
25.95035980093252
 11
-48.4751417907101
 21
26.06429143875544
  0
LINE
  8
0
  6
CONTINUOUS
 62
     7
 10
-46.80339681223089
 20
26.54400359800935
 11
-46.56874999999999
 21
26.55000000000002
  0
LINE
  8
0
  6
CONTINUOUS
 62
     7
 10
-45.52866115272641
 20
26.42797751992964
 11
-45.33352205992603
 21
26.37428762869853
  0
LINE
  8
0
  6
CONTINUOUS
 62
     7
 10
-45.33352205992603
 20
26.37428762869853
 11
-45.14267585934384
 21
26.3108359390618
  0
LINE
  8
0
  6
CONTINUOUS
 62
     7
 10
-48.28614598278333
 20
26.1662302725969
 11
-48.09144379931851
 21
26.25617630245702
  0
LINE
  8
0
  6
CONTINUOUS
 62
     7
 10
-49.7868051967241
 20
24.80940006487464
 11
-49.6383339311334
 21
25.01492109038739
  0
LINE
  8
0
  6
CONTINUOUS
 62
     7
 10
-47.68492030577476
 20
26.40008995023307
 11
-47.47309899569585
 21
26.45405756814917
  0
LINE
  8
0
  6
CONTINUOUS
 62
     7
 10
-47.03233724892392
 20
26.52601439203733
 11
-46.80339681223089
 21
26.54400359800935
  0
LINE
  8
0
  6
CONTINUOUS
 62
     7
 10
-44.95612255097958
 20
26.23762245101957
 11
-44.77386213483359
 21
26.15464716457172
  0
LINE
  8
0
  6
CONTINUOUS
 62
     7
 10
-44.77386213483359
 20
26.15464716457172
 11
-44.59589461090562
 21
26.06191007971809
  0
LINE
  8
0
  6
CONTINUOUS
 62
     7
 10
-28.75
 20
26.45000000000003
 11
-26.75
 21
26.45000000000003
  0
LINE
  8
0
  6
CONTINUOUS
 62
     7
 10
-28.75
 20
16.15
 11
-28.75
 21
26.45000000000003
  0
LINE
  8
0
  6
CONTINUOUS
 62
     7
 10
-44.08774939243054
 20
25.72512803472371
 11
-43.92695343737513
 21
25.5933437562475
  0
LINE
  8
0
  6
CONTINUOUS
 62
     7
 10
-27.05000000000002
 20
16.15
 11
-28.75
 21
16.15
  0
LINE
  8
0
  6
CONTINUOUS
 62
     7
 10
-24.56337078872789
 20
17.87204718986141
 11
-24.7113342746379
 21
17.85585617718832
  0
LINE
  8
0
  6
CONTINUOUS
 62
     7
 10
-24.85348315491181
 20
17.83818875944582
 11
-24.9898174295497
 21
17.81904493663405
  0
LINE
  8
0
  6
CONTINUOUS
 62
     7
 10
-24.9898174295497
 20
17.81904493663405
 11
-25.1203370985516
 21
17.79842470875315
  0
LINE
  8
0
  6
CONTINUOUS
 62
     7
 10
-25.1203370985516
 20
17.79842470875315
 11
-25.24504216191753
 21
17.77632807580293
  0
LINE
  8
0
  6
CONTINUOUS
 62
     7
 10
-52.9711779206048
 20
32.34932370856613
 11
-53.00000000000002
 21
32.11685992638002
  0
LINE
  8
0
  6
CONTINUOUS
 62
     7
 10
-52.33335534952943
 20
33.10761420291769
 11
-52.56066017177982
 21
32.9594271796671
  0
LINE
  8
0
  6
CONTINUOUS
 62
     7
 10
52.88581929876701
 20
32.57285403796989
 11
52.74720441845376
 21
32.77886076938979
  0
LINE
  8
0
  6
CONTINUOUS
 62
     7
 10
-3.000000000000003
 20
26.70335651330069
 11
3.000000000000003
 21
26.70335651330069
  0
LINE
  8
0
  6
CONTINUOUS
 62
     7
 10
13.38481042052453
 20
0.0
 11
51.49999999999999
 21
0.0
  0
LINE
  8
0
  6
CONTINUOUS
 62
     7
 10
11.00000000000001
 20
32.99999999999997
 11
51.49999999999998
 21
32.99999999999997
  0
ARC
  8
0
  6
CONTINUOUS
 62
     7
 10
-51.50000000000001
 20
31.49999999999997
 40
1.500000000000001
 50
90.0
 51
180.0
  0
LINE
  8
0
  6
CONTINUOUS
 62
     7
 10
-26.74621403691751
 20
16.9026952633029
 11
-26.80002459855157
 21
16.8101434587532
  0
LINE
  8
0
  6
CONTINUOUS
 62
     7
 10
-26.94063114963791
 20
16.5025358646883
 11
-26.98055828872792
 21
16.3900159398615
  0
LINE
  8
0
  6
CONTINUOUS
 62
     7
 10
-26.68893261964739
 20
16.9902550377834
 11
-26.74621403691751
 21
16.9026952633029
  0
LINE
  8
0
  6
CONTINUOUS
 62
     7
 10
-27.01701457218197
 20
16.27250398496544
 11
-27.05000000000002
 21
16.15
  0
LINE
  8
0
  6
CONTINUOUS
 62
     7
 10
51.49999999999999
 20
32.99999999999997
 11
51.49999999999999
 21
31.49999999999997
  0
LINE
  8
0
  6
CONTINUOUS
 62
     7
 10
-53.00000000000002
 20
31.49999999999997
 11
-51.50000000000001
 21
31.49999999999997
  0
LINE
  8
0
  6
CONTINUOUS
 62
     7
 10
-26.89723315491182
 20
16.61006375944579
 11
-26.94063114963791
 21
16.5025358646883
  0
LINE
  8
0
  6
CONTINUOUS
 62
     7
 10
51.49999999999999
 20
31.49999999999997
 11
52.99999999999999
 21
31.49999999999997
  0
LINE
  8
0
  6
CONTINUOUS
 62
     7
 10
-53.00000000000002
 20
0.0
 11
-53.00000000000002
 21
31.49999999999997
  0
LINE
  8
0
  6
CONTINUOUS
 62
     7
 10
52.99999999999999
 20
31.49999999999997
 11
52.99999999999999
 21
-0.0000000000000555
  0
LINE
  8
0
  6
CONTINUOUS
 62
     7
 10
-51.50000000000001
 20
33.30842996319
 11
51.49999999999999
 21
33.30842996319
  0
LINE
  8
0
  6
CONTINUOUS
 62
     7
 10
-52.88581929876693
 20
32.57285403796978
 11
-52.9711779206048
 21
32.34932370856613
  0
ARC
  8
0
  6
CONTINUOUS
 62
     7
 10
51.49999999999999
 20
32.93933982822011
 40
1.500000000000001
 50
0.0
 51
90.0
  0
ARC
  8
0
  6
CONTINUOUS
 62
     7
 10
51.49999999999999
 20
31.49999999999997
 40
1.500000000000001
 50
0.0
 51
90.0
  0
LINE
  8
0
  6
CONTINUOUS
 62
     7
 10
51.49999999999999
 20
31.49999999999997
 11
11.00000000000002
 21
31.49999999999997
  0
LINE
  8
0
  6
CONTINUOUS
 62
     7
 10
-51.50000000000001
 20
33.30842996319
 11
-51.79263548302421
 21
33.28553427905284
  0
LINE
  8
0
  6
CONTINUOUS
 62
     7
 10
51.49999999999999
 20
33.30842996319
 11
51.49999999999999
 21
32.99999999999997
  0
LINE
  8
0
  6
CONTINUOUS
 62
     7
 10
52.99999999999999
 20
32.11685992638002
 11
52.99999999999999
 21
31.49999999999997
  0
LINE
  8
0
  6
CONTINUOUS
 62
     7
 10
51.49999999999999
 20
34.43933982822011
 11
-51.50000000000001
 21
34.43933982822011
  0
ARC
  8
0
  6
CONTINUOUS
 62
     7
 10
-51.50000000000001
 20
32.93933982822011
 40
1.500000000000001
 50
90.0
 51
180.0
  0
LINE
  8
0
  6
CONTINUOUS
 62
     7
 10
-51.50000000000001
 20
32.99999999999997
 11
-11.00000000000001
 21
32.99999999999997
  0
LINE
  8
0
  6
CONTINUOUS
 62
     7
 10
52.9711779206049
 20
32.34932370856613
 11
52.88581929876701
 21
32.57285403796989
  0
LINE
  8
0
  6
CONTINUOUS
 62
     7
 10
-51.50000000000001
 20
0.0
 11
-53.00000000000002
 21
0.0
  0
LINE
  8
0
  6
CONTINUOUS
 62
     7
 10
52.74720441845376
 20
32.77886076938979
 11
52.5606601717799
 21
32.9594271796671
  0
LINE
  8
0
  6
CONTINUOUS
 62
     7
 10
-26.80002459855157
 20
16.8101434587532
 11
-26.85036430454968
 21
16.71259962413407
  0
LINE
  8
0
  6
CONTINUOUS
 62
     7
 10
-26.85036430454968
 20
16.71259962413407
 11
-26.89723315491182
 21
16.61006375944579
  0
LINE
  8
0
  6
CONTINUOUS
 62
     7
 10
-11.00000000000001
 20
31.49999999999997
 11
-51.50000000000001
 21
31.49999999999997
  0
LINE
  8
0
  6
CONTINUOUS
 62
     7
 10
-51.50000000000001
 20
31.49999999999997
 11
-51.50000000000001
 21
32.99999999999997
  0
LINE
  8
0
  6
CONTINUOUS
 62
     7
 10
-51.50000000000001
 20
32.99999999999997
 11
-51.50000000000001
 21
33.30842996319
  0
LINE
  8
0
  6
CONTINUOUS
 62
     7
 10
52.0740251485477
 20
33.21772709494248
 11
51.79263548302421
 21
33.28553427905284
  0
LINE
  8
0
  6
CONTINUOUS
 62
     7
 10
-52.07402514854761
 20
33.21772709494248
 11
-52.33335534952943
 21
33.10761420291769
  0
LINE
  8
0
  6
CONTINUOUS
 62
     7
 10
-51.50000000000001
 20
31.49999999999997
 11
-51.50000000000001
 21
0.0
  0
LINE
  8
0
  6
CONTINUOUS
 62
     7
 10
52.99999999999999
 20
0.0
 11
51.49999999999999
 21
0.0
  0
LINE
  8
0
  6
CONTINUOUS
 62
     7
 10
-51.79263548302421
 20
33.28553427905284
 11
-52.07402514854761
 21
33.21772709494248
  0
LINE
  8
0
  6
CONTINUOUS
 62
     7
 10
-53.00000000000002
 20
31.49999999999997
 11
-53.00000000000002
 21
32.11685992638002
  0
LINE
  8
0
  6
CONTINUOUS
 62
     7
 10
-52.56066017177982
 20
32.9594271796671
 11
-52.74720441845382
 21
32.77886076938979
  0
LINE
  8
0
  6
CONTINUOUS
 62
     7
 10
52.99999999999999
 20
32.11685992638002
 11
52.9711779206049
 21
32.34932370856613
  0
LINE
  8
0
  6
CONTINUOUS
 62
     7
 10
-51.50000000000001
 20
0.0
 11
-13.38481042052447
 21
0.0
  0
LINE
  8
0
  6
CONTINUOUS
 62
     7
 10
-52.74720441845382
 20
32.77886076938979
 11
-52.88581929876693
 21
32.57285403796978
  0
LINE
  8
0
  6
CONTINUOUS
 62
     7
 10
52.99999999999999
 20
32.93933982822011
 11
52.99999999999999
 21
32.11685992638002
  0
LINE
  8
0
  6
CONTINUOUS
 62
     7
 10
52.5606601717799
 20
32.9594271796671
 11
52.33335534952948
 21
33.10761420291769
  0
LINE
  8
0
  6
CONTINUOUS
 62
     7
 10
52.33335534952948
 20
33.10761420291769
 11
52.0740251485477
 21
33.21772709494248
  0
LINE
  8
0
  6
CONTINUOUS
 62
     7
 10
51.49999999999999
 20
33.30842996319
 11
51.49999999999999
 21
34.43933982822023
  0
LINE
  8
0
  6
CONTINUOUS
 62
     7
 10
-26.98055828872792
 20
16.3900159398615
 11
-27.01701457218197
 21
16.27250398496544
  0
LINE
  8
0
  6
CONTINUOUS
 62
     7
 10
-51.50000000000001
 20
34.43933982822011
 11
-51.50000000000001
 21
33.30842996319
  0
LINE
  8
0
  6
CONTINUOUS
 62
     7
 10
51.79263548302421
 20
33.28553427905284
 11
51.49999999999999
 21
33.30842996319
  0
LINE
  8
0
  6
CONTINUOUS
 62
     7
 10
-53.00000000000002
 20
32.11685992638002
 11
-53.00000000000002
 21
32.93933982822011
  0
LINE
  8
0
  6
CONTINUOUS
 62
     7
 10
51.49999999999999
 20
0.0
 11
51.49999999999999
 21
31.49999999999997
  0
LINE
  8
0
  6
CONTINUOUS
 62
     7
 10
5.256397525438549
 20
0.0
 11
-5.256397525438494
 21
0.0
  0
LINE
  8
0
  6
CONTINUOUS
 62
     7
 10
-24.24999999999999
 20
19.15
 11
-24.24999999999999
 21
17.90000000000003
  0
ENDSEC
  0
EOF
