  0
SECTION
  2
HEADER
  9
$ACADVER
  1
AC1004
  9
$INSBASE
 10
0.0
 20
0.0
  9
$EXTMIN
 10
-52.99999999999991
 20
-119.9535154646753
  9
$EXTMAX
 10
171.7272077938643
 20
55.97266233931872
  9
$LIMMIN
 10
0.0
 20
0.0
  9
$LIMMAX
 10
12.0
 20
9.0
  9
$ORTHOMODE
 70
     0
  9
$REGENMODE
 70
     1
  9
$FILLMODE
 70
     1
  9
$QTEXTMODE
 70
     0
  9
$DRAGMODE
 70
     2
  9
$LTSCALE
 40
1.0
  9
$OSMODE
 70
    37
  9
$ATTMODE
 70
     1
  9
$TEXTSIZE
 40
0.2
  9
$TRACEWID
 40
0.05
  9
$TEXTSTYLE
  7
STANDARD
  9
$CLAYER
  8
0
  9
$CELTYPE
  6
BYLAYER
  9
$CECOLOR
 62
   256
  9
$DIMSCALE
 40
1.0
  9
$DIMASZ
 40
2.5
  9
$DIMEXO
 40
0.0625
  9
$DIMDLI
 40
0.38
  9
$DIMRND
 40
0.0
  9
$DIMDLE
 40
0.0
  9
$DIMEXE
 40
1.25
  9
$DIMTP
 40
0.0
  9
$DIMTM
 40
0.0
  9
$DIMTXT
 40
4.0
  9
$DIMCEN
 40
0.09
  9
$DIMTSZ
 40
0.0
  9
$DIMTOL
 70
     0
  9
$DIMLIM
 70
     0
  9
$DIMTIH
 70
     1
  9
$DIMTOH
 70
     1
  9
$DIMSE1
 70
     0
  9
$DIMSE2
 70
     0
  9
$DIMTAD
 70
     1
  9
$DIMZIN
 70
     0
  9
$DIMBLK
  1

  9
$DIMASO
 70
     1
  9
$DIMSHO
 70
     1
  9
$DIMPOST
  1

  9
$DIMAPOST
  1

  9
$DIMALT
 70
     0
  9
$DIMALTD
 70
     2
  9
$DIMALTF
 40
25.4
  9
$DIMLFAC
 40
1.0
  9
$DIMTOFL
 70
     0
  9
$DIMTVP
 40
0.0
  9
$DIMTIX
 70
     0
  9
$DIMSOXD
 70
     0
  9
$DIMSAH
 70
     0
  9
$DIMBLK1
  1

  9
$DIMBLK2
  1

  9
$LUNITS
 70
     2
  9
$LUPREC
 70
     4
  9
$SKETCHINC
 40
0.1
  9
$FILLETRAD
 40
0.0
  9
$AUNITS
 70
     0
  9
$AUPREC
 70
     0
  9
$MENU
  1
.
  9
$ELEVATION
 40
0.0
  9
$THICKNESS
 40
0.0
  9
$LIMCHECK
 70
     0
  9
$CHAMFERA
 40
0.0
  9
$CHAMFERB
 40
0.0
  9
$SKPOLY
 70
     0
  9
$TDCREATE
 40
2460334.83344537
  9
$TDUPDATE
 40
2460334.833445625
  9
$TDINDWG
 40
0.0000000116
  9
$TDUSRTIMER
 40
0.0000000116
  9
$USRTIMER
 70
     1
  9
$ANGBASE
 50
0.0
  9
$ANGDIR
 70
     0
  9
$PDMODE
 70
     0
  9
$PDSIZE
 40
0.0
  9
$PLINEWID
 40
0.0
  9
$COORDS
 70
     1
  9
$SPLFRAME
 70
     0
  9
$SPLINETYPE
 70
     6
  9
$SPLINESEGS
 70
     8
  9
$ATTDIA
 70
     0
  9
$ATTREQ
 70
     1
  9
$SURFTAB1
 70
     6
  9
$SURFTAB2
 70
     6
  9
$SURFTYPE
 70
     6
  9
$SURFU
 70
     6
  9
$SURFV
 70
     6
  9
$UCSNAME
  2

  9
$UCSORG
 10
0.0
 20
0.0
 30
0.0
  9
$UCSXDIR
 10
1.0
 20
0.0
 30
0.0
  9
$UCSYDIR
 10
0.0
 20
1.0
 30
0.0
  9
$USERI1
 70
     0
  9
$USERI2
 70
     0
  9
$USERI3
 70
     0
  9
$USERI4
 70
     0
  9
$USERI5
 70
     0
  9
$USERR1
 40
0.0
  9
$USERR2
 40
0.0
  9
$USERR3
 40
0.0
  9
$USERR4
 40
0.0
  9
$USERR5
 40
0.0
  9
$WORLDVIEW
 70
     1
  0
ENDSEC
  0
SECTION
  2
TABLES
  0
TABLE
  2
LTYPE
 70
     2
  0
LTYPE
  2
CONTINUOUS
 70
     0
  3
Solid line
 72
    65
 73
     0
 40
0.0
  0
LTYPE
  2
CENTER
 70
     0
  3

 72
    65
 73
     0
 40
0.0
  0
ENDTAB
  0
TABLE
  2
LAYER
 70
     1
  0
LAYER
  2
0
 70
     0
 62
     7
  6
CONTINUOUS
  0
ENDTAB
  0
TABLE
  2
STYLE
 70
     3
  0
STYLE
  2
STANDARD
 70
     0
 40
0.0
 41
1.0
 50
0.0
 71
     0
 42
0.2
  3
txt
  4

  0
STYLE
  2
HG丸ｺﾞｼｯｸM-PRO
 70
     0
 40
0.0
 41
1.0
 50
0.0
 71
     0
 42
0.2
  3
HGRSMP.TTF
  4

  0
STYLE
  2
MTXPL_HG丸ｺﾞｼｯｸM-PRO
 70
     0
 40
0.2
 41
1.0
 50
0.0
 71
     0
 42
0.2
  3
txt.shx
  4

  0
ENDTAB
  0
TABLE
  2
VIEW
 70
     0
  0
ENDTAB
  0
ENDSEC
  0
SECTION
  2
BLOCKS
  0
ENDSEC
  0
SECTION
  2
ENTITIES
  0
TEXT
  8
0
 62
     7
 10
131.33246875
 20
42.98240909090909
 40
3.5
  1
断面A-A
  7
MTXPL_HG丸ｺﾞｼｯｸM-PRO
  0
LINE
  8
0
  6
CONTINUOUS
 62
     7
 10
4.000000000000004
 20
-13.75000000000021
 11
0.0
 21
-15.00000000000018
  0
LINE
  8
0
  6
CONTINUOUS
 62
     7
 10
0.0
 20
-15.00000000000018
 11
4.000000000000004
 21
-16.2500000000001
  0
LINE
  8
0
  6
CONTINUOUS
 62
     7
 10
4.000000000000004
 20
49.47720779386422
 11
0.0
 21
50.72720779386419
  0
LINE
  8
0
  6
CONTINUOUS
 62
     7
 10
0.0
 20
50.72720779386419
 11
4.000000000000004
 21
51.97720779386411
  0
LINE
  8
0
  6
CONTINUOUS
 62
     7
 10
21.78533503196039
 20
-102.1739717145681
 11
21.75638833107552
 21
-102.7263076708111
  0
LINE
  8
0
  6
CONTINUOUS
 62
     7
 10
24.41361166892458
 20
-102.726307670811
 11
24.3846649680397
 21
-102.173971714568
  0
LINE
  8
0
  6
CONTINUOUS
 62
     7
 10
24.41361166892458
 20
-102.726307670811
 11
26.88638833107548
 21
-102.726307670811
  0
LINE
  8
0
  6
CONTINUOUS
 62
     7
 10
26.91533503196042
 20
-102.1739717145681
 11
26.88638833107548
 21
-102.7263076708111
  0
LINE
  8
0
  6
CONTINUOUS
 62
     7
 10
29.54361166892466
 20
-102.726307670811
 11
29.51466496803967
 21
-102.173971714568
  0
LINE
  8
0
  6
CONTINUOUS
 62
     7
 10
29.54361166892466
 20
-102.726307670811
 11
32.0163883310755
 21
-102.726307670811
  0
LINE
  8
0
  6
CONTINUOUS
 62
     7
 10
32.04533503196038
 20
-102.1739717145681
 11
32.0163883310755
 21
-102.7263076708111
  0
LINE
  8
0
  6
CONTINUOUS
 62
     7
 10
34.67361166892463
 20
-102.726307670811
 11
34.64466496803969
 21
-102.173971714568
  0
LINE
  8
0
  6
CONTINUOUS
 62
     7
 10
34.67361166892463
 20
-102.726307670811
 11
37.14638833107547
 21
-102.726307670811
  0
LINE
  8
0
  6
CONTINUOUS
 62
     7
 10
37.17533503196041
 20
-102.1739717145681
 11
37.14638833107547
 21
-102.7263076708111
  0
LINE
  8
0
  6
CONTINUOUS
 62
     7
 10
39.80361166892465
 20
-102.726307670811
 11
39.77466496803977
 21
-102.173971714568
  0
LINE
  8
0
  6
CONTINUOUS
 62
     7
 10
39.80361166892465
 20
-102.726307670811
 11
42.27638833107549
 21
-102.726307670811
  0
LINE
  8
0
  6
CONTINUOUS
 62
     7
 10
42.30533503196043
 20
-102.1739717145681
 11
42.27638833107549
 21
-102.7263076708111
  0
LINE
  8
0
  6
CONTINUOUS
 62
     7
 10
44.93361166892473
 20
-102.726307670811
 11
44.90466496803974
 21
-102.173971714568
  0
LINE
  8
0
  6
CONTINUOUS
 62
     7
 10
44.93361166892473
 20
-102.726307670811
 11
47.40638833107558
 21
-102.726307670811
  0
LINE
  8
0
  6
CONTINUOUS
 62
     7
 10
47.43533503196034
 20
-102.1739717145681
 11
47.40638833107558
 21
-102.7263076708111
  0
LINE
  8
0
  6
CONTINUOUS
 62
     7
 10
50.06361166892464
 20
-102.726307670811
 11
50.03466496803976
 21
-102.173971714568
  0
LINE
  8
0
  6
CONTINUOUS
 62
     7
 10
50.06361166892464
 20
-102.726307670811
 11
51.49999999999999
 21
-102.726307670811
  0
ARC
  8
0
  6
CONTINUOUS
 62
     7
 10
51.49999999999999
 20
-104.2263076708111
 40
1.500000000000001
 50
0.0
 51
90.0
  0
LINE
  8
0
  6
CONTINUOUS
 62
     7
 10
52.99999999999999
 20
-104.2263076708111
 11
52.99999999999999
 21
-115.7263076708111
  0
ARC
  8
0
  6
CONTINUOUS
 62
     7
 10
51.49999999999999
 20
-115.726307670811
 40
1.500000000000001
 50
270.0
 51
0.0
  0
LINE
  8
0
  6
CONTINUOUS
 62
     7
 10
51.49999999999999
 20
-117.226307670811
 11
50.06361166892464
 21
-117.226307670811
  0
LINE
  8
0
  6
CONTINUOUS
 62
     7
 10
50.03466496803976
 20
-117.778643627054
 11
50.06361166892464
 21
-117.226307670811
  0
ARC
  8
0
  6
CONTINUOUS
 62
     7
 10
49.03603543328522
 20
-117.726307670811
 40
1.000000000000001
 50
270.0
 51
357.0000000000014
  0
LINE
  8
0
  6
CONTINUOUS
 62
     7
 10
48.43396456671489
 20
-118.726307670811
 11
49.03603543328522
 21
-118.726307670811
  0
ARC
  8
0
  6
CONTINUOUS
 62
     7
 10
48.43396456671489
 20
-117.726307670811
 40
0.9999999999999454
 50
182.9999999999987
 51
270.0000000000001
  0
LINE
  8
0
  6
CONTINUOUS
 62
     7
 10
47.40638833107546
 20
-117.226307670811
 11
47.43533503196034
 21
-117.778643627054
  0
LINE
  8
0
  6
CONTINUOUS
 62
     7
 10
47.40638833107546
 20
-117.226307670811
 11
44.93361166892462
 21
-117.226307670811
  0
LINE
  8
0
  6
CONTINUOUS
 62
     7
 10
44.90466496803974
 20
-117.778643627054
 11
44.93361166892462
 21
-117.226307670811
  0
ARC
  8
0
  6
CONTINUOUS
 62
     7
 10
43.90603543328525
 20
-117.726307670811
 40
1.000000000000001
 50
270.0000000000032
 51
357.0000000000014
  0
LINE
  8
0
  6
CONTINUOUS
 62
     7
 10
43.30396456671498
 20
-118.726307670811
 11
43.90603543328525
 21
-118.726307670811
  0
ARC
  8
0
  6
CONTINUOUS
 62
     7
 10
43.30396456671498
 20
-117.726307670811
 40
1.000000000000001
 50
182.9999999999991
 51
270.0000000000001
  0
LINE
  8
0
  6
CONTINUOUS
 62
     7
 10
42.27638833107549
 20
-117.226307670811
 11
42.30533503196043
 21
-117.778643627054
  0
LINE
  8
0
  6
CONTINUOUS
 62
     7
 10
42.27638833107549
 20
-117.226307670811
 11
39.80361166892465
 21
-117.226307670811
  0
LINE
  8
0
  6
CONTINUOUS
 62
     7
 10
39.77466496803977
 20
-117.778643627054
 11
39.80361166892465
 21
-117.226307670811
  0
ARC
  8
0
  6
CONTINUOUS
 62
     7
 10
38.77603543328523
 20
-117.726307670811
 40
1.000000000000001
 50
270.0000000000032
 51
357.0000000000009
  0
LINE
  8
0
  6
CONTINUOUS
 62
     7
 10
38.1739645667149
 20
-118.726307670811
 11
38.77603543328523
 21
-118.726307670811
  0
ARC
  8
0
  6
CONTINUOUS
 62
     7
 10
38.1739645667149
 20
-117.726307670811
 40
1.000000000000001
 50
182.9999999999991
 51
270.0000000000001
  0
LINE
  8
0
  6
CONTINUOUS
 62
     7
 10
37.14638833107547
 20
-117.226307670811
 11
37.17533503196035
 21
-117.778643627054
  0
LINE
  8
0
  6
CONTINUOUS
 62
     7
 10
37.14638833107547
 20
-117.226307670811
 11
34.67361166892463
 21
-117.226307670811
  0
LINE
  8
0
  6
CONTINUOUS
 62
     7
 10
34.64466496803969
 20
-117.778643627054
 11
34.67361166892463
 21
-117.226307670811
  0
ARC
  8
0
  6
CONTINUOUS
 62
     7
 10
33.64603543328526
 20
-117.726307670811
 40
1.000000000000001
 50
270.0
 51
357.0000000000009
  0
LINE
  8
0
  6
CONTINUOUS
 62
     7
 10
33.04396456671488
 20
-118.726307670811
 11
33.64603543328526
 21
-118.726307670811
  0
ARC
  8
0
  6
CONTINUOUS
 62
     7
 10
33.04396456671488
 20
-117.726307670811
 40
0.9999999999999454
 50
182.9999999999991
 51
270.0000000000001
  0
LINE
  8
0
  6
CONTINUOUS
 62
     7
 10
32.0163883310755
 20
-117.226307670811
 11
32.04533503196033
 21
-117.778643627054
  0
LINE
  8
0
  6
CONTINUOUS
 62
     7
 10
32.0163883310755
 20
-117.226307670811
 11
29.54361166892466
 21
-117.226307670811
  0
LINE
  8
0
  6
CONTINUOUS
 62
     7
 10
29.51466496803967
 20
-117.778643627054
 11
29.54361166892466
 21
-117.226307670811
  0
ARC
  8
0
  6
CONTINUOUS
 62
     7
 10
28.51603543328524
 20
-117.726307670811
 40
1.000000000000001
 50
270.0000000000028
 51
357.0000000000009
  0
LINE
  8
0
  6
CONTINUOUS
 62
     7
 10
27.91396456671502
 20
-118.726307670811
 11
28.51603543328524
 21
-118.726307670811
  0
ARC
  8
0
  6
CONTINUOUS
 62
     7
 10
27.91396456671502
 20
-117.726307670811
 40
1.000000000000001
 50
182.9999999999991
 51
270.0000000000001
  0
LINE
  8
0
  6
CONTINUOUS
 62
     7
 10
26.88638833107548
 20
-117.226307670811
 11
26.91533503196036
 21
-117.778643627054
  0
LINE
  8
0
  6
CONTINUOUS
 62
     7
 10
26.88638833107548
 20
-117.226307670811
 11
24.41361166892458
 21
-117.226307670811
  0
LINE
  8
0
  6
CONTINUOUS
 62
     7
 10
24.3846649680397
 20
-117.778643627054
 11
24.41361166892458
 21
-117.226307670811
  0
ARC
  8
0
  6
CONTINUOUS
 62
     7
 10
23.38603543328515
 20
-117.726307670811
 40
1.000000000000001
 50
270.0
 51
357.0000000000007
  0
LINE
  8
0
  6
CONTINUOUS
 62
     7
 10
22.783964566715
 20
-118.726307670811
 11
23.38603543328515
 21
-118.726307670811
  0
ARC
  8
0
  6
CONTINUOUS
 62
     7
 10
22.783964566715
 20
-117.726307670811
 40
0.9999999999999454
 50
182.9999999999991
 51
270.0000000000001
  0
LINE
  8
0
  6
CONTINUOUS
 62
     7
 10
21.75638833107552
 20
-117.226307670811
 11
21.78533503196028
 21
-117.778643627054
  0
LINE
  8
0
  6
CONTINUOUS
 62
     7
 10
21.75638833107552
 20
-117.226307670811
 11
19.28361166892462
 21
-117.226307670811
  0
LINE
  8
0
  6
CONTINUOUS
 62
     7
 10
19.25466496803968
 20
-117.778643627054
 11
19.28361166892462
 21
-117.226307670811
  0
ARC
  8
0
  6
CONTINUOUS
 62
     7
 10
18.25603543328513
 20
-117.726307670811
 40
1.000000000000001
 50
270.0000000000028
 51
357.0000000000009
  0
LINE
  8
0
  6
CONTINUOUS
 62
     7
 10
17.65396456671503
 20
-118.726307670811
 11
18.25603543328519
 21
-118.726307670811
  0
ARC
  8
0
  6
CONTINUOUS
 62
     7
 10
17.65396456671503
 20
-117.726307670811
 40
1.000000000000001
 50
182.9999999999991
 51
270.0000000000001
  0
LINE
  8
0
  6
CONTINUOUS
 62
     7
 10
16.62638833107549
 20
-117.226307670811
 11
16.65533503196026
 21
-117.778643627054
  0
LINE
  8
0
  6
CONTINUOUS
 62
     7
 10
16.62638833107549
 20
-117.226307670811
 11
14.15361166892459
 21
-117.226307670811
  0
LINE
  8
0
  6
CONTINUOUS
 62
     7
 10
14.12466496803982
 20
-117.778643627054
 11
14.15361166892459
 21
-117.226307670811
  0
ARC
  8
0
  6
CONTINUOUS
 62
     7
 10
13.12603543328517
 20
-117.726307670811
 40
1.000000000000001
 50
270.0
 51
357.0000000000008
  0
LINE
  8
0
  6
CONTINUOUS
 62
     7
 10
12.52396456671501
 20
-118.726307670811
 11
13.12603543328517
 21
-118.726307670811
  0
ARC
  8
0
  6
CONTINUOUS
 62
     7
 10
12.52396456671501
 20
-117.726307670811
 40
0.9999999999999454
 50
182.9999999999991
 51
270.0
  0
LINE
  8
0
  6
CONTINUOUS
 62
     7
 10
11.49638833107552
 20
-117.226307670811
 11
11.52533503196029
 21
-117.778643627054
  0
LINE
  8
0
  6
CONTINUOUS
 62
     7
 10
11.49638833107552
 20
-117.226307670811
 11
9.023611668924625
 21
-117.226307670811
  0
LINE
  8
0
  6
CONTINUOUS
 62
     7
 10
8.9946649680398
 20
-117.778643627054
 11
9.023611668924625
 21
-117.226307670811
  0
ARC
  8
0
  6
CONTINUOUS
 62
     7
 10
7.996035433285198
 20
-117.726307670811
 40
1.000000000000001
 50
270.0000000000007
 51
357.0000000000014
  0
LINE
  8
0
  6
CONTINUOUS
 62
     7
 10
7.393964566714928
 20
-118.726307670811
 11
7.996035433285198
 21
-118.726307670811
  0
ARC
  8
0
  6
CONTINUOUS
 62
     7
 10
7.393964566714928
 20
-117.726307670811
 40
0.9999999999999454
 50
182.9999999999991
 51
270.0
  0
LINE
  8
0
  6
CONTINUOUS
 62
     7
 10
6.366388331075501
 20
-117.226307670811
 11
6.395335031960269
 21
-117.778643627054
  0
LINE
  8
0
  6
CONTINUOUS
 62
     7
 10
6.366388331075501
 20
-117.226307670811
 11
3.893611668924601
 21
-117.226307670811
  0
LINE
  8
0
  6
CONTINUOUS
 62
     7
 10
3.864664968039833
 20
-117.778643627054
 11
3.893611668924601
 21
-117.226307670811
  0
ARC
  8
0
  6
CONTINUOUS
 62
     7
 10
2.866035433285175
 20
-117.726307670811
 40
1.000000000000001
 50
270.0000000000002
 51
357.0000000000008
  0
LINE
  8
0
  6
CONTINUOUS
 62
     7
 10
2.26396456671496
 20
-118.726307670811
 11
2.866035433285175
 21
-118.726307670811
  0
ARC
  8
0
  6
CONTINUOUS
 62
     7
 10
2.26396456671496
 20
-117.726307670811
 40
1.000000000000001
 50
182.9999999999993
 51
270.0000000000001
  0
LINE
  8
0
  6
CONTINUOUS
 62
     7
 10
1.236388331075533
 20
-117.226307670811
 11
1.265335031960302
 21
-117.778643627054
  0
LINE
  8
0
  6
CONTINUOUS
 62
     7
 10
1.236388331075533
 20
-117.226307670811
 11
-1.236388331075366
 21
-117.226307670811
  0
LINE
  8
0
  6
CONTINUOUS
 62
     7
 10
-1.265335031960191
 20
-117.778643627054
 11
-1.236388331075366
 21
-117.226307670811
  0
ARC
  8
0
  6
CONTINUOUS
 62
     7
 10
-2.263964566714793
 20
-117.726307670811
 40
1.000000000000001
 50
270.0
 51
357.0000000000008
  0
LINE
  8
0
  6
CONTINUOUS
 62
     7
 10
-2.866035433285063
 20
-118.726307670811
 11
-2.263964566714793
 21
-118.726307670811
  0
ARC
  8
0
  6
CONTINUOUS
 62
     7
 10
-2.866035433285063
 20
-117.726307670811
 40
0.9999999999999454
 50
182.9999999999991
 51
270.0
  0
LINE
  8
0
  6
CONTINUOUS
 62
     7
 10
-3.89361166892449
 20
-117.226307670811
 11
-3.864664968039555
 21
-117.778643627054
  0
LINE
  8
0
  6
CONTINUOUS
 62
     7
 10
-3.89361166892449
 20
-117.226307670811
 11
-6.36638833107539
 21
-117.226307670811
  0
LINE
  8
0
  6
CONTINUOUS
 62
     7
 10
-6.395335031960269
 20
-117.778643627054
 11
-6.36638833107539
 21
-117.226307670811
  0
ARC
  8
0
  6
CONTINUOUS
 62
     7
 10
-7.393964566714761
 20
-117.726307670811
 40
1.000000000000001
 50
270.0
 51
357.0000000000008
  0
LINE
  8
0
  6
CONTINUOUS
 62
     7
 10
-7.996035433285031
 20
-118.726307670811
 11
-7.393964566714761
 21
-118.726307670811
  0
ARC
  8
0
  6
CONTINUOUS
 62
     7
 10
-7.996035433285031
 20
-117.726307670811
 40
1.000000000000001
 50
182.9999999999993
 51
270.0000000000001
  0
LINE
  8
0
  6
CONTINUOUS
 62
     7
 10
-9.023611668924458
 20
-117.226307670811
 11
-8.994664968039578
 21
-117.778643627054
  0
LINE
  8
0
  6
CONTINUOUS
 62
     7
 10
-9.023611668924458
 20
-117.226307670811
 11
-11.49638833107536
 21
-117.226307670811
  0
LINE
  8
0
  6
CONTINUOUS
 62
     7
 10
-11.52533503196024
 20
-117.778643627054
 11
-11.49638833107536
 21
-117.226307670811
  0
ARC
  8
0
  6
CONTINUOUS
 62
     7
 10
-12.52396456671489
 20
-117.726307670811
 40
1.000000000000001
 50
270.0
 51
357.0000000000008
  0
LINE
  8
0
  6
CONTINUOUS
 62
     7
 10
-13.12603543328511
 20
-118.726307670811
 11
-12.52396456671489
 21
-118.726307670811
  0
ARC
  8
0
  6
CONTINUOUS
 62
     7
 10
-13.12603543328511
 20
-117.726307670811
 40
0.9999999999999454
 50
182.9999999999991
 51
270.0000000000001
  0
LINE
  8
0
  6
CONTINUOUS
 62
     7
 10
-14.15361166892454
 20
-117.226307670811
 11
-14.12466496803966
 21
-117.778643627054
  0
LINE
  8
0
  6
CONTINUOUS
 62
     7
 10
-14.15361166892454
 20
-117.226307670811
 11
-16.62638833107538
 21
-117.226307670811
  0
LINE
  8
0
  6
CONTINUOUS
 62
     7
 10
-16.65533503196026
 20
-117.778643627054
 11
-16.62638833107538
 21
-117.226307670811
  0
ARC
  8
0
  6
CONTINUOUS
 62
     7
 10
-17.65396456671475
 20
-117.726307670811
 40
1.000000000000001
 50
270.0000000000028
 51
357.0000000000009
  0
LINE
  8
0
  6
CONTINUOUS
 62
     7
 10
-18.25603543328502
 20
-118.726307670811
 11
-17.65396456671475
 21
-118.726307670811
  0
ARC
  8
0
  6
CONTINUOUS
 62
     7
 10
-18.25603543328502
 20
-117.726307670811
 40
1.000000000000001
 50
182.9999999999991
 51
270.0000000000001
  0
LINE
  8
0
  6
CONTINUOUS
 62
     7
 10
-19.2836116689245
 20
-117.226307670811
 11
-19.25466496803957
 21
-117.778643627054
  0
LINE
  8
0
  6
CONTINUOUS
 62
     7
 10
-19.2836116689245
 20
-117.226307670811
 11
-21.75638833107535
 21
-117.226307670811
  0
LINE
  8
0
  6
CONTINUOUS
 62
     7
 10
-21.78533503196023
 20
-117.778643627054
 11
-21.75638833107535
 21
-117.226307670811
  0
ARC
  8
0
  6
CONTINUOUS
 62
     7
 10
-22.78396456671478
 20
-117.726307670811
 40
1.000000000000001
 50
270.000000000003
 51
357.0000000000009
  0
LINE
  8
0
  6
CONTINUOUS
 62
     7
 10
-23.3860354332851
 20
-118.726307670811
 11
-22.78396456671478
 21
-118.726307670811
  0
ARC
  8
0
  6
CONTINUOUS
 62
     7
 10
-23.3860354332851
 20
-117.726307670811
 40
1.000000000000001
 50
182.9999999999991
 51
270.0000000000001
  0
LINE
  8
0
  6
CONTINUOUS
 62
     7
 10
-24.41361166892453
 20
-117.226307670811
 11
-24.38466496803965
 21
-117.778643627054
  0
LINE
  8
0
  6
CONTINUOUS
 62
     7
 10
-24.41361166892453
 20
-117.226307670811
 11
-26.88638833107537
 21
-117.226307670811
  0
LINE
  8
0
  6
CONTINUOUS
 62
     7
 10
-26.91533503196031
 20
-117.778643627054
 11
-26.88638833107537
 21
-117.226307670811
  0
ARC
  8
0
  6
CONTINUOUS
 62
     7
 10
-27.91396456671474
 20
-117.726307670811
 40
1.000000000000001
 50
270.0
 51
357.0000000000007
  0
LINE
  8
0
  6
CONTINUOUS
 62
     7
 10
-28.51603543328513
 20
-118.726307670811
 11
-27.91396456671474
 21
-118.726307670811
  0
ARC
  8
0
  6
CONTINUOUS
 62
     7
 10
-28.51603543328513
 20
-117.726307670811
 40
0.9999999999999454
 50
182.9999999999991
 51
270.0000000000001
  0
LINE
  8
0
  6
CONTINUOUS
 62
     7
 10
-29.54361166892449
 20
-117.226307670811
 11
-29.51466496803961
 21
-117.778643627054
  0
LINE
  8
0
  6
CONTINUOUS
 62
     7
 10
-29.54361166892449
 20
-117.226307670811
 11
-32.01638833107534
 21
-117.226307670811
  0
LINE
  8
0
  6
CONTINUOUS
 62
     7
 10
-32.04533503196022
 20
-117.778643627054
 11
-32.01638833107534
 21
-117.226307670811
  0
ARC
  8
0
  6
CONTINUOUS
 62
     7
 10
-33.04396456671477
 20
-117.726307670811
 40
1.000000000000001
 50
270.0
 51
357.0000000000009
  0
LINE
  8
0
  6
CONTINUOUS
 62
     7
 10
-33.64603543328498
 20
-118.726307670811
 11
-33.04396456671477
 21
-118.726307670811
  0
ARC
  8
0
  6
CONTINUOUS
 62
     7
 10
-33.64603543328498
 20
-117.726307670811
 40
1.000000000000001
 50
182.9999999999991
 51
270.0000000000001
  0
LINE
  8
0
  6
CONTINUOUS
 62
     7
 10
-34.67361166892452
 20
-117.226307670811
 11
-34.64466496803964
 21
-117.778643627054
  0
LINE
  8
0
  6
CONTINUOUS
 62
     7
 10
-34.67361166892452
 20
-117.226307670811
 11
-37.14638833107542
 21
-117.226307670811
  0
LINE
  8
0
  6
CONTINUOUS
 62
     7
 10
-37.1753350319603
 20
-117.778643627054
 11
-37.14638833107542
 21
-117.226307670811
  0
ARC
  8
0
  6
CONTINUOUS
 62
     7
 10
-38.17396456671484
 20
-117.726307670811
 40
1.000000000000001
 50
270.0
 51
357.0000000000009
  0
LINE
  8
0
  6
CONTINUOUS
 62
     7
 10
-38.776035433285
 20
-118.726307670811
 11
-38.17396456671484
 21
-118.726307670811
  0
ARC
  8
0
  6
CONTINUOUS
 62
     7
 10
-38.776035433285
 20
-117.726307670811
 40
0.9999999999999454
 50
182.9999999999991
 51
270.0000000000001
  0
LINE
  8
0
  6
CONTINUOUS
 62
     7
 10
-39.80361166892449
 20
-117.226307670811
 11
-39.77466496803972
 21
-117.778643627054
  0
LINE
  8
0
  6
CONTINUOUS
 62
     7
 10
-39.80361166892449
 20
-117.226307670811
 11
-42.27638833107539
 21
-117.226307670811
  0
LINE
  8
0
  6
CONTINUOUS
 62
     7
 10
-42.30533503196033
 20
-117.778643627054
 11
-42.27638833107539
 21
-117.226307670811
  0
ARC
  8
0
  6
CONTINUOUS
 62
     7
 10
-43.30396456671492
 20
-117.726307670811
 40
1.000000000000001
 50
270.0
 51
357.0000000000009
  0
LINE
  8
0
  6
CONTINUOUS
 62
     7
 10
-43.90603543328503
 20
-118.726307670811
 11
-43.30396456671492
 21
-118.726307670811
  0
ARC
  8
0
  6
CONTINUOUS
 62
     7
 10
-43.90603543328503
 20
-117.726307670811
 40
1.000000000000001
 50
182.9999999999999
 51
270.0000000000002
  0
LINE
  8
0
  6
CONTINUOUS
 62
     7
 10
-44.93361166892451
 20
-117.226307670811
 11
-44.90466496803958
 21
-117.778643627054
  0
LINE
  8
0
  6
CONTINUOUS
 62
     7
 10
-44.93361166892451
 20
-117.226307670811
 11
-47.40638833107536
 21
-117.226307670811
  0
LINE
  8
0
  6
CONTINUOUS
 62
     7
 10
-47.43533503196018
 20
-117.778643627054
 11
-47.40638833107536
 21
-117.226307670811
  0
ARC
  8
0
  6
CONTINUOUS
 62
     7
 10
-48.43396456671478
 20
-117.726307670811
 40
1.000000000000001
 50
270.0
 51
357.0000000000002
  0
LINE
  8
0
  6
CONTINUOUS
 62
     7
 10
-49.03603543328508
 20
-118.726307670811
 11
-48.43396456671478
 21
-118.726307670811
  0
ARC
  8
0
  6
CONTINUOUS
 62
     7
 10
-49.03603543328508
 20
-117.726307670811
 40
0.9999999999999731
 50
182.9999999999999
 51
270.0000000000002
  0
LINE
  8
0
  6
CONTINUOUS
 62
     7
 10
-50.06361166892448
 20
-117.226307670811
 11
-50.03466496803969
 21
-117.778643627054
  0
LINE
  8
0
  6
CONTINUOUS
 62
     7
 10
-50.06361166892448
 20
-117.226307670811
 11
-51.49999999999991
 21
-117.226307670811
  0
ARC
  8
0
  6
CONTINUOUS
 62
     7
 10
-51.49999999999991
 20
-115.726307670811
 40
1.500000000000001
 50
180.0
 51
270.0
  0
LINE
  8
0
  6
CONTINUOUS
 62
     7
 10
-52.99999999999991
 20
-115.726307670811
 11
-52.99999999999991
 21
-104.2263076708111
  0
ARC
  8
0
  6
CONTINUOUS
 62
     7
 10
-51.49999999999991
 20
-104.2263076708111
 40
1.500000000000001
 50
90.0
 51
180.0
  0
LINE
  8
0
  6
CONTINUOUS
 62
     7
 10
-51.49999999999991
 20
-102.726307670811
 11
-50.06361166892448
 21
-102.726307670811
  0
LINE
  8
0
  6
CONTINUOUS
 62
     7
 10
-50.03466496803969
 20
-102.1739717145681
 11
-50.06361166892448
 21
-102.7263076708111
  0
ARC
  8
0
  6
CONTINUOUS
 62
     7
 10
-49.03603543328508
 20
-102.2263076708111
 40
1.000000000000029
 50
90.0
 51
176.9999999999997
  0
LINE
  8
0
  6
CONTINUOUS
 62
     7
 10
-48.43396456671478
 20
-101.2263076708111
 11
-49.03603543328508
 21
-101.2263076708111
  0
ARC
  8
0
  6
CONTINUOUS
 62
     7
 10
-48.43396456671478
 20
-102.2263076708111
 40
1.000000000000001
 50
3.000000000000409
 51
90.00000000000011
  0
LINE
  8
0
  6
CONTINUOUS
 62
     7
 10
-47.40638833107536
 20
-102.726307670811
 11
-47.43533503196018
 21
-102.173971714568
  0
LINE
  8
0
  6
CONTINUOUS
 62
     7
 10
-47.40638833107536
 20
-102.726307670811
 11
-44.93361166892451
 21
-102.726307670811
  0
LINE
  8
0
  6
CONTINUOUS
 62
     7
 10
-44.90466496803958
 20
-102.1739717145681
 11
-44.93361166892451
 21
-102.7263076708111
  0
ARC
  8
0
  6
CONTINUOUS
 62
     7
 10
-43.90603543328503
 20
-102.2263076708111
 40
1.000000000000001
 50
90.0
 51
176.9999999999997
  0
LINE
  8
0
  6
CONTINUOUS
 62
     7
 10
-43.30396456671476
 20
-101.2263076708111
 11
-43.90603543328503
 21
-101.2263076708111
  0
ARC
  8
0
  6
CONTINUOUS
 62
     7
 10
-43.30396456671492
 20
-102.2263076708111
 40
1.000000000000056
 50
3.000000000000409
 51
89.99999999999734
  0
LINE
  8
0
  6
CONTINUOUS
 62
     7
 10
-42.27638833107539
 20
-102.726307670811
 11
-42.30533503196033
 21
-102.173971714568
  0
LINE
  8
0
  6
CONTINUOUS
 62
     7
 10
-42.27638833107539
 20
-102.726307670811
 11
-39.80361166892449
 21
-102.726307670811
  0
LINE
  8
0
  6
CONTINUOUS
 62
     7
 10
-39.77466496803972
 20
-102.1739717145681
 11
-39.80361166892449
 21
-102.7263076708111
  0
ARC
  8
0
  6
CONTINUOUS
 62
     7
 10
-38.776035433285
 20
-102.2263076708111
 40
1.000000000000001
 50
90.0
 51
176.9999999999997
  0
LINE
  8
0
  6
CONTINUOUS
 62
     7
 10
-38.17396456671484
 20
-101.2263076708111
 11
-38.776035433285
 21
-101.2263076708111
  0
ARC
  8
0
  6
CONTINUOUS
 62
     7
 10
-38.17396456671484
 20
-102.2263076708111
 40
1.000000000000056
 50
3.000000000000409
 51
90.00000000000011
  0
LINE
  8
0
  6
CONTINUOUS
 62
     7
 10
-37.14638833107542
 20
-102.726307670811
 11
-37.1753350319603
 21
-102.173971714568
  0
LINE
  8
0
  6
CONTINUOUS
 62
     7
 10
-37.14638833107542
 20
-102.726307670811
 11
-34.67361166892452
 21
-102.726307670811
  0
LINE
  8
0
  6
CONTINUOUS
 62
     7
 10
-34.64466496803964
 20
-102.1739717145681
 11
-34.67361166892452
 21
-102.7263076708111
  0
ARC
  8
0
  6
CONTINUOUS
 62
     7
 10
-33.64603543328498
 20
-102.2263076708111
 40
1.000000000000001
 50
90.0
 51
176.9999999999997
  0
LINE
  8
0
  6
CONTINUOUS
 62
     7
 10
-33.04396456671477
 20
-101.2263076708111
 11
-33.64603543328498
 21
-101.2263076708111
  0
ARC
  8
0
  6
CONTINUOUS
 62
     7
 10
-33.04396456671477
 20
-102.2263076708111
 40
1.000000000000001
 50
3.000000000000409
 51
90.00000000000011
  0
LINE
  8
0
  6
CONTINUOUS
 62
     7
 10
-32.01638833107534
 20
-102.726307670811
 11
-32.04533503196022
 21
-102.173971714568
  0
LINE
  8
0
  6
CONTINUOUS
 62
     7
 10
-32.01638833107534
 20
-102.726307670811
 11
-29.54361166892449
 21
-102.726307670811
  0
LINE
  8
0
  6
CONTINUOUS
 62
     7
 10
-29.51466496803961
 20
-102.1739717145681
 11
-29.54361166892449
 21
-102.7263076708111
  0
ARC
  8
0
  6
CONTINUOUS
 62
     7
 10
-28.51603543328513
 20
-102.2263076708111
 40
1.000000000000001
 50
90.0
 51
176.9999999999997
  0
LINE
  8
0
  6
CONTINUOUS
 62
     7
 10
-27.91396456671474
 20
-101.2263076708111
 11
-28.51603543328513
 21
-101.2263076708111
  0
ARC
  8
0
  6
CONTINUOUS
 62
     7
 10
-27.91396456671474
 20
-102.2263076708111
 40
1.000000000000056
 50
3.000000000000409
 51
89.99999999999716
  0
LINE
  8
0
  6
CONTINUOUS
 62
     7
 10
-26.88638833107537
 20
-102.726307670811
 11
-26.91533503196031
 21
-102.173971714568
  0
LINE
  8
0
  6
CONTINUOUS
 62
     7
 10
-26.88638833107537
 20
-102.726307670811
 11
-24.41361166892453
 21
-102.726307670811
  0
LINE
  8
0
  6
CONTINUOUS
 62
     7
 10
-24.38466496803965
 20
-102.1739717145681
 11
-24.41361166892453
 21
-102.7263076708111
  0
ARC
  8
0
  6
CONTINUOUS
 62
     7
 10
-23.3860354332851
 20
-102.2263076708111
 40
1.000000000000001
 50
90.0
 51
176.9999999999997
  0
LINE
  8
0
  6
CONTINUOUS
 62
     7
 10
-22.78396456671478
 20
-101.2263076708111
 11
-23.3860354332851
 21
-101.2263076708111
  0
ARC
  8
0
  6
CONTINUOUS
 62
     7
 10
-22.78396456671478
 20
-102.2263076708111
 40
1.000000000000001
 50
3.000000000000409
 51
89.99999999999716
  0
LINE
  8
0
  6
CONTINUOUS
 62
     7
 10
-21.75638833107535
 20
-102.726307670811
 11
-21.78533503196023
 21
-102.173971714568
  0
LINE
  8
0
  6
CONTINUOUS
 62
     7
 10
-21.75638833107535
 20
-102.726307670811
 11
-19.00000000000002
 21
-102.726307670811
  0
ARC
  8
0
  6
CONTINUOUS
 62
     7
 10
-19.00000000000002
 20
-104.2263076708111
 40
1.500000000000001
 50
0.0
 51
90.0
  0
LINE
  8
0
  6
CONTINUOUS
 62
     7
 10
-17.50000000000001
 20
-104.2263076708111
 11
-17.50000000000001
 21
-105.237565852821
  0
LINE
  8
0
  6
CONTINUOUS
 62
     7
 10
-17.50000000000001
 20
-105.2375658528209
 11
-50.48874181798998
 21
-105.2375658528209
  0
LINE
  8
0
  6
CONTINUOUS
 62
     7
 10
-50.48874181798998
 20
-105.2375658528209
 11
-50.48874181798998
 21
-114.7150494888012
  0
LINE
  8
0
  6
CONTINUOUS
 62
     7
 10
-50.48874181798998
 20
-114.7150494888012
 11
50.48874181799018
 21
-114.7150494888012
  0
LINE
  8
0
  6
CONTINUOUS
 62
     7
 10
50.48874181799018
 20
-114.7150494888012
 11
50.48874181799018
 21
-105.2375658528209
  0
LINE
  8
0
  6
CONTINUOUS
 62
     7
 10
50.48874181799018
 20
-105.2375658528209
 11
17.50000000000007
 21
-105.2375658528209
  0
LINE
  8
0
  6
CONTINUOUS
 62
     7
 10
17.50000000000007
 20
-104.2263076708111
 11
17.50000000000007
 21
-105.237565852821
  0
ARC
  8
0
  6
CONTINUOUS
 62
     7
 10
19.00000000000007
 20
-104.2263076708111
 40
1.500000000000001
 50
90.0
 51
180.0
  0
LINE
  8
0
  6
CONTINUOUS
 62
     7
 10
19.00000000000007
 20
-102.726307670811
 11
21.75638833107552
 21
-102.726307670811
  0
LINE
  8
0
  6
CONTINUOUS
 62
     7
 10
23.38603543328515
 20
-101.2263076708111
 11
22.783964566715
 21
-101.2263076708111
  0
ARC
  8
0
  6
CONTINUOUS
 62
     7
 10
38.77603543328523
 20
-102.2263076708111
 40
1.000000000000001
 50
3.000000000000409
 51
89.99999999999999
  0
ARC
  8
0
  6
CONTINUOUS
 62
     7
 10
27.91396456671502
 20
-102.2263076708111
 40
1.000000000000001
 50
90.0
 51
177.0000000000002
  0
LINE
  8
0
  6
CONTINUOUS
 62
     7
 10
28.51603543328524
 20
-101.2263076708111
 11
27.91396456671502
 21
-101.2263076708111
  0
ARC
  8
0
  6
CONTINUOUS
 62
     7
 10
28.51603543328524
 20
-102.2263076708111
 40
1.000000000000056
 50
3.000000000000409
 51
89.99999999999999
  0
ARC
  8
0
  6
CONTINUOUS
 62
     7
 10
23.38603543328515
 20
-102.2263076708111
 40
1.000000000000001
 50
3.000000000000409
 51
89.99999999999999
  0
ARC
  8
0
  6
CONTINUOUS
 62
     7
 10
43.30396456671498
 20
-102.2263076708111
 40
1.000000000000001
 50
89.99999999999682
 51
176.9999999999996
  0
LINE
  8
0
  6
CONTINUOUS
 62
     7
 10
43.90603543328525
 20
-101.2263076708111
 11
43.30396456671498
 21
-101.2263076708111
  0
ARC
  8
0
  6
CONTINUOUS
 62
     7
 10
43.90603543328525
 20
-102.2263076708111
 40
1.000000000000056
 50
3.000000000000409
 51
89.99999999999999
  0
ARC
  8
0
  6
CONTINUOUS
 62
     7
 10
33.04396456671488
 20
-102.2263076708111
 40
1.000000000000001
 50
90.0
 51
177.0000000000002
  0
LINE
  8
0
  6
CONTINUOUS
 62
     7
 10
33.64603543328526
 20
-101.2263076708111
 11
33.04396456671488
 21
-101.2263076708111
  0
ARC
  8
0
  6
CONTINUOUS
 62
     7
 10
33.64603543328526
 20
-102.2263076708111
 40
1.000000000000056
 50
3.000000000000409
 51
89.99999999999996
  0
ARC
  8
0
  6
CONTINUOUS
 62
     7
 10
22.783964566715
 20
-102.2263076708111
 40
1.000000000000001
 50
89.99999999999726
 51
177.0000000000002
  0
ARC
  8
0
  6
CONTINUOUS
 62
     7
 10
48.43396456671489
 20
-102.2263076708111
 40
1.000000000000001
 50
90.0
 51
176.9999999999997
  0
LINE
  8
0
  6
CONTINUOUS
 62
     7
 10
49.03603543328533
 20
-101.2263076708111
 11
48.43396456671489
 21
-101.2263076708111
  0
ARC
  8
0
  6
CONTINUOUS
 62
     7
 10
49.03603543328522
 20
-102.2263076708111
 40
1.000000000000001
 50
3.000000000000409
 51
89.99999999999419
  0
ARC
  8
0
  6
CONTINUOUS
 62
     7
 10
38.1739645667149
 20
-102.2263076708111
 40
1.000000000000001
 50
89.99999999999682
 51
177.0000000000002
  0
LINE
  8
0
  6
CONTINUOUS
 62
     7
 10
38.77603543328523
 20
-101.2263076708111
 11
38.17396456671501
 21
-101.2263076708111
  0
LINE
  8
0
  6
CONTINUOUS
 62
     7
 10
17.50000000000007
 20
-104.2263076708111
 11
11.50000000000001
 21
-104.2263076708111
  0
ARC
  8
0
  6
CONTINUOUS
 62
     7
 10
12.99999999999996
 20
-104.2263076708111
 40
1.500000000000001
 50
90.0
 51
180.0
  0
LINE
  8
0
  6
CONTINUOUS
 62
     7
 10
12.99999999999996
 20
-102.726307670811
 11
19.00000000000007
 21
-102.726307670811
  0
LINE
  8
0
  6
CONTINUOUS
 62
     7
 10
-11.50000000000001
 20
-104.2263076708111
 11
-17.50000000000001
 21
-104.2263076708111
  0
ARC
  8
0
  6
CONTINUOUS
 62
     7
 10
-13.00000000000001
 20
-104.2263076708111
 40
1.500000000000001
 50
0.0
 51
90.0
  0
LINE
  8
0
  6
CONTINUOUS
 62
     7
 10
-19.00000000000002
 20
-102.726307670811
 11
-13.00000000000001
 21
-102.726307670811
  0
LINE
  8
0
  6
CONTINUOUS
 62
     7
 10
11.50000000000001
 20
-105.3161136457868
 11
13.53137303340318
 21
-105.2375658528209
  0
LINE
  8
0
  6
CONTINUOUS
 62
     7
 10
11.50000000000001
 20
-104.2263076708111
 11
11.50000000000001
 21
-105.3161162348592
  0
LINE
  8
0
  6
CONTINUOUS
 62
     7
 10
17.50000000000007
 20
-105.2375658528209
 11
13.53137303340318
 21
-105.2375658528209
  0
LINE
  8
0
  6
CONTINUOUS
 62
     7
 10
-13.53137303340313
 20
-105.2375658528209
 11
-11.50000000000001
 21
-105.3161136457868
  0
LINE
  8
0
  6
CONTINUOUS
 62
     7
 10
-11.50000000000001
 20
-104.2263076708111
 11
-11.50000000000001
 21
-105.3161162348592
  0
LINE
  8
0
  6
CONTINUOUS
 62
     7
 10
-13.53137303340313
 20
-105.2375658528209
 11
-17.50000000000001
 21
-105.2375658528209
  0
LINE
  8
0
  6
CONTINUOUS
 62
     7
 10
-11.50000000000001
 20
-105.3161136457868
 11
-11.50000000000001
 21
-105.6671623264191
  0
LINE
  8
0
  6
CONTINUOUS
 62
     7
 10
-50.05914534439179
 20
-105.6671623264191
 11
-11.50000000000001
 21
-105.6671623264191
  0
LINE
  8
0
  6
CONTINUOUS
 62
     7
 10
-50.48874181798998
 20
-105.2375658528209
 11
-50.05914534439179
 21
-105.6671623264191
  0
LINE
  8
0
  6
CONTINUOUS
 62
     7
 10
50.48874181799018
 20
-105.2375658528209
 11
50.05914534439204
 21
-105.6671623264191
  0
LINE
  8
0
  6
CONTINUOUS
 62
     7
 10
11.50000000000001
 20
-105.6671623264191
 11
50.05914534439204
 21
-105.6671623264191
  0
LINE
  8
0
  6
CONTINUOUS
 62
     7
 10
11.50000000000001
 20
-105.6671623264191
 11
11.50000000000001
 21
-105.3161162348592
  0
LINE
  8
0
  6
CONTINUOUS
 62
     7
 10
-50.48874181798998
 20
-114.7150494888012
 11
-50.05914534439179
 21
-114.285453015203
  0
LINE
  8
0
  6
CONTINUOUS
 62
     7
 10
-49.99999999999991
 20
-109.1508433560819
 11
-49.98528799680452
 21
-105.6671623264192
  0
LINE
  8
0
  6
CONTINUOUS
 62
     7
 10
-49.99999999999991
 20
-110.8017719855403
 11
-49.99999999999991
 21
-109.1508433560819
  0
LINE
  8
0
  6
CONTINUOUS
 62
     7
 10
50.48874181799018
 20
-114.7150494888012
 11
50.05914534439204
 21
-114.2854530152029
  0
LINE
  8
0
  6
CONTINUOUS
 62
     7
 10
50.0000000000001
 20
-110.8017719855402
 11
49.98528799680474
 21
-114.285453015203
  0
LINE
  8
0
  6
CONTINUOUS
 62
     7
 10
49.99999999999999
 20
-109.1508433560818
 11
49.99999999999999
 21
-110.8017719855402
  0
LINE
  8
0
  6
CONTINUOUS
 62
     7
 10
-50.05914534439179
 20
-114.285453015203
 11
50.05914534439204
 21
-114.2854530152029
  0
LINE
  8
0
  6
CONTINUOUS
 62
     7
 10
-15.24727272727283
 20
-102.2263076708111
 11
-19.54272727272732
 21
-102.2263076708111
  0
LINE
  8
0
  6
CONTINUOUS
 62
     7
 10
16.13392645204059
 20
-102.226592670811
 11
16.13392645204059
 21
-102.726307670811
  0
LINE
  8
0
  6
CONTINUOUS
 62
     7
 10
19.88524010597981
 20
-102.226592670811
 11
16.13392645204059
 21
-102.226592670811
  0
LINE
  8
0
  6
CONTINUOUS
 62
     7
 10
19.88524010597981
 20
-102.226592670811
 11
19.88524010597981
 21
-102.726307670811
  0
LINE
  8
0
  6
CONTINUOUS
 62
     7
 10
16.13392645204059
 20
-102.226592670811
 11
14.88197826902032
 21
-102.226592670811
  0
LINE
  8
0
  6
CONTINUOUS
 62
     7
 10
14.88197826902032
 20
-102.226592670811
 11
14.88197826902032
 21
-102.726307670811
  0
LINE
  8
0
  6
CONTINUOUS
 62
     7
 10
-18.2510354332851
 20
-102.2252468380827
 11
-18.2510354332851
 21
-99.99909987694677
  0
LINE
  8
0
  6
CONTINUOUS
 62
     7
 10
-19.24966496803959
 20
-102.2247464443623
 11
-19.24966496803959
 21
-100.9467639207039
  0
LINE
  8
0
  6
CONTINUOUS
 62
     7
 10
17.6589645667149
 20
-102.226592670811
 11
17.6589645667149
 21
-99.99909987694677
  0
LINE
  8
0
  6
CONTINUOUS
 62
     7
 10
16.66033503196029
 20
-102.226592670811
 11
16.66033503196029
 21
-100.9467639207038
  0
LINE
  8
0
  6
CONTINUOUS
 62
     7
 10
19.25966496803971
 20
-102.226592670811
 11
19.25966496803971
 21
-100.9467639207038
  0
LINE
  8
0
  6
CONTINUOUS
 62
     7
 10
18.26103543328517
 20
-102.226592670811
 11
18.26103543328517
 21
-99.99909987694677
  0
LINE
  8
0
  6
CONTINUOUS
 62
     7
 10
-16.65033503196023
 20
-102.2247464443623
 11
-16.65033503196023
 21
-100.9467639207039
  0
LINE
  8
0
  6
CONTINUOUS
 62
     7
 10
-17.64896456671489
 20
-102.2250654805661
 11
-17.64896456671489
 21
-99.99909987694689
  0
LINE
  8
0
  6
CONTINUOUS
 62
     7
 10
-19.27861166892453
 20
-102.2258280949505
 11
-19.27861166892453
 21
-101.4990998769469
  0
LINE
  8
0
  6
CONTINUOUS
 62
     7
 10
-16.6213883310754
 20
-102.2258280949505
 11
-16.6213883310754
 21
-101.4990998769469
  0
LINE
  8
0
  6
CONTINUOUS
 62
     7
 10
19.28861166892459
 20
-102.226592670811
 11
19.28861166892459
 21
-101.4990998769468
  0
LINE
  8
0
  6
CONTINUOUS
 62
     7
 10
16.63138833107541
 20
-102.226592670811
 11
16.63138833107541
 21
-101.4990998769468
  0
LINE
  8
0
  6
CONTINUOUS
 62
     7
 10
-21.78033503196025
 20
-102.2693773980001
 11
-21.78033503196025
 21
-100.9467639207039
  0
LINE
  8
0
  6
CONTINUOUS
 62
     7
 10
-22.7789645667148
 20
-101.2263201708891
 11
-22.7789645667148
 21
-99.99909987694677
  0
LINE
  8
0
  6
CONTINUOUS
 62
     7
 10
39.77966496803975
 20
-102.2693773979996
 11
39.77966496803975
 21
-100.9467639207039
  0
LINE
  8
0
  6
CONTINUOUS
 62
     7
 10
38.7810354332852
 20
-101.2263201708891
 11
38.7810354332852
 21
-99.99909987694677
  0
LINE
  8
0
  6
CONTINUOUS
 62
     7
 10
29.51966496803971
 20
-102.269377398
 11
29.51966496803971
 21
-100.9467639207038
  0
LINE
  8
0
  6
CONTINUOUS
 62
     7
 10
28.52103543328521
 20
-101.2263201708891
 11
28.52103543328521
 21
-99.99909987694677
  0
LINE
  8
0
  6
CONTINUOUS
 62
     7
 10
34.64966496803967
 20
-102.2693773979999
 11
34.64966496803967
 21
-100.9467639207038
  0
LINE
  8
0
  6
CONTINUOUS
 62
     7
 10
33.65103543328512
 20
-101.2263201708891
 11
33.65103543328512
 21
-99.99909987694677
  0
LINE
  8
0
  6
CONTINUOUS
 62
     7
 10
-26.91033503196022
 20
-102.2693773980001
 11
-26.91033503196022
 21
-100.9467639207039
  0
LINE
  8
0
  6
CONTINUOUS
 62
     7
 10
-27.90896456671476
 20
-101.2263201708891
 11
-27.90896456671476
 21
-99.99909987694677
  0
LINE
  8
0
  6
CONTINUOUS
 62
     7
 10
44.90966496803978
 20
-102.269377398
 11
44.90966496803978
 21
-100.9467639207038
  0
LINE
  8
0
  6
CONTINUOUS
 62
     7
 10
43.91103543328523
 20
-101.2263201708891
 11
43.91103543328523
 21
-99.99909987694677
  0
LINE
  8
0
  6
CONTINUOUS
 62
     7
 10
-37.17033503196032
 20
-102.2693773980001
 11
-37.17033503196032
 21
-100.9467639207039
  0
LINE
  8
0
  6
CONTINUOUS
 62
     7
 10
-38.16896456671487
 20
-101.2263201708891
 11
-38.16896456671487
 21
-99.99909987694677
  0
LINE
  8
0
  6
CONTINUOUS
 62
     7
 10
-32.0403350319603
 20
-102.2693773980001
 11
-32.0403350319603
 21
-100.9467639207039
  0
LINE
  8
0
  6
CONTINUOUS
 62
     7
 10
-33.03896456671479
 20
-101.2263201708891
 11
-33.03896456671479
 21
-99.99909987694677
  0
LINE
  8
0
  6
CONTINUOUS
 62
     7
 10
-42.30033503196018
 20
-102.2693773980001
 11
-42.30033503196018
 21
-100.9467639207039
  0
LINE
  8
0
  6
CONTINUOUS
 62
     7
 10
-43.29896456671489
 20
-101.2263201708891
 11
-43.29896456671489
 21
-99.99909987694677
  0
LINE
  8
0
  6
CONTINUOUS
 62
     7
 10
24.38966496803968
 20
-102.2693773980001
 11
24.38966496803968
 21
-100.9467639207039
  0
LINE
  8
0
  6
CONTINUOUS
 62
     7
 10
23.39103543328513
 20
-101.2263201708891
 11
23.39103543328513
 21
-99.99909987694677
  0
LINE
  8
0
  6
CONTINUOUS
 62
     7
 10
50.03966496803974
 20
-102.2693773979999
 11
50.03966496803974
 21
-100.9467639207039
  0
LINE
  8
0
  6
CONTINUOUS
 62
     7
 10
49.04103543328508
 20
-101.2263201708891
 11
49.04103543328508
 21
-99.99909987694677
  0
LINE
  8
0
  6
CONTINUOUS
 62
     7
 10
-47.43033503196031
 20
-102.2693773980001
 11
-47.43033503196031
 21
-100.9467639207039
  0
LINE
  8
0
  6
CONTINUOUS
 62
     7
 10
-48.42896456671489
 20
-101.2263201708891
 11
-48.42896456671489
 21
-99.99909987694677
  0
LINE
  8
0
  6
CONTINUOUS
 62
     7
 10
48.43896456671498
 20
-118.726307670811
 11
48.43896456671498
 21
-119.9535154646753
  0
LINE
  8
0
  6
CONTINUOUS
 62
     7
 10
47.44033503196043
 20
-117.8390034900071
 11
47.44033503196043
 21
-119.0058514209182
  0
LINE
  8
0
  6
CONTINUOUS
 62
     7
 10
-23.38103543328512
 20
-118.726307670811
 11
-23.38103543328512
 21
-119.9535154646753
  0
LINE
  8
0
  6
CONTINUOUS
 62
     7
 10
-24.37966496803956
 20
-117.8390034900072
 11
-24.37966496803956
 21
-119.0058514209182
  0
LINE
  8
0
  6
CONTINUOUS
 62
     7
 10
-33.64103543328512
 20
-118.726307670811
 11
-33.64103543328512
 21
-119.9535154646753
  0
LINE
  8
0
  6
CONTINUOUS
 62
     7
 10
-34.6396649680395
 20
-117.8390034900059
 11
-34.6396649680395
 21
-119.0058514209182
  0
LINE
  8
0
  6
CONTINUOUS
 62
     7
 10
22.78896456671503
 20
-118.726307670811
 11
22.78896456671503
 21
-119.9535154646753
  0
LINE
  8
0
  6
CONTINUOUS
 62
     7
 10
21.79033503196037
 20
-117.8390034900073
 11
21.79033503196037
 21
-119.0058514209182
  0
LINE
  8
0
  6
CONTINUOUS
 62
     7
 10
43.3089645667149
 20
-118.726307670811
 11
43.3089645667149
 21
-119.9535154646753
  0
LINE
  8
0
  6
CONTINUOUS
 62
     7
 10
42.31033503196046
 20
-117.8390034900058
 11
42.31033503196046
 21
-119.0058514209182
  0
LINE
  8
0
  6
CONTINUOUS
 62
     7
 10
-43.90103543328511
 20
-118.726307670811
 11
-43.90103543328511
 21
-119.9535154646753
  0
LINE
  8
0
  6
CONTINUOUS
 62
     7
 10
-44.89966496803971
 20
-117.8390034900072
 11
-44.89966496803971
 21
-119.0058514209182
  0
LINE
  8
0
  6
CONTINUOUS
 62
     7
 10
27.91896456671489
 20
-118.726307670811
 11
27.91896456671489
 21
-119.9535154646753
  0
LINE
  8
0
  6
CONTINUOUS
 62
     7
 10
26.92033503196051
 20
-117.839003490006
 11
26.92033503196051
 21
-119.0058514209182
  0
LINE
  8
0
  6
CONTINUOUS
 62
     7
 10
7.398964566715016
 20
-118.726307670811
 11
7.398964566715016
 21
-119.9535154646753
  0
LINE
  8
0
  6
CONTINUOUS
 62
     7
 10
6.400335031960302
 20
-117.8390034900073
 11
6.400335031960302
 21
-119.0058514209182
  0
LINE
  8
0
  6
CONTINUOUS
 62
     7
 10
-7.991035433285054
 20
-118.726307670811
 11
-7.991035433285054
 21
-119.9535154646753
  0
LINE
  8
0
  6
CONTINUOUS
 62
     7
 10
-8.989664968039602
 20
-117.8390034900059
 11
-8.989664968039602
 21
-119.0058514209182
  0
LINE
  8
0
  6
CONTINUOUS
 62
     7
 10
-13.12103543328513
 20
-118.726307670811
 11
-13.12103543328513
 21
-119.9535154646753
  0
LINE
  8
0
  6
CONTINUOUS
 62
     7
 10
-14.11966496803957
 20
-117.8390034900072
 11
-14.11966496803957
 21
-119.0058514209182
  0
LINE
  8
0
  6
CONTINUOUS
 62
     7
 10
-49.03103543328508
 20
-118.726307670811
 11
-49.03103543328508
 21
-119.9535154646753
  0
LINE
  8
0
  6
CONTINUOUS
 62
     7
 10
-50.02966496803948
 20
-117.8390034900059
 11
-50.02966496803948
 21
-119.0058514209182
  0
LINE
  8
0
  6
CONTINUOUS
 62
     7
 10
-28.51103543328509
 20
-118.726307670811
 11
-28.51103543328509
 21
-119.9535154646753
  0
LINE
  8
0
  6
CONTINUOUS
 62
     7
 10
-29.50966496803964
 20
-117.8390034900072
 11
-29.50966496803964
 21
-119.0058514209182
  0
LINE
  8
0
  6
CONTINUOUS
 62
     7
 10
12.52896456671493
 20
-118.726307670811
 11
12.52896456671493
 21
-119.9535154646753
  0
LINE
  8
0
  6
CONTINUOUS
 62
     7
 10
11.53033503196038
 20
-117.839003490006
 11
11.53033503196038
 21
-119.0058514209182
  0
LINE
  8
0
  6
CONTINUOUS
 62
     7
 10
-38.77103543328509
 20
-118.726307670811
 11
-38.77103543328509
 21
-119.9535154646753
  0
LINE
  8
0
  6
CONTINUOUS
 62
     7
 10
-39.76966496803952
 20
-117.8390034900058
 11
-39.76966496803941
 21
-119.0058514209182
  0
LINE
  8
0
  6
CONTINUOUS
 62
     7
 10
-18.2510354332851
 20
-118.726307670811
 11
-18.2510354332851
 21
-119.9535154646753
  0
LINE
  8
0
  6
CONTINUOUS
 62
     7
 10
-19.24966496803959
 20
-117.8390034900072
 11
-19.24966496803959
 21
-119.0058514209182
  0
LINE
  8
0
  6
CONTINUOUS
 62
     7
 10
38.17896456671488
 20
-118.726307670811
 11
38.17896456671488
 21
-119.9535154646753
  0
LINE
  8
0
  6
CONTINUOUS
 62
     7
 10
37.18033503196033
 20
-117.8390034900072
 11
37.18033503196033
 21
-119.0058514209182
  0
LINE
  8
0
  6
CONTINUOUS
 62
     7
 10
17.65896456671501
 20
-118.726307670811
 11
17.65896456671501
 21
-119.9535154646753
  0
LINE
  8
0
  6
CONTINUOUS
 62
     7
 10
16.66033503196029
 20
-117.8390034900073
 11
16.66033503196029
 21
-119.0058514209182
  0
LINE
  8
0
  6
CONTINUOUS
 62
     7
 10
-2.861035433285086
 20
-118.726307670811
 11
-2.861035433285086
 21
-119.9535154646753
  0
LINE
  8
0
  6
CONTINUOUS
 62
     7
 10
-3.859664968039689
 20
-117.8390034900072
 11
-3.859664968039689
 21
-119.0058514209182
  0
LINE
  8
0
  6
CONTINUOUS
 62
     7
 10
33.04896456671491
 20
-118.726307670811
 11
33.04896456671491
 21
-119.9535154646753
  0
LINE
  8
0
  6
CONTINUOUS
 62
     7
 10
32.05033503196037
 20
-117.8390034900072
 11
32.05033503196037
 21
-119.0058514209182
  0
LINE
  8
0
  6
CONTINUOUS
 62
     7
 10
2.268964566714937
 20
-118.726307670811
 11
2.268964566714937
 21
-119.9535154646753
  0
LINE
  8
0
  6
CONTINUOUS
 62
     7
 10
1.270335031960279
 20
-117.839003490006
 11
1.270335031960279
 21
-119.0058514209182
  0
LINE
  8
0
  6
CONTINUOUS
 62
     7
 10
-49.03103543328508
 20
-101.226307670811
 11
-49.03103543328508
 21
-99.99909987694677
  0
LINE
  8
0
  6
CONTINUOUS
 62
     7
 10
-50.02966496803968
 20
-102.1136118516159
 11
-50.02966496803968
 21
-100.9467639207038
  0
LINE
  8
0
  6
CONTINUOUS
 62
     7
 10
27.91896456671489
 20
-101.226307670811
 11
27.91896456671489
 21
-99.99909987694677
  0
LINE
  8
0
  6
CONTINUOUS
 62
     7
 10
26.92033503196034
 20
-102.113611851616
 11
26.92033503196034
 21
-100.9467639207039
  0
LINE
  8
0
  6
CONTINUOUS
 62
     7
 10
43.3089645667149
 20
-101.226307670811
 11
43.3089645667149
 21
-99.99909987694677
  0
LINE
  8
0
  6
CONTINUOUS
 62
     7
 10
42.31033503196041
 20
-102.113611851616
 11
42.31033503196041
 21
-100.9467639207039
  0
LINE
  8
0
  6
CONTINUOUS
 62
     7
 10
33.04896456671491
 20
-101.226307670811
 11
33.04896456671491
 21
-99.99909987694677
  0
LINE
  8
0
  6
CONTINUOUS
 62
     7
 10
32.05033503196037
 20
-102.113611851616
 11
32.05033503196037
 21
-100.9467639207038
  0
LINE
  8
0
  6
CONTINUOUS
 62
     7
 10
38.17896456671488
 20
-101.226307670811
 11
38.17896456671488
 21
-99.99909987694677
  0
LINE
  8
0
  6
CONTINUOUS
 62
     7
 10
37.18033503196033
 20
-102.1136118516162
 11
37.18033503196033
 21
-100.9467639207039
  0
LINE
  8
0
  6
CONTINUOUS
 62
     7
 10
22.78896456671492
 20
-101.226307670811
 11
22.78896456671492
 21
-99.99909987694677
  0
LINE
  8
0
  6
CONTINUOUS
 62
     7
 10
21.79033503196037
 20
-102.1136118516162
 11
21.79033503196037
 21
-100.9467639207039
  0
LINE
  8
0
  6
CONTINUOUS
 62
     7
 10
-43.90103543328511
 20
-101.226307670811
 11
-43.90103543328511
 21
-99.99909987694677
  0
LINE
  8
0
  6
CONTINUOUS
 62
     7
 10
-44.89966496803971
 20
-102.1136118516159
 11
-44.89966496803971
 21
-100.9467639207039
  0
LINE
  8
0
  6
CONTINUOUS
 62
     7
 10
-33.64103543328512
 20
-101.226307670811
 11
-33.64103543328512
 21
-99.99909987694677
  0
LINE
  8
0
  6
CONTINUOUS
 62
     7
 10
-34.63966496803966
 20
-102.1136118516159
 11
-34.63966496803966
 21
-100.9467639207038
  0
LINE
  8
0
  6
CONTINUOUS
 62
     7
 10
-23.38103543328512
 20
-101.226307670811
 11
-23.38103543328512
 21
-99.99909987694677
  0
LINE
  8
0
  6
CONTINUOUS
 62
     7
 10
-24.37966496803956
 20
-102.1136118516159
 11
-24.37966496803956
 21
-100.9467639207038
  0
LINE
  8
0
  6
CONTINUOUS
 62
     7
 10
-38.77103543328509
 20
-101.226307670811
 11
-38.77103543328509
 21
-99.99909987694677
  0
LINE
  8
0
  6
CONTINUOUS
 62
     7
 10
-39.76966496803963
 20
-102.1136118516159
 11
-39.76966496803963
 21
-100.9467639207038
  0
LINE
  8
0
  6
CONTINUOUS
 62
     7
 10
-28.51103543328509
 20
-101.226307670811
 11
-28.51103543328509
 21
-99.99909987694677
  0
LINE
  8
0
  6
CONTINUOUS
 62
     7
 10
-29.50966496803964
 20
-102.1136118516159
 11
-29.50966496803964
 21
-100.9467639207038
  0
LINE
  8
0
  6
CONTINUOUS
 62
     7
 10
48.43896456671498
 20
-101.226307670811
 11
48.43896456671498
 21
-99.99909987694677
  0
LINE
  8
0
  6
CONTINUOUS
 62
     7
 10
47.44033503196043
 20
-102.113611851616
 11
47.44033503196043
 21
-100.9467639207038
  0
LINE
  8
0
  6
CONTINUOUS
 62
     7
 10
-47.43033503196031
 20
-117.6832379436155
 11
-47.43033503196031
 21
-119.0058514209182
  0
LINE
  8
0
  6
CONTINUOUS
 62
     7
 10
-48.42896456671489
 20
-118.7262951707329
 11
-48.42896456671489
 21
-119.9535154646753
  0
LINE
  8
0
  6
CONTINUOUS
 62
     7
 10
-32.0403350319603
 20
-117.6832379436156
 11
-32.0403350319603
 21
-119.0058514209182
  0
LINE
  8
0
  6
CONTINUOUS
 62
     7
 10
-33.03896456671479
 20
-118.7262951707329
 11
-33.03896456671479
 21
-119.9535154646753
  0
LINE
  8
0
  6
CONTINUOUS
 62
     7
 10
39.77966496803975
 20
-117.6832379436157
 11
39.77966496803975
 21
-119.0058514209182
  0
LINE
  8
0
  6
CONTINUOUS
 62
     7
 10
38.7810354332852
 20
-118.7262951707329
 11
38.7810354332852
 21
-119.9535154646753
  0
LINE
  8
0
  6
CONTINUOUS
 62
     7
 10
34.64966496803967
 20
-117.6832379436157
 11
34.64966496803967
 21
-119.0058514209182
  0
LINE
  8
0
  6
CONTINUOUS
 62
     7
 10
33.65103543328512
 20
-118.7262951707329
 11
33.65103543328512
 21
-119.9535154646753
  0
LINE
  8
0
  6
CONTINUOUS
 62
     7
 10
-42.30033503196018
 20
-117.6832379436156
 11
-42.30033503196018
 21
-119.0058514209182
  0
LINE
  8
0
  6
CONTINUOUS
 62
     7
 10
-43.29896456671489
 20
-118.7262951707329
 11
-43.29896456671489
 21
-119.9535154646753
  0
LINE
  8
0
  6
CONTINUOUS
 62
     7
 10
-16.65033503196023
 20
-117.6832379436156
 11
-16.65033503196023
 21
-119.0058514209182
  0
LINE
  8
0
  6
CONTINUOUS
 62
     7
 10
-17.64896456671489
 20
-118.7262951707329
 11
-17.64896456671489
 21
-119.9535154646753
  0
LINE
  8
0
  6
CONTINUOUS
 62
     7
 10
-21.78033503196025
 20
-117.6832379436156
 11
-21.78033503196025
 21
-119.0058514209182
  0
LINE
  8
0
  6
CONTINUOUS
 62
     7
 10
-22.7789645667148
 20
-118.7262951707329
 11
-22.7789645667148
 21
-119.9535154646753
  0
LINE
  8
0
  6
CONTINUOUS
 62
     7
 10
8.999664968039832
 20
-117.6832379436154
 11
8.999664968039832
 21
-119.0058514209182
  0
LINE
  8
0
  6
CONTINUOUS
 62
     7
 10
8.001035433285175
 20
-118.7262951707329
 11
8.001035433285175
 21
-119.9535154646753
  0
LINE
  8
0
  6
CONTINUOUS
 62
     7
 10
-37.17033503196032
 20
-117.6832379436157
 11
-37.17033503196032
 21
-119.0058514209182
  0
LINE
  8
0
  6
CONTINUOUS
 62
     7
 10
-38.16896456671487
 20
-118.7262951707329
 11
-38.16896456671487
 21
-119.9535154646753
  0
LINE
  8
0
  6
CONTINUOUS
 62
     7
 10
50.03966496803974
 20
-117.6832379436159
 11
50.03966496803974
 21
-119.0058514209182
  0
LINE
  8
0
  6
CONTINUOUS
 62
     7
 10
49.04103543328508
 20
-118.7262951707329
 11
49.04103543328508
 21
-119.9535154646753
  0
LINE
  8
0
  6
CONTINUOUS
 62
     7
 10
44.90966496803978
 20
-117.6832379436158
 11
44.90966496803978
 21
-119.0058514209182
  0
LINE
  8
0
  6
CONTINUOUS
 62
     7
 10
43.91103543328523
 20
-118.7262951707329
 11
43.91103543328523
 21
-119.9535154646753
  0
LINE
  8
0
  6
CONTINUOUS
 62
     7
 10
3.86966496803981
 20
-117.6832379436155
 11
3.86966496803981
 21
-119.0058514209182
  0
LINE
  8
0
  6
CONTINUOUS
 62
     7
 10
2.871035433285096
 20
-118.7262951707329
 11
2.871035433285096
 21
-119.9535154646753
  0
LINE
  8
0
  6
CONTINUOUS
 62
     7
 10
-6.390335031960181
 20
-117.6832379436156
 11
-6.390335031960181
 21
-119.0058514209182
  0
LINE
  8
0
  6
CONTINUOUS
 62
     7
 10
-7.388964566714895
 20
-118.7262951707329
 11
-7.388964566714895
 21
-119.9535154646753
  0
LINE
  8
0
  6
CONTINUOUS
 62
     7
 10
-1.260335031960269
 20
-117.6832379436156
 11
-1.260335031960269
 21
-119.0058514209182
  0
LINE
  8
0
  6
CONTINUOUS
 62
     7
 10
-2.258964566714816
 20
-118.7262951707329
 11
-2.258964566714816
 21
-119.9535154646753
  0
LINE
  8
0
  6
CONTINUOUS
 62
     7
 10
14.12966496803969
 20
-117.6832379436154
 11
14.12966496803969
 21
-119.0058514209182
  0
LINE
  8
0
  6
CONTINUOUS
 62
     7
 10
13.1310354332852
 20
-118.7262951707329
 11
13.1310354332852
 21
-119.9535154646753
  0
LINE
  8
0
  6
CONTINUOUS
 62
     7
 10
-26.91033503196022
 20
-117.6832379436156
 11
-26.91033503196022
 21
-119.0058514209182
  0
LINE
  8
0
  6
CONTINUOUS
 62
     7
 10
-27.90896456671476
 20
-118.7262951707329
 11
-27.90896456671476
 21
-119.9535154646753
  0
LINE
  8
0
  6
CONTINUOUS
 62
     7
 10
-11.52033503196026
 20
-117.6832379436157
 11
-11.52033503196026
 21
-119.0058514209182
  0
LINE
  8
0
  6
CONTINUOUS
 62
     7
 10
-12.51896456671492
 20
-118.7262951707329
 11
-12.51896456671492
 21
-119.9535154646753
  0
LINE
  8
0
  6
CONTINUOUS
 62
     7
 10
19.25966496803971
 20
-117.6832379436154
 11
19.25966496803971
 21
-119.0058514209182
  0
LINE
  8
0
  6
CONTINUOUS
 62
     7
 10
18.26103543328517
 20
-118.7262951707329
 11
18.26103543328517
 21
-119.9535154646753
  0
LINE
  8
0
  6
CONTINUOUS
 62
     7
 10
29.51966496803971
 20
-117.6832379436155
 11
29.51966496803971
 21
-119.0058514209182
  0
LINE
  8
0
  6
CONTINUOUS
 62
     7
 10
28.52103543328521
 20
-118.7262951707329
 11
28.52103543328521
 21
-119.9535154646753
  0
LINE
  8
0
  6
CONTINUOUS
 62
     7
 10
24.38966496803968
 20
-117.6832379436154
 11
24.38966496803968
 21
-119.0058514209182
  0
LINE
  8
0
  6
CONTINUOUS
 62
     7
 10
23.39103543328525
 20
-118.7262951707329
 11
23.39103543328525
 21
-119.9535154646753
  0
LINE
  8
0
  6
CONTINUOUS
 62
     7
 10
19.28861166892459
 20
-117.226307670811
 11
19.28861166892459
 21
-118.4535154646752
  0
LINE
  8
0
  6
CONTINUOUS
 62
     7
 10
14.15861166892457
 20
-117.226307670811
 11
14.15861166892457
 21
-118.4535154646752
  0
LINE
  8
0
  6
CONTINUOUS
 62
     7
 10
9.028611668924603
 20
-117.226307670811
 11
9.028611668924603
 21
-118.4535154646752
  0
LINE
  8
0
  6
CONTINUOUS
 62
     7
 10
24.41861166892462
 20
-117.226307670811
 11
24.41861166892462
 21
-118.4535154646752
  0
LINE
  8
0
  6
CONTINUOUS
 62
     7
 10
3.898611668924579
 20
-117.226307670811
 11
3.898611668924579
 21
-118.4535154646752
  0
LINE
  8
0
  6
CONTINUOUS
 62
     7
 10
-47.40138833107549
 20
-117.226307670811
 11
-47.40138833107549
 21
-118.4535154646753
  0
LINE
  8
0
  6
CONTINUOUS
 62
     7
 10
-32.01138833107536
 20
-117.226307670811
 11
-32.01138833107536
 21
-118.4535154646753
  0
LINE
  8
0
  6
CONTINUOUS
 62
     7
 10
-42.27138833107541
 20
-117.226307670811
 11
-42.27138833107541
 21
-118.4535154646753
  0
LINE
  8
0
  6
CONTINUOUS
 62
     7
 10
29.54861166892464
 20
-117.226307670811
 11
29.54861166892464
 21
-118.4535154646752
  0
LINE
  8
0
  6
CONTINUOUS
 62
     7
 10
-1.231388331075389
 20
-117.226307670811
 11
-1.231388331075389
 21
-118.4535154646752
  0
LINE
  8
0
  6
CONTINUOUS
 62
     7
 10
-21.75138833107537
 20
-117.226307670811
 11
-21.75138833107537
 21
-118.4535154646753
  0
LINE
  8
0
  6
CONTINUOUS
 62
     7
 10
-16.6213883310754
 20
-117.226307670811
 11
-16.6213883310754
 21
-118.4535154646752
  0
LINE
  8
0
  6
CONTINUOUS
 62
     7
 10
-26.8813883310754
 20
-117.226307670811
 11
-26.8813883310754
 21
-118.4535154646753
  0
LINE
  8
0
  6
CONTINUOUS
 62
     7
 10
-6.361388331075412
 20
-117.226307670811
 11
-6.361388331075412
 21
-118.4535154646752
  0
LINE
  8
0
  6
CONTINUOUS
 62
     7
 10
39.80861166892463
 20
-117.226307670811
 11
39.80861166892463
 21
-118.4535154646752
  0
LINE
  8
0
  6
CONTINUOUS
 62
     7
 10
34.67861166892461
 20
-117.226307670811
 11
34.67861166892461
 21
-118.4535154646752
  0
LINE
  8
0
  6
CONTINUOUS
 62
     7
 10
-37.14138833107538
 20
-117.226307670811
 11
-37.14138833107538
 21
-118.4535154646753
  0
LINE
  8
0
  6
CONTINUOUS
 62
     7
 10
-11.49138833107538
 20
-117.226307670811
 11
-11.49138833107538
 21
-118.4535154646752
  0
LINE
  8
0
  6
CONTINUOUS
 62
     7
 10
44.9386116689246
 20
-117.226307670811
 11
44.9386116689246
 21
-118.4535154646752
  0
LINE
  8
0
  6
CONTINUOUS
 62
     7
 10
50.06861166892451
 20
-117.226307670811
 11
50.06861166892451
 21
-118.4535154646752
  0
LINE
  8
0
  6
CONTINUOUS
 62
     7
 10
-42.27138833107541
 20
-102.726307670811
 11
-42.27138833107541
 21
-101.4990998769468
  0
LINE
  8
0
  6
CONTINUOUS
 62
     7
 10
24.41861166892462
 20
-102.726307670811
 11
24.41861166892462
 21
-101.4990998769469
  0
LINE
  8
0
  6
CONTINUOUS
 62
     7
 10
-47.40138833107549
 20
-102.726307670811
 11
-47.40138833107549
 21
-101.4990998769468
  0
LINE
  8
0
  6
CONTINUOUS
 62
     7
 10
-32.01138833107536
 20
-102.726307670811
 11
-32.01138833107536
 21
-101.4990998769468
  0
LINE
  8
0
  6
CONTINUOUS
 62
     7
 10
-37.14138833107538
 20
-102.726307670811
 11
-37.14138833107538
 21
-101.4990998769468
  0
LINE
  8
0
  6
CONTINUOUS
 62
     7
 10
-26.8813883310754
 20
-102.726307670811
 11
-26.8813883310754
 21
-101.4990998769468
  0
LINE
  8
0
  6
CONTINUOUS
 62
     7
 10
-21.75138833107537
 20
-102.726307670811
 11
-21.75138833107537
 21
-101.4990998769468
  0
LINE
  8
0
  6
CONTINUOUS
 62
     7
 10
44.9386116689246
 20
-102.726307670811
 11
44.9386116689246
 21
-101.4990998769468
  0
LINE
  8
0
  6
CONTINUOUS
 62
     7
 10
29.54861166892464
 20
-102.726307670811
 11
29.54861166892464
 21
-101.4990998769468
  0
LINE
  8
0
  6
CONTINUOUS
 62
     7
 10
50.06861166892473
 20
-102.726307670811
 11
50.06861166892473
 21
-101.4990998769468
  0
LINE
  8
0
  6
CONTINUOUS
 62
     7
 10
34.67861166892461
 20
-102.726307670811
 11
34.67861166892461
 21
-101.4990998769468
  0
LINE
  8
0
  6
CONTINUOUS
 62
     7
 10
39.80861166892463
 20
-102.726307670811
 11
39.80861166892463
 21
-101.4990998769468
  0
LINE
  8
0
  6
CONTINUOUS
 62
     7
 10
42.28138833107625
 20
-117.321713354254
 11
42.28138833107642
 21
-118.4535154646752
  0
LINE
  8
0
  6
CONTINUOUS
 62
     7
 10
-39.79861166892379
 20
-117.3217133542541
 11
-39.79861166892356
 21
-118.4535154646753
  0
LINE
  8
0
  6
CONTINUOUS
 62
     7
 10
-34.66861166892377
 20
-117.3217133542542
 11
-34.6686116689236
 21
-118.4535154646753
  0
LINE
  8
0
  6
CONTINUOUS
 62
     7
 10
-50.05861166892378
 20
-117.3217133542542
 11
-50.05861166892358
 21
-118.4535154646753
  0
LINE
  8
0
  6
CONTINUOUS
 62
     7
 10
26.89138833107618
 20
-117.3217133542542
 11
26.89138833107652
 21
-118.4535154646753
  0
LINE
  8
0
  6
CONTINUOUS
 62
     7
 10
-9.01861166892448
 20
-117.3217133542493
 11
-9.01861166892448
 21
-118.4535154646753
  0
LINE
  8
0
  6
CONTINUOUS
 62
     7
 10
1.24138833107551
 20
-117.3217133542494
 11
1.24138833107551
 21
-118.4535154646753
  0
LINE
  8
0
  6
CONTINUOUS
 62
     7
 10
37.15138833107545
 20
-102.6309019873732
 11
37.15138833107545
 21
-101.4990998769469
  0
LINE
  8
0
  6
CONTINUOUS
 62
     7
 10
21.76138833107538
 20
-102.6309019873731
 11
21.76138833107538
 21
-101.4990998769469
  0
LINE
  8
0
  6
CONTINUOUS
 62
     7
 10
11.5013883310755
 20
-117.3217133542495
 11
11.5013883310755
 21
-118.4535154646753
  0
LINE
  8
0
  6
CONTINUOUS
 62
     7
 10
47.41138833107544
 20
-102.630901987373
 11
47.41138833107544
 21
-101.4990998769468
  0
LINE
  8
0
  6
CONTINUOUS
 62
     7
 10
32.02138833107537
 20
-102.630901987373
 11
32.02138833107537
 21
-101.4990998769468
  0
LINE
  8
0
  6
CONTINUOUS
 62
     7
 10
26.89138833107551
 20
-102.6309019873729
 11
26.89138833107551
 21
-101.4990998769468
  0
LINE
  8
0
  6
CONTINUOUS
 62
     7
 10
42.28138833107548
 20
-102.6309019873729
 11
42.28138833107548
 21
-101.4990998769468
  0
LINE
  8
0
  6
CONTINUOUS
 62
     7
 10
-50.05861166892461
 20
-102.6309019873729
 11
-50.05861166892461
 21
-101.4990998769468
  0
LINE
  8
0
  6
CONTINUOUS
 62
     7
 10
-29.53861166892452
 20
-102.6309019873729
 11
-29.53861166892452
 21
-101.4990998769468
  0
LINE
  8
0
  6
CONTINUOUS
 62
     7
 10
-34.6686116689246
 20
-102.6309019873729
 11
-34.6686116689246
 21
-101.4990998769468
  0
LINE
  8
0
  6
CONTINUOUS
 62
     7
 10
-39.79861166892462
 20
-102.630901987373
 11
-39.79861166892462
 21
-101.4990998769468
  0
LINE
  8
0
  6
CONTINUOUS
 62
     7
 10
-24.40861166892455
 20
-102.6309019873729
 11
-24.40861166892455
 21
-101.4990998769468
  0
LINE
  8
0
  6
CONTINUOUS
 62
     7
 10
-44.92861166892447
 20
-102.6309019873728
 11
-44.92861166892447
 21
-101.4990998769469
  0
LINE
  8
0
  6
CONTINUOUS
 62
     7
 10
47.41138833107622
 20
-117.3217133542538
 11
47.41138833107639
 21
-118.4535154646752
  0
LINE
  8
0
  6
CONTINUOUS
 62
     7
 10
32.02138833107626
 20
-117.3217133542541
 11
32.02138833107643
 21
-118.4535154646753
  0
LINE
  8
0
  6
CONTINUOUS
 62
     7
 10
37.15138833107628
 20
-117.3217133542541
 11
37.1513883310764
 21
-118.4535154646753
  0
LINE
  8
0
  6
CONTINUOUS
 62
     7
 10
-24.40861166892377
 20
-117.321713354254
 11
-24.40861166892361
 21
-118.4535154646753
  0
LINE
  8
0
  6
CONTINUOUS
 62
     7
 10
-29.53861166892374
 20
-117.321713354254
 11
-29.53861166892358
 21
-118.4535154646753
  0
LINE
  8
0
  6
CONTINUOUS
 62
     7
 10
-19.27861166892375
 20
-117.321713354254
 11
-19.27861166892358
 21
-118.4535154646753
  0
LINE
  8
0
  6
CONTINUOUS
 62
     7
 10
-14.14861166892445
 20
-117.3217133542493
 11
-14.14861166892445
 21
-118.4535154646753
  0
LINE
  8
0
  6
CONTINUOUS
 62
     7
 10
-3.888611668924458
 20
-117.3217133542494
 11
-3.888611668924458
 21
-118.4535154646753
  0
LINE
  8
0
  6
CONTINUOUS
 62
     7
 10
-44.92861166892376
 20
-117.321713354254
 11
-44.92861166892359
 21
-118.4535154646753
  0
LINE
  8
0
  6
CONTINUOUS
 62
     7
 10
6.371388331075534
 20
-117.3217133542495
 11
6.371388331075534
 21
-118.4535154646753
  0
LINE
  8
0
  6
CONTINUOUS
 62
     7
 10
16.63138833107619
 20
-117.3217133542544
 11
16.63138833107653
 21
-118.4535154646753
  0
LINE
  8
0
  6
CONTINUOUS
 62
     7
 10
21.76138833107622
 20
-117.3217133542543
 11
21.76138833107644
 21
-118.4535154646752
  0
LINE
  8
0
  6
CONTINUOUS
 62
     7
 10
-52.99999999999991
 20
-116.9535154646753
 11
-52.99999999999991
 21
-115.726307670811
  0
LINE
  8
0
  6
CONTINUOUS
 62
     7
 10
-51.49999999999991
 20
-117.226307670811
 11
-51.49999999999991
 21
-118.4535154646753
  0
LINE
  8
0
  6
CONTINUOUS
 62
     7
 10
51.49999999999999
 20
-118.4535154646753
 11
51.49999999999999
 21
-117.226307670811
  0
LINE
  8
0
  6
CONTINUOUS
 62
     7
 10
52.99999999999999
 20
-115.726307670811
 11
52.99999999999999
 21
-116.9535154646753
  0
LINE
  8
0
  6
CONTINUOUS
 62
     7
 10
-51.49999999999991
 20
-101.4990998769468
 11
-51.49999999999991
 21
-102.726307670811
  0
LINE
  8
0
  6
CONTINUOUS
 62
     7
 10
-52.99999999999991
 20
-104.226307670811
 11
-52.99999999999991
 21
-102.9990998769468
  0
LINE
  8
0
  6
CONTINUOUS
 62
     7
 10
52.99999999999999
 20
-102.9990998769468
 11
52.99999999999999
 21
-104.226307670811
  0
LINE
  8
0
  6
CONTINUOUS
 62
     7
 10
51.49999999999999
 20
-102.726307670811
 11
51.49999999999999
 21
-101.4990998769468
  0
LINE
  8
0
  6
CONTINUOUS
 62
     7
 10
-11.50000000000001
 20
-102.9990998769469
 11
-11.50000000000001
 21
-104.226307670811
  0
LINE
  8
0
  6
CONTINUOUS
 62
     7
 10
-13.00000000000001
 20
-102.726307670811
 11
-13.00000000000001
 21
-101.4990998769469
  0
LINE
  8
0
  6
CONTINUOUS
 62
     7
 10
12.99999999999996
 20
-101.4990998769468
 11
12.99999999999996
 21
-102.726307670811
  0
LINE
  8
0
  6
CONTINUOUS
 62
     7
 10
11.50000000000001
 20
-104.226307670811
 11
11.50000000000001
 21
-102.9990998769468
  0
LINE
  8
0
  6
CONTINUOUS
 62
     7
 10
49.98528799680463
 20
-105.6671623264191
 11
49.99999999999999
 21
-109.1508433560819
  0
LINE
  8
0
  6
CONTINUOUS
 62
     7
 10
-11.50000000000001
 20
-105.7263076708111
 11
-11.50000000000001
 21
-105.6671623264191
  0
LINE
  8
0
  6
CONTINUOUS
 62
     7
 10
-49.99999999999991
 20
-109.1508433560819
 11
49.99999999999999
 21
-109.1508433560818
  0
LINE
  8
0
  6
CONTINUOUS
 62
     7
 10
-11.50000000000001
 20
-105.7263076708111
 11
11.50000000000001
 21
-105.7263076708111
  0
LINE
  8
0
  6
CONTINUOUS
 62
     7
 10
11.50000000000001
 20
-105.6671623264191
 11
11.50000000000001
 21
-105.7263076708111
  0
LINE
  8
0
  6
CONTINUOUS
 62
     7
 10
-49.98528799680452
 20
-114.285453015203
 11
-49.99999999999991
 21
-110.8017719855403
  0
LINE
  8
0
  6
CONTINUOUS
 62
     7
 10
49.99999999999999
 20
-110.8017719855402
 11
-49.99999999999991
 21
-110.8017719855403
  0
LINE
  8
0
  6
CONTINUOUS
 62
     7
 10
-19.54272727272732
 20
-102.2263076708111
 11
-19.54272727272732
 21
-102.7263076708111
  0
LINE
  8
0
  6
CONTINUOUS
 62
     7
 10
-15.24727272727283
 20
-102.726307670811
 11
-15.24727272727283
 21
-102.226307670811
  0
ARC
  8
0
  6
CONTINUOUS
 62
     7
 10
-18.2510354332851
 20
-100.9990998769469
 40
1.000000000000001
 50
90.0
 51
176.9999999999997
  0
ARC
  8
0
  6
CONTINUOUS
 62
     7
 10
17.6589645667149
 20
-100.9990998769469
 40
1.000000000000001
 50
90.0
 51
176.9999999999995
  0
ARC
  8
0
  6
CONTINUOUS
 62
     7
 10
18.26103543328517
 20
-100.9990998769469
 40
1.000000000000001
 50
3.000000000000166
 51
90.00000000000001
  0
ARC
  8
0
  6
CONTINUOUS
 62
     7
 10
-17.64896456671489
 20
-100.9990998769469
 40
1.000000000000001
 50
3.000000000000166
 51
90.00000000000001
  0
LINE
  8
0
  6
CONTINUOUS
 62
     7
 10
-17.64896456671489
 20
-99.99909987694689
 11
-18.2510354332851
 21
-99.99909987694689
  0
LINE
  8
0
  6
CONTINUOUS
 62
     7
 10
18.26103543328517
 20
-99.99909987694689
 11
17.6589645667149
 21
-99.99909987694689
  0
LINE
  8
0
  6
CONTINUOUS
 62
     7
 10
-19.2496649680397
 20
-100.9467639207039
 11
-19.27861166892453
 21
-101.4990998769468
  0
LINE
  8
0
  6
CONTINUOUS
 62
     7
 10
-16.6213883310754
 20
-101.4990998769468
 11
-16.65033503196023
 21
-100.9467639207039
  0
LINE
  8
0
  6
CONTINUOUS
 62
     7
 10
19.28861166892459
 20
-101.4990998769468
 11
19.25966496803971
 21
-100.9467639207039
  0
LINE
  8
0
  6
CONTINUOUS
 62
     7
 10
16.66033503196029
 20
-100.9467639207039
 11
16.63138833107541
 21
-101.4990998769468
  0
ARC
  8
0
  6
CONTINUOUS
 62
     7
 10
-22.7789645667148
 20
-100.9990998769469
 40
1.000000000000001
 50
3.000000000000409
 51
90.00000000000016
  0
ARC
  8
0
  6
CONTINUOUS
 62
     7
 10
38.7810354332852
 20
-100.9990998769469
 40
1.000000000000001
 50
3.000000000000409
 51
89.99999999999996
  0
ARC
  8
0
  6
CONTINUOUS
 62
     7
 10
28.52103543328521
 20
-100.9990998769469
 40
1.000000000000001
 50
3.000000000000409
 51
90.00000000000016
  0
ARC
  8
0
  6
CONTINUOUS
 62
     7
 10
33.65103543328512
 20
-100.9990998769469
 40
1.000000000000056
 50
3.000000000000409
 51
90.00000000000009
  0
ARC
  8
0
  6
CONTINUOUS
 62
     7
 10
-27.90896456671476
 20
-100.9990998769469
 40
0.9999999999999454
 50
3.000000000000409
 51
90.00000000000016
  0
ARC
  8
0
  6
CONTINUOUS
 62
     7
 10
43.91103543328523
 20
-100.9990998769469
 40
1.000000000000001
 50
3.000000000000409
 51
90.00000000000016
  0
ARC
  8
0
  6
CONTINUOUS
 62
     7
 10
-38.16896456671487
 20
-100.9990998769469
 40
1.000000000000056
 50
3.000000000000409
 51
90.00000000000009
  0
ARC
  8
0
  6
CONTINUOUS
 62
     7
 10
-33.03896456671479
 20
-100.9990998769469
 40
1.000000000000001
 50
3.000000000000409
 51
90.00000000000016
  0
ARC
  8
0
  6
CONTINUOUS
 62
     7
 10
-43.29896456671489
 20
-100.9990998769469
 40
1.000000000000001
 50
3.000000000000409
 51
90.00000000000009
  0
ARC
  8
0
  6
CONTINUOUS
 62
     7
 10
23.39103543328513
 20
-100.9990998769469
 40
1.000000000000056
 50
3.000000000000166
 51
90.00000000000001
  0
ARC
  8
0
  6
CONTINUOUS
 62
     7
 10
49.04103543328508
 20
-100.9990998769469
 40
1.000000000000056
 50
3.000000000000166
 51
90.00000000000001
  0
ARC
  8
0
  6
CONTINUOUS
 62
     7
 10
-48.42896456671489
 20
-100.9990998769469
 40
1.000000000000029
 50
3.000000000000409
 51
90.00000000000009
  0
ARC
  8
0
  6
CONTINUOUS
 62
     7
 10
48.43896456671498
 20
-118.9535154646753
 40
1.000000000000001
 50
183.0000000000004
 51
270.0000000000001
  0
ARC
  8
0
  6
CONTINUOUS
 62
     7
 10
-23.38103543328512
 20
-118.9535154646753
 40
1.000000000000001
 50
183.0000000000004
 51
270.0000000000001
  0
ARC
  8
0
  6
CONTINUOUS
 62
     7
 10
-33.64103543328512
 20
-118.9535154646753
 40
0.9999999999999454
 50
183.0000000000004
 51
270.0000000000001
  0
ARC
  8
0
  6
CONTINUOUS
 62
     7
 10
22.78896456671503
 20
-118.9535154646753
 40
1.000000000000001
 50
183.0000000000002
 51
270.0
  0
ARC
  8
0
  6
CONTINUOUS
 62
     7
 10
43.3089645667149
 20
-118.9535154646753
 40
1.000000000000001
 50
183.0000000000004
 51
270.0000000000001
  0
ARC
  8
0
  6
CONTINUOUS
 62
     7
 10
-43.90103543328511
 20
-118.9535154646753
 40
0.9999999999999454
 50
183.0000000000004
 51
270.0000000000001
  0
ARC
  8
0
  6
CONTINUOUS
 62
     7
 10
27.91896456671489
 20
-118.9535154646753
 40
0.9999999999999454
 50
183.0000000000004
 51
270.0000000000001
  0
ARC
  8
0
  6
CONTINUOUS
 62
     7
 10
7.398964566715016
 20
-118.9535154646753
 40
1.000000000000001
 50
183.0000000000001
 51
269.9999999999998
  0
ARC
  8
0
  6
CONTINUOUS
 62
     7
 10
-7.991035433285054
 20
-118.9535154646753
 40
1.000000000000001
 50
183.0000000000001
 51
269.9999999999998
  0
ARC
  8
0
  6
CONTINUOUS
 62
     7
 10
-13.12103543328513
 20
-118.9535154646753
 40
0.9999999999999454
 50
183.0000000000004
 51
270.0000000000001
  0
ARC
  8
0
  6
CONTINUOUS
 62
     7
 10
-49.03103543328508
 20
-118.9535154646753
 40
1.000000000000001
 50
183.0000000000002
 51
270.0
  0
ARC
  8
0
  6
CONTINUOUS
 62
     7
 10
-28.51103543328509
 20
-118.9535154646753
 40
1.000000000000001
 50
183.0000000000004
 51
270.0000000000001
  0
ARC
  8
0
  6
CONTINUOUS
 62
     7
 10
12.52896456671504
 20
-118.9535154646753
 40
1.000000000000001
 50
183.0000000000004
 51
269.9999999999999
  0
ARC
  8
0
  6
CONTINUOUS
 62
     7
 10
-38.77103543328509
 20
-118.9535154646753
 40
1.000000000000001
 50
183.0000000000007
 51
270.0000000000001
  0
ARC
  8
0
  6
CONTINUOUS
 62
     7
 10
-18.2510354332851
 20
-118.9535154646753
 40
0.9999999999999454
 50
183.0000000000004
 51
269.9999999999999
  0
ARC
  8
0
  6
CONTINUOUS
 62
     7
 10
38.17896456671488
 20
-118.9535154646753
 40
1.000000000000001
 50
183.0000000000004
 51
270.0000000000001
  0
ARC
  8
0
  6
CONTINUOUS
 62
     7
 10
17.65896456671501
 20
-118.9535154646753
 40
0.9999999999999454
 50
183.0000000000004
 51
270.0000000000002
  0
ARC
  8
0
  6
CONTINUOUS
 62
     7
 10
-2.861035433285086
 20
-118.9535154646753
 40
0.9999999999999454
 50
183.0000000000004
 51
270.0000000000002
  0
ARC
  8
0
  6
CONTINUOUS
 62
     7
 10
33.04896456671491
 20
-118.9535154646753
 40
1.000000000000001
 50
183.0000000000004
 51
270.0000000000002
  0
ARC
  8
0
  6
CONTINUOUS
 62
     7
 10
2.268964566714937
 20
-118.9535154646753
 40
0.9999999999999454
 50
183.0000000000004
 51
270.0000000000002
  0
ARC
  8
0
  6
CONTINUOUS
 62
     7
 10
-49.03103543328508
 20
-100.9990998769469
 40
1.000000000000001
 50
90.0
 51
176.9999999999997
  0
ARC
  8
0
  6
CONTINUOUS
 62
     7
 10
27.91896456671489
 20
-100.9990998769469
 40
1.000000000000001
 50
90.0
 51
176.9999999999997
  0
ARC
  8
0
  6
CONTINUOUS
 62
     7
 10
43.3089645667149
 20
-100.9990998769469
 40
1.000000000000001
 50
90.0
 51
176.9999999999995
  0
ARC
  8
0
  6
CONTINUOUS
 62
     7
 10
33.04896456671491
 20
-100.9990998769469
 40
1.000000000000001
 50
90.0
 51
176.9999999999995
  0
ARC
  8
0
  6
CONTINUOUS
 62
     7
 10
38.17896456671488
 20
-100.9990998769469
 40
1.000000000000001
 50
90.0
 51
176.9999999999997
  0
ARC
  8
0
  6
CONTINUOUS
 62
     7
 10
22.78896456671492
 20
-100.9990998769469
 40
1.000000000000001
 50
90.0
 51
176.9999999999995
  0
ARC
  8
0
  6
CONTINUOUS
 62
     7
 10
-43.90103543328511
 20
-100.9990998769469
 40
1.000000000000001
 50
90.0
 51
176.9999999999995
  0
ARC
  8
0
  6
CONTINUOUS
 62
     7
 10
-33.64103543328512
 20
-100.9990998769469
 40
1.000000000000001
 50
90.0
 51
176.9999999999995
  0
ARC
  8
0
  6
CONTINUOUS
 62
     7
 10
-23.38103543328512
 20
-100.9990998769469
 40
1.000000000000001
 50
90.0
 51
176.9999999999995
  0
ARC
  8
0
  6
CONTINUOUS
 62
     7
 10
-38.77103543328509
 20
-100.9990998769469
 40
1.000000000000001
 50
90.0
 51
176.9999999999995
  0
ARC
  8
0
  6
CONTINUOUS
 62
     7
 10
-28.51103543328509
 20
-100.9990998769469
 40
1.000000000000001
 50
90.0
 51
176.9999999999995
  0
ARC
  8
0
  6
CONTINUOUS
 62
     7
 10
48.43896456671498
 20
-100.9990998769469
 40
1.000000000000001
 50
90.0
 51
176.9999999999995
  0
ARC
  8
0
  6
CONTINUOUS
 62
     7
 10
-48.42896456671489
 20
-118.9535154646753
 40
1.000000000000029
 50
270.0
 51
356.9999999999997
  0
ARC
  8
0
  6
CONTINUOUS
 62
     7
 10
-33.03896456671479
 20
-118.9535154646753
 40
1.000000000000001
 50
270.0
 51
356.9999999999999
  0
ARC
  8
0
  6
CONTINUOUS
 62
     7
 10
38.7810354332852
 20
-118.9535154646753
 40
1.000000000000001
 50
270.0
 51
356.9999999999997
  0
ARC
  8
0
  6
CONTINUOUS
 62
     7
 10
33.65103543328512
 20
-118.9535154646753
 40
1.000000000000001
 50
270.0
 51
356.9999999999997
  0
ARC
  8
0
  6
CONTINUOUS
 62
     7
 10
-43.29896456671489
 20
-118.9535154646753
 40
1.000000000000001
 50
270.0
 51
356.9999999999999
  0
ARC
  8
0
  6
CONTINUOUS
 62
     7
 10
-17.64896456671489
 20
-118.9535154646753
 40
1.000000000000001
 50
270.0
 51
356.9999999999999
  0
ARC
  8
0
  6
CONTINUOUS
 62
     7
 10
-22.7789645667148
 20
-118.9535154646753
 40
1.000000000000001
 50
270.0
 51
356.9999999999999
  0
ARC
  8
0
  6
CONTINUOUS
 62
     7
 10
8.001035433285175
 20
-118.9535154646753
 40
1.000000000000001
 50
270.0
 51
356.9999999999998
  0
ARC
  8
0
  6
CONTINUOUS
 62
     7
 10
-38.16896456671487
 20
-118.9535154646753
 40
1.000000000000001
 50
270.0
 51
356.9999999999997
  0
ARC
  8
0
  6
CONTINUOUS
 62
     7
 10
49.04103543328508
 20
-118.9535154646753
 40
1.000000000000001
 50
270.0
 51
356.9999999999999
  0
ARC
  8
0
  6
CONTINUOUS
 62
     7
 10
43.91103543328523
 20
-118.9535154646753
 40
1.000000000000001
 50
270.0
 51
356.9999999999999
  0
ARC
  8
0
  6
CONTINUOUS
 62
     7
 10
2.871035433285096
 20
-118.9535154646753
 40
1.000000000000001
 50
270.0
 51
356.9999999999995
  0
ARC
  8
0
  6
CONTINUOUS
 62
     7
 10
-7.388964566714895
 20
-118.9535154646753
 40
1.000000000000001
 50
270.0
 51
356.9999999999998
  0
ARC
  8
0
  6
CONTINUOUS
 62
     7
 10
-2.258964566714816
 20
-118.9535154646753
 40
1.000000000000001
 50
270.0
 51
356.9999999999997
  0
ARC
  8
0
  6
CONTINUOUS
 62
     7
 10
13.1310354332852
 20
-118.9535154646753
 40
1.000000000000001
 50
270.0
 51
356.9999999999998
  0
ARC
  8
0
  6
CONTINUOUS
 62
     7
 10
-27.90896456671476
 20
-118.9535154646753
 40
1.000000000000001
 50
270.0
 51
356.9999999999999
  0
ARC
  8
0
  6
CONTINUOUS
 62
     7
 10
-12.51896456671492
 20
-118.9535154646753
 40
1.000000000000001
 50
270.0
 51
356.9999999999995
  0
ARC
  8
0
  6
CONTINUOUS
 62
     7
 10
18.26103543328517
 20
-118.9535154646753
 40
1.000000000000001
 50
270.0
 51
356.9999999999995
  0
ARC
  8
0
  6
CONTINUOUS
 62
     7
 10
28.52103543328521
 20
-118.9535154646753
 40
1.000000000000001
 50
270.0
 51
356.9999999999997
  0
ARC
  8
0
  6
CONTINUOUS
 62
     7
 10
23.39103543328513
 20
-118.9535154646753
 40
1.000000000000001
 50
270.0
 51
356.9999999999999
  0
LINE
  8
0
  6
CONTINUOUS
 62
     7
 10
48.43896456671498
 20
-119.9535154646753
 11
49.04103543328508
 21
-119.9535154646753
  0
LINE
  8
0
  6
CONTINUOUS
 62
     7
 10
43.3089645667149
 20
-119.9535154646753
 11
43.91103543328523
 21
-119.9535154646753
  0
LINE
  8
0
  6
CONTINUOUS
 62
     7
 10
-13.12103543328513
 20
-119.9535154646753
 11
-12.51896456671492
 21
-119.9535154646753
  0
LINE
  8
0
  6
CONTINUOUS
 62
     7
 10
33.04896456671491
 20
-119.9535154646753
 11
33.65103543328512
 21
-119.9535154646753
  0
LINE
  8
0
  6
CONTINUOUS
 62
     7
 10
22.78896456671503
 20
-119.9535154646753
 11
23.39103543328525
 21
-119.9535154646753
  0
LINE
  8
0
  6
CONTINUOUS
 62
     7
 10
27.91896456671489
 20
-119.9535154646753
 11
28.52103543328521
 21
-119.9535154646753
  0
LINE
  8
0
  6
CONTINUOUS
 62
     7
 10
-38.77103543328509
 20
-119.9535154646753
 11
-38.16896456671487
 21
-119.9535154646753
  0
LINE
  8
0
  6
CONTINUOUS
 62
     7
 10
-23.38103543328512
 20
-119.9535154646753
 11
-22.7789645667148
 21
-119.9535154646753
  0
LINE
  8
0
  6
CONTINUOUS
 62
     7
 10
-7.991035433285054
 20
-119.9535154646753
 11
-7.388964566714895
 21
-119.9535154646753
  0
LINE
  8
0
  6
CONTINUOUS
 62
     7
 10
2.268964566714937
 20
-119.9535154646753
 11
2.871035433285096
 21
-119.9535154646753
  0
LINE
  8
0
  6
CONTINUOUS
 62
     7
 10
38.17896456671488
 20
-119.9535154646753
 11
38.7810354332852
 21
-119.9535154646753
  0
LINE
  8
0
  6
CONTINUOUS
 62
     7
 10
12.52896456671493
 20
-119.9535154646753
 11
13.1310354332852
 21
-119.9535154646753
  0
LINE
  8
0
  6
CONTINUOUS
 62
     7
 10
-2.861035433285086
 20
-119.9535154646753
 11
-2.258964566714816
 21
-119.9535154646753
  0
LINE
  8
0
  6
CONTINUOUS
 62
     7
 10
17.65896456671501
 20
-119.9535154646753
 11
18.26103543328517
 21
-119.9535154646753
  0
LINE
  8
0
  6
CONTINUOUS
 62
     7
 10
7.398964566715016
 20
-119.9535154646753
 11
8.001035433285175
 21
-119.9535154646753
  0
LINE
  8
0
  6
CONTINUOUS
 62
     7
 10
-33.64103543328512
 20
-119.9535154646753
 11
-33.03896456671479
 21
-119.9535154646753
  0
LINE
  8
0
  6
CONTINUOUS
 62
     7
 10
-18.2510354332851
 20
-119.9535154646753
 11
-17.64896456671489
 21
-119.9535154646753
  0
LINE
  8
0
  6
CONTINUOUS
 62
     7
 10
-28.51103543328509
 20
-119.9535154646753
 11
-27.90896456671476
 21
-119.9535154646753
  0
LINE
  8
0
  6
CONTINUOUS
 62
     7
 10
-49.03103543328508
 20
-119.9535154646753
 11
-48.42896456671489
 21
-119.9535154646753
  0
LINE
  8
0
  6
CONTINUOUS
 62
     7
 10
-43.90103543328511
 20
-119.9535154646753
 11
-43.29896456671489
 21
-119.9535154646753
  0
LINE
  8
0
  6
CONTINUOUS
 62
     7
 10
23.39103543328513
 20
-99.99909987694689
 11
22.78896456671492
 21
-99.99909987694689
  0
LINE
  8
0
  6
CONTINUOUS
 62
     7
 10
28.52103543328521
 20
-99.99909987694689
 11
27.91896456671489
 21
-99.99909987694689
  0
LINE
  8
0
  6
CONTINUOUS
 62
     7
 10
-27.90896456671476
 20
-99.99909987694689
 11
-28.51103543328509
 21
-99.99909987694689
  0
LINE
  8
0
  6
CONTINUOUS
 62
     7
 10
-48.42896456671489
 20
-99.99909987694689
 11
-49.03103543328508
 21
-99.99909987694689
  0
LINE
  8
0
  6
CONTINUOUS
 62
     7
 10
43.91103543328523
 20
-99.99909987694689
 11
43.3089645667149
 21
-99.99909987694689
  0
LINE
  8
0
  6
CONTINUOUS
 62
     7
 10
-33.03896456671479
 20
-99.99909987694689
 11
-33.64103543328512
 21
-99.99909987694689
  0
LINE
  8
0
  6
CONTINUOUS
 62
     7
 10
-22.7789645667148
 20
-99.99909987694689
 11
-23.38103543328512
 21
-99.99909987694689
  0
LINE
  8
0
  6
CONTINUOUS
 62
     7
 10
-43.29896456671489
 20
-99.99909987694689
 11
-43.90103543328511
 21
-99.99909987694689
  0
LINE
  8
0
  6
CONTINUOUS
 62
     7
 10
33.65103543328512
 20
-99.99909987694689
 11
33.04896456671491
 21
-99.99909987694689
  0
LINE
  8
0
  6
CONTINUOUS
 62
     7
 10
-38.16896456671487
 20
-99.99909987694689
 11
-38.77103543328509
 21
-99.99909987694689
  0
LINE
  8
0
  6
CONTINUOUS
 62
     7
 10
49.04103543328508
 20
-99.99909987694689
 11
48.43896456671498
 21
-99.99909987694689
  0
LINE
  8
0
  6
CONTINUOUS
 62
     7
 10
38.7810354332852
 20
-99.99909987694689
 11
38.17896456671488
 21
-99.99909987694689
  0
LINE
  8
0
  6
CONTINUOUS
 62
     7
 10
19.25966496803971
 20
-119.0058514209182
 11
19.28861166892459
 21
-118.4535154646753
  0
LINE
  8
0
  6
CONTINUOUS
 62
     7
 10
14.12966496803969
 20
-119.0058514209182
 11
14.15861166892457
 21
-118.4535154646753
  0
LINE
  8
0
  6
CONTINUOUS
 62
     7
 10
8.999664968039832
 20
-119.0058514209182
 11
9.028611668924603
 21
-118.4535154646753
  0
LINE
  8
0
  6
CONTINUOUS
 62
     7
 10
24.38966496803968
 20
-119.0058514209182
 11
24.41861166892462
 21
-118.4535154646753
  0
LINE
  8
0
  6
CONTINUOUS
 62
     7
 10
3.86966496803981
 20
-119.0058514209182
 11
3.898611668924579
 21
-118.4535154646753
  0
LINE
  8
0
  6
CONTINUOUS
 62
     7
 10
-47.43033503196031
 20
-119.0058514209182
 11
-47.40138833107537
 21
-118.4535154646753
  0
LINE
  8
0
  6
CONTINUOUS
 62
     7
 10
-32.0403350319603
 20
-119.0058514209182
 11
-32.01138833107536
 21
-118.4535154646753
  0
LINE
  8
0
  6
CONTINUOUS
 62
     7
 10
-42.30033503196018
 20
-119.0058514209182
 11
-42.27138833107541
 21
-118.4535154646753
  0
LINE
  8
0
  6
CONTINUOUS
 62
     7
 10
29.51966496803971
 20
-119.0058514209182
 11
29.54861166892464
 21
-118.4535154646753
  0
LINE
  8
0
  6
CONTINUOUS
 62
     7
 10
-1.260335031960269
 20
-119.0058514209182
 11
-1.231388331075389
 21
-118.4535154646753
  0
LINE
  8
0
  6
CONTINUOUS
 62
     7
 10
-21.78033503196025
 20
-119.0058514209182
 11
-21.75138833107537
 21
-118.4535154646753
  0
LINE
  8
0
  6
CONTINUOUS
 62
     7
 10
-16.65033503196023
 20
-119.0058514209182
 11
-16.6213883310754
 21
-118.4535154646753
  0
LINE
  8
0
  6
CONTINUOUS
 62
     7
 10
-26.91033503196022
 20
-119.0058514209182
 11
-26.8813883310754
 21
-118.4535154646753
  0
LINE
  8
0
  6
CONTINUOUS
 62
     7
 10
-6.390335031960181
 20
-119.0058514209182
 11
-6.361388331075412
 21
-118.4535154646753
  0
LINE
  8
0
  6
CONTINUOUS
 62
     7
 10
39.77966496803975
 20
-119.0058514209182
 11
39.80861166892463
 21
-118.4535154646753
  0
LINE
  8
0
  6
CONTINUOUS
 62
     7
 10
34.64966496803967
 20
-119.0058514209182
 11
34.67861166892461
 21
-118.4535154646753
  0
LINE
  8
0
  6
CONTINUOUS
 62
     7
 10
-37.17033503196032
 20
-119.0058514209182
 11
-37.14138833107538
 21
-118.4535154646753
  0
LINE
  8
0
  6
CONTINUOUS
 62
     7
 10
-11.52033503196026
 20
-119.0058514209182
 11
-11.49138833107538
 21
-118.4535154646753
  0
LINE
  8
0
  6
CONTINUOUS
 62
     7
 10
44.90966496803978
 20
-119.0058514209182
 11
44.9386116689246
 21
-118.4535154646753
  0
LINE
  8
0
  6
CONTINUOUS
 62
     7
 10
50.03966496803974
 20
-119.0058514209182
 11
50.06861166892462
 21
-118.4535154646753
  0
LINE
  8
0
  6
CONTINUOUS
 62
     7
 10
-42.27138833107541
 20
-101.4990998769468
 11
-42.30033503196018
 21
-100.9467639207039
  0
LINE
  8
0
  6
CONTINUOUS
 62
     7
 10
24.41861166892462
 20
-101.4990998769468
 11
24.38966496803968
 21
-100.9467639207039
  0
LINE
  8
0
  6
CONTINUOUS
 62
     7
 10
-47.40138833107537
 20
-101.4990998769468
 11
-47.43033503196031
 21
-100.9467639207039
  0
LINE
  8
0
  6
CONTINUOUS
 62
     7
 10
-32.01138833107536
 20
-101.4990998769468
 11
-32.0403350319603
 21
-100.9467639207039
  0
LINE
  8
0
  6
CONTINUOUS
 62
     7
 10
-37.14138833107538
 20
-101.4990998769468
 11
-37.17033503196032
 21
-100.9467639207039
  0
LINE
  8
0
  6
CONTINUOUS
 62
     7
 10
-26.8813883310754
 20
-101.4990998769468
 11
-26.91033503196022
 21
-100.9467639207039
  0
LINE
  8
0
  6
CONTINUOUS
 62
     7
 10
-21.75138833107537
 20
-101.4990998769468
 11
-21.78033503196025
 21
-100.9467639207039
  0
LINE
  8
0
  6
CONTINUOUS
 62
     7
 10
44.9386116689246
 20
-101.4990998769468
 11
44.90966496803978
 21
-100.9467639207039
  0
LINE
  8
0
  6
CONTINUOUS
 62
     7
 10
29.54861166892464
 20
-101.4990998769468
 11
29.51966496803971
 21
-100.9467639207039
  0
LINE
  8
0
  6
CONTINUOUS
 62
     7
 10
50.06861166892462
 20
-101.4990998769468
 11
50.03966496803974
 21
-100.9467639207038
  0
LINE
  8
0
  6
CONTINUOUS
 62
     7
 10
34.67861166892461
 20
-101.4990998769468
 11
34.64966496803967
 21
-100.9467639207038
  0
LINE
  8
0
  6
CONTINUOUS
 62
     7
 10
39.80861166892463
 20
-101.4990998769468
 11
39.77966496803975
 21
-100.9467639207039
  0
LINE
  8
0
  6
CONTINUOUS
 62
     7
 10
42.28138833107664
 20
-118.4535154646983
 11
42.31033503196046
 21
-119.005851420922
  0
LINE
  8
0
  6
CONTINUOUS
 62
     7
 10
-39.7986116689234
 20
-118.4535154646982
 11
-39.76966496803941
 21
-119.005851420922
  0
LINE
  8
0
  6
CONTINUOUS
 62
     7
 10
-34.66861166892332
 20
-118.4535154646979
 11
-34.6396649680395
 21
-119.005851420922
  0
LINE
  8
0
  6
CONTINUOUS
 62
     7
 10
-50.05861166892339
 20
-118.4535154646979
 11
-50.02966496803948
 21
-119.005851420922
  0
LINE
  8
0
  6
CONTINUOUS
 62
     7
 10
26.89138833107668
 20
-118.4535154646979
 11
26.92033503196051
 21
-119.005851420922
  0
LINE
  8
0
  6
CONTINUOUS
 62
     7
 10
-9.01861166892448
 20
-118.4535154646752
 11
-8.989664968039602
 21
-119.0058514209182
  0
LINE
  8
0
  6
CONTINUOUS
 62
     7
 10
1.24138833107551
 20
-118.4535154646752
 11
1.270335031960279
 21
-119.0058514209182
  0
LINE
  8
0
  6
CONTINUOUS
 62
     7
 10
37.18033503196033
 20
-100.9467639207039
 11
37.15138833107545
 21
-101.4990998769468
  0
LINE
  8
0
  6
CONTINUOUS
 62
     7
 10
21.79033503196032
 20
-100.9467639207039
 11
21.76138833107538
 21
-101.4990998769469
  0
LINE
  8
0
  6
CONTINUOUS
 62
     7
 10
11.5013883310755
 20
-118.4535154646753
 11
11.53033503196038
 21
-119.0058514209182
  0
LINE
  8
0
  6
CONTINUOUS
 62
     7
 10
47.44033503196032
 20
-100.9467639207039
 11
47.41138833107544
 21
-101.4990998769469
  0
LINE
  8
0
  6
CONTINUOUS
 62
     7
 10
32.05033503196031
 20
-100.9467639207039
 11
32.02138833107537
 21
-101.4990998769469
  0
LINE
  8
0
  6
CONTINUOUS
 62
     7
 10
26.92033503196039
 20
-100.9467639207039
 11
26.89138833107551
 21
-101.4990998769469
  0
LINE
  8
0
  6
CONTINUOUS
 62
     7
 10
42.31033503196041
 20
-100.9467639207039
 11
42.28138833107548
 21
-101.4990998769469
  0
LINE
  8
0
  6
CONTINUOUS
 62
     7
 10
-50.02966496803968
 20
-100.9467639207039
 11
-50.05861166892461
 21
-101.4990998769468
  0
LINE
  8
0
  6
CONTINUOUS
 62
     7
 10
-29.50966496803969
 20
-100.9467639207039
 11
-29.53861166892452
 21
-101.4990998769468
  0
LINE
  8
0
  6
CONTINUOUS
 62
     7
 10
-34.63966496803966
 20
-100.9467639207039
 11
-34.6686116689246
 21
-101.4990998769468
  0
LINE
  8
0
  6
CONTINUOUS
 62
     7
 10
-39.76966496803968
 20
-100.9467639207039
 11
-39.79861166892462
 21
-101.4990998769468
  0
LINE
  8
0
  6
CONTINUOUS
 62
     7
 10
-24.37966496803967
 20
-100.9467639207039
 11
-24.40861166892455
 21
-101.4990998769468
  0
LINE
  8
0
  6
CONTINUOUS
 62
     7
 10
-44.89966496803971
 20
-100.9467639207039
 11
-44.92861166892447
 21
-101.4990998769468
  0
LINE
  8
0
  6
CONTINUOUS
 62
     7
 10
47.41138833107672
 20
-118.4535154646982
 11
47.44033503196032
 21
-119.0058514209182
  0
LINE
  8
0
  6
CONTINUOUS
 62
     7
 10
32.02138833107671
 20
-118.4535154646982
 11
32.05033503196037
 21
-119.0058514209182
  0
LINE
  8
0
  6
CONTINUOUS
 62
     7
 10
37.15138833107667
 20
-118.4535154646982
 11
37.18033503196044
 21
-119.0058514209182
  0
LINE
  8
0
  6
CONTINUOUS
 62
     7
 10
-24.40861166892333
 20
-118.4535154646978
 11
-24.37966496803956
 21
-119.0058514209182
  0
LINE
  8
0
  6
CONTINUOUS
 62
     7
 10
-29.5386116689233
 20
-118.4535154646978
 11
-29.50966496803964
 21
-119.0058514209182
  0
LINE
  8
0
  6
CONTINUOUS
 62
     7
 10
-19.27861166892325
 20
-118.4535154646978
 11
-19.24966496803959
 21
-119.0058514209182
  0
LINE
  8
0
  6
CONTINUOUS
 62
     7
 10
-14.14861166892445
 20
-118.4535154646752
 11
-14.11966496803957
 21
-119.0058514209182
  0
LINE
  8
0
  6
CONTINUOUS
 62
     7
 10
-3.888611668924458
 20
-118.4535154646752
 11
-3.859664968039689
 21
-119.0058514209182
  0
LINE
  8
0
  6
CONTINUOUS
 62
     7
 10
-44.92861166892331
 20
-118.4535154646978
 11
-44.89966496803959
 21
-119.0058514209182
  0
LINE
  8
0
  6
CONTINUOUS
 62
     7
 10
6.371388331075534
 20
-118.4535154646753
 11
6.400335031960302
 21
-119.0058514209182
  0
LINE
  8
0
  6
CONTINUOUS
 62
     7
 10
16.63138833107669
 20
-118.4535154646982
 11
16.66033503196029
 21
-119.0058514209182
  0
LINE
  8
0
  6
CONTINUOUS
 62
     7
 10
21.76138833107671
 20
-118.4535154646981
 11
21.79033503196037
 21
-119.0058514209182
  0
ARC
  8
0
  6
CONTINUOUS
 62
     7
 10
-51.49999999999991
 20
-116.9535154646753
 40
1.500000000000001
 50
180.0
 51
270.0
  0
ARC
  8
0
  6
CONTINUOUS
 62
     7
 10
51.49999999999999
 20
-116.9535154646753
 40
1.500000000000001
 50
270.0
 51
0.0
  0
ARC
  8
0
  6
CONTINUOUS
 62
     7
 10
-51.49999999999991
 20
-102.9990998769469
 40
1.500000000000001
 50
90.0
 51
180.0
  0
ARC
  8
0
  6
CONTINUOUS
 62
     7
 10
51.49999999999999
 20
-102.9990998769468
 40
1.500000000000001
 50
359.9999999999998
 51
90.0
  0
ARC
  8
0
  6
CONTINUOUS
 62
     7
 10
-13.00000000000001
 20
-102.9990998769469
 40
1.500000000000001
 50
0.0
 51
90.0
  0
ARC
  8
0
  6
CONTINUOUS
 62
     7
 10
12.99999999999996
 20
-102.9990998769468
 40
1.499999999999946
 50
90.0
 51
179.9999999999999
  0
LINE
  8
0
  6
CONTINUOUS
 62
     7
 10
-37.14138833107538
 20
-118.4535154646753
 11
-34.66861166892338
 21
-118.4535154646753
  0
LINE
  8
0
  6
CONTINUOUS
 62
     7
 10
-6.361388331075412
 20
-118.4535154646753
 11
-3.888611668924458
 21
-118.4535154646753
  0
LINE
  8
0
  6
CONTINUOUS
 62
     7
 10
39.80861166892463
 20
-118.4535154646753
 11
42.2813883310767
 21
-118.4535154646753
  0
LINE
  8
0
  6
CONTINUOUS
 62
     7
 10
3.898611668924579
 20
-118.4535154646753
 11
6.371388331075534
 21
-118.4535154646753
  0
LINE
  8
0
  6
CONTINUOUS
 62
     7
 10
-11.49138833107538
 20
-118.4535154646753
 11
-9.01861166892448
 21
-118.4535154646753
  0
LINE
  8
0
  6
CONTINUOUS
 62
     7
 10
50.06861166892451
 20
-118.4535154646753
 11
51.49999999999999
 21
-118.4535154646753
  0
LINE
  8
0
  6
CONTINUOUS
 62
     7
 10
19.28861166892459
 20
-118.4535154646753
 11
21.76138833107671
 21
-118.4535154646753
  0
LINE
  8
0
  6
CONTINUOUS
 62
     7
 10
44.9386116689246
 20
-118.4535154646753
 11
47.41138833107672
 21
-118.4535154646753
  0
LINE
  8
0
  6
CONTINUOUS
 62
     7
 10
9.028611668924603
 20
-118.4535154646753
 11
11.5013883310755
 21
-118.4535154646753
  0
LINE
  8
0
  6
CONTINUOUS
 62
     7
 10
-26.8813883310754
 20
-118.4535154646753
 11
-24.40861166892333
 21
-118.4535154646753
  0
LINE
  8
0
  6
CONTINUOUS
 62
     7
 10
-47.40138833107549
 20
-118.4535154646753
 11
-44.92861166892331
 21
-118.4535154646753
  0
LINE
  8
0
  6
CONTINUOUS
 62
     7
 10
-21.75138833107537
 20
-118.4535154646753
 11
-19.27861166892336
 21
-118.4535154646753
  0
LINE
  8
0
  6
CONTINUOUS
 62
     7
 10
-42.27138833107541
 20
-118.4535154646753
 11
-39.79861166892329
 21
-118.4535154646753
  0
LINE
  8
0
  6
CONTINUOUS
 62
     7
 10
34.67861166892461
 20
-118.4535154646753
 11
37.15138833107667
 21
-118.4535154646753
  0
LINE
  8
0
  6
CONTINUOUS
 62
     7
 10
-32.01138833107536
 20
-118.4535154646753
 11
-29.53861166892335
 21
-118.4535154646753
  0
LINE
  8
0
  6
CONTINUOUS
 62
     7
 10
-1.231388331075389
 20
-118.4535154646753
 11
1.24138833107551
 21
-118.4535154646753
  0
LINE
  8
0
  6
CONTINUOUS
 62
     7
 10
14.15861166892457
 20
-118.4535154646753
 11
16.63138833107669
 21
-118.4535154646753
  0
LINE
  8
0
  6
CONTINUOUS
 62
     7
 10
29.54861166892464
 20
-118.4535154646753
 11
32.02138833107671
 21
-118.4535154646753
  0
LINE
  8
0
  6
CONTINUOUS
 62
     7
 10
-51.49999999999991
 20
-118.4535154646753
 11
-50.05861166892331
 21
-118.4535154646753
  0
LINE
  8
0
  6
CONTINUOUS
 62
     7
 10
24.41861166892462
 20
-118.4535154646753
 11
26.89138833107668
 21
-118.4535154646753
  0
LINE
  8
0
  6
CONTINUOUS
 62
     7
 10
-16.6213883310754
 20
-118.4535154646753
 11
-14.14861166892445
 21
-118.4535154646753
  0
LINE
  8
0
  6
CONTINUOUS
 62
     7
 10
-34.6686116689246
 20
-101.4990998769468
 11
-37.14138833107538
 21
-101.4990998769468
  0
LINE
  8
0
  6
CONTINUOUS
 62
     7
 10
-50.05861166892461
 20
-101.4990998769468
 11
-51.49999999999991
 21
-101.4990998769468
  0
LINE
  8
0
  6
CONTINUOUS
 62
     7
 10
37.15138833107545
 20
-101.4990998769468
 11
34.67861166892461
 21
-101.4990998769468
  0
LINE
  8
0
  6
CONTINUOUS
 62
     7
 10
21.76138833107538
 20
-101.4990998769468
 11
19.28861166892459
 21
-101.4990998769468
  0
LINE
  8
0
  6
CONTINUOUS
 62
     7
 10
26.89138833107551
 20
-101.4990998769468
 11
24.41861166892462
 21
-101.4990998769468
  0
LINE
  8
0
  6
CONTINUOUS
 62
     7
 10
-44.92861166892447
 20
-101.4990998769468
 11
-47.40138833107549
 21
-101.4990998769468
  0
LINE
  8
0
  6
CONTINUOUS
 62
     7
 10
32.02138833107537
 20
-101.4990998769468
 11
29.54861166892464
 21
-101.4990998769468
  0
LINE
  8
0
  6
CONTINUOUS
 62
     7
 10
42.28138833107548
 20
-101.4990998769468
 11
39.80861166892463
 21
-101.4990998769468
  0
LINE
  8
0
  6
CONTINUOUS
 62
     7
 10
-24.40861166892455
 20
-101.4990998769468
 11
-26.8813883310754
 21
-101.4990998769468
  0
LINE
  8
0
  6
CONTINUOUS
 62
     7
 10
-29.53861166892452
 20
-101.4990998769468
 11
-32.01138833107536
 21
-101.4990998769468
  0
LINE
  8
0
  6
CONTINUOUS
 62
     7
 10
47.41138833107544
 20
-101.4990998769468
 11
44.9386116689246
 21
-101.4990998769468
  0
LINE
  8
0
  6
CONTINUOUS
 62
     7
 10
-19.27861166892453
 20
-101.4990998769468
 11
-21.75138833107537
 21
-101.4990998769468
  0
LINE
  8
0
  6
CONTINUOUS
 62
     7
 10
51.49999999999999
 20
-101.4990998769468
 11
50.06861166892473
 21
-101.4990998769468
  0
LINE
  8
0
  6
CONTINUOUS
 62
     7
 10
16.63138833107541
 20
-101.4990998769468
 11
12.99999999999996
 21
-101.4990998769468
  0
LINE
  8
0
  6
CONTINUOUS
 62
     7
 10
-39.79861166892462
 20
-101.4990998769468
 11
-42.27138833107541
 21
-101.4990998769468
  0
LINE
  8
0
  6
CONTINUOUS
 62
     7
 10
-13.00000000000001
 20
-101.4990998769468
 11
-16.6213883310754
 21
-101.4990998769468
  0
LINE
  8
0
  6
CONTINUOUS
 62
     7
 10
39.77966496803975
 20
24.95090062953387
 11
39.77966496803975
 21
34.77954375010711
  0
LINE
  8
0
  6
CONTINUOUS
 62
     7
 10
39.77966496803975
 20
24.95090062953387
 11
39.77466496803977
 21
24.97445035504808
  0
LINE
  8
0
  6
CONTINUOUS
 62
     7
 10
39.77466496803977
 20
24.97445035504808
 11
39.66706073235843
 21
24.92461267328378
  0
LINE
  8
0
  6
CONTINUOUS
 62
     7
 10
39.66706073235843
 20
24.92461267328378
 11
39.55684427932443
 21
24.87545016442527
  0
ARC
  8
0
  6
CONTINUOUS
 62
     7
 10
38.85539703113533
 20
27.08640858061662
 40
2.319561458577757
 50
268.1628700374285
 51
287.6021172857879
  0
LINE
  8
0
  6
CONTINUOUS
 62
     7
 10
38.7810354332852
 20
24.76803938808392
 11
38.7810354332852
 21
35.72720779386407
  0
LINE
  8
0
  6
CONTINUOUS
 62
     7
 10
49.04103543328508
 20
24.76803938808392
 11
49.04103543328508
 21
35.72720779386407
  0
LINE
  8
0
  6
CONTINUOUS
 62
     7
 10
49.04103543328508
 20
24.76803938808392
 11
49.03603543328522
 21
24.76805761424511
  0
LINE
  8
0
  6
CONTINUOUS
 62
     7
 10
49.03603543328533
 20
24.76805761424511
 11
48.43896456671498
 21
24.76805761424511
  0
LINE
  8
0
  6
CONTINUOUS
 62
     7
 10
48.43896456671498
 20
24.76805761424511
 11
48.43896456671498
 21
35.72720779386418
  0
LINE
  8
0
  6
CONTINUOUS
 62
     7
 10
50.03966496803974
 20
24.95090062953342
 11
50.03966496803974
 21
34.77954375010711
  0
LINE
  8
0
  6
CONTINUOUS
 62
     7
 10
50.03966496803974
 20
24.95090062953342
 11
50.03466496803976
 21
24.97445035504797
  0
LINE
  8
0
  6
CONTINUOUS
 62
     7
 10
50.03466496803988
 20
24.97445035504797
 11
49.92706073235853
 21
24.92461267328378
  0
LINE
  8
0
  6
CONTINUOUS
 62
     7
 10
49.92706073235853
 20
24.92461267328378
 11
49.81684427932442
 21
24.87545016442516
  0
ARC
  8
0
  6
CONTINUOUS
 62
     7
 10
49.1153970311351
 20
27.08640858062
 40
2.319561458581088
 50
268.1628700374362
 51
287.6021172857669
  0
LINE
  8
0
  6
CONTINUOUS
 62
     7
 10
43.3089645667149
 20
24.76805761424511
 11
43.3089645667149
 21
35.72720779386418
  0
LINE
  8
0
  6
CONTINUOUS
 62
     7
 10
43.3089645667149
 20
24.76805761424511
 11
43.30396456671514
 21
24.76807971512762
  0
ARC
  8
0
  6
CONTINUOUS
 62
     7
 10
43.27229492251683
 20
26.97787809086277
 40
2.210025300254659
 50
249.6360783115271
 51
270.82107614736
  0
LINE
  8
0
  6
CONTINUOUS
 62
     7
 10
42.5032463724414
 20
24.9059765113005
 11
42.39888183318568
 21
24.96883360211915
  0
LINE
  8
0
  6
CONTINUOUS
 62
     7
 10
42.39888183318568
 20
24.96883360211915
 11
42.33080430793784
 21
25.05185572568164
  0
LINE
  8
0
  6
CONTINUOUS
 62
     7
 10
42.33080430793784
 20
25.05185572568164
 11
42.31033503196041
 21
25.15470485032711
  0
LINE
  8
0
  6
CONTINUOUS
 62
     7
 10
42.31033503196041
 20
25.15470485032711
 11
42.31033503196041
 21
34.77954375010711
  0
LINE
  8
0
  6
CONTINUOUS
 62
     7
 10
43.91103543328523
 20
24.76803938808392
 11
43.91103543328523
 21
35.72720779386407
  0
LINE
  8
0
  6
CONTINUOUS
 62
     7
 10
43.91103543328523
 20
24.76803938808392
 11
43.90603543328525
 21
24.76805761424511
  0
LINE
  8
0
  6
CONTINUOUS
 62
     7
 10
43.90603543328525
 20
24.76805761424511
 11
43.3089645667149
 21
24.76805761424511
  0
LINE
  8
0
  6
CONTINUOUS
 62
     7
 10
44.90966496803978
 20
24.95090062953331
 11
44.90966496803978
 21
34.77954375010711
  0
LINE
  8
0
  6
CONTINUOUS
 62
     7
 10
44.90966496803978
 20
24.95090062953331
 11
44.9046649680398
 21
24.97445035504797
  0
LINE
  8
0
  6
CONTINUOUS
 62
     7
 10
44.9046649680398
 20
24.97445035504792
 11
44.7970607323585
 21
24.92461267328378
  0
LINE
  8
0
  6
CONTINUOUS
 62
     7
 10
44.7970607323585
 20
24.92461267328378
 11
44.68684427932462
 21
24.87545016442527
  0
ARC
  8
0
  6
CONTINUOUS
 62
     7
 10
43.98539703113558
 20
27.08640858061423
 40
2.319561458575259
 50
268.1628700374181
 51
287.6021172858032
  0
LINE
  8
0
  6
CONTINUOUS
 62
     7
 10
28.52103543328521
 20
24.76803938808392
 11
28.52103543328521
 21
35.72720779386407
  0
LINE
  8
0
  6
CONTINUOUS
 62
     7
 10
28.52103543328521
 20
24.76803938808392
 11
28.51603543328524
 21
24.76805761424511
  0
LINE
  8
0
  6
CONTINUOUS
 62
     7
 10
28.51603543328524
 20
24.76805761424511
 11
27.91896456671489
 21
24.76805761424511
  0
LINE
  8
0
  6
CONTINUOUS
 62
     7
 10
27.91896456671489
 20
24.76805761424511
 11
27.91896456671489
 21
35.72720779386418
  0
LINE
  8
0
  6
CONTINUOUS
 62
     7
 10
29.51966496803971
 20
24.95090062953331
 11
29.51966496803971
 21
34.77954375010711
  0
LINE
  8
0
  6
CONTINUOUS
 62
     7
 10
29.51966496803971
 20
24.95090062953331
 11
29.5146649680399
 21
24.97445035504797
  0
LINE
  8
0
  6
CONTINUOUS
 62
     7
 10
29.51466496803978
 20
24.97445035504792
 11
29.40706073235849
 21
24.92461267328378
  0
LINE
  8
0
  6
CONTINUOUS
 62
     7
 10
29.40706073235849
 20
24.92461267328378
 11
29.29684427932472
 21
24.87545016442527
  0
ARC
  8
0
  6
CONTINUOUS
 62
     7
 10
28.59539703113551
 20
27.08640858061562
 40
2.319561458576758
 50
268.162870037424
 51
287.6021172857986
  0
LINE
  8
0
  6
CONTINUOUS
 62
     7
 10
48.43896456671498
 20
24.76805761424511
 11
48.43396456671501
 21
24.76807971512762
  0
ARC
  8
0
  6
CONTINUOUS
 62
     7
 10
48.40229492251691
 20
26.97787809086433
 40
2.210025300256158
 50
249.6360783115373
 51
270.8210761473551
  0
LINE
  8
0
  6
CONTINUOUS
 62
     7
 10
47.63324637244126
 20
24.9059765113005
 11
47.52888183318571
 21
24.96883360211915
  0
LINE
  8
0
  6
CONTINUOUS
 62
     7
 10
47.52888183318571
 20
24.96883360211915
 11
47.46080430793781
 21
25.05185572568164
  0
LINE
  8
0
  6
CONTINUOUS
 62
     7
 10
47.46080430793781
 20
25.05185572568164
 11
47.44033503196043
 21
25.15470485032711
  0
LINE
  8
0
  6
CONTINUOUS
 62
     7
 10
47.44033503196043
 20
25.15470485032711
 11
47.44033503196043
 21
34.77954375010711
  0
LINE
  8
0
  6
CONTINUOUS
 62
     7
 10
33.65103543328512
 20
24.76803938808392
 11
33.65103543328512
 21
35.72720779386407
  0
LINE
  8
0
  6
CONTINUOUS
 62
     7
 10
33.65103543328512
 20
24.76803938808392
 11
33.64603543328526
 21
24.76805761424511
  0
LINE
  8
0
  6
CONTINUOUS
 62
     7
 10
33.64603543328526
 20
24.76805761424511
 11
33.04896456671491
 21
24.76805761424511
  0
LINE
  8
0
  6
CONTINUOUS
 62
     7
 10
33.04896456671491
 20
24.76805761424511
 11
33.04896456671491
 21
35.72720779386418
  0
LINE
  8
0
  6
CONTINUOUS
 62
     7
 10
27.91896456671489
 20
24.76805761424511
 11
27.91396456671502
 21
24.76807971512762
  0
ARC
  8
0
  6
CONTINUOUS
 62
     7
 10
27.88229492251681
 20
26.97787809086272
 40
2.210025300254548
 50
249.6360783115266
 51
270.8210761473604
  0
LINE
  8
0
  6
CONTINUOUS
 62
     7
 10
27.11324637244144
 20
24.9059765113005
 11
27.00888183318573
 21
24.96883360211915
  0
LINE
  8
0
  6
CONTINUOUS
 62
     7
 10
27.00888183318573
 20
24.96883360211915
 11
26.94080430793777
 21
25.05185572568164
  0
LINE
  8
0
  6
CONTINUOUS
 62
     7
 10
26.94080430793777
 20
25.05185572568164
 11
26.92033503196034
 21
25.15470485032711
  0
LINE
  8
0
  6
CONTINUOUS
 62
     7
 10
26.92033503196034
 20
25.15470485032711
 11
26.92033503196034
 21
34.77954375010711
  0
LINE
  8
0
  6
CONTINUOUS
 62
     7
 10
38.17896456671488
 20
24.76805761424511
 11
38.17896456671488
 21
35.72720779386418
  0
LINE
  8
0
  6
CONTINUOUS
 62
     7
 10
38.17896456671488
 20
24.76805761424511
 11
38.17396456671501
 21
24.76807971512762
  0
ARC
  8
0
  6
CONTINUOUS
 62
     7
 10
38.1422949225168
 20
26.97787809086355
 40
2.21002530025538
 50
249.6360783115342
 51
270.8210761473596
  0
LINE
  8
0
  6
CONTINUOUS
 62
     7
 10
37.37324637244144
 20
24.9059765113005
 11
37.26888183318561
 21
24.96883360211899
  0
LINE
  8
0
  6
CONTINUOUS
 62
     7
 10
37.26888183318561
 20
24.96883360211899
 11
37.20080430793776
 21
25.0518557256813
  0
LINE
  8
0
  6
CONTINUOUS
 62
     7
 10
37.20080430793776
 20
25.0518557256813
 11
37.18033503196033
 21
25.154704850327
  0
LINE
  8
0
  6
CONTINUOUS
 62
     7
 10
37.18033503196033
 20
25.154704850327
 11
37.18033503196033
 21
34.77954375010711
  0
LINE
  8
0
  6
CONTINUOUS
 62
     7
 10
34.64966496803967
 20
24.95090062953342
 11
34.64966496803967
 21
34.77954375010711
  0
LINE
  8
0
  6
CONTINUOUS
 62
     7
 10
34.64966496803967
 20
24.95090062953342
 11
34.64466496803969
 21
24.97445035504797
  0
LINE
  8
0
  6
CONTINUOUS
 62
     7
 10
34.64466496803981
 20
24.97445035504797
 11
34.53706073235851
 21
24.92461267328378
  0
LINE
  8
0
  6
CONTINUOUS
 62
     7
 10
34.53706073235851
 20
24.92461267328378
 11
34.42684427932458
 21
24.87545016442527
  0
ARC
  8
0
  6
CONTINUOUS
 62
     7
 10
33.72539703113575
 20
27.08640858061423
 40
2.31956145857537
 50
268.1628700374185
 51
287.6021172858029
  0
LINE
  8
0
  6
CONTINUOUS
 62
     7
 10
33.04896456671491
 20
24.76805761424511
 11
33.04396456671488
 21
24.76807971512762
  0
ARC
  8
0
  6
CONTINUOUS
 62
     7
 10
33.01229492251684
 20
26.97787809086355
 40
2.21002530025538
 50
249.6360783115342
 51
270.8210761473585
  0
LINE
  8
0
  6
CONTINUOUS
 62
     7
 10
32.24324637244141
 20
24.9059765113005
 11
32.13888183318569
 21
24.96883360211888
  0
LINE
  8
0
  6
CONTINUOUS
 62
     7
 10
32.13888183318569
 20
24.96883360211888
 11
32.07080430793774
 21
25.0518557256813
  0
LINE
  8
0
  6
CONTINUOUS
 62
     7
 10
32.07080430793774
 20
25.0518557256813
 11
32.05033503196037
 21
25.15470485032711
  0
LINE
  8
0
  6
CONTINUOUS
 62
     7
 10
32.05033503196037
 20
25.15470485032711
 11
32.05033503196037
 21
34.77954375010711
  0
LINE
  8
0
  6
CONTINUOUS
 62
     7
 10
38.7810354332852
 20
24.76803938808392
 11
38.77603543328523
 21
24.76805761424511
  0
LINE
  8
0
  6
CONTINUOUS
 62
     7
 10
38.77603543328523
 20
24.76805761424511
 11
38.17896456671488
 21
24.76805761424511
  0
LINE
  8
0
  6
CONTINUOUS
 62
     7
 10
23.39103543328513
 20
24.76803938808392
 11
23.39103543328513
 21
35.72720779386407
  0
LINE
  8
0
  6
CONTINUOUS
 62
     7
 10
23.39103543328513
 20
24.76803938808392
 11
23.38603543328515
 21
24.76805761424511
  0
LINE
  8
0
  6
CONTINUOUS
 62
     7
 10
23.38603543328515
 20
24.76805761424511
 11
22.78896456671492
 21
24.76805761424511
  0
LINE
  8
0
  6
CONTINUOUS
 62
     7
 10
22.78896456671492
 20
24.76805761424511
 11
22.78896456671492
 21
35.72720779386418
  0
LINE
  8
0
  6
CONTINUOUS
 62
     7
 10
24.38966496803968
 20
24.9509006295332
 11
24.38966496803968
 21
34.77954375010711
  0
LINE
  8
0
  6
CONTINUOUS
 62
     7
 10
24.38966496803968
 20
24.9509006295332
 11
24.3846649680397
 21
24.97445035504808
  0
LINE
  8
0
  6
CONTINUOUS
 62
     7
 10
24.38466496803981
 20
24.97445035504808
 11
24.27706073235841
 21
24.92461267328378
  0
LINE
  8
0
  6
CONTINUOUS
 62
     7
 10
24.27706073235841
 20
24.92461267328378
 11
24.16684427932453
 21
24.87545016442527
  0
ARC
  8
0
  6
CONTINUOUS
 62
     7
 10
23.46539703113531
 20
27.08640858061711
 40
2.319561458578201
 50
268.1628700374298
 51
287.6021172857861
  0
LINE
  8
0
  6
CONTINUOUS
 62
     7
 10
18.26103543328517
 20
23.18254849295265
 11
18.26103543328517
 21
35.72720779386407
  0
LINE
  8
0
  6
CONTINUOUS
 62
     7
 10
18.26103543328517
 20
23.18254849295265
 11
17.6589645667149
 21
23.18254849295265
  0
LINE
  8
0
  6
CONTINUOUS
 62
     7
 10
17.6589645667149
 20
23.18254849295265
 11
17.6589645667149
 21
35.72720779386407
  0
LINE
  8
0
  6
CONTINUOUS
 62
     7
 10
-16.65033503196023
 20
24.44071537109976
 11
-16.65033503196023
 21
34.77954375010711
  0
ARC
  8
0
  6
CONTINUOUS
 62
     7
 10
-18.16708731723449
 20
24.45394359540093
 40
1.51680996858633
 50
321.9324333223776
 51
359.5003124672785
  0
LINE
  8
0
  6
CONTINUOUS
 62
     7
 10
-16.9729268244625
 20
23.518693255489
 11
-17.06821719847007
 21
23.41920172577899
  0
LINE
  8
0
  6
CONTINUOUS
 62
     7
 10
-17.06821719847007
 20
23.41920172577899
 11
-17.18201845172268
 21
23.32937597535933
  0
LINE
  8
0
  6
CONTINUOUS
 62
     7
 10
-17.18201845172268
 20
23.32937597535933
 11
-17.29106398587698
 21
23.26642223573
  0
LINE
  8
0
  6
CONTINUOUS
 62
     7
 10
-17.29106398587698
 20
23.26642223573
 11
-17.40186528632559
 21
23.22175052057329
  0
LINE
  8
0
  6
CONTINUOUS
 62
     7
 10
-17.40186528632559
 20
23.22175052057329
 11
-17.49993350428647
 21
23.19665475873311
  0
LINE
  8
0
  6
CONTINUOUS
 62
     7
 10
-17.49993350428647
 20
23.19665475873311
 11
-17.61867386141536
 21
23.18312809379852
  0
LINE
  8
0
  6
CONTINUOUS
 62
     7
 10
-17.61867386141536
 20
23.18312809379852
 11
-17.64896456671489
 21
23.18254849295265
  0
LINE
  8
0
  6
CONTINUOUS
 62
     7
 10
-17.64896456671489
 20
23.18254849295265
 11
-17.64896456671489
 21
35.72720779386407
  0
LINE
  8
0
  6
CONTINUOUS
 62
     7
 10
22.78896456671492
 20
24.76805761424511
 11
22.783964566715
 21
24.76807971512762
  0
ARC
  8
0
  6
CONTINUOUS
 62
     7
 10
22.75229492251685
 20
26.97787809086355
 40
2.21002530025538
 50
249.6360783115342
 51
270.8210761473596
  0
LINE
  8
0
  6
CONTINUOUS
 62
     7
 10
21.98324637244142
 20
24.9059765113005
 11
21.8788818331857
 21
24.96883360211888
  0
LINE
  8
0
  6
CONTINUOUS
 62
     7
 10
21.8788818331857
 20
24.96883360211888
 11
21.81080430793769
 21
25.0518557256813
  0
LINE
  8
0
  6
CONTINUOUS
 62
     7
 10
21.81080430793769
 20
25.0518557256813
 11
21.79033503196037
 21
25.154704850327
  0
LINE
  8
0
  6
CONTINUOUS
 62
     7
 10
21.79033503196037
 20
25.154704850327
 11
21.79033503196037
 21
34.77954375010711
  0
LINE
  8
0
  6
CONTINUOUS
 62
     7
 10
19.25966496803971
 20
24.44071537109976
 11
19.25966496803971
 21
34.77954375010711
  0
ARC
  8
0
  6
CONTINUOUS
 62
     7
 10
17.74291268276551
 20
24.45394359540093
 40
1.51680996858633
 50
321.9324333223773
 51
359.5003124672785
  0
LINE
  8
0
  6
CONTINUOUS
 62
     7
 10
18.9370731755375
 20
23.518693255489
 11
18.84178280152993
 21
23.41920172577899
  0
LINE
  8
0
  6
CONTINUOUS
 62
     7
 10
18.84178280152993
 20
23.41920172577899
 11
18.72798154827737
 21
23.32937597535933
  0
LINE
  8
0
  6
CONTINUOUS
 62
     7
 10
18.72798154827737
 20
23.32937597535933
 11
18.61893601412301
 21
23.26642223573
  0
LINE
  8
0
  6
CONTINUOUS
 62
     7
 10
18.61893601412301
 20
23.26642223573
 11
18.5081347136744
 21
23.22175052057329
  0
LINE
  8
0
  6
CONTINUOUS
 62
     7
 10
18.5081347136744
 20
23.22175052057329
 11
18.41006649571353
 21
23.19665475873311
  0
LINE
  8
0
  6
CONTINUOUS
 62
     7
 10
18.41006649571353
 20
23.19665475873311
 11
18.2913261385847
 21
23.18312809379852
  0
LINE
  8
0
  6
CONTINUOUS
 62
     7
 10
18.2913261385847
 20
23.18312809379852
 11
18.26103543328517
 21
23.18254849295265
  0
LINE
  8
0
  6
CONTINUOUS
 62
     7
 10
17.6589645667149
 20
23.18254849295265
 11
17.65079587005047
 21
23.18259061471911
  0
LINE
  8
0
  6
CONTINUOUS
 62
     7
 10
17.65079587005047
 20
23.18259061471911
 11
17.6234246354186
 21
23.18334626056118
  0
LINE
  8
0
  6
CONTINUOUS
 62
     7
 10
17.6234246354186
 20
23.18334626056118
 11
17.59609577143812
 21
23.1850461320563
  0
LINE
  8
0
  6
CONTINUOUS
 62
     7
 10
17.59609577143812
 20
23.1850461320563
 11
17.56871137458499
 21
23.18770192307873
  0
LINE
  8
0
  6
CONTINUOUS
 62
     7
 10
17.56871137458499
 20
23.18770192307873
 11
17.54143485436044
 21
23.19130082859644
  0
LINE
  8
0
  6
CONTINUOUS
 62
     7
 10
17.54143485436044
 20
23.19130082859644
 11
17.50530115948845
 21
23.1975550891711
  0
LINE
  8
0
  6
CONTINUOUS
 62
     7
 10
17.50530115948845
 20
23.1975550891711
 11
17.46945242544034
 21
23.20545307317084
  0
LINE
  8
0
  6
CONTINUOUS
 62
     7
 10
17.46945242544034
 20
23.20545307317084
 11
17.43399286492353
 21
23.21495209146246
  0
LINE
  8
0
  6
CONTINUOUS
 62
     7
 10
17.43399286492353
 20
23.21495209146246
 11
17.39902669064503
 21
23.22600945491221
  0
LINE
  8
0
  6
CONTINUOUS
 62
     7
 10
17.39902669064503
 20
23.22600945491221
 11
17.363456946836
 21
23.23904277602368
  0
LINE
  8
0
  6
CONTINUOUS
 62
     7
 10
17.363456946836
 20
23.23904277602368
 11
17.32847159811302
 21
23.25366871835971
  0
LINE
  8
0
  6
CONTINUOUS
 62
     7
 10
17.32847159811302
 20
23.25366871835971
 11
17.29415959276603
 21
23.26981659606209
  0
LINE
  8
0
  6
CONTINUOUS
 62
     7
 10
17.29415959276603
 20
23.26981659606209
 11
17.26060987908468
 21
23.28741572327242
  0
LINE
  8
0
  6
CONTINUOUS
 62
     7
 10
17.26060987908468
 20
23.28741572327242
 11
17.22891330987131
 21
23.30577609837392
  0
LINE
  8
0
  6
CONTINUOUS
 62
     7
 10
17.22891330987131
 20
23.30577609837392
 11
17.19795613854419
 21
23.32541142281952
  0
LINE
  8
0
  6
CONTINUOUS
 62
     7
 10
17.19795613854419
 20
23.32541142281952
 11
17.16779272791524
 21
23.3462494082195
  0
LINE
  8
0
  6
CONTINUOUS
 62
     7
 10
17.16779272791524
 20
23.3462494082195
 11
17.13847744079594
 21
23.36821776618464
  0
LINE
  8
0
  6
CONTINUOUS
 62
     7
 10
17.13847744079594
 20
23.36821776618464
 11
17.09981837942737
 21
23.39997670329469
  0
LINE
  8
0
  6
CONTINUOUS
 62
     7
 10
17.09981837942737
 20
23.39997670329469
 11
17.06276665030321
 21
23.43364538585663
  0
LINE
  8
0
  6
CONTINUOUS
 62
     7
 10
17.06276665030321
 20
23.43364538585663
 11
17.02740334653014
 21
23.46904372886294
  0
LINE
  8
0
  6
CONTINUOUS
 62
     7
 10
17.02740334653014
 20
23.46904372886294
 11
16.99412909226428
 21
23.50561225516157
  0
LINE
  8
0
  6
CONTINUOUS
 62
     7
 10
16.99412909226428
 20
23.50561225516157
 11
16.9624929972329
 21
23.54366871676217
  0
LINE
  8
0
  6
CONTINUOUS
 62
     7
 10
16.9624929972329
 20
23.54366871676217
 11
16.93252649998994
 21
23.58306035558411
  0
LINE
  8
0
  6
CONTINUOUS
 62
     7
 10
16.93252649998994
 20
23.58306035558411
 11
16.90426103908943
 21
23.62363441354637
  0
LINE
  8
0
  6
CONTINUOUS
 62
     7
 10
16.90426103908943
 20
23.62363441354637
 11
16.86820600485528
 21
23.68107822453014
  0
LINE
  8
0
  6
CONTINUOUS
 62
     7
 10
16.86820600485528
 20
23.68107822453014
 11
16.83522560582229
 21
23.74039885979762
  0
LINE
  8
0
  6
CONTINUOUS
 62
     7
 10
16.83522560582229
 20
23.74039885979762
 11
16.80531773059563
 21
23.80128036946627
  0
LINE
  8
0
  6
CONTINUOUS
 62
     7
 10
16.80531773059563
 20
23.80128036946627
 11
16.77939512192772
 21
23.86112366349941
  0
LINE
  8
0
  6
CONTINUOUS
 62
     7
 10
16.77939512192772
 20
23.86112366349941
 11
16.75616463626323
 21
23.92212979752561
  0
LINE
  8
0
  6
CONTINUOUS
 62
     7
 10
16.75616463626323
 20
23.92212979752561
 11
16.73558482670379
 21
23.98408954018971
  0
LINE
  8
0
  6
CONTINUOUS
 62
     7
 10
16.73558482670379
 20
23.98408954018971
 11
16.7176142463511
 21
24.04679366013673
  0
LINE
  8
0
  6
CONTINUOUS
 62
     7
 10
16.7176142463511
 20
24.04679366013673
 11
16.6970733273587
 21
24.13383144463255
  0
LINE
  8
0
  6
CONTINUOUS
 62
     7
 10
16.6970733273587
 20
24.13383144463255
 11
16.68110233289832
 21
24.22188872084002
  0
LINE
  8
0
  6
CONTINUOUS
 62
     7
 10
16.68110233289832
 20
24.22188872084002
 11
16.66956048697405
 21
24.31058206696118
  0
LINE
  8
0
  6
CONTINUOUS
 62
     7
 10
16.66956048697405
 20
24.31058206696118
 11
16.66384481451949
 21
24.37553239581391
  0
LINE
  8
0
  6
CONTINUOUS
 62
     7
 10
16.66384481451949
 20
24.37553239581391
 11
16.66033503196029
 21
24.44071537109982
  0
LINE
  8
0
  6
CONTINUOUS
 62
     7
 10
16.66033503196029
 20
24.44071537109976
 11
16.66033503196029
 21
34.77954375010711
  0
LINE
  8
0
  6
CONTINUOUS
 62
     7
 10
-17.64896456671489
 20
23.18254849295265
 11
-18.2510354332851
 21
23.18254849295265
  0
LINE
  8
0
  6
CONTINUOUS
 62
     7
 10
-18.2510354332851
 20
23.18254849295265
 11
-18.2510354332851
 21
35.72720779386407
  0
LINE
  8
0
  6
CONTINUOUS
 62
     7
 10
-28.51103543328509
 20
24.76805761424511
 11
-28.51103543328509
 21
35.72720779386407
  0
LINE
  8
0
  6
CONTINUOUS
 62
     7
 10
-28.51103543328509
 20
24.76805761424511
 11
-28.51603543328513
 21
24.76807971512762
  0
ARC
  8
0
  6
CONTINUOUS
 62
     7
 10
-28.54770507748277
 20
26.97787809086572
 40
2.210025300257545
 50
249.6360783115416
 51
270.8210761473462
  0
LINE
  8
0
  6
CONTINUOUS
 62
     7
 10
-29.3167536275587
 20
24.9059765113005
 11
-29.42111816681431
 21
24.96883360211899
  0
LINE
  8
0
  6
CONTINUOUS
 62
     7
 10
-29.42111816681431
 20
24.96883360211899
 11
-29.48919569206226
 21
25.0518557256813
  0
LINE
  8
0
  6
CONTINUOUS
 62
     7
 10
-29.48919569206226
 20
25.0518557256813
 11
-29.50966496803964
 21
25.15470485032717
  0
LINE
  8
0
  6
CONTINUOUS
 62
     7
 10
-29.50966496803964
 20
25.15470485032717
 11
-29.50966496803964
 21
34.77954375010711
  0
LINE
  8
0
  6
CONTINUOUS
 62
     7
 10
-49.03103543328508
 20
24.76805761424511
 11
-49.03103543328508
 21
35.72720779386407
  0
LINE
  8
0
  6
CONTINUOUS
 62
     7
 10
-49.03103543328508
 20
24.76805761424511
 11
-49.03603543328508
 21
24.76807971512762
  0
ARC
  8
0
  6
CONTINUOUS
 62
     7
 10
-49.06770507748278
 20
26.97787809086538
 40
2.21002530025724
 50
249.6360783115392
 51
270.821076147347
  0
LINE
  8
0
  6
CONTINUOUS
 62
     7
 10
-49.8367536275586
 20
24.9059765113005
 11
-49.94111816681429
 21
24.96883360211915
  0
LINE
  8
0
  6
CONTINUOUS
 62
     7
 10
-49.94111816681429
 20
24.96883360211915
 11
-50.00919569206219
 21
25.05185572568164
  0
LINE
  8
0
  6
CONTINUOUS
 62
     7
 10
-50.00919569206219
 20
25.05185572568164
 11
-50.02966496803968
 21
25.15470485032717
  0
LINE
  8
0
  6
CONTINUOUS
 62
     7
 10
-50.02966496803968
 20
25.15470485032717
 11
-50.02966496803968
 21
34.77954375010711
  0
LINE
  8
0
  6
CONTINUOUS
 62
     7
 10
-26.91033503196022
 20
24.9509006295332
 11
-26.91033503196022
 21
34.77954375010711
  0
LINE
  8
0
  6
CONTINUOUS
 62
     7
 10
-26.91033503196022
 20
24.9509006295332
 11
-26.9153350319602
 21
24.97445035504797
  0
LINE
  8
0
  6
CONTINUOUS
 62
     7
 10
-26.9153350319602
 20
24.97445035504792
 11
-27.02293926764143
 21
24.92461267328378
  0
LINE
  8
0
  6
CONTINUOUS
 62
     7
 10
-27.02293926764143
 20
24.92461267328378
 11
-27.13315572067532
 21
24.87545016442527
  0
ARC
  8
0
  6
CONTINUOUS
 62
     7
 10
-27.83460296886453
 20
27.08640858061673
 40
2.319561458577812
 50
268.1628700374249
 51
287.6021172857905
  0
LINE
  8
0
  6
CONTINUOUS
 62
     7
 10
-27.90896456671476
 20
24.76803938808392
 11
-27.90896456671476
 21
35.72720779386407
  0
LINE
  8
0
  6
CONTINUOUS
 62
     7
 10
-27.90896456671476
 20
24.76803938808392
 11
-27.91396456671474
 21
24.76805761424511
  0
LINE
  8
0
  6
CONTINUOUS
 62
     7
 10
-27.91396456671474
 20
24.76805761424511
 11
-28.51103543328509
 21
24.76805761424511
  0
LINE
  8
0
  6
CONTINUOUS
 62
     7
 10
-33.03896456671479
 20
24.76803938808392
 11
-33.03896456671479
 21
35.72720779386407
  0
LINE
  8
0
  6
CONTINUOUS
 62
     7
 10
-33.03896456671479
 20
24.76803938808392
 11
-33.04396456671477
 21
24.76805761424511
  0
LINE
  8
0
  6
CONTINUOUS
 62
     7
 10
-33.04396456671477
 20
24.76805761424511
 11
-33.64103543328512
 21
24.76805761424511
  0
LINE
  8
0
  6
CONTINUOUS
 62
     7
 10
-33.64103543328512
 20
24.76805761424511
 11
-33.64103543328512
 21
35.72720779386407
  0
LINE
  8
0
  6
CONTINUOUS
 62
     7
 10
-23.38103543328512
 20
24.76805761424511
 11
-23.38103543328512
 21
35.72720779386407
  0
LINE
  8
0
  6
CONTINUOUS
 62
     7
 10
-23.38103543328512
 20
24.76805761424511
 11
-23.3860354332851
 21
24.76807971512762
  0
ARC
  8
0
  6
CONTINUOUS
 62
     7
 10
-23.41770507748264
 20
26.97787809086577
 40
2.210025300257601
 50
249.6360783115417
 51
270.821076147346
  0
LINE
  8
0
  6
CONTINUOUS
 62
     7
 10
-24.18675362755873
 20
24.9059765113005
 11
-24.2911181668144
 21
24.96883360211899
  0
LINE
  8
0
  6
CONTINUOUS
 62
     7
 10
-24.2911181668144
 20
24.96883360211899
 11
-24.35919569206224
 21
25.0518557256813
  0
LINE
  8
0
  6
CONTINUOUS
 62
     7
 10
-24.35919569206224
 20
25.0518557256813
 11
-24.37966496803956
 21
25.15470485032717
  0
LINE
  8
0
  6
CONTINUOUS
 62
     7
 10
-24.37966496803956
 20
25.15470485032717
 11
-24.37966496803956
 21
34.77954375010711
  0
LINE
  8
0
  6
CONTINUOUS
 62
     7
 10
-48.42896456671489
 20
24.76803938808392
 11
-48.42896456671489
 21
35.72720779386407
  0
LINE
  8
0
  6
CONTINUOUS
 62
     7
 10
-48.42896456671489
 20
24.76803938808392
 11
-48.43396456671478
 21
24.76805761424511
  0
LINE
  8
0
  6
CONTINUOUS
 62
     7
 10
-48.43396456671478
 20
24.76805761424511
 11
-49.03103543328499
 21
24.76805761424511
  0
LINE
  8
0
  6
CONTINUOUS
 62
     7
 10
-38.77103543328509
 20
24.76805761424511
 11
-38.77103543328509
 21
35.72720779386407
  0
LINE
  8
0
  6
CONTINUOUS
 62
     7
 10
-38.77103543328509
 20
24.76805761424511
 11
-38.776035433285
 21
24.76807971512762
  0
ARC
  8
0
  6
CONTINUOUS
 62
     7
 10
-38.80770507748277
 20
26.9778780908656
 40
2.210025300257434
 50
249.6360783115414
 51
270.8210761473472
  0
LINE
  8
0
  6
CONTINUOUS
 62
     7
 10
-39.57675362755858
 20
24.9059765113005
 11
-39.6811181668143
 21
24.96883360211888
  0
LINE
  8
0
  6
CONTINUOUS
 62
     7
 10
-39.6811181668143
 20
24.96883360211888
 11
-39.74919569206231
 21
25.05185572568125
  0
LINE
  8
0
  6
CONTINUOUS
 62
     7
 10
-39.74919569206231
 20
25.05185572568125
 11
-39.76966496803963
 21
25.15470485032717
  0
LINE
  8
0
  6
CONTINUOUS
 62
     7
 10
-39.76966496803963
 20
25.15470485032717
 11
-39.76966496803963
 21
34.77954375010711
  0
LINE
  8
0
  6
CONTINUOUS
 62
     7
 10
-38.16896456671487
 20
24.76803938808392
 11
-38.16896456671487
 21
35.72720779386407
  0
LINE
  8
0
  6
CONTINUOUS
 62
     7
 10
-38.16896456671487
 20
24.76803938808392
 11
-38.17396456671484
 21
24.76805761424511
  0
LINE
  8
0
  6
CONTINUOUS
 62
     7
 10
-38.17396456671484
 20
24.76805761424511
 11
-38.77103543328509
 21
24.76805761424511
  0
LINE
  8
0
  6
CONTINUOUS
 62
     7
 10
-37.17033503196032
 20
24.9509006295332
 11
-37.17033503196032
 21
34.77954375010711
  0
LINE
  8
0
  6
CONTINUOUS
 62
     7
 10
-37.17033503196032
 20
24.9509006295332
 11
-37.17533503196019
 21
24.97445035504797
  0
LINE
  8
0
  6
CONTINUOUS
 62
     7
 10
-37.17533503196019
 20
24.97445035504792
 11
-37.28293926764153
 21
24.92461267328378
  0
LINE
  8
0
  6
CONTINUOUS
 62
     7
 10
-37.28293926764153
 20
24.92461267328378
 11
-37.39315572067542
 21
24.87545016442527
  0
ARC
  8
0
  6
CONTINUOUS
 62
     7
 10
-38.09460296886463
 20
27.08640858061778
 40
2.319561458578923
 50
268.16287003743
 51
287.6021172857841
  0
LINE
  8
0
  6
CONTINUOUS
 62
     7
 10
-18.2510354332851
 20
23.18254849295265
 11
-18.25920412994958
 21
23.18259061471911
  0
LINE
  8
0
  6
CONTINUOUS
 62
     7
 10
-18.25920412994958
 20
23.18259061471911
 11
-18.2865753645815
 21
23.18334626056118
  0
LINE
  8
0
  6
CONTINUOUS
 62
     7
 10
-18.2865753645815
 20
23.18334626056118
 11
-18.31390422856188
 21
23.1850461320563
  0
LINE
  8
0
  6
CONTINUOUS
 62
     7
 10
-18.31390422856188
 20
23.1850461320563
 11
-18.34128862541495
 21
23.18770192307873
  0
LINE
  8
0
  6
CONTINUOUS
 62
     7
 10
-18.34128862541495
 20
23.18770192307873
 11
-18.36856514563961
 21
23.19130082859644
  0
LINE
  8
0
  6
CONTINUOUS
 62
     7
 10
-18.36856514563961
 20
23.19130082859644
 11
-18.4046988405116
 21
23.1975550891711
  0
LINE
  8
0
  6
CONTINUOUS
 62
     7
 10
-18.4046988405116
 20
23.1975550891711
 11
-18.4405475745596
 21
23.20545307317084
  0
LINE
  8
0
  6
CONTINUOUS
 62
     7
 10
-18.4405475745596
 20
23.20545307317084
 11
-18.47600713507652
 21
23.21495209146246
  0
LINE
  8
0
  6
CONTINUOUS
 62
     7
 10
-18.47600713507652
 20
23.21495209146246
 11
-18.51097330935503
 21
23.22600945491232
  0
LINE
  8
0
  6
CONTINUOUS
 62
     7
 10
-18.51097330935503
 20
23.22600945491232
 11
-18.546543053164
 21
23.23904277602368
  0
LINE
  8
0
  6
CONTINUOUS
 62
     7
 10
-18.546543053164
 20
23.23904277602368
 11
-18.58152840188704
 21
23.25366871835971
  0
LINE
  8
0
  6
CONTINUOUS
 62
     7
 10
-18.58152840188704
 20
23.25366871835971
 11
-18.61584040723402
 21
23.26981659606209
  0
LINE
  8
0
  6
CONTINUOUS
 62
     7
 10
-18.61584040723402
 20
23.26981659606209
 11
-18.64939012091526
 21
23.28741572327242
  0
LINE
  8
0
  6
CONTINUOUS
 62
     7
 10
-18.64939012091526
 20
23.28741572327242
 11
-18.68108669012858
 21
23.30577609837392
  0
LINE
  8
0
  6
CONTINUOUS
 62
     7
 10
-18.68108669012858
 20
23.30577609837392
 11
-18.71204386145575
 21
23.32541142281952
  0
LINE
  8
0
  6
CONTINUOUS
 62
     7
 10
-18.71204386145575
 20
23.32541142281952
 11
-18.74220727208481
 21
23.3462494082195
  0
LINE
  8
0
  6
CONTINUOUS
 62
     7
 10
-18.74220727208481
 20
23.3462494082195
 11
-18.771522559204
 21
23.36821776618464
  0
LINE
  8
0
  6
CONTINUOUS
 62
     7
 10
-18.771522559204
 20
23.36821776618464
 11
-18.81018162057257
 21
23.39997670329469
  0
LINE
  8
0
  6
CONTINUOUS
 62
     7
 10
-18.81018162057257
 20
23.39997670329469
 11
-18.84723334969679
 21
23.43364538585663
  0
LINE
  8
0
  6
CONTINUOUS
 62
     7
 10
-18.84723334969679
 20
23.43364538585663
 11
-18.88259665346992
 21
23.46904372886294
  0
LINE
  8
0
  6
CONTINUOUS
 62
     7
 10
-18.88259665346992
 20
23.46904372886294
 11
-18.91587090773567
 21
23.50561225516157
  0
LINE
  8
0
  6
CONTINUOUS
 62
     7
 10
-18.91587090773567
 20
23.50561225516157
 11
-18.94750700276709
 21
23.54366871676217
  0
LINE
  8
0
  6
CONTINUOUS
 62
     7
 10
-18.94750700276709
 20
23.54366871676217
 11
-18.97747350001011
 21
23.58306035558411
  0
LINE
  8
0
  6
CONTINUOUS
 62
     7
 10
-18.97747350001011
 20
23.58306035558411
 11
-19.00573896091057
 21
23.62363441354637
  0
LINE
  8
0
  6
CONTINUOUS
 62
     7
 10
-19.00573896091057
 20
23.62363441354637
 11
-19.04179399514472
 21
23.68107822453014
  0
LINE
  8
0
  6
CONTINUOUS
 62
     7
 10
-19.04179399514472
 20
23.68107822453014
 11
-19.0747743941776
 21
23.74039885979762
  0
LINE
  8
0
  6
CONTINUOUS
 62
     7
 10
-19.0747743941776
 20
23.74039885979762
 11
-19.10468226940437
 21
23.80128036946627
  0
LINE
  8
0
  6
CONTINUOUS
 62
     7
 10
-19.10468226940437
 20
23.80128036946627
 11
-19.13060487807233
 21
23.86112366349941
  0
LINE
  8
0
  6
CONTINUOUS
 62
     7
 10
-19.13060487807233
 20
23.86112366349941
 11
-19.15383536373682
 21
23.92212979752561
  0
LINE
  8
0
  6
CONTINUOUS
 62
     7
 10
-19.15383536373682
 20
23.92212979752561
 11
-19.17441517329615
 21
23.98408954018971
  0
LINE
  8
0
  6
CONTINUOUS
 62
     7
 10
-19.17441517329615
 20
23.98408954018971
 11
-19.1923857536489
 21
24.04679366013673
  0
LINE
  8
0
  6
CONTINUOUS
 62
     7
 10
-19.1923857536489
 20
24.04679366013673
 11
-19.21292667264141
 21
24.13383144463255
  0
LINE
  8
0
  6
CONTINUOUS
 62
     7
 10
-19.21292667264141
 20
24.13383144463255
 11
-19.22889766710167
 21
24.22188872084002
  0
LINE
  8
0
  6
CONTINUOUS
 62
     7
 10
-19.22889766710167
 20
24.22188872084002
 11
-19.24043951302601
 21
24.31058206696118
  0
LINE
  8
0
  6
CONTINUOUS
 62
     7
 10
-19.24043951302601
 20
24.31058206696118
 11
-19.24615518548045
 21
24.37553239581391
  0
LINE
  8
0
  6
CONTINUOUS
 62
     7
 10
-19.24615518548045
 20
24.37553239581391
 11
-19.24966496803959
 21
24.44071537109982
  0
LINE
  8
0
  6
CONTINUOUS
 62
     7
 10
-19.24966496803959
 20
24.44071537109976
 11
-19.24966496803959
 21
34.77954375010711
  0
LINE
  8
0
  6
CONTINUOUS
 62
     7
 10
-43.29896456671489
 20
24.76803938808392
 11
-43.29896456671489
 21
35.72720779386407
  0
LINE
  8
0
  6
CONTINUOUS
 62
     7
 10
-43.29896456671489
 20
24.76803938808392
 11
-43.30396456671476
 21
24.76805761424511
  0
LINE
  8
0
  6
CONTINUOUS
 62
     7
 10
-43.30396456671476
 20
24.76805761424511
 11
-43.90103543328511
 21
24.76805761424511
  0
LINE
  8
0
  6
CONTINUOUS
 62
     7
 10
-43.90103543328511
 20
24.76805761424511
 11
-43.90103543328511
 21
35.72720779386407
  0
LINE
  8
0
  6
CONTINUOUS
 62
     7
 10
-33.64103543328512
 20
24.76805761424511
 11
-33.64603543328509
 21
24.76807971512762
  0
ARC
  8
0
  6
CONTINUOUS
 62
     7
 10
-33.6777050774828
 20
26.97787809086572
 40
2.210025300257545
 50
249.6360783115416
 51
270.8210761473462
  0
LINE
  8
0
  6
CONTINUOUS
 62
     7
 10
-34.44675362755856
 20
24.9059765113005
 11
-34.55111816681428
 21
24.96883360211899
  0
LINE
  8
0
  6
CONTINUOUS
 62
     7
 10
-34.55111816681428
 20
24.96883360211899
 11
-34.61919569206228
 21
25.0518557256813
  0
LINE
  8
0
  6
CONTINUOUS
 62
     7
 10
-34.61919569206228
 20
25.0518557256813
 11
-34.63966496803966
 21
25.15470485032717
  0
LINE
  8
0
  6
CONTINUOUS
 62
     7
 10
-34.63966496803966
 20
25.15470485032717
 11
-34.63966496803966
 21
34.77954375010711
  0
LINE
  8
0
  6
CONTINUOUS
 62
     7
 10
-42.30033503196018
 20
24.9509006295332
 11
-42.30033503196018
 21
34.77954375010711
  0
LINE
  8
0
  6
CONTINUOUS
 62
     7
 10
-42.30033503196018
 20
24.9509006295332
 11
-42.30533503196021
 21
24.97445035504797
  0
LINE
  8
0
  6
CONTINUOUS
 62
     7
 10
-42.30533503196021
 20
24.97445035504792
 11
-42.41293926764139
 21
24.92461267328389
  0
LINE
  8
0
  6
CONTINUOUS
 62
     7
 10
-42.41293926764139
 20
24.92461267328389
 11
-42.52315572067516
 21
24.87545016442527
  0
ARC
  8
0
  6
CONTINUOUS
 62
     7
 10
-43.2246029688646
 20
27.0864085806175
 40
2.31956145857859
 50
268.1628700374288
 51
287.6021172857909
  0
LINE
  8
0
  6
CONTINUOUS
 62
     7
 10
-32.0403350319603
 20
24.9509006295332
 11
-32.0403350319603
 21
34.77954375010711
  0
LINE
  8
0
  6
CONTINUOUS
 62
     7
 10
-32.0403350319603
 20
24.9509006295332
 11
-32.04533503196011
 21
24.97445035504797
  0
LINE
  8
0
  6
CONTINUOUS
 62
     7
 10
-32.04533503196022
 20
24.97445035504792
 11
-32.1529392676414
 21
24.92461267328389
  0
LINE
  8
0
  6
CONTINUOUS
 62
     7
 10
-32.1529392676414
 20
24.92461267328389
 11
-32.26315572067517
 21
24.87545016442527
  0
ARC
  8
0
  6
CONTINUOUS
 62
     7
 10
-32.96460296886466
 20
27.08640858061795
 40
2.319561458579089
 50
268.16287003743
 51
287.6021172857879
  0
LINE
  8
0
  6
CONTINUOUS
 62
     7
 10
-22.7789645667148
 20
24.76803938808392
 11
-22.7789645667148
 21
35.72720779386407
  0
LINE
  8
0
  6
CONTINUOUS
 62
     7
 10
-22.7789645667148
 20
24.76803938808392
 11
-22.78396456671478
 21
24.76805761424511
  0
LINE
  8
0
  6
CONTINUOUS
 62
     7
 10
-22.78396456671478
 20
24.76805761424511
 11
-23.38103543328512
 21
24.76805761424511
  0
LINE
  8
0
  6
CONTINUOUS
 62
     7
 10
-47.43033503196031
 20
24.9509006295332
 11
-47.43033503196031
 21
34.77954375010711
  0
LINE
  8
0
  6
CONTINUOUS
 62
     7
 10
-47.43033503196031
 20
24.9509006295332
 11
-47.43533503196018
 21
24.97445035504797
  0
LINE
  8
0
  6
CONTINUOUS
 62
     7
 10
-47.43533503196018
 20
24.97445035504792
 11
-47.54293926764142
 21
24.92461267328389
  0
LINE
  8
0
  6
CONTINUOUS
 62
     7
 10
-47.54293926764142
 20
24.92461267328389
 11
-47.65315572067507
 21
24.87545016442527
  0
ARC
  8
0
  6
CONTINUOUS
 62
     7
 10
-48.35460296886468
 20
27.08640858061845
 40
2.319561458579478
 50
268.1628700374317
 51
287.6021172857868
  0
LINE
  8
0
  6
CONTINUOUS
 62
     7
 10
-43.90103543328511
 20
24.76805761424511
 11
-43.90603543328503
 21
24.76807971512762
  0
ARC
  8
0
  6
CONTINUOUS
 62
     7
 10
-43.9377050774829
 20
26.9778780908646
 40
2.210025300256491
 50
249.636078311534
 51
270.8210761473489
  0
LINE
  8
0
  6
CONTINUOUS
 62
     7
 10
-44.70675362755861
 20
24.9059765113005
 11
-44.81111816681432
 21
24.96883360211888
  0
LINE
  8
0
  6
CONTINUOUS
 62
     7
 10
-44.81111816681432
 20
24.96883360211888
 11
-44.87919569206228
 21
25.05185572568125
  0
LINE
  8
0
  6
CONTINUOUS
 62
     7
 10
-44.87919569206228
 20
25.05185572568125
 11
-44.89966496803971
 21
25.15470485032728
  0
LINE
  8
0
  6
CONTINUOUS
 62
     7
 10
-44.89966496803971
 20
25.15470485032728
 11
-44.89966496803971
 21
34.77954375010711
  0
LINE
  8
0
  6
CONTINUOUS
 62
     7
 10
-21.78033503196025
 20
24.9509006295332
 11
-21.78033503196025
 21
34.77954375010711
  0
LINE
  8
0
  6
CONTINUOUS
 62
     7
 10
-21.78033503196025
 20
24.9509006295332
 11
-21.78533503196023
 21
24.97445035504797
  0
LINE
  8
0
  6
CONTINUOUS
 62
     7
 10
-21.78533503196023
 20
24.97445035504792
 11
-21.89293926764146
 21
24.92461267328378
  0
LINE
  8
0
  6
CONTINUOUS
 62
     7
 10
-21.89293926764146
 20
24.92461267328378
 11
-22.00315572067529
 21
24.87545016442527
  0
ARC
  8
0
  6
CONTINUOUS
 62
     7
 10
-22.70460296886451
 20
27.08640858061711
 40
2.319561458578145
 50
268.1628700374256
 51
287.6021172857886
  0
LINE
  8
0
  6
CONTINUOUS
 62
     7
 10
44.9386116689246
 20
25.2640810616776
 11
44.9386116689246
 21
34.22720779386423
  0
LINE
  8
0
  6
CONTINUOUS
 62
     7
 10
44.9386116689246
 20
25.2640810616776
 11
44.93361166892473
 21
25.1144786972618
  0
LINE
  8
0
  6
CONTINUOUS
 62
     7
 10
44.93361166892473
 20
25.1144786972618
 11
44.90966496803978
 21
24.95090062953331
  0
LINE
  8
0
  6
CONTINUOUS
 62
     7
 10
42.31033503196041
 20
25.15470485032711
 11
42.30533503196043
 21
25.23390613330323
  0
LINE
  8
0
  6
CONTINUOUS
 62
     7
 10
42.30533503196043
 20
25.23390613330323
 11
42.28138833107548
 21
25.38522526884673
  0
LINE
  8
0
  6
CONTINUOUS
 62
     7
 10
42.28138833107548
 20
25.38522526884673
 11
42.28138833107548
 21
34.22720779386407
  0
LINE
  8
0
  6
CONTINUOUS
 62
     7
 10
37.18033503196033
 20
25.154704850327
 11
37.17533503196035
 21
25.23390613330284
  0
LINE
  8
0
  6
CONTINUOUS
 62
     7
 10
37.17533503196035
 20
25.23390613330284
 11
37.15138833107545
 21
25.3852252688464
  0
LINE
  8
0
  6
CONTINUOUS
 62
     7
 10
37.15138833107545
 20
25.3852252688464
 11
37.15138833107545
 21
34.22720779386423
  0
LINE
  8
0
  6
CONTINUOUS
 62
     7
 10
50.06861166892473
 20
25.2640810616776
 11
50.06861166892473
 21
34.22720779386423
  0
LINE
  8
0
  6
CONTINUOUS
 62
     7
 10
50.06861166892473
 20
25.2640810616776
 11
50.06361166892476
 21
25.11447869726191
  0
LINE
  8
0
  6
CONTINUOUS
 62
     7
 10
50.06361166892464
 20
25.11447869726191
 11
50.03966496803974
 21
24.95090062953348
  0
LINE
  8
0
  6
CONTINUOUS
 62
     7
 10
32.05033503196037
 20
25.15470485032711
 11
32.04533503196038
 21
25.23390613330301
  0
LINE
  8
0
  6
CONTINUOUS
 62
     7
 10
32.04533503196033
 20
25.23390613330301
 11
32.02138833107537
 21
25.38522526884657
  0
LINE
  8
0
  6
CONTINUOUS
 62
     7
 10
32.02138833107537
 20
25.38522526884651
 11
32.02138833107537
 21
34.22720779386407
  0
LINE
  8
0
  6
CONTINUOUS
 62
     7
 10
26.92033503196034
 20
25.15470485032711
 11
26.91533503196036
 21
25.23390613330323
  0
LINE
  8
0
  6
CONTINUOUS
 62
     7
 10
26.91533503196036
 20
25.23390613330323
 11
26.89138833107551
 21
25.38522526884673
  0
LINE
  8
0
  6
CONTINUOUS
 62
     7
 10
26.89138833107551
 20
25.38522526884673
 11
26.89138833107551
 21
34.22720779386407
  0
LINE
  8
0
  6
CONTINUOUS
 62
     7
 10
39.80861166892463
 20
25.2640810616776
 11
39.80861166892463
 21
34.22720779386423
  0
LINE
  8
0
  6
CONTINUOUS
 62
     7
 10
39.80861166892463
 20
25.2640810616776
 11
39.80361166892471
 21
25.11447869726213
  0
LINE
  8
0
  6
CONTINUOUS
 62
     7
 10
39.80361166892465
 20
25.11447869726213
 11
39.77966496803975
 21
24.95090062953387
  0
LINE
  8
0
  6
CONTINUOUS
 62
     7
 10
29.54861166892464
 20
25.2640810616776
 11
29.54861166892464
 21
34.22720779386423
  0
LINE
  8
0
  6
CONTINUOUS
 62
     7
 10
29.54861166892464
 20
25.2640810616776
 11
29.54361166892466
 21
25.1144786972618
  0
LINE
  8
0
  6
CONTINUOUS
 62
     7
 10
29.54361166892466
 20
25.1144786972618
 11
29.51966496803971
 21
24.95090062953331
  0
LINE
  8
0
  6
CONTINUOUS
 62
     7
 10
34.67861166892461
 20
25.2640810616776
 11
34.67861166892461
 21
34.22720779386423
  0
LINE
  8
0
  6
CONTINUOUS
 62
     7
 10
34.67861166892461
 20
25.2640810616776
 11
34.67361166892469
 21
25.11447869726191
  0
LINE
  8
0
  6
CONTINUOUS
 62
     7
 10
34.67361166892463
 20
25.11447869726191
 11
34.64966496803967
 21
24.95090062953348
  0
LINE
  8
0
  6
CONTINUOUS
 62
     7
 10
47.44033503196043
 20
25.15470485032711
 11
47.43533503196046
 21
25.23390613330301
  0
LINE
  8
0
  6
CONTINUOUS
 62
     7
 10
47.43533503196034
 20
25.23390613330301
 11
47.41138833107544
 21
25.38522526884657
  0
LINE
  8
0
  6
CONTINUOUS
 62
     7
 10
47.41138833107544
 20
25.38522526884651
 11
47.41138833107544
 21
34.22720779386407
  0
LINE
  8
0
  6
CONTINUOUS
 62
     7
 10
21.79033503196037
 20
25.154704850327
 11
21.78533503196039
 21
25.2339061333029
  0
LINE
  8
0
  6
CONTINUOUS
 62
     7
 10
21.78533503196028
 20
25.2339061333029
 11
21.76138833107538
 21
25.38522526884651
  0
LINE
  8
0
  6
CONTINUOUS
 62
     7
 10
21.76138833107538
 20
25.38522526884651
 11
21.76138833107538
 21
34.22720779386423
  0
LINE
  8
0
  6
CONTINUOUS
 62
     7
 10
19.28861166892459
 20
25.2640810616776
 11
19.28861166892459
 21
34.22720779386423
  0
LINE
  8
0
  6
CONTINUOUS
 62
     7
 10
19.28861166892459
 20
25.2640810616776
 11
19.25966496803971
 21
24.44071537109982
  0
LINE
  8
0
  6
CONTINUOUS
 62
     7
 10
16.66033503196029
 20
24.44071537109982
 11
16.63138833107541
 21
25.2640810616776
  0
LINE
  8
0
  6
CONTINUOUS
 62
     7
 10
16.63138833107541
 20
25.2640810616776
 11
16.63138833107541
 21
34.22720779386423
  0
LINE
  8
0
  6
CONTINUOUS
 62
     7
 10
-16.6213883310754
 20
25.2640810616776
 11
-16.6213883310754
 21
34.22720779386423
  0
LINE
  8
0
  6
CONTINUOUS
 62
     7
 10
-16.6213883310754
 20
25.2640810616776
 11
-16.65033503196029
 21
24.44071537109982
  0
LINE
  8
0
  6
CONTINUOUS
 62
     7
 10
24.41861166892462
 20
25.2640810616776
 11
24.41861166892462
 21
34.22720779386423
  0
LINE
  8
0
  6
CONTINUOUS
 62
     7
 10
24.41861166892462
 20
25.2640810616776
 11
24.41361166892458
 21
25.11447869726202
  0
LINE
  8
0
  6
CONTINUOUS
 62
     7
 10
24.41361166892458
 20
25.11447869726202
 11
24.38966496803968
 21
24.95090062953309
  0
LINE
  8
0
  6
CONTINUOUS
 62
     7
 10
-47.40138833107549
 20
25.2640810616776
 11
-47.40138833107549
 21
34.22720779386423
  0
LINE
  8
0
  6
CONTINUOUS
 62
     7
 10
-47.40138833107549
 20
25.2640810616776
 11
-47.4063883310753
 21
25.1144786972618
  0
LINE
  8
0
  6
CONTINUOUS
 62
     7
 10
-47.40638833107536
 20
25.1144786972618
 11
-47.43033503196031
 21
24.9509006295332
  0
LINE
  8
0
  6
CONTINUOUS
 62
     7
 10
-50.02966496803968
 20
25.15470485032717
 11
-50.03466496803969
 21
25.23390613330323
  0
LINE
  8
0
  6
CONTINUOUS
 62
     7
 10
-50.03466496803969
 20
25.23390613330323
 11
-50.05861166892461
 21
25.38522526884673
  0
LINE
  8
0
  6
CONTINUOUS
 62
     7
 10
-50.05861166892461
 20
25.38522526884673
 11
-50.05861166892461
 21
34.22720779386407
  0
LINE
  8
0
  6
CONTINUOUS
 62
     7
 10
-39.76966496803963
 20
25.15470485032717
 11
-39.77466496803961
 21
25.2339061333029
  0
LINE
  8
0
  6
CONTINUOUS
 62
     7
 10
-39.77466496803972
 20
25.23390613330301
 11
-39.79861166892462
 21
25.38522526884657
  0
LINE
  8
0
  6
CONTINUOUS
 62
     7
 10
-39.79861166892462
 20
25.38522526884651
 11
-39.79861166892462
 21
34.22720779386407
  0
LINE
  8
0
  6
CONTINUOUS
 62
     7
 10
-26.8813883310754
 20
25.2640810616776
 11
-26.8813883310754
 21
34.22720779386423
  0
LINE
  8
0
  6
CONTINUOUS
 62
     7
 10
-26.8813883310754
 20
25.2640810616776
 11
-26.88638833107537
 21
25.1144786972618
  0
LINE
  8
0
  6
CONTINUOUS
 62
     7
 10
-26.88638833107537
 20
25.1144786972618
 11
-26.91033503196022
 21
24.9509006295332
  0
LINE
  8
0
  6
CONTINUOUS
 62
     7
 10
-29.50966496803964
 20
25.15470485032717
 11
-29.51466496803961
 21
25.23390613330323
  0
LINE
  8
0
  6
CONTINUOUS
 62
     7
 10
-29.51466496803961
 20
25.23390613330323
 11
-29.53861166892452
 21
25.38522526884673
  0
LINE
  8
0
  6
CONTINUOUS
 62
     7
 10
-29.53861166892452
 20
25.38522526884673
 11
-29.53861166892452
 21
34.22720779386407
  0
LINE
  8
0
  6
CONTINUOUS
 62
     7
 10
-42.27138833107541
 20
25.2640810616776
 11
-42.27138833107541
 21
34.22720779386423
  0
LINE
  8
0
  6
CONTINUOUS
 62
     7
 10
-42.27138833107541
 20
25.2640810616776
 11
-42.27638833107549
 21
25.1144786972618
  0
LINE
  8
0
  6
CONTINUOUS
 62
     7
 10
-42.27638833107539
 20
25.1144786972618
 11
-42.30033503196018
 21
24.9509006295332
  0
LINE
  8
0
  6
CONTINUOUS
 62
     7
 10
-32.01138833107536
 20
25.2640810616776
 11
-32.01138833107536
 21
34.22720779386423
  0
LINE
  8
0
  6
CONTINUOUS
 62
     7
 10
-32.01138833107536
 20
25.2640810616776
 11
-32.01638833107534
 21
25.1144786972618
  0
LINE
  8
0
  6
CONTINUOUS
 62
     7
 10
-32.01638833107534
 20
25.1144786972618
 11
-32.0403350319603
 21
24.9509006295332
  0
LINE
  8
0
  6
CONTINUOUS
 62
     7
 10
-34.63966496803966
 20
25.15470485032717
 11
-34.64466496803964
 21
25.23390613330323
  0
LINE
  8
0
  6
CONTINUOUS
 62
     7
 10
-34.64466496803964
 20
25.23390613330323
 11
-34.6686116689246
 21
25.38522526884673
  0
LINE
  8
0
  6
CONTINUOUS
 62
     7
 10
-34.6686116689246
 20
25.38522526884673
 11
-34.6686116689246
 21
34.22720779386407
  0
LINE
  8
0
  6
CONTINUOUS
 62
     7
 10
-21.75138833107537
 20
25.2640810616776
 11
-21.75138833107537
 21
34.22720779386423
  0
LINE
  8
0
  6
CONTINUOUS
 62
     7
 10
-21.75138833107537
 20
25.2640810616776
 11
-21.75638833107535
 21
25.1144786972618
  0
LINE
  8
0
  6
CONTINUOUS
 62
     7
 10
-21.75638833107535
 20
25.1144786972618
 11
-21.78033503196025
 21
24.9509006295332
  0
LINE
  8
0
  6
CONTINUOUS
 62
     7
 10
-24.37966496803956
 20
25.15470485032717
 11
-24.38466496803959
 21
25.23390613330323
  0
LINE
  8
0
  6
CONTINUOUS
 62
     7
 10
-24.38466496803965
 20
25.23390613330323
 11
-24.40861166892455
 21
25.38522526884673
  0
LINE
  8
0
  6
CONTINUOUS
 62
     7
 10
-24.40861166892455
 20
25.38522526884673
 11
-24.40861166892455
 21
34.22720779386407
  0
LINE
  8
0
  6
CONTINUOUS
 62
     7
 10
-37.14138833107538
 20
25.2640810616776
 11
-37.14138833107538
 21
34.22720779386423
  0
LINE
  8
0
  6
CONTINUOUS
 62
     7
 10
-37.14138833107538
 20
25.2640810616776
 11
-37.14638833107542
 21
25.1144786972618
  0
LINE
  8
0
  6
CONTINUOUS
 62
     7
 10
-37.14638833107542
 20
25.1144786972618
 11
-37.17033503196021
 21
24.9509006295332
  0
LINE
  8
0
  6
CONTINUOUS
 62
     7
 10
-44.89966496803971
 20
25.15470485032728
 11
-44.90466496803958
 21
25.2339061333034
  0
LINE
  8
0
  6
CONTINUOUS
 62
     7
 10
-44.90466496803958
 20
25.2339061333034
 11
-44.92861166892447
 21
25.38522526884696
  0
LINE
  8
0
  6
CONTINUOUS
 62
     7
 10
-44.92861166892447
 20
25.38522526884696
 11
-44.92861166892447
 21
34.22720779386423
  0
LINE
  8
0
  6
CONTINUOUS
 62
     7
 10
-19.24966496803959
 20
24.44071537109982
 11
-19.27861166892453
 21
25.2640810616776
  0
LINE
  8
0
  6
CONTINUOUS
 62
     7
 10
-19.27861166892453
 20
25.2640810616776
 11
-19.27861166892453
 21
34.22720779386423
  0
LINE
  8
0
  6
CONTINUOUS
 62
     7
 10
-27.91396456671474
 20
24.76805761424511
 11
-27.91396456671474
 21
0.0
  0
LINE
  8
0
  6
CONTINUOUS
 62
     7
 10
-27.91396456671474
 20
0.0
 11
-28.51603543328513
 21
0.0
  0
LINE
  8
0
  6
CONTINUOUS
 62
     7
 10
-28.51603543328513
 20
24.76807971512762
 11
-28.51603543328513
 21
-0.000000000000111
  0
LINE
  8
0
  6
CONTINUOUS
 62
     7
 10
-26.9153350319602
 20
24.97445035504792
 11
-26.91533503196031
 21
-0.0000000000001076
  0
LINE
  8
0
  6
CONTINUOUS
 62
     7
 10
-26.91533503196031
 20
0.0
 11
-27.91396456671474
 21
0.0
  0
LINE
  8
0
  6
CONTINUOUS
 62
     7
 10
38.77603543328523
 20
24.76805761424511
 11
38.77603543328523
 21
0.0
  0
LINE
  8
0
  6
CONTINUOUS
 62
     7
 10
38.77603543328523
 20
0.0
 11
38.17396456671501
 21
0.0
  0
LINE
  8
0
  6
CONTINUOUS
 62
     7
 10
38.17396456671501
 20
24.76807971512762
 11
38.17396456671501
 21
-0.000000000000111
  0
LINE
  8
0
  6
CONTINUOUS
 62
     7
 10
-42.30533503196021
 20
24.97445035504792
 11
-42.30533503196033
 21
-0.0000000000001076
  0
LINE
  8
0
  6
CONTINUOUS
 62
     7
 10
-42.30533503196033
 20
0.0
 11
-43.30396456671476
 21
0.0
  0
LINE
  8
0
  6
CONTINUOUS
 62
     7
 10
-43.30396456671476
 20
24.76805761424511
 11
-43.30396456671476
 21
0.0
  0
LINE
  8
0
  6
CONTINUOUS
 62
     7
 10
-43.30396456671476
 20
0.0
 11
-43.90603543328508
 21
0.0
  0
LINE
  8
0
  6
CONTINUOUS
 62
     7
 10
-43.90603543328503
 20
24.76807971512762
 11
-43.90603543328503
 21
-0.000000000000111
  0
LINE
  8
0
  6
CONTINUOUS
 62
     7
 10
-43.90603543328503
 20
0.0
 11
-44.90466496803958
 21
0.0
  0
LINE
  8
0
  6
CONTINUOUS
 62
     7
 10
-44.90466496803958
 20
25.2339061333034
 11
-44.90466496803958
 21
0.0
  0
LINE
  8
0
  6
CONTINUOUS
 62
     7
 10
33.04396456671488
 20
0.0
 11
32.04533503196033
 21
0.0
  0
LINE
  8
0
  6
CONTINUOUS
 62
     7
 10
32.04533503196033
 20
25.23390613330301
 11
32.04533503196038
 21
0.0
  0
LINE
  8
0
  6
CONTINUOUS
 62
     7
 10
33.04396456671488
 20
24.76807971512762
 11
33.04396456671488
 21
-0.000000000000111
  0
LINE
  8
0
  6
CONTINUOUS
 62
     7
 10
-33.04396456671477
 20
24.76805761424511
 11
-33.04396456671477
 21
0.0
  0
LINE
  8
0
  6
CONTINUOUS
 62
     7
 10
-33.04396456671477
 20
0.0
 11
-33.64603543328498
 21
0.0
  0
LINE
  8
0
  6
CONTINUOUS
 62
     7
 10
-33.64603543328498
 20
24.76807971512762
 11
-33.64603543328498
 21
-0.000000000000111
  0
LINE
  8
0
  6
CONTINUOUS
 62
     7
 10
-33.64603543328498
 20
0.0
 11
-34.64466496803959
 21
0.0
  0
LINE
  8
0
  6
CONTINUOUS
 62
     7
 10
-34.64466496803964
 20
25.23390613330323
 11
-34.64466496803964
 21
0.0000000000000035
  0
LINE
  8
0
  6
CONTINUOUS
 62
     7
 10
43.30396456671498
 20
0.0
 11
42.30533503196043
 21
0.0
  0
LINE
  8
0
  6
CONTINUOUS
 62
     7
 10
42.30533503196043
 20
25.23390613330323
 11
42.30533503196043
 21
-0.000000000000111
  0
LINE
  8
0
  6
CONTINUOUS
 62
     7
 10
43.30396456671498
 20
24.76807971512762
 11
43.30396456671498
 21
-0.000000000000111
  0
LINE
  8
0
  6
CONTINUOUS
 62
     7
 10
23.38603543328515
 20
24.76805761424511
 11
23.38603543328515
 21
0.0
  0
LINE
  8
0
  6
CONTINUOUS
 62
     7
 10
23.38603543328515
 20
0.0
 11
22.783964566715
 21
0.0
  0
LINE
  8
0
  6
CONTINUOUS
 62
     7
 10
22.783964566715
 20
24.76807971512762
 11
22.783964566715
 21
-0.000000000000111
  0
LINE
  8
0
  6
CONTINUOUS
 62
     7
 10
-23.3860354332851
 20
0.0
 11
-24.38466496803965
 21
0.0
  0
LINE
  8
0
  6
CONTINUOUS
 62
     7
 10
-24.38466496803965
 20
25.23390613330323
 11
-24.38466496803965
 21
0.0000000000000035
  0
LINE
  8
0
  6
CONTINUOUS
 62
     7
 10
-23.3860354332851
 20
24.76807971512762
 11
-23.3860354332851
 21
-0.000000000000111
  0
LINE
  8
0
  6
CONTINUOUS
 62
     7
 10
-49.03603543328508
 20
0.0
 11
-50.0346649680396
 21
0.0
  0
LINE
  8
0
  6
CONTINUOUS
 62
     7
 10
-50.03466496803969
 20
25.23390613330323
 11
-50.03466496803969
 21
0.0000000000000035
  0
LINE
  8
0
  6
CONTINUOUS
 62
     7
 10
-49.03603543328508
 20
24.76807971512762
 11
-49.03603543328508
 21
-0.000000000000111
  0
LINE
  8
0
  6
CONTINUOUS
 62
     7
 10
-37.17533503196019
 20
24.97445035504792
 11
-37.1753350319603
 21
-0.0000000000001076
  0
LINE
  8
0
  6
CONTINUOUS
 62
     7
 10
-37.1753350319603
 20
0.0
 11
-38.17396456671484
 21
0.0
  0
LINE
  8
0
  6
CONTINUOUS
 62
     7
 10
-38.17396456671484
 20
24.76805761424511
 11
-38.17396456671484
 21
0.0
  0
LINE
  8
0
  6
CONTINUOUS
 62
     7
 10
39.77466496803977
 20
24.97445035504808
 11
39.77466496803967
 21
0.0
  0
LINE
  8
0
  6
CONTINUOUS
 62
     7
 10
39.77466496803977
 20
0.0
 11
38.77603543328523
 21
0.0
  0
LINE
  8
0
  6
CONTINUOUS
 62
     7
 10
-38.776035433285
 20
0.0
 11
-39.77466496803972
 21
0.0
  0
LINE
  8
0
  6
CONTINUOUS
 62
     7
 10
-39.77466496803972
 20
25.23390613330301
 11
-39.77466496803972
 21
0.0
  0
LINE
  8
0
  6
CONTINUOUS
 62
     7
 10
-38.776035433285
 20
24.76807971512762
 11
-38.776035433285
 21
-0.000000000000111
  0
LINE
  8
0
  6
CONTINUOUS
 62
     7
 10
50.03466496803988
 20
24.97445035504797
 11
50.03466496803976
 21
-0.000000000000111
  0
LINE
  8
0
  6
CONTINUOUS
 62
     7
 10
49.03603543328533
 20
24.76805761424511
 11
49.03603543328533
 21
0.0
  0
LINE
  8
0
  6
CONTINUOUS
 62
     7
 10
50.03466496803971
 20
0.0
 11
49.03603543328522
 21
0.0
  0
LINE
  8
0
  6
CONTINUOUS
 62
     7
 10
24.38466496803981
 20
24.97445035504808
 11
24.3846649680397
 21
0.0
  0
LINE
  8
0
  6
CONTINUOUS
 62
     7
 10
24.3846649680397
 20
0.0
 11
23.38603543328515
 21
0.0
  0
LINE
  8
0
  6
CONTINUOUS
 62
     7
 10
47.43533503196034
 20
25.23390613330301
 11
47.43533503196034
 21
0.0
  0
LINE
  8
0
  6
CONTINUOUS
 62
     7
 10
48.43396456671489
 20
24.76807971512762
 11
48.43396456671489
 21
-0.000000000000111
  0
LINE
  8
0
  6
CONTINUOUS
 62
     7
 10
48.43396456671489
 20
0.0
 11
47.43533503196034
 21
0.0
  0
LINE
  8
0
  6
CONTINUOUS
 62
     7
 10
21.78533503196028
 20
25.2339061333029
 11
21.78533503196039
 21
0.0
  0
LINE
  8
0
  6
CONTINUOUS
 62
     7
 10
22.783964566715
 20
0.0
 11
21.78533503196039
 21
0.0
  0
LINE
  8
0
  6
CONTINUOUS
 62
     7
 10
34.64466496803981
 20
24.97445035504797
 11
34.64466496803969
 21
-0.000000000000111
  0
LINE
  8
0
  6
CONTINUOUS
 62
     7
 10
33.64603543328526
 20
24.76805761424511
 11
33.64603543328526
 21
0.0
  0
LINE
  8
0
  6
CONTINUOUS
 62
     7
 10
34.64466496803981
 20
0.0
 11
33.64603543328526
 21
0.0
  0
LINE
  8
0
  6
CONTINUOUS
 62
     7
 10
33.64603543328526
 20
0.0
 11
33.04396456671488
 21
0.0
  0
LINE
  8
0
  6
CONTINUOUS
 62
     7
 10
-32.04533503196022
 20
24.97445035504792
 11
-32.04533503196033
 21
-0.0000000000001076
  0
LINE
  8
0
  6
CONTINUOUS
 62
     7
 10
-32.04533503196033
 20
0.0
 11
-33.04396456671477
 21
0.0
  0
LINE
  8
0
  6
CONTINUOUS
 62
     7
 10
44.9046649680398
 20
24.97445035504792
 11
44.90466496803974
 21
-0.0000000000001076
  0
LINE
  8
0
  6
CONTINUOUS
 62
     7
 10
43.90603543328525
 20
24.76805761424511
 11
43.90603543328525
 21
0.0
  0
LINE
  8
0
  6
CONTINUOUS
 62
     7
 10
44.9046649680398
 20
0.0
 11
43.90603543328525
 21
0.0
  0
LINE
  8
0
  6
CONTINUOUS
 62
     7
 10
43.90603543328525
 20
0.0
 11
43.30396456671498
 21
0.0
  0
LINE
  8
0
  6
CONTINUOUS
 62
     7
 10
-21.78533503196023
 20
24.97445035504792
 11
-21.78533503196023
 21
-0.0000000000001076
  0
LINE
  8
0
  6
CONTINUOUS
 62
     7
 10
-22.78396456671478
 20
24.76805761424511
 11
-22.78396456671478
 21
0.0
  0
LINE
  8
0
  6
CONTINUOUS
 62
     7
 10
-21.78533503196034
 20
0.0
 11
-22.78396456671478
 21
0.0
  0
LINE
  8
0
  6
CONTINUOUS
 62
     7
 10
-47.43533503196018
 20
24.97445035504792
 11
-47.43533503196018
 21
-0.0000000000001076
  0
LINE
  8
0
  6
CONTINUOUS
 62
     7
 10
-48.43396456671478
 20
24.76805761424511
 11
-48.43396456671478
 21
0.0
  0
LINE
  8
0
  6
CONTINUOUS
 62
     7
 10
-47.43533503196029
 20
0.0
 11
-48.43396456671489
 21
0.0
  0
LINE
  8
0
  6
CONTINUOUS
 62
     7
 10
-48.43396456671478
 20
0.0
 11
-49.03603543328499
 21
0.0
  0
LINE
  8
0
  6
CONTINUOUS
 62
     7
 10
28.51603543328524
 20
24.76805761424511
 11
28.51603543328524
 21
0.0
  0
LINE
  8
0
  6
CONTINUOUS
 62
     7
 10
27.91396456671502
 20
24.76807971512762
 11
27.91396456671502
 21
-0.000000000000111
  0
LINE
  8
0
  6
CONTINUOUS
 62
     7
 10
28.51603543328524
 20
0.0
 11
27.91396456671491
 21
0.0
  0
LINE
  8
0
  6
CONTINUOUS
 62
     7
 10
26.91533503196036
 20
25.23390613330323
 11
26.91533503196042
 21
-0.000000000000111
  0
LINE
  8
0
  6
CONTINUOUS
 62
     7
 10
27.91396456671502
 20
0.0
 11
26.91533503196036
 21
0.0
  0
LINE
  8
0
  6
CONTINUOUS
 62
     7
 10
-38.17396456671484
 20
0.0
 11
-38.776035433285
 21
0.0
  0
LINE
  8
0
  6
CONTINUOUS
 62
     7
 10
-22.78396456671478
 20
0.0
 11
-23.3860354332851
 21
0.0
  0
LINE
  8
0
  6
CONTINUOUS
 62
     7
 10
37.17533503196035
 20
25.23390613330284
 11
37.17533503196041
 21
0.0000000000000035
  0
LINE
  8
0
  6
CONTINUOUS
 62
     7
 10
38.17396456671501
 20
0.0
 11
37.17533503196041
 21
0.0
  0
LINE
  8
0
  6
CONTINUOUS
 62
     7
 10
-29.51466496803961
 20
25.23390613330323
 11
-29.51466496803961
 21
0.0000000000000035
  0
LINE
  8
0
  6
CONTINUOUS
 62
     7
 10
-28.51603543328513
 20
0.0
 11
-29.51466496803961
 21
0.0
  0
LINE
  8
0
  6
CONTINUOUS
 62
     7
 10
49.03603543328533
 20
0.0
 11
48.43396456671489
 21
0.0
  0
LINE
  8
0
  6
CONTINUOUS
 62
     7
 10
29.51466496803978
 20
24.97445035504792
 11
29.51466496803967
 21
-0.0000000000001076
  0
LINE
  8
0
  6
CONTINUOUS
 62
     7
 10
29.51466496803978
 20
0.0
 11
28.51603543328524
 21
0.0
  0
LINE
  8
0
  6
CONTINUOUS
 62
     7
 10
52.99999999999999
 20
32.72720779386407
 11
52.99999999999999
 21
25.84421917411683
  0
LINE
  8
0
  6
CONTINUOUS
 62
     7
 10
52.99999999999999
 20
25.84421917411683
 11
52.97269272904592
 21
25.72539496623427
  0
LINE
  8
0
  6
CONTINUOUS
 62
     7
 10
52.97269272904592
 20
25.72539496623427
 11
52.91456802873984
 21
25.63911368482613
  0
LINE
  8
0
  6
CONTINUOUS
 62
     7
 10
52.91456802873984
 20
25.63911368482613
 11
52.82491615619622
 21
25.55897037205002
  0
LINE
  8
0
  6
CONTINUOUS
 62
     7
 10
52.82491615619622
 20
25.55897037205002
 11
52.72666785562091
 21
25.49757638246541
  0
ARC
  8
0
  6
CONTINUOUS
 62
     7
 10
51.5954615833305
 20
28.10147150045855
 40
2.83899584641778
 50
268.0730591587743
 51
293.4815005263162
  0
LINE
  8
0
  6
CONTINUOUS
 62
     7
 10
51.49999999999999
 20
25.2640810616776
 11
51.49999999999999
 21
34.22720779386423
  0
LINE
  8
0
  6
CONTINUOUS
 62
     7
 10
12.99999999999996
 20
34.2204385747682
 11
12.99999999999996
 21
25.2640810616776
  0
LINE
  8
0
  6
CONTINUOUS
 62
     7
 10
12.99999999999996
 20
34.2204385747682
 11
13.24356549906419
 21
34.2204385747682
  0
LINE
  8
0
  6
CONTINUOUS
 62
     7
 10
16.63138833107541
 20
25.2640810616776
 11
12.99999999999996
 21
25.2640810616776
  0
LINE
  8
0
  6
CONTINUOUS
 62
     7
 10
12.8218401770665
 20
34.20980757781628
 11
12.67804391983191
 21
34.1763262735163
  0
LINE
  8
0
  6
CONTINUOUS
 62
     7
 10
12.67804391983191
 20
34.1763262735163
 11
12.53547933434079
 21
34.12483909117564
  0
ARC
  8
0
  6
CONTINUOUS
 62
     7
 10
13.32017879084518
 20
32.47766106874484
 40
1.824540674969399
 50
115.4726721387562
 51
162.4907608312222
  0
LINE
  8
0
  6
CONTINUOUS
 62
     7
 10
12.99999999999996
 20
34.2204385747682
 11
12.8218401770665
 21
34.20980757781628
  0
ARC
  8
0
  6
CONTINUOUS
 62
     7
 10
12.91035746038493
 20
28.08725217113262
 40
2.824593935093989
 50
245.5023412524038
 51
271.8186691189869
  0
LINE
  8
0
  6
CONTINUOUS
 62
     7
 10
11.73912247109593
 20
25.5169332224347
 11
11.6497325767736
 21
25.57839057598293
  0
LINE
  8
0
  6
CONTINUOUS
 62
     7
 10
11.6497325767736
 20
25.57839057598293
 11
11.56081525988106
 21
25.66954302378494
  0
LINE
  8
0
  6
CONTINUOUS
 62
     7
 10
11.56081525988106
 20
25.66954302378494
 11
11.50740171501474
 21
25.78155954250866
  0
LINE
  8
0
  6
CONTINUOUS
 62
     7
 10
11.50740171501474
 20
25.78155954250866
 11
11.50000000000001
 21
25.84421917411683
  0
LINE
  8
0
  6
CONTINUOUS
 62
     7
 10
11.50000000000001
 20
25.84421917411683
 11
11.50000000000001
 21
32.51930483903593
  0
LINE
  8
0
  6
CONTINUOUS
 62
     7
 10
11.50000000000001
 20
32.51930483903593
 11
11.58017191637517
 21
33.02659162119631
  0
LINE
  8
0
  6
CONTINUOUS
 62
     7
 10
51.49999999999999
 20
25.2640810616776
 11
50.06861166892473
 21
25.2640810616776
  0
LINE
  8
0
  6
CONTINUOUS
 62
     7
 10
37.14638833107547
 20
25.2640810616776
 11
34.67861166892461
 21
25.2640810616776
  0
LINE
  8
0
  6
CONTINUOUS
 62
     7
 10
37.14638833107547
 20
25.26408106167749
 11
37.15138833107551
 21
25.38522526884629
  0
LINE
  8
0
  6
CONTINUOUS
 62
     7
 10
47.40638833107558
 20
25.2640810616776
 11
44.9386116689246
 21
25.2640810616776
  0
LINE
  8
0
  6
CONTINUOUS
 62
     7
 10
47.40638833107546
 20
25.26408106167749
 11
47.4113883310755
 21
25.38522526884651
  0
LINE
  8
0
  6
CONTINUOUS
 62
     7
 10
26.88638833107548
 20
25.2640810616776
 11
24.41861166892462
 21
25.2640810616776
  0
LINE
  8
0
  6
CONTINUOUS
 62
     7
 10
26.88638833107548
 20
25.26408106167749
 11
26.89138833107551
 21
25.38522526884657
  0
LINE
  8
0
  6
CONTINUOUS
 62
     7
 10
32.0163883310755
 20
25.2640810616776
 11
29.54861166892464
 21
25.2640810616776
  0
LINE
  8
0
  6
CONTINUOUS
 62
     7
 10
32.0163883310755
 20
25.26408106167749
 11
32.02138833107549
 21
25.38522526884651
  0
LINE
  8
0
  6
CONTINUOUS
 62
     7
 10
42.27638833107549
 20
25.2640810616776
 11
39.80861166892463
 21
25.2640810616776
  0
LINE
  8
0
  6
CONTINUOUS
 62
     7
 10
42.27638833107549
 20
25.26408106167749
 11
42.28138833107548
 21
25.38522526884657
  0
LINE
  8
0
  6
CONTINUOUS
 62
     7
 10
21.75638833107552
 20
25.2640810616776
 11
19.28861166892459
 21
25.2640810616776
  0
LINE
  8
0
  6
CONTINUOUS
 62
     7
 10
21.75638833107552
 20
25.26408106167749
 11
21.76138833107549
 21
25.3852252688464
  0
LINE
  8
0
  6
CONTINUOUS
 62
     7
 10
-13.24356549906397
 20
34.2204385747682
 11
-12.9999999999999
 21
34.2204385747682
  0
LINE
  8
0
  6
CONTINUOUS
 62
     7
 10
-13.00000000000001
 20
25.2640810616776
 11
-13.00000000000001
 21
34.2204385747682
  0
LINE
  8
0
  6
CONTINUOUS
 62
     7
 10
-13.00000000000001
 20
25.2640810616776
 11
-16.6213883310754
 21
25.2640810616776
  0
LINE
  8
0
  6
CONTINUOUS
 62
     7
 10
-11.50000000000001
 20
32.51930483903593
 11
-11.50000000000001
 21
25.84421917411683
  0
LINE
  8
0
  6
CONTINUOUS
 62
     7
 10
-11.50000000000001
 20
25.84421917411683
 11
-11.52730727095408
 21
25.72539496623438
  0
LINE
  8
0
  6
CONTINUOUS
 62
     7
 10
-11.52730727095408
 20
25.72539496623438
 11
-11.58543197126016
 21
25.63911368482613
  0
LINE
  8
0
  6
CONTINUOUS
 62
     7
 10
-11.58543197126016
 20
25.63911368482613
 11
-11.67508384380378
 21
25.55897037205013
  0
LINE
  8
0
  6
CONTINUOUS
 62
     7
 10
-11.67508384380378
 20
25.55897037205013
 11
-11.77333214437909
 21
25.49757638246541
  0
ARC
  8
0
  6
CONTINUOUS
 62
     7
 10
-12.9045384166695
 20
28.10147150045866
 40
2.838995846417891
 50
268.0730591587753
 51
293.4815005263156
  0
LINE
  8
0
  6
CONTINUOUS
 62
     7
 10
-13.00000000000001
 20
34.2204385747682
 11
-12.82184017706639
 21
34.20980757781628
  0
ARC
  8
0
  6
CONTINUOUS
 62
     7
 10
-13.36665317514285
 20
32.44839124543341
 40
1.877719617637608
 50
17.93434001960588
 51
58.85639149503609
  0
LINE
  8
0
  6
CONTINUOUS
 62
     7
 10
-12.39552495309532
 20
34.05548207634612
 11
-12.53547933434057
 21
34.12483909117564
  0
LINE
  8
0
  6
CONTINUOUS
 62
     7
 10
-12.53547933434057
 20
34.12483909117564
 11
-12.67804391983185
 21
34.17632627351619
  0
LINE
  8
0
  6
CONTINUOUS
 62
     7
 10
-12.67804391983185
 20
34.17632627351619
 11
-12.82184017706639
 21
34.20980757781628
  0
LINE
  8
0
  6
CONTINUOUS
 62
     7
 10
-11.58017191637511
 20
33.02659162119637
 11
-11.50000000000001
 21
32.51930483903593
  0
LINE
  8
0
  6
CONTINUOUS
 62
     7
 10
-19.27861166892453
 20
25.2640810616776
 11
-21.75138833107537
 21
25.2640810616776
  0
LINE
  8
0
  6
CONTINUOUS
 62
     7
 10
-51.49999999999991
 20
34.22720779386407
 11
-51.49999999999991
 21
25.26408106167749
  0
ARC
  8
0
  6
CONTINUOUS
 62
     7
 10
-51.58964253961499
 20
28.08725217113278
 40
2.824593935094294
 50
245.5023412524051
 51
271.8186691189858
  0
LINE
  8
0
  6
CONTINUOUS
 62
     7
 10
-52.7608775289041
 20
25.5169332224347
 11
-52.85026742322638
 21
25.57839057598293
  0
LINE
  8
0
  6
CONTINUOUS
 62
     7
 10
-52.85026742322638
 20
25.57839057598293
 11
-52.93918474011888
 21
25.66954302378494
  0
LINE
  8
0
  6
CONTINUOUS
 62
     7
 10
-52.93918474011888
 20
25.66954302378494
 11
-52.99259828498528
 21
25.78155954250943
  0
LINE
  8
0
  6
CONTINUOUS
 62
     7
 10
-52.99259828498528
 20
25.78155954250943
 11
-52.99999999999991
 21
25.84421917411683
  0
LINE
  8
0
  6
CONTINUOUS
 62
     7
 10
-52.99999999999991
 20
25.84421917411683
 11
-52.99999999999991
 21
32.72720779386407
  0
LINE
  8
0
  6
CONTINUOUS
 62
     7
 10
-24.41361166892453
 20
25.2640810616776
 11
-26.8813883310754
 21
25.2640810616776
  0
LINE
  8
0
  6
CONTINUOUS
 62
     7
 10
-24.41361166892453
 20
25.26408106167749
 11
-24.4086116689245
 21
25.38522526884657
  0
LINE
  8
0
  6
CONTINUOUS
 62
     7
 10
-29.54361166892449
 20
25.2640810616776
 11
-32.01138833107536
 21
25.2640810616776
  0
LINE
  8
0
  6
CONTINUOUS
 62
     7
 10
-29.54361166892449
 20
25.26408106167749
 11
-29.53861166892452
 21
25.38522526884657
  0
LINE
  8
0
  6
CONTINUOUS
 62
     7
 10
-44.93361166892451
 20
25.2640810616776
 11
-47.40138833107549
 21
25.2640810616776
  0
LINE
  8
0
  6
CONTINUOUS
 62
     7
 10
-44.93361166892451
 20
25.26408106167749
 11
-44.92861166892447
 21
25.38522526884685
  0
LINE
  8
0
  6
CONTINUOUS
 62
     7
 10
-34.67361166892452
 20
25.2640810616776
 11
-37.14138833107538
 21
25.2640810616776
  0
LINE
  8
0
  6
CONTINUOUS
 62
     7
 10
-34.67361166892452
 20
25.26408106167749
 11
-34.66861166892448
 21
25.38522526884657
  0
LINE
  8
0
  6
CONTINUOUS
 62
     7
 10
-39.80361166892449
 20
25.2640810616776
 11
-42.27138833107541
 21
25.2640810616776
  0
LINE
  8
0
  6
CONTINUOUS
 62
     7
 10
-39.80361166892449
 20
25.26408106167749
 11
-39.79861166892451
 21
25.38522526884651
  0
LINE
  8
0
  6
CONTINUOUS
 62
     7
 10
-50.06361166892448
 20
25.2640810616776
 11
-51.49999999999991
 21
25.2640810616776
  0
LINE
  8
0
  6
CONTINUOUS
 62
     7
 10
-50.06361166892448
 20
25.26408106167749
 11
-50.0586116689245
 21
25.38522526884657
  0
LINE
  8
0
  6
CONTINUOUS
 62
     7
 10
-26.88638833107537
 20
25.1144786972618
 11
-26.88638833107537
 21
0.0000000000000035
  0
LINE
  8
0
  6
CONTINUOUS
 62
     7
 10
-26.88638833107537
 20
0.0
 11
-26.9153350319602
 21
0.0
  0
LINE
  8
0
  6
CONTINUOUS
 62
     7
 10
-37.14638833107542
 20
25.1144786972618
 11
-37.14638833107542
 21
0.0000000000000035
  0
LINE
  8
0
  6
CONTINUOUS
 62
     7
 10
-37.14638833107542
 20
0.0
 11
-37.17533503196019
 21
0.0
  0
LINE
  8
0
  6
CONTINUOUS
 62
     7
 10
-39.80361166892449
 20
25.2640810616776
 11
-39.80361166892449
 21
0.0
  0
LINE
  8
0
  6
CONTINUOUS
 62
     7
 10
-39.77466496803972
 20
0.0
 11
-39.80361166892449
 21
0.0
  0
LINE
  8
0
  6
CONTINUOUS
 62
     7
 10
-47.40638833107536
 20
25.1144786972618
 11
-47.40638833107536
 21
0.0000000000000035
  0
LINE
  8
0
  6
CONTINUOUS
 62
     7
 10
-47.40638833107536
 20
0.0
 11
-47.43533503196018
 21
0.0
  0
LINE
  8
0
  6
CONTINUOUS
 62
     7
 10
-44.93361166892451
 20
25.2640810616776
 11
-44.93361166892451
 21
0.0
  0
LINE
  8
0
  6
CONTINUOUS
 62
     7
 10
-44.90466496803958
 20
0.0
 11
-44.93361166892451
 21
0.0
  0
LINE
  8
0
  6
CONTINUOUS
 62
     7
 10
44.93361166892473
 20
25.1144786972618
 11
44.93361166892473
 21
0.0000000000000035
  0
LINE
  8
0
  6
CONTINUOUS
 62
     7
 10
44.93361166892473
 20
0.0
 11
44.9046649680398
 21
0.0
  0
LINE
  8
0
  6
CONTINUOUS
 62
     7
 10
50.06361166892464
 20
25.11447869726191
 11
50.06361166892464
 21
0.0
  0
LINE
  8
0
  6
CONTINUOUS
 62
     7
 10
50.06361166892464
 20
0.0
 11
50.03466496803971
 21
0.0
  0
LINE
  8
0
  6
CONTINUOUS
 62
     7
 10
-21.75638833107535
 20
25.1144786972618
 11
-21.75638833107535
 21
0.0000000000000035
  0
LINE
  8
0
  6
CONTINUOUS
 62
     7
 10
-21.75638833107535
 20
0.0
 11
-21.78533503196023
 21
0.0
  0
LINE
  8
0
  6
CONTINUOUS
 62
     7
 10
24.41361166892458
 20
25.11447869726202
 11
24.41361166892458
 21
-0.000000000000111
  0
LINE
  8
0
  6
CONTINUOUS
 62
     7
 10
24.41361166892458
 20
0.0
 11
24.3846649680397
 21
0.0
  0
LINE
  8
0
  6
CONTINUOUS
 62
     7
 10
-42.27638833107539
 20
25.1144786972618
 11
-42.27638833107539
 21
0.0000000000000035
  0
LINE
  8
0
  6
CONTINUOUS
 62
     7
 10
-42.27638833107539
 20
0.0
 11
-42.30533503196021
 21
0.0
  0
LINE
  8
0
  6
CONTINUOUS
 62
     7
 10
29.54361166892466
 20
25.1144786972618
 11
29.54361166892466
 21
0.0000000000000035
  0
LINE
  8
0
  6
CONTINUOUS
 62
     7
 10
29.54361166892466
 20
0.0
 11
29.51466496803978
 21
0.0
  0
LINE
  8
0
  6
CONTINUOUS
 62
     7
 10
34.67361166892463
 20
25.11447869726191
 11
34.67361166892463
 21
0.0
  0
LINE
  8
0
  6
CONTINUOUS
 62
     7
 10
34.67361166892463
 20
0.0
 11
34.64466496803969
 21
0.0
  0
LINE
  8
0
  6
CONTINUOUS
 62
     7
 10
47.40638833107558
 20
25.2640810616776
 11
47.40638833107558
 21
0.0
  0
LINE
  8
0
  6
CONTINUOUS
 62
     7
 10
47.43533503196034
 20
0.0
 11
47.40638833107546
 21
0.0
  0
LINE
  8
0
  6
CONTINUOUS
 62
     7
 10
-29.54361166892449
 20
25.2640810616776
 11
-29.54361166892449
 21
0.0
  0
LINE
  8
0
  6
CONTINUOUS
 62
     7
 10
-29.51466496803961
 20
0.0
 11
-29.54361166892449
 21
0.0
  0
LINE
  8
0
  6
CONTINUOUS
 62
     7
 10
42.27638833107549
 20
25.2640810616776
 11
42.27638833107549
 21
0.0
  0
LINE
  8
0
  6
CONTINUOUS
 62
     7
 10
42.30533503196043
 20
0.0
 11
42.27638833107549
 21
0.0
  0
LINE
  8
0
  6
CONTINUOUS
 62
     7
 10
-24.41361166892453
 20
25.2640810616776
 11
-24.41361166892453
 21
0.0
  0
LINE
  8
0
  6
CONTINUOUS
 62
     7
 10
-24.38466496803965
 20
0.0
 11
-24.41361166892453
 21
0.0
  0
LINE
  8
0
  6
CONTINUOUS
 62
     7
 10
-50.06361166892448
 20
25.2640810616776
 11
-50.06361166892448
 21
0.0
  0
LINE
  8
0
  6
CONTINUOUS
 62
     7
 10
-50.03466496803969
 20
0.0
 11
-50.06361166892459
 21
0.0
  0
LINE
  8
0
  6
CONTINUOUS
 62
     7
 10
-32.01638833107534
 20
25.1144786972618
 11
-32.01638833107534
 21
0.0000000000000035
  0
LINE
  8
0
  6
CONTINUOUS
 62
     7
 10
-32.01638833107534
 20
0.0
 11
-32.04533503196033
 21
0.0
  0
LINE
  8
0
  6
CONTINUOUS
 62
     7
 10
39.80361166892465
 20
25.11447869726213
 11
39.80361166892465
 21
0.0
  0
LINE
  8
0
  6
CONTINUOUS
 62
     7
 10
39.80361166892465
 20
0.0
 11
39.77466496803977
 21
0.0
  0
LINE
  8
0
  6
CONTINUOUS
 62
     7
 10
-34.67361166892452
 20
25.2640810616776
 11
-34.67361166892452
 21
0.0
  0
LINE
  8
0
  6
CONTINUOUS
 62
     7
 10
-34.64466496803964
 20
0.0
 11
-34.67361166892441
 21
0.0
  0
LINE
  8
0
  6
CONTINUOUS
 62
     7
 10
37.14638833107547
 20
25.2640810616776
 11
37.14638833107547
 21
0.0
  0
LINE
  8
0
  6
CONTINUOUS
 62
     7
 10
37.17533503196041
 20
0.0
 11
37.14638833107547
 21
0.0
  0
LINE
  8
0
  6
CONTINUOUS
 62
     7
 10
21.75638833107552
 20
25.2640810616776
 11
21.75638833107552
 21
0.0
  0
LINE
  8
0
  6
CONTINUOUS
 62
     7
 10
21.78533503196039
 20
0.0
 11
21.75638833107552
 21
0.0
  0
LINE
  8
0
  6
CONTINUOUS
 62
     7
 10
32.0163883310755
 20
25.2640810616776
 11
32.0163883310755
 21
0.0
  0
LINE
  8
0
  6
CONTINUOUS
 62
     7
 10
32.04533503196038
 20
0.0
 11
32.0163883310755
 21
0.0
  0
LINE
  8
0
  6
CONTINUOUS
 62
     7
 10
26.88638833107548
 20
25.2640810616776
 11
26.88638833107548
 21
0.0
  0
LINE
  8
0
  6
CONTINUOUS
 62
     7
 10
26.91533503196042
 20
0.0
 11
26.88638833107559
 21
0.0
  0
ARC
  8
0
  6
CONTINUOUS
 62
     7
 10
-15.04068231947275
 20
17.1061360503294
 40
0.9828101485523932
 50
168.5964997965933
 51
255.4142666195729
  0
LINE
  8
0
  6
CONTINUOUS
 62
     7
 10
-15.28818181818181
 20
16.15499999999986
 11
-15.28818181818181
 21
15.45954545454531
  0
LINE
  8
0
  6
CONTINUOUS
 62
     7
 10
-15.28818181818181
 20
15.45954545454542
 11
-19.50181818181818
 21
15.45954545454542
  0
LINE
  8
0
  6
CONTINUOUS
 62
     7
 10
-19.50181818181806
 20
15.45954545454542
 11
-19.50181818181806
 21
16.27772727272719
  0
LINE
  8
0
  6
CONTINUOUS
 62
     7
 10
-19.50181818181806
 20
16.27772727272719
 11
-16.51545454545439
 21
16.27772727272719
  0
LINE
  8
0
  6
CONTINUOUS
 62
     7
 10
-16.5154545454545
 20
16.27772727272719
 11
-16.5154545454545
 21
17.30045454545442
  0
LINE
  8
0
  6
CONTINUOUS
 62
     7
 10
-16.5154545454545
 20
17.30045454545442
 11
-16.00409090909083
 21
17.30045454545442
  0
LINE
  8
0
  6
CONTINUOUS
 62
     7
 10
-18.33590909090898
 20
13.00869318181813
 11
-18.39558411871311
 21
12.97976771750531
  0
LINE
  8
0
  6
CONTINUOUS
 62
     7
 10
-18.39558411871311
 20
12.97976771750531
 11
-18.45188192939779
 21
12.94924132456654
  0
LINE
  8
0
  6
CONTINUOUS
 62
     7
 10
-18.45188192939779
 20
12.94924132456654
 11
-18.50480252296349
 21
12.9171140030021
  0
LINE
  8
0
  6
CONTINUOUS
 62
     7
 10
-18.50480252296349
 20
12.9171140030021
 11
-18.55434589940991
 21
12.88338575281189
  0
LINE
  8
0
  6
CONTINUOUS
 62
     7
 10
-18.55434589940991
 20
12.88338575281189
 11
-18.60051205873708
 21
12.84805657399612
  0
LINE
  8
0
  6
CONTINUOUS
 62
     7
 10
-18.60051205873708
 20
12.84805657399612
 11
-18.64330100094497
 21
12.81112646655441
  0
LINE
  8
0
  6
CONTINUOUS
 62
     7
 10
-18.64330100094497
 20
12.81112646655441
 11
-18.68271272603383
 21
12.77259543048703
  0
LINE
  8
0
  6
CONTINUOUS
 62
     7
 10
-18.68271272603383
 20
12.77259543048703
 11
-18.7187472340033
 21
12.73246346579371
  0
LINE
  8
0
  6
CONTINUOUS
 62
     7
 10
-18.7187472340033
 20
12.73246346579371
 11
-18.75140452485358
 21
12.69073057247477
  0
LINE
  8
0
  6
CONTINUOUS
 62
     7
 10
-18.75140452485358
 20
12.69073057247477
 11
-18.78068459858473
 21
12.64739675053012
  0
LINE
  8
0
  6
CONTINUOUS
 62
     7
 10
-18.78068459858473
 20
12.64739675053012
 11
-18.80658745519659
 21
12.60246199995951
  0
LINE
  8
0
  6
CONTINUOUS
 62
     7
 10
-18.80658745519659
 20
12.60246199995951
 11
-18.82911309468915
 21
12.5559263207633
  0
LINE
  8
0
  6
CONTINUOUS
 62
     7
 10
-18.82911309468915
 20
12.5559263207633
 11
-18.84826151706281
 21
12.50778971294131
  0
LINE
  8
0
  6
CONTINUOUS
 62
     7
 10
-18.84826151706281
 20
12.50778971294131
 11
-18.86403272231696
 21
12.45805217649348
  0
LINE
  8
0
  6
CONTINUOUS
 62
     7
 10
-18.86403272231696
 20
12.45805217649348
 11
-18.87642671045203
 21
12.40671371141999
  0
LINE
  8
0
  6
CONTINUOUS
 62
     7
 10
-18.87642671045203
 20
12.40671371141999
 11
-18.88544348146776
 21
12.35377431772072
  0
LINE
  8
0
  6
CONTINUOUS
 62
     7
 10
-18.88544348146776
 20
12.35377431772072
 11
-18.8916201108017
 21
12.295793284191
  0
LINE
  8
0
  6
CONTINUOUS
 62
     7
 10
-18.8916201108017
 20
12.295793284191
 11
-18.89412450553379
 21
12.23937046757739
  0
LINE
  8
0
  6
CONTINUOUS
 62
     7
 10
-18.89412450553379
 20
12.23937046757739
 11
-18.89295666566409
 21
12.18450586788011
  0
LINE
  8
0
  6
CONTINUOUS
 62
     7
 10
-18.89295666566409
 20
12.18450586788011
 11
-18.88811659119283
 21
12.131199485099
  0
LINE
  8
0
  6
CONTINUOUS
 62
     7
 10
-18.88811659119283
 20
12.131199485099
 11
-18.87960428211965
 21
12.07945131923405
  0
LINE
  8
0
  6
CONTINUOUS
 62
     7
 10
-18.87960428211965
 20
12.07945131923405
 11
-18.8674197384448
 21
12.02926137028532
  0
LINE
  8
0
  6
CONTINUOUS
 62
     7
 10
-18.8674197384448
 20
12.02926137028532
 11
-18.85156296016832
 21
11.98062963825275
  0
LINE
  8
0
  6
CONTINUOUS
 62
     7
 10
-18.85156296016832
 20
11.98062963825275
 11
-18.83203394728999
 21
11.9335561231364
  0
LINE
  8
0
  6
CONTINUOUS
 62
     7
 10
-18.83203394728999
 20
11.9335561231364
 11
-18.80883269980999
 21
11.88804082493622
  0
LINE
  8
0
  6
CONTINUOUS
 62
     7
 10
-18.80883269980999
 20
11.88804082493622
 11
-18.78195921772829
 21
11.84408374365231
  0
LINE
  8
0
  6
CONTINUOUS
 62
     7
 10
-18.78195921772829
 20
11.84408374365231
 11
-18.7514135010447
 21
11.80168487928462
  0
LINE
  8
0
  6
CONTINUOUS
 62
     7
 10
-18.7514135010447
 20
11.80168487928462
 11
-18.71719554975948
 21
11.76084423183305
  0
LINE
  8
0
  6
CONTINUOUS
 62
     7
 10
-18.71719554975948
 20
11.76084423183305
 11
-18.67930536387247
 21
11.72156180129763
  0
LINE
  8
0
  6
CONTINUOUS
 62
     7
 10
-18.67930536387247
 20
11.72156180129763
 11
-18.63774294338394
 21
11.68383758767855
  0
LINE
  8
0
  6
CONTINUOUS
 62
     7
 10
-18.63774294338394
 20
11.68383758767855
 11
-18.59250828829345
 21
11.64767159097552
  0
LINE
  8
0
  6
CONTINUOUS
 62
     7
 10
-18.59250828829345
 20
11.64767159097552
 11
-18.54360139860128
 21
11.61306381118882
  0
LINE
  8
0
  6
CONTINUOUS
 62
     7
 10
-18.54360139860128
 20
11.61306381118882
 11
-18.50135158138832
 21
11.58624255504736
  0
LINE
  8
0
  6
CONTINUOUS
 62
     7
 10
-18.50135158138832
 20
11.58624255504736
 11
-18.45720702485387
 21
11.56084871669327
  0
LINE
  8
0
  6
CONTINUOUS
 62
     7
 10
-18.45720702485387
 20
11.56084871669327
 11
-18.41116772899837
 21
11.53688229612648
  0
LINE
  8
0
  6
CONTINUOUS
 62
     7
 10
-18.41116772899837
 20
11.53688229612648
 11
-18.36323369382148
 21
11.51434329334699
  0
LINE
  8
0
  6
CONTINUOUS
 62
     7
 10
-18.36323369382148
 20
11.51434329334699
 11
-18.31340491932349
 21
11.49323170835459
  0
LINE
  8
0
  6
CONTINUOUS
 62
     7
 10
-18.31340491932349
 20
11.49323170835459
 11
-18.2616814055041
 21
11.47354754114954
  0
LINE
  8
0
  6
CONTINUOUS
 62
     7
 10
-18.2616814055041
 20
11.47354754114954
 11
-18.2080631523634
 21
11.45529079173169
  0
LINE
  8
0
  6
CONTINUOUS
 62
     7
 10
-18.2080631523634
 20
11.45529079173169
 11
-18.15255015990158
 21
11.43846146010119
  0
LINE
  8
0
  6
CONTINUOUS
 62
     7
 10
-18.15255015990158
 20
11.43846146010119
 11
-18.09514242811849
 21
11.42305954625794
  0
LINE
  8
0
  6
CONTINUOUS
 62
     7
 10
-18.09514242811849
 20
11.42305954625794
 11
-18.03583995701408
 21
11.40908505020194
  0
LINE
  8
0
  6
CONTINUOUS
 62
     7
 10
-18.03583995701408
 20
11.40908505020194
 11
-17.9746427465885
 21
11.39653797193307
  0
LINE
  8
0
  6
CONTINUOUS
 62
     7
 10
-17.9746427465885
 20
11.39653797193307
 11
-17.91155079684159
 21
11.38541831145162
  0
LINE
  8
0
  6
CONTINUOUS
 62
     7
 10
-17.91155079684159
 20
11.38541831145162
 11
-17.84656410777335
 21
11.37572606875742
  0
LINE
  8
0
  6
CONTINUOUS
 62
     7
 10
-17.84656410777335
 20
11.37572606875742
 11
-17.77968267938407
 21
11.36746124385046
  0
LINE
  8
0
  6
CONTINUOUS
 62
     7
 10
-17.77968267938407
 20
11.36746124385046
 11
-17.7109065116734
 21
11.3606238367307
  0
LINE
  8
0
  6
CONTINUOUS
 62
     7
 10
-17.7109065116734
 20
11.3606238367307
 11
-17.64023560464151
 21
11.35521384739824
  0
LINE
  8
0
  6
CONTINUOUS
 62
     7
 10
-17.64023560464151
 20
11.35521384739824
 11
-17.55660850421642
 21
11.35066013786534
  0
LINE
  8
0
  6
CONTINUOUS
 62
     7
 10
-17.55660850421642
 20
11.35066013786534
 11
-17.47442246773767
 21
11.34806099384328
  0
LINE
  8
0
  6
CONTINUOUS
 62
     7
 10
-17.47442246773767
 20
11.34806099384328
 11
-17.39367749520548
 21
11.34741641533221
  0
LINE
  8
0
  6
CONTINUOUS
 62
     7
 10
-17.39367749520548
 20
11.34741641533221
 11
-17.31437358661975
 21
11.34872640233225
  0
LINE
  8
0
  6
CONTINUOUS
 62
     7
 10
-17.31437358661975
 20
11.34872640233225
 11
-17.23651074198057
 21
11.35199095484307
  0
LINE
  8
0
  6
CONTINUOUS
 62
     7
 10
-17.23651074198057
 20
11.35199095484307
 11
-17.16008896128779
 21
11.357210072865
  0
LINE
  8
0
  6
CONTINUOUS
 62
     7
 10
-17.16008896128779
 20
11.357210072865
 11
-17.08510824454146
 21
11.36438375639792
  0
LINE
  8
0
  6
CONTINUOUS
 62
     7
 10
-17.08510824454146
 20
11.36438375639792
 11
-17.0115685917418
 21
11.37351200544173
  0
LINE
  8
0
  6
CONTINUOUS
 62
     7
 10
-17.0115685917418
 20
11.37351200544173
 11
-16.93947000288848
 21
11.38459481999643
  0
LINE
  8
0
  6
CONTINUOUS
 62
     7
 10
-16.93947000288848
 20
11.38459481999643
 11
-16.86881247798161
 21
11.39763220006212
  0
LINE
  8
0
  6
CONTINUOUS
 62
     7
 10
-16.86881247798161
 20
11.39763220006212
 11
-16.7995960170213
 21
11.41262414563893
  0
LINE
  8
0
  6
CONTINUOUS
 62
     7
 10
-16.7995960170213
 20
11.41262414563893
 11
-16.73182062000744
 21
11.42957065672651
  0
LINE
  8
0
  6
CONTINUOUS
 62
     7
 10
-16.73182062000744
 20
11.42957065672651
 11
-16.66548628694003
 21
11.44847173332514
  0
LINE
  8
0
  6
CONTINUOUS
 62
     7
 10
-16.66548628694003
 20
11.44847173332514
 11
-16.60059301781908
 21
11.46932737543466
  0
LINE
  8
0
  6
CONTINUOUS
 62
     7
 10
-16.60059301781908
 20
11.46932737543466
 11
-16.53714081264457
 21
11.49213758305534
  0
LINE
  8
0
  6
CONTINUOUS
 62
     7
 10
-16.53714081264457
 20
11.49213758305534
 11
-16.47512967141662
 21
11.51690235618669
  0
LINE
  8
0
  6
CONTINUOUS
 62
     7
 10
-16.47512967141662
 20
11.51690235618669
 11
-16.41047360021569
 21
11.54557503625003
  0
LINE
  8
0
  6
CONTINUOUS
 62
     7
 10
-16.41047360021569
 20
11.54557503625003
 11
-16.34960598628549
 21
11.5756908245771
  0
LINE
  8
0
  6
CONTINUOUS
 62
     7
 10
-16.34960598628549
 20
11.5756908245771
 11
-16.2925268296259
 21
11.60724972116817
  0
LINE
  8
0
  6
CONTINUOUS
 62
     7
 10
-16.2925268296259
 20
11.60724972116817
 11
-16.23923613023675
 21
11.64025172602329
  0
LINE
  8
0
  6
CONTINUOUS
 62
     7
 10
-16.23923613023675
 20
11.64025172602329
 11
-16.18973388811851
 21
11.67469683914235
  0
LINE
  8
0
  6
CONTINUOUS
 62
     7
 10
-16.18973388811851
 20
11.67469683914235
 11
-16.1440201032706
 21
11.7105850605253
  0
LINE
  8
0
  6
CONTINUOUS
 62
     7
 10
-16.1440201032706
 20
11.7105850605253
 11
-16.10209477569352
 21
11.7479163901722
  0
LINE
  8
0
  6
CONTINUOUS
 62
     7
 10
-16.10209477569352
 20
11.7479163901722
 11
-16.06395790538689
 21
11.7866908280832
  0
LINE
  8
0
  6
CONTINUOUS
 62
     7
 10
-16.06395790538689
 20
11.7866908280832
 11
-16.02960949235088
 21
11.82690837425809
  0
LINE
  8
0
  6
CONTINUOUS
 62
     7
 10
-16.02960949235088
 20
11.82690837425809
 11
-15.9990495365856
 21
11.86856902869699
  0
LINE
  8
0
  6
CONTINUOUS
 62
     7
 10
-15.9990495365856
 20
11.86856902869699
 11
-15.97227803809087
 21
11.91167279139982
  0
LINE
  8
0
  6
CONTINUOUS
 62
     7
 10
-15.97227803809087
 20
11.91167279139982
 11
-15.94929499686681
 21
11.95621966236671
  0
LINE
  8
0
  6
CONTINUOUS
 62
     7
 10
-15.94929499686681
 20
11.95621966236671
 11
-15.93010041291326
 21
12.00220964159743
  0
LINE
  8
0
  6
CONTINUOUS
 62
     7
 10
-15.93010041291326
 20
12.00220964159743
 11
-15.91469428623027
 21
12.04964272909215
  0
LINE
  8
0
  6
CONTINUOUS
 62
     7
 10
-15.91469428623027
 20
12.04964272909215
 11
-15.90307661681806
 21
12.09851892485081
  0
LINE
  8
0
  6
CONTINUOUS
 62
     7
 10
-15.90307661681806
 20
12.09851892485081
 11
-15.89524740467635
 21
12.14883822887353
  0
LINE
  8
0
  6
CONTINUOUS
 62
     7
 10
-15.89524740467635
 20
12.14883822887353
 11
-15.88996524285213
 21
12.20686621990258
  0
LINE
  8
0
  6
CONTINUOUS
 62
     7
 10
-15.88996524285213
 20
12.20686621990258
 11
-15.88781697218444
 21
12.26314554566271
  0
LINE
  8
0
  6
CONTINUOUS
 62
     7
 10
-15.88781697218444
 20
12.26314554566271
 11
-15.88880259267372
 21
12.31767620615398
  0
LINE
  8
0
  6
CONTINUOUS
 62
     7
 10
-15.88880259267372
 20
12.31767620615398
 11
-15.89292210431969
 21
12.37045820137639
  0
LINE
  8
0
  6
CONTINUOUS
 62
     7
 10
-15.89292210431969
 20
12.37045820137639
 11
-15.90017550712236
 21
12.42149153132988
  0
LINE
  8
0
  6
CONTINUOUS
 62
     7
 10
-15.90017550712236
 20
12.42149153132988
 11
-15.910562801082
 21
12.4707761960145
  0
LINE
  8
0
  6
CONTINUOUS
 62
     7
 10
-15.910562801082
 20
12.4707761960145
 11
-15.92408398619821
 21
12.51831219543026
  0
LINE
  8
0
  6
CONTINUOUS
 62
     7
 10
-15.92408398619821
 20
12.51831219543026
 11
-15.94073906247129
 21
12.56409952957704
  0
LINE
  8
0
  6
CONTINUOUS
 62
     7
 10
-15.94073906247129
 20
12.56409952957704
 11
-15.96052802990122
 21
12.60813819845491
  0
LINE
  8
0
  6
CONTINUOUS
 62
     7
 10
-15.96052802990122
 20
12.60813819845491
 11
-15.98345088848768
 21
12.65042820206402
  0
LINE
  8
0
  6
CONTINUOUS
 62
     7
 10
-15.98345088848768
 20
12.65042820206402
 11
-16.00950763823122
 21
12.69096954040405
  0
LINE
  8
0
  6
CONTINUOUS
 62
     7
 10
-16.00950763823122
 20
12.69096954040405
 11
-16.03869827913129
 21
12.72976221347522
  0
LINE
  8
0
  6
CONTINUOUS
 62
     7
 10
-16.03869827913129
 20
12.72976221347522
 11
-16.07102281118822
 21
12.76680622127763
  0
LINE
  8
0
  6
CONTINUOUS
 62
     7
 10
-16.07102281118822
 20
12.76680622127763
 11
-16.106481234402
 21
12.8021015638109
  0
LINE
  8
0
  6
CONTINUOUS
 62
     7
 10
-16.106481234402
 20
12.8021015638109
 11
-16.14507354877237
 21
12.83564824107552
  0
LINE
  8
0
  6
CONTINUOUS
 62
     7
 10
-16.14507354877237
 20
12.83564824107552
 11
-16.18679975429971
 21
12.86744625307112
  0
LINE
  8
0
  6
CONTINUOUS
 62
     7
 10
-16.18679975429971
 20
12.86744625307112
 11
-16.23386684663142
 21
12.89959562633147
  0
LINE
  8
0
  6
CONTINUOUS
 62
     7
 10
-16.23386684663142
 20
12.89959562633147
 11
-16.2826771531106
 21
12.93005019574417
  0
LINE
  8
0
  6
CONTINUOUS
 62
     7
 10
-16.2826771531106
 20
12.93005019574417
 11
-16.33323067373715
 21
12.95880996130921
  0
LINE
  8
0
  6
CONTINUOUS
 62
     7
 10
-16.33323067373715
 20
12.95880996130921
 11
-16.3855274085114
 21
12.98587492302644
  0
LINE
  8
0
  6
CONTINUOUS
 62
     7
 10
-16.3855274085114
 20
12.98587492302644
 11
-16.43956735743285
 21
13.01124508089579
  0
LINE
  8
0
  6
CONTINUOUS
 62
     7
 10
-16.43956735743285
 20
13.01124508089579
 11
-16.49535052050199
 21
13.0349204349175
  0
LINE
  8
0
  6
CONTINUOUS
 62
     7
 10
-16.49535052050199
 20
13.0349204349175
 11
-16.55287689771851
 21
13.05690098509149
  0
LINE
  8
0
  6
CONTINUOUS
 62
     7
 10
-16.55287689771851
 20
13.05690098509149
 11
-16.61214648908249
 21
13.07718673141767
  0
LINE
  8
0
  6
CONTINUOUS
 62
     7
 10
-16.61214648908249
 20
13.07718673141767
 11
-16.6731592945939
 21
13.09577767389619
  0
LINE
  8
0
  6
CONTINUOUS
 62
     7
 10
-16.6731592945939
 20
13.09577767389619
 11
-16.73591531425284
 21
13.11267381252695
  0
LINE
  8
0
  6
CONTINUOUS
 62
     7
 10
-16.73591531425284
 20
13.11267381252695
 11
-16.80041454805919
 21
13.12787514730995
  0
LINE
  8
0
  6
CONTINUOUS
 62
     7
 10
-16.80041454805919
 20
13.12787514730995
 11
-16.86665699601308
 21
13.14138167824519
  0
LINE
  8
0
  6
CONTINUOUS
 62
     7
 10
-16.86665699601308
 20
13.14138167824519
 11
-16.9346426581144
 21
13.15319340533272
  0
LINE
  8
0
  6
CONTINUOUS
 62
     7
 10
-16.9346426581144
 20
13.15319340533272
 11
-17.00437153436313
 21
13.16331032857254
  0
LINE
  8
0
  6
CONTINUOUS
 62
     7
 10
-17.00437153436313
 20
13.16331032857254
 11
-17.07584362475939
 21
13.17173244796449
  0
LINE
  8
0
  6
CONTINUOUS
 62
     7
 10
-17.07584362475939
 20
13.17173244796449
 11
-17.14905892930296
 21
13.1784597635089
  0
LINE
  8
0
  6
CONTINUOUS
 62
     7
 10
-17.14905892930296
 20
13.1784597635089
 11
-17.23525065696907
 21
13.18426927900734
  0
LINE
  8
0
  6
CONTINUOUS
 62
     7
 10
-17.23525065696907
 20
13.18426927900734
 11
-17.31984057229308
 21
13.18788947092508
  0
LINE
  8
0
  6
CONTINUOUS
 62
     7
 10
-17.31984057229308
 20
13.18788947092508
 11
-17.40282867527487
 21
13.1893203392624
  0
LINE
  8
0
  6
CONTINUOUS
 62
     7
 10
-17.40282867527487
 20
13.1893203392624
 11
-17.48421496591468
 21
13.18856188401907
  0
LINE
  8
0
  6
CONTINUOUS
 62
     7
 10
-17.48421496591468
 20
13.18856188401907
 11
-17.56399944421239
 21
13.18561410519542
  0
LINE
  8
0
  6
CONTINUOUS
 62
     7
 10
-17.56399944421239
 20
13.18561410519542
 11
-17.64218211016805
 21
13.18047700279107
  0
LINE
  8
0
  6
CONTINUOUS
 62
     7
 10
-17.64218211016805
 20
13.18047700279107
 11
-17.7187629637815
 21
13.17315057680618
  0
LINE
  8
0
  6
CONTINUOUS
 62
     7
 10
-17.7187629637815
 20
13.17315057680618
 11
-17.79374200505302
 21
13.16363482724081
  0
LINE
  8
0
  6
CONTINUOUS
 62
     7
 10
-17.79374200505302
 20
13.16363482724081
 11
-17.86711923398232
 21
13.15192975409496
  0
LINE
  8
0
  6
CONTINUOUS
 62
     7
 10
-17.86711923398232
 20
13.15192975409496
 11
-17.93889465056947
 21
13.13803535736829
  0
LINE
  8
0
  6
CONTINUOUS
 62
     7
 10
-17.93889465056947
 20
13.13803535736829
 11
-18.00906825481469
 21
13.12195163706131
  0
LINE
  8
0
  6
CONTINUOUS
 62
     7
 10
-18.00906825481469
 20
13.12195163706131
 11
-18.0776400467178
 21
13.10367859317374
  0
LINE
  8
0
  6
CONTINUOUS
 62
     7
 10
-18.0776400467178
 20
13.10367859317374
 11
-18.14461002627865
 21
13.08321622570563
  0
LINE
  8
0
  6
CONTINUOUS
 62
     7
 10
-18.14461002627865
 20
13.08321622570563
 11
-18.20997819349762
 21
13.06056453465698
  0
LINE
  8
0
  6
CONTINUOUS
 62
     7
 10
-18.20997819349762
 20
13.06056453465698
 11
-18.27374454837444
 21
13.0357235200278
  0
LINE
  8
0
  6
CONTINUOUS
 62
     7
 10
-18.27374454837444
 20
13.0357235200278
 11
-18.33590909090898
 21
13.00869318181813
  0
LINE
  8
0
  6
CONTINUOUS
 62
     7
 10
-19.03156401075928
 20
13.45890173476055
 11
-18.96362376881322
 21
13.52094746779742
  0
LINE
  8
0
  6
CONTINUOUS
 62
     7
 10
-18.96362376881322
 20
13.52094746779742
 11
-18.8928076820285
 21
13.57929589605278
  0
LINE
  8
0
  6
CONTINUOUS
 62
     7
 10
-18.8928076820285
 20
13.57929589605278
 11
-18.81911575040518
 21
13.6339470195268
  0
LINE
  8
0
  6
CONTINUOUS
 62
     7
 10
-18.81911575040518
 20
13.6339470195268
 11
-18.74254797394326
 21
13.68490083821933
  0
LINE
  8
0
  6
CONTINUOUS
 62
     7
 10
-18.74254797394326
 20
13.68490083821933
 11
-18.66310435264279
 21
13.73215735213029
  0
LINE
  8
0
  6
CONTINUOUS
 62
     7
 10
-18.66310435264279
 20
13.73215735213029
 11
-18.5807848865035
 21
13.77571656125981
  0
LINE
  8
0
  6
CONTINUOUS
 62
     7
 10
-18.5807848865035
 20
13.77571656125981
 11
-18.49558957552572
 21
13.81557846560782
  0
LINE
  8
0
  6
CONTINUOUS
 62
     7
 10
-18.49558957552572
 20
13.81557846560782
 11
-18.40751841970917
 21
13.85174306517439
  0
LINE
  8
0
  6
CONTINUOUS
 62
     7
 10
-18.40751841970917
 20
13.85174306517439
 11
-18.31657141905418
 21
13.88421035995951
  0
LINE
  8
0
  6
CONTINUOUS
 62
     7
 10
-18.31657141905418
 20
13.88421035995951
 11
-18.22274857356038
 21
13.91298034996313
  0
LINE
  8
0
  6
CONTINUOUS
 62
     7
 10
-18.22274857356038
 20
13.91298034996313
 11
-18.12604988322797
 21
13.93805303518519
  0
LINE
  8
0
  6
CONTINUOUS
 62
     7
 10
-18.12604988322797
 20
13.93805303518519
 11
-18.02647534805713
 21
13.95942841562581
  0
LINE
  8
0
  6
CONTINUOUS
 62
     7
 10
-18.02647534805713
 20
13.95942841562581
 11
-17.92402496804752
 21
13.97710649128514
  0
LINE
  8
0
  6
CONTINUOUS
 62
     7
 10
-17.92402496804752
 20
13.97710649128514
 11
-17.81869874319919
 21
13.99108726216269
  0
LINE
  8
0
  6
CONTINUOUS
 62
     7
 10
-17.81869874319919
 20
13.99108726216269
 11
-17.71049667351232
 21
14.00137072825891
  0
LINE
  8
0
  6
CONTINUOUS
 62
     7
 10
-17.71049667351232
 20
14.00137072825891
 11
-17.5994187589868
 21
14.00795688957368
  0
LINE
  8
0
  6
CONTINUOUS
 62
     7
 10
-17.5994187589868
 20
14.00795688957368
 11
-17.47048614492691
 21
14.01118317563238
  0
LINE
  8
0
  6
CONTINUOUS
 62
     7
 10
-17.47048614492691
 20
14.01118317563238
 11
-17.34445208340313
 21
14.00988250620233
  0
LINE
  8
0
  6
CONTINUOUS
 62
     7
 10
-17.34445208340313
 20
14.00988250620233
 11
-17.22131657441539
 21
14.0040548812832
  0
LINE
  8
0
  6
CONTINUOUS
 62
     7
 10
-17.22131657441539
 20
14.0040548812832
 11
-17.10107961796365
 21
13.99370030087516
  0
LINE
  8
0
  6
CONTINUOUS
 62
     7
 10
-17.10107961796365
 20
13.99370030087516
 11
-16.98374121404805
 21
13.97881876497797
  0
LINE
  8
0
  6
CONTINUOUS
 62
     7
 10
-16.98374121404805
 20
13.97881876497797
 11
-16.86930136266851
 21
13.95941027359193
  0
LINE
  8
0
  6
CONTINUOUS
 62
     7
 10
-16.86930136266851
 20
13.95941027359193
 11
-16.75776006382496
 21
13.93547482671692
  0
LINE
  8
0
  6
CONTINUOUS
 62
     7
 10
-16.75776006382496
 20
13.93547482671692
 11
-16.64911731751756
 21
13.90701242435294
  0
LINE
  8
0
  6
CONTINUOUS
 62
     7
 10
-16.64911731751756
 20
13.90701242435294
 11
-16.54337312374621
 21
13.87402306649993
  0
LINE
  8
0
  6
CONTINUOUS
 62
     7
 10
-16.54337312374621
 20
13.87402306649993
 11
-16.4405274825109
 21
13.83650675315801
  0
LINE
  8
0
  6
CONTINUOUS
 62
     7
 10
-16.4405274825109
 20
13.83650675315801
 11
-16.34058039381159
 21
13.794463484327
  0
LINE
  8
0
  6
CONTINUOUS
 62
     7
 10
-16.34058039381159
 20
13.794463484327
 11
-16.24353185764848
 21
13.74789326000719
  0
LINE
  8
0
  6
CONTINUOUS
 62
     7
 10
-16.24353185764848
 20
13.74789326000719
 11
-16.14938187402143
 21
13.6967960801983
  0
LINE
  8
0
  6
CONTINUOUS
 62
     7
 10
-16.14938187402143
 20
13.6967960801983
 11
-16.05813044293031
 21
13.6411719449005
  0
LINE
  8
0
  6
CONTINUOUS
 62
     7
 10
-16.05813044293031
 20
13.6411719449005
 11
-15.96977756437529
 21
13.58102085411367
  0
LINE
  8
0
  6
CONTINUOUS
 62
     7
 10
-15.96977756437529
 20
13.58102085411367
 11
-15.88432323835642
 21
13.51634280783792
  0
LINE
  8
0
  6
CONTINUOUS
 62
     7
 10
-15.88432323835642
 20
13.51634280783792
 11
-15.80718040302975
 21
13.4519132899143
  0
LINE
  8
0
  6
CONTINUOUS
 62
     7
 10
-15.80718040302975
 20
13.4519132899143
 11
-15.73501452482107
 21
13.38553714264856
  0
LINE
  8
0
  6
CONTINUOUS
 62
     7
 10
-15.73501452482107
 20
13.38553714264856
 11
-15.66782560373026
 21
13.31721436604061
  0
LINE
  8
0
  6
CONTINUOUS
 62
     7
 10
-15.66782560373026
 20
13.31721436604061
 11
-15.60561363975721
 21
13.2469449600906
  0
LINE
  8
0
  6
CONTINUOUS
 62
     7
 10
-15.60561363975721
 20
13.2469449600906
 11
-15.54837863290209
 21
13.17472892479832
  0
LINE
  8
0
  6
CONTINUOUS
 62
     7
 10
-15.54837863290209
 20
13.17472892479832
 11
-15.4961205831648
 21
13.10056626016387
  0
LINE
  8
0
  6
CONTINUOUS
 62
     7
 10
-15.4961205831648
 20
13.10056626016387
 11
-15.44883949054526
 21
13.0244569661872
  0
LINE
  8
0
  6
CONTINUOUS
 62
     7
 10
-15.44883949054526
 20
13.0244569661872
 11
-15.40653535504355
 21
12.94640104286854
  0
LINE
  8
0
  6
CONTINUOUS
 62
     7
 10
-15.40653535504355
 20
12.94640104286854
 11
-15.36920817665988
 21
12.86639849020749
  0
LINE
  8
0
  6
CONTINUOUS
 62
     7
 10
-15.36920817665988
 20
12.86639849020749
 11
-15.33685795539391
 21
12.78444930820444
  0
LINE
  8
0
  6
CONTINUOUS
 62
     7
 10
-15.33685795539391
 20
12.78444930820444
 11
-15.30948469124577
 21
12.70055349685911
  0
LINE
  8
0
  6
CONTINUOUS
 62
     7
 10
-15.30948469124577
 20
12.70055349685911
 11
-15.28708838421544
 21
12.61471105617173
  0
LINE
  8
0
  6
CONTINUOUS
 62
     7
 10
-15.28708838421544
 20
12.61471105617173
 11
-15.2696690343031
 21
12.52692198614191
  0
LINE
  8
0
  6
CONTINUOUS
 62
     7
 10
-15.2696690343031
 20
12.52692198614191
 11
-15.25722664150841
 21
12.4371862867701
  0
LINE
  8
0
  6
CONTINUOUS
 62
     7
 10
-15.25722664150841
 20
12.4371862867701
 11
-15.24976120583166
 21
12.34550395805611
  0
LINE
  8
0
  6
CONTINUOUS
 62
     7
 10
-15.24976120583166
 20
12.34550395805611
 11
-15.24727272727283
 21
12.25187499999991
  0
LINE
  8
0
  6
CONTINUOUS
 62
     7
 10
-15.24727272727283
 20
12.25187499999991
 11
-15.24933037387782
 21
12.16092531019297
  0
LINE
  8
0
  6
CONTINUOUS
 62
     7
 10
-15.24933037387782
 20
12.16092531019297
 11
-15.25550331369307
 21
12.07216714986342
  0
LINE
  8
0
  6
CONTINUOUS
 62
     7
 10
-15.25550331369307
 20
12.07216714986342
 11
-15.26579154671848
 21
11.98560051901099
  0
LINE
  8
0
  6
CONTINUOUS
 62
     7
 10
-15.26579154671848
 20
11.98560051901099
 11
-15.28019507295408
 21
11.90122541763578
  0
LINE
  8
0
  6
CONTINUOUS
 62
     7
 10
-15.28019507295408
 20
11.90122541763578
 11
-15.2987138923999
 21
11.81904184573768
  0
LINE
  8
0
  6
CONTINUOUS
 62
     7
 10
-15.2987138923999
 20
11.81904184573768
 11
-15.32134800505591
 21
11.73904980331697
  0
LINE
  8
0
  6
CONTINUOUS
 62
     7
 10
-15.32134800505591
 20
11.73904980331697
 11
-15.34809741092202
 21
11.66124929037332
  0
LINE
  8
0
  6
CONTINUOUS
 62
     7
 10
-15.34809741092202
 20
11.66124929037332
 11
-15.37896210999828
 21
11.58564030690701
  0
LINE
  8
0
  6
CONTINUOUS
 62
     7
 10
-15.37896210999828
 20
11.58564030690701
 11
-15.41394210228475
 21
11.51222285291781
  0
LINE
  8
0
  6
CONTINUOUS
 62
     7
 10
-15.41394210228475
 20
11.51222285291781
 11
-15.45303738778136
 21
11.44099692840589
  0
LINE
  8
0
  6
CONTINUOUS
 62
     7
 10
-15.45303738778136
 20
11.44099692840589
 11
-15.49624796648819
 21
11.37196253337108
  0
LINE
  8
0
  6
CONTINUOUS
 62
     7
 10
-15.49624796648819
 20
11.37196253337108
 11
-15.54357383840521
 21
11.30511966781361
  0
LINE
  8
0
  6
CONTINUOUS
 62
     7
 10
-15.54357383840521
 20
11.30511966781361
 11
-15.59501500353239
 21
11.24046833173331
  0
LINE
  8
0
  6
CONTINUOUS
 62
     7
 10
-15.59501500353239
 20
11.24046833173331
 11
-15.65057146186971
 21
11.17800852513012
  0
LINE
  8
0
  6
CONTINUOUS
 62
     7
 10
-15.65057146186971
 20
11.17800852513012
 11
-15.71024321341718
 21
11.11774024800433
  0
LINE
  8
0
  6
CONTINUOUS
 62
     7
 10
-15.71024321341718
 20
11.11774024800433
 11
-15.77403025817492
 21
11.05966350035564
  0
LINE
  8
0
  6
CONTINUOUS
 62
     7
 10
-15.77403025817492
 20
11.05966350035564
 11
-15.84255723000749
 21
11.00321757174233
  0
LINE
  8
0
  6
CONTINUOUS
 62
     7
 10
-15.84255723000749
 20
11.00321757174233
 11
-15.9139184373217
 21
10.95003145644613
  0
LINE
  8
0
  6
CONTINUOUS
 62
     7
 10
-15.9139184373217
 20
10.95003145644613
 11
-15.98811388011745
 21
10.90010515446682
  0
LINE
  8
0
  6
CONTINUOUS
 62
     7
 10
-15.98811388011745
 20
10.90010515446682
 11
-16.06514355839506
 21
10.85343866580457
  0
LINE
  8
0
  6
CONTINUOUS
 62
     7
 10
-16.06514355839506
 20
10.85343866580457
 11
-16.14500747215425
 21
10.81003199045927
  0
LINE
  8
0
  6
CONTINUOUS
 62
     7
 10
-16.14500747215425
 20
10.81003199045927
 11
-16.22770562139508
 21
10.76988512843102
  0
LINE
  8
0
  6
CONTINUOUS
 62
     7
 10
-16.22770562139508
 20
10.76988512843102
 11
-16.31323800611756
 21
10.73299807971967
  0
LINE
  8
0
  6
CONTINUOUS
 62
     7
 10
-16.31323800611756
 20
10.73299807971967
 11
-16.40160462632167
 21
10.69937084432543
  0
LINE
  8
0
  6
CONTINUOUS
 62
     7
 10
-16.40160462632167
 20
10.69937084432543
 11
-16.49280548200749
 21
10.66900342224808
  0
LINE
  8
0
  6
CONTINUOUS
 62
     7
 10
-16.49280548200749
 20
10.66900342224808
 11
-16.58684057317489
 21
10.64189581348768
  0
LINE
  8
0
  6
CONTINUOUS
 62
     7
 10
-16.58684057317489
 20
10.64189581348768
 11
-16.68370989982393
 21
10.61804801804439
  0
LINE
  8
0
  6
CONTINUOUS
 62
     7
 10
-16.68370989982393
 20
10.61804801804439
 11
-16.78341346195461
 21
10.59746003591805
  0
LINE
  8
0
  6
CONTINUOUS
 62
     7
 10
-16.78341346195461
 20
10.59746003591805
 11
-16.88595125956688
 21
10.58013186710871
  0
LINE
  8
0
  6
CONTINUOUS
 62
     7
 10
-16.88595125956688
 20
10.58013186710871
 11
-16.9913232926609
 21
10.56606351161632
  0
LINE
  8
0
  6
CONTINUOUS
 62
     7
 10
-16.9913232926609
 20
10.56606351161632
 11
-17.0995295612365
 21
10.55525496944093
  0
LINE
  8
0
  6
CONTINUOUS
 62
     7
 10
-17.0995295612365
 20
10.55525496944093
 11
-17.2105700652938
 21
10.54770624058254
  0
LINE
  8
0
  6
CONTINUOUS
 62
     7
 10
-17.2105700652938
 20
10.54770624058254
 11
-17.33951457972621
 21
10.54302173038052
  0
LINE
  8
0
  6
CONTINUOUS
 62
     7
 10
-17.33951457972621
 20
10.54302173038052
 11
-17.46546791207398
 21
10.54269873719305
  0
LINE
  8
0
  6
CONTINUOUS
 62
     7
 10
-17.46546791207398
 20
10.54269873719305
 11
-17.58843006233729
 21
10.5467372610199
  0
LINE
  8
0
  6
CONTINUOUS
 62
     7
 10
-17.58843006233729
 20
10.5467372610199
 11
-17.70840103051613
 21
10.55513730186119
  0
LINE
  8
0
  6
CONTINUOUS
 62
     7
 10
-17.70840103051613
 20
10.55513730186119
 11
-17.82538081661028
 21
10.56789885971676
  0
LINE
  8
0
  6
CONTINUOUS
 62
     7
 10
-17.82538081661028
 20
10.56789885971676
 11
-17.93936942062002
 21
10.58502193458699
  0
LINE
  8
0
  6
CONTINUOUS
 62
     7
 10
-17.93936942062002
 20
10.58502193458699
 11
-18.05036684254513
 21
10.6065065264716
  0
LINE
  8
0
  6
CONTINUOUS
 62
     7
 10
-18.05036684254513
 20
10.6065065264716
 11
-18.15837308238577
 21
10.6323526353706
  0
LINE
  8
0
  6
CONTINUOUS
 62
     7
 10
-18.15837308238577
 20
10.6323526353706
 11
-18.26338814014189
 21
10.66256026128404
  0
LINE
  8
0
  6
CONTINUOUS
 62
     7
 10
-18.26338814014189
 20
10.66256026128404
 11
-18.36541201581349
 21
10.69712940421186
  0
LINE
  8
0
  6
CONTINUOUS
 62
     7
 10
-18.36541201581349
 20
10.69712940421186
 11
-18.46444470940051
 21
10.73606006415406
  0
LINE
  8
0
  6
CONTINUOUS
 62
     7
 10
-18.46444470940051
 20
10.73606006415406
 11
-18.56048622090301
 21
10.77935224111082
  0
LINE
  8
0
  6
CONTINUOUS
 62
     7
 10
-18.56048622090301
 20
10.77935224111082
 11
-18.65353655032093
 21
10.82700593508179
  0
LINE
  8
0
  6
CONTINUOUS
 62
     7
 10
-18.65353655032093
 20
10.82700593508179
 11
-18.74359569765427
 21
10.87902114606726
  0
LINE
  8
0
  6
CONTINUOUS
 62
     7
 10
-18.74359569765427
 20
10.87902114606726
 11
-18.8306636629032
 21
10.93539787406733
  0
LINE
  8
0
  6
CONTINUOUS
 62
     7
 10
-18.8306636629032
 20
10.93539787406733
 11
-18.91474044606761
 21
10.99613611908173
  0
LINE
  8
0
  6
CONTINUOUS
 62
     7
 10
-18.91474044606761
 20
10.99613611908173
 11
-18.99078572585838
 21
11.05711160146561
  0
LINE
  8
0
  6
CONTINUOUS
 62
     7
 10
-18.99078572585838
 20
11.05711160146561
 11
-19.06192485856589
 21
11.12042151020598
  0
LINE
  8
0
  6
CONTINUOUS
 62
     7
 10
-19.06192485856589
 20
11.12042151020598
 11
-19.12815784419019
 21
11.18606584530279
  0
LINE
  8
0
  6
CONTINUOUS
 62
     7
 10
-19.12815784419019
 20
11.18606584530279
 11
-19.18948468273118
 21
11.25404460675611
  0
LINE
  8
0
  6
CONTINUOUS
 62
     7
 10
-19.18948468273118
 20
11.25404460675611
 11
-19.24590537418885
 21
11.32435779456592
  0
LINE
  8
0
  6
CONTINUOUS
 62
     7
 10
-19.24590537418885
 20
11.32435779456592
 11
-19.29741991856326
 21
11.39700540873212
  0
LINE
  8
0
  6
CONTINUOUS
 62
     7
 10
-19.29741991856326
 20
11.39700540873212
 11
-19.34402831585436
 21
11.47198744925482
  0
LINE
  8
0
  6
CONTINUOUS
 62
     7
 10
-19.34402831585436
 20
11.47198744925482
 11
-19.38573056606224
 21
11.54930391613401
  0
LINE
  8
0
  6
CONTINUOUS
 62
     7
 10
-19.38573056606224
 20
11.54930391613401
 11
-19.42252666918704
 21
11.6289548093696
  0
LINE
  8
0
  6
CONTINUOUS
 62
     7
 10
-19.42252666918704
 20
11.6289548093696
 11
-19.45441662522823
 21
11.71094012896173
  0
LINE
  8
0
  6
CONTINUOUS
 62
     7
 10
-19.45441662522823
 20
11.71094012896173
 11
-19.48140043418633
 21
11.79525987491031
  0
LINE
  8
0
  6
CONTINUOUS
 62
     7
 10
-19.48140043418633
 20
11.79525987491031
 11
-19.50347809606112
 21
11.88191404721528
  0
LINE
  8
0
  6
CONTINUOUS
 62
     7
 10
-19.50347809606112
 20
11.88191404721528
 11
-19.52064961085254
 21
11.97090264587669
  0
LINE
  8
0
  6
CONTINUOUS
 62
     7
 10
-19.52064961085254
 20
11.97090264587669
 11
-19.53291497856069
 21
12.06222567089471
  0
LINE
  8
0
  6
CONTINUOUS
 62
     7
 10
-19.53291497856069
 20
12.06222567089471
 11
-19.54027419918558
 21
12.15588312226901
  0
LINE
  8
0
  6
CONTINUOUS
 62
     7
 10
-19.54027419918558
 20
12.15588312226901
 11
-19.54272727272732
 21
12.25187499999991
  0
LINE
  8
0
  6
CONTINUOUS
 62
     7
 10
-19.54272727272732
 20
12.25187499999991
 11
-19.54073054123517
 21
12.34048554477352
  0
LINE
  8
0
  6
CONTINUOUS
 62
     7
 10
-19.54073054123517
 20
12.34048554477352
 11
-19.53474034675895
 21
12.42733990636691
  0
LINE
  8
0
  6
CONTINUOUS
 62
     7
 10
-19.53474034675895
 20
12.42733990636691
 11
-19.52475668929871
 21
12.5124380847802
  0
LINE
  8
0
  6
CONTINUOUS
 62
     7
 10
-19.52475668929871
 20
12.5124380847802
 11
-19.51077956885416
 21
12.59578008001344
  0
LINE
  8
0
  6
CONTINUOUS
 62
     7
 10
-19.51077956885416
 20
12.59578008001344
 11
-19.49280898542566
 21
12.67736589206642
  0
LINE
  8
0
  6
CONTINUOUS
 62
     7
 10
-19.49280898542566
 20
12.67736589206642
 11
-19.47084493901302
 21
12.75719552093929
  0
LINE
  8
0
  6
CONTINUOUS
 62
     7
 10
-19.47084493901302
 20
12.75719552093929
 11
-19.4448874296162
 21
12.83526896663212
  0
LINE
  8
0
  6
CONTINUOUS
 62
     7
 10
-19.4448874296162
 20
12.83526896663212
 11
-19.4149364572353
 21
12.91158622914462
  0
LINE
  8
0
  6
CONTINUOUS
 62
     7
 10
-19.4149364572353
 20
12.91158622914462
 11
-19.38099202187016
 21
12.98614730847714
  0
LINE
  8
0
  6
CONTINUOUS
 62
     7
 10
-19.38099202187016
 20
12.98614730847714
 11
-19.343054123521
 21
13.05895220462944
  0
LINE
  8
0
  6
CONTINUOUS
 62
     7
 10
-19.343054123521
 20
13.05895220462944
 11
-19.30112276218771
 21
13.13000091760175
  0
LINE
  8
0
  6
CONTINUOUS
 62
     7
 10
-19.30112276218771
 20
13.13000091760175
 11
-19.25519793787028
 21
13.19929344739373
  0
LINE
  8
0
  6
CONTINUOUS
 62
     7
 10
-19.25519793787028
 20
13.19929344739373
 11
-19.20527965056873
 21
13.26682979400556
  0
LINE
  8
0
  6
CONTINUOUS
 62
     7
 10
-19.20527965056873
 20
13.26682979400556
 11
-19.15136790028299
 21
13.3326099574374
  0
LINE
  8
0
  6
CONTINUOUS
 62
     7
 10
-19.15136790028299
 20
13.3326099574374
 11
-19.09346268701323
 21
13.39663393768903
  0
LINE
  8
0
  6
CONTINUOUS
 62
     7
 10
-19.09346268701323
 20
13.39663393768903
 11
-19.03156401075928
 21
13.45890173476055
  0
LINE
  8
0
  6
CONTINUOUS
 62
     7
 10
-19.03156401075928
 20
8.958901734760548
 11
-18.96362376881322
 21
9.020947467797413
  0
LINE
  8
0
  6
CONTINUOUS
 62
     7
 10
-18.96362376881322
 20
9.020947467797413
 11
-18.8928076820285
 21
9.079295896052775
  0
LINE
  8
0
  6
CONTINUOUS
 62
     7
 10
-18.8928076820285
 20
9.079295896052775
 11
-18.81911575040518
 21
9.1339470195268
  0
LINE
  8
0
  6
CONTINUOUS
 62
     7
 10
-18.81911575040518
 20
9.1339470195268
 11
-18.74254797394326
 21
9.184900838219322
  0
LINE
  8
0
  6
CONTINUOUS
 62
     7
 10
-18.74254797394326
 20
9.184900838219322
 11
-18.66310435264279
 21
9.232157352130288
  0
LINE
  8
0
  6
CONTINUOUS
 62
     7
 10
-18.66310435264279
 20
9.232157352130288
 11
-18.5807848865035
 21
9.275716561259806
  0
LINE
  8
0
  6
CONTINUOUS
 62
     7
 10
-18.5807848865035
 20
9.275716561259806
 11
-18.49558957552572
 21
9.315578465607821
  0
LINE
  8
0
  6
CONTINUOUS
 62
     7
 10
-18.49558957552572
 20
9.315578465607821
 11
-18.40751841970917
 21
9.35174306517439
  0
LINE
  8
0
  6
CONTINUOUS
 62
     7
 10
-18.40751841970917
 20
9.35174306517439
 11
-18.31657141905418
 21
9.38421035995951
  0
LINE
  8
0
  6
CONTINUOUS
 62
     7
 10
-18.31657141905418
 20
9.38421035995951
 11
-18.22274857356038
 21
9.41298034996313
  0
LINE
  8
0
  6
CONTINUOUS
 62
     7
 10
-18.22274857356038
 20
9.41298034996313
 11
-18.12604988322797
 21
9.43805303518519
  0
LINE
  8
0
  6
CONTINUOUS
 62
     7
 10
-18.12604988322797
 20
9.43805303518519
 11
-18.02647534805713
 21
9.459428415625803
  0
LINE
  8
0
  6
CONTINUOUS
 62
     7
 10
-18.02647534805713
 20
9.459428415625803
 11
-17.92402496804752
 21
9.477106491285136
  0
LINE
  8
0
  6
CONTINUOUS
 62
     7
 10
-17.92402496804752
 20
9.477106491285136
 11
-17.81869874319919
 21
9.491087262162745
  0
LINE
  8
0
  6
CONTINUOUS
 62
     7
 10
-17.81869874319919
 20
9.491087262162745
 11
-17.71049667351232
 21
9.501370728258907
  0
LINE
  8
0
  6
CONTINUOUS
 62
     7
 10
-17.71049667351232
 20
9.501370728258907
 11
-17.5994187589868
 21
9.507956889573677
  0
LINE
  8
0
  6
CONTINUOUS
 62
     7
 10
-17.5994187589868
 20
9.507956889573677
 11
-17.47048614492691
 21
9.511183175632375
  0
LINE
  8
0
  6
CONTINUOUS
 62
     7
 10
-17.47048614492691
 20
9.511183175632375
 11
-17.34445208340313
 21
9.509882506202327
  0
LINE
  8
0
  6
CONTINUOUS
 62
     7
 10
-17.34445208340313
 20
9.509882506202327
 11
-17.22131657441539
 21
9.504054881283198
  0
LINE
  8
0
  6
CONTINUOUS
 62
     7
 10
-17.22131657441539
 20
9.504054881283198
 11
-17.10107961796365
 21
9.493700300875151
  0
LINE
  8
0
  6
CONTINUOUS
 62
     7
 10
-17.10107961796365
 20
9.493700300875151
 11
-16.98374121404805
 21
9.47881876497786
  0
LINE
  8
0
  6
CONTINUOUS
 62
     7
 10
-16.98374121404805
 20
9.47881876497786
 11
-16.86930136266851
 21
9.459410273591928
  0
LINE
  8
0
  6
CONTINUOUS
 62
     7
 10
-16.86930136266851
 20
9.459410273591928
 11
-16.75776006382496
 21
9.435474826716916
  0
LINE
  8
0
  6
CONTINUOUS
 62
     7
 10
-16.75776006382496
 20
9.435474826716916
 11
-16.64911731751756
 21
9.407012424352823
  0
LINE
  8
0
  6
CONTINUOUS
 62
     7
 10
-16.64911731751756
 20
9.407012424352823
 11
-16.54337312374621
 21
9.374023066499925
  0
LINE
  8
0
  6
CONTINUOUS
 62
     7
 10
-16.54337312374621
 20
9.374023066499925
 11
-16.4405274825109
 21
9.336506753157892
  0
LINE
  8
0
  6
CONTINUOUS
 62
     7
 10
-16.4405274825109
 20
9.336506753157892
 11
-16.34058039381159
 21
9.294463484326998
  0
LINE
  8
0
  6
CONTINUOUS
 62
     7
 10
-16.34058039381159
 20
9.294463484326998
 11
-16.24353185764848
 21
9.247893260007078
  0
LINE
  8
0
  6
CONTINUOUS
 62
     7
 10
-16.24353185764848
 20
9.247893260007078
 11
-16.14938187402143
 21
9.196796080198189
  0
LINE
  8
0
  6
CONTINUOUS
 62
     7
 10
-16.14938187402143
 20
9.196796080198189
 11
-16.05813044293031
 21
9.141171944900494
  0
LINE
  8
0
  6
CONTINUOUS
 62
     7
 10
-16.05813044293031
 20
9.141171944900494
 11
-15.96977756437529
 21
9.081020854113664
  0
LINE
  8
0
  6
CONTINUOUS
 62
     7
 10
-15.96977756437529
 20
9.081020854113664
 11
-15.88432323835642
 21
9.016342807837917
  0
LINE
  8
0
  6
CONTINUOUS
 62
     7
 10
-15.88432323835642
 20
9.016342807837917
 11
-15.80718040302975
 21
8.951913289914293
  0
LINE
  8
0
  6
CONTINUOUS
 62
     7
 10
-15.80718040302975
 20
8.951913289914293
 11
-15.73501452482107
 21
8.885537142648559
  0
LINE
  8
0
  6
CONTINUOUS
 62
     7
 10
-15.73501452482107
 20
8.885537142648559
 11
-15.66782560373026
 21
8.817214366040716
  0
LINE
  8
0
  6
CONTINUOUS
 62
     7
 10
-15.66782560373026
 20
8.817214366040716
 11
-15.60561363975721
 21
8.746944960090596
  0
LINE
  8
0
  6
CONTINUOUS
 62
     7
 10
-15.60561363975721
 20
8.746944960090596
 11
-15.54837863290209
 21
8.674728924798314
  0
LINE
  8
0
  6
CONTINUOUS
 62
     7
 10
-15.54837863290209
 20
8.674728924798314
 11
-15.4961205831648
 21
8.600566260163921
  0
LINE
  8
0
  6
CONTINUOUS
 62
     7
 10
-15.4961205831648
 20
8.600566260163921
 11
-15.44883949054526
 21
8.52445696618731
  0
LINE
  8
0
  6
CONTINUOUS
 62
     7
 10
-15.44883949054526
 20
8.52445696618731
 11
-15.40653535504355
 21
8.446401042868533
  0
LINE
  8
0
  6
CONTINUOUS
 62
     7
 10
-15.40653535504355
 20
8.446401042868533
 11
-15.36920817665988
 21
8.366398490207482
  0
LINE
  8
0
  6
CONTINUOUS
 62
     7
 10
-15.36920817665988
 20
8.366398490207482
 11
-15.33685795539391
 21
8.284449308204433
  0
LINE
  8
0
  6
CONTINUOUS
 62
     7
 10
-15.33685795539391
 20
8.284449308204433
 11
-15.30948469124577
 21
8.200553496859108
  0
LINE
  8
0
  6
CONTINUOUS
 62
     7
 10
-15.30948469124577
 20
8.200553496859108
 11
-15.28708838421544
 21
8.11471105617173
  0
LINE
  8
0
  6
CONTINUOUS
 62
     7
 10
-15.28708838421544
 20
8.11471105617173
 11
-15.2696690343031
 21
8.026921986142021
  0
LINE
  8
0
  6
CONTINUOUS
 62
     7
 10
-15.2696690343031
 20
8.026921986142021
 11
-15.25722664150841
 21
7.937186286770148
  0
LINE
  8
0
  6
CONTINUOUS
 62
     7
 10
-15.25722664150841
 20
7.937186286770148
 11
-15.24976120583166
 21
7.84550395805611
  0
LINE
  8
0
  6
CONTINUOUS
 62
     7
 10
-15.24976120583166
 20
7.84550395805611
 11
-15.24727272727283
 21
7.751874999999908
  0
LINE
  8
0
  6
CONTINUOUS
 62
     7
 10
-15.24727272727283
 20
7.751874999999908
 11
-15.24933037387782
 21
7.660925310193078
  0
LINE
  8
0
  6
CONTINUOUS
 62
     7
 10
-15.24933037387782
 20
7.660925310193078
 11
-15.25550331369307
 21
7.572167149863418
  0
LINE
  8
0
  6
CONTINUOUS
 62
     7
 10
-15.25550331369307
 20
7.572167149863418
 11
-15.26579154671848
 21
7.485600519010982
  0
LINE
  8
0
  6
CONTINUOUS
 62
     7
 10
-15.26579154671848
 20
7.485600519010982
 11
-15.28019507295408
 21
7.401225417635771
  0
LINE
  8
0
  6
CONTINUOUS
 62
     7
 10
-15.28019507295408
 20
7.401225417635771
 11
-15.2987138923999
 21
7.319041845737783
  0
LINE
  8
0
  6
CONTINUOUS
 62
     7
 10
-15.2987138923999
 20
7.319041845737783
 11
-15.32134800505591
 21
7.239049803316965
  0
LINE
  8
0
  6
CONTINUOUS
 62
     7
 10
-15.32134800505591
 20
7.239049803316965
 11
-15.34809741092202
 21
7.161249290373428
  0
LINE
  8
0
  6
CONTINUOUS
 62
     7
 10
-15.34809741092202
 20
7.161249290373428
 11
-15.37896210999828
 21
7.085640306907059
  0
LINE
  8
0
  6
CONTINUOUS
 62
     7
 10
-15.37896210999828
 20
7.085640306907059
 11
-15.41394210228475
 21
7.012222852917804
  0
LINE
  8
0
  6
CONTINUOUS
 62
     7
 10
-15.41394210228475
 20
7.012222852917804
 11
-15.45303738778136
 21
6.940996928405885
  0
LINE
  8
0
  6
CONTINUOUS
 62
     7
 10
-15.45303738778136
 20
6.940996928405885
 11
-15.49624796648819
 21
6.871962533371079
  0
LINE
  8
0
  6
CONTINUOUS
 62
     7
 10
-15.49624796648819
 20
6.871962533371079
 11
-15.54357383840521
 21
6.805119667813608
  0
LINE
  8
0
  6
CONTINUOUS
 62
     7
 10
-15.54357383840521
 20
6.805119667813608
 11
-15.59501500353239
 21
6.740468331733307
  0
LINE
  8
0
  6
CONTINUOUS
 62
     7
 10
-15.59501500353239
 20
6.740468331733307
 11
-15.65057146186971
 21
6.678008525130174
  0
LINE
  8
0
  6
CONTINUOUS
 62
     7
 10
-15.65057146186971
 20
6.678008525130174
 11
-15.71024321341718
 21
6.617740248004322
  0
LINE
  8
0
  6
CONTINUOUS
 62
     7
 10
-15.71024321341718
 20
6.617740248004322
 11
-15.77403025817492
 21
6.559663500355639
  0
LINE
  8
0
  6
CONTINUOUS
 62
     7
 10
-15.77403025817492
 20
6.559663500355639
 11
-15.84255723000749
 21
6.503217571742326
  0
LINE
  8
0
  6
CONTINUOUS
 62
     7
 10
-15.84255723000749
 20
6.503217571742326
 11
-15.9139184373217
 21
6.450031456446125
  0
LINE
  8
0
  6
CONTINUOUS
 62
     7
 10
-15.9139184373217
 20
6.450031456446125
 11
-15.98811388011745
 21
6.400105154466817
  0
LINE
  8
0
  6
CONTINUOUS
 62
     7
 10
-15.98811388011745
 20
6.400105154466817
 11
-16.06514355839506
 21
6.353438665804567
  0
LINE
  8
0
  6
CONTINUOUS
 62
     7
 10
-16.06514355839506
 20
6.353438665804567
 11
-16.14500747215425
 21
6.310031990459263
  0
LINE
  8
0
  6
CONTINUOUS
 62
     7
 10
-16.14500747215425
 20
6.310031990459263
 11
-16.22770562139508
 21
6.269885128431018
  0
LINE
  8
0
  6
CONTINUOUS
 62
     7
 10
-16.22770562139508
 20
6.269885128431018
 11
-16.31323800611756
 21
6.232998079719665
  0
LINE
  8
0
  6
CONTINUOUS
 62
     7
 10
-16.31323800611756
 20
6.232998079719665
 11
-16.40160462632167
 21
6.199370844325425
  0
LINE
  8
0
  6
CONTINUOUS
 62
     7
 10
-16.40160462632167
 20
6.199370844325425
 11
-16.49280548200749
 21
6.169003422248076
  0
LINE
  8
0
  6
CONTINUOUS
 62
     7
 10
-16.49280548200749
 20
6.169003422248076
 11
-16.58684057317489
 21
6.14189581348773
  0
LINE
  8
0
  6
CONTINUOUS
 62
     7
 10
-16.58684057317489
 20
6.14189581348773
 11
-16.68370989982393
 21
6.118048018044386
  0
LINE
  8
0
  6
CONTINUOUS
 62
     7
 10
-16.68370989982393
 20
6.118048018044386
 11
-16.78341346195461
 21
6.097460035918045
  0
LINE
  8
0
  6
CONTINUOUS
 62
     7
 10
-16.78341346195461
 20
6.097460035918045
 11
-16.88595125956688
 21
6.080131867108706
  0
LINE
  8
0
  6
CONTINUOUS
 62
     7
 10
-16.88595125956688
 20
6.080131867108706
 11
-16.9913232926609
 21
6.066063511616315
  0
LINE
  8
0
  6
CONTINUOUS
 62
     7
 10
-16.9913232926609
 20
6.066063511616315
 11
-17.0995295612365
 21
6.055254969440926
  0
LINE
  8
0
  6
CONTINUOUS
 62
     7
 10
-17.0995295612365
 20
6.055254969440926
 11
-17.2105700652938
 21
6.047706240582539
  0
LINE
  8
0
  6
CONTINUOUS
 62
     7
 10
-17.2105700652938
 20
6.047706240582539
 11
-17.33951457972621
 21
6.043021730380516
  0
LINE
  8
0
  6
CONTINUOUS
 62
     7
 10
-17.33951457972621
 20
6.043021730380516
 11
-17.46546791207398
 21
6.042698737193041
  0
LINE
  8
0
  6
CONTINUOUS
 62
     7
 10
-17.46546791207398
 20
6.042698737193041
 11
-17.58843006233729
 21
6.046737261019897
  0
LINE
  8
0
  6
CONTINUOUS
 62
     7
 10
-17.58843006233729
 20
6.046737261019897
 11
-17.70840103051613
 21
6.05513730186119
  0
LINE
  8
0
  6
CONTINUOUS
 62
     7
 10
-17.70840103051613
 20
6.05513730186119
 11
-17.82538081661028
 21
6.067898859716925
  0
LINE
  8
0
  6
CONTINUOUS
 62
     7
 10
-17.82538081661028
 20
6.067898859716925
 11
-17.93936942062002
 21
6.085021934586987
  0
LINE
  8
0
  6
CONTINUOUS
 62
     7
 10
-17.93936942062002
 20
6.085021934586987
 11
-18.05036684254513
 21
6.106506526471655
  0
LINE
  8
0
  6
CONTINUOUS
 62
     7
 10
-18.05036684254513
 20
6.106506526471655
 11
-18.15837308238577
 21
6.132352635370597
  0
LINE
  8
0
  6
CONTINUOUS
 62
     7
 10
-18.15837308238577
 20
6.132352635370597
 11
-18.26338814014189
 21
6.162560261284034
  0
LINE
  8
0
  6
CONTINUOUS
 62
     7
 10
-18.26338814014189
 20
6.162560261284034
 11
-18.36541201581349
 21
6.197129404211854
  0
LINE
  8
0
  6
CONTINUOUS
 62
     7
 10
-18.36541201581349
 20
6.197129404211854
 11
-18.46444470940051
 21
6.236060064154058
  0
LINE
  8
0
  6
CONTINUOUS
 62
     7
 10
-18.46444470940051
 20
6.236060064154058
 11
-18.56048622090301
 21
6.279352241110813
  0
LINE
  8
0
  6
CONTINUOUS
 62
     7
 10
-18.56048622090301
 20
6.279352241110813
 11
-18.65353655032093
 21
6.327005935081897
  0
LINE
  8
0
  6
CONTINUOUS
 62
     7
 10
-18.65353655032093
 20
6.327005935081897
 11
-18.74359569765427
 21
6.37902114606742
  0
LINE
  8
0
  6
CONTINUOUS
 62
     7
 10
-18.74359569765427
 20
6.37902114606742
 11
-18.8306636629032
 21
6.435397874067439
  0
LINE
  8
0
  6
CONTINUOUS
 62
     7
 10
-18.8306636629032
 20
6.435397874067439
 11
-18.91474044606761
 21
6.49613611908173
  0
LINE
  8
0
  6
CONTINUOUS
 62
     7
 10
-18.91474044606761
 20
6.49613611908173
 11
-18.99078572585838
 21
6.557111601465603
  0
LINE
  8
0
  6
CONTINUOUS
 62
     7
 10
-18.99078572585838
 20
6.557111601465603
 11
-19.06192485856589
 21
6.620421510205976
  0
LINE
  8
0
  6
CONTINUOUS
 62
     7
 10
-19.06192485856589
 20
6.620421510205976
 11
-19.12815784419019
 21
6.686065845302791
  0
LINE
  8
0
  6
CONTINUOUS
 62
     7
 10
-19.12815784419019
 20
6.686065845302791
 11
-19.18948468273118
 21
6.754044606756215
  0
LINE
  8
0
  6
CONTINUOUS
 62
     7
 10
-19.18948468273118
 20
6.754044606756215
 11
-19.24590537418885
 21
6.824357794565916
  0
LINE
  8
0
  6
CONTINUOUS
 62
     7
 10
-19.24590537418885
 20
6.824357794565916
 11
-19.29741991856326
 21
6.897005408732226
  0
LINE
  8
0
  6
CONTINUOUS
 62
     7
 10
-19.29741991856326
 20
6.897005408732226
 11
-19.34402831585436
 21
6.971987449254868
  0
LINE
  8
0
  6
CONTINUOUS
 62
     7
 10
-19.34402831585436
 20
6.971987449254868
 11
-19.38573056606224
 21
7.049303916134009
  0
LINE
  8
0
  6
CONTINUOUS
 62
     7
 10
-19.38573056606224
 20
7.049303916134009
 11
-19.42252666918704
 21
7.128954809369703
  0
LINE
  8
0
  6
CONTINUOUS
 62
     7
 10
-19.42252666918704
 20
7.128954809369703
 11
-19.45441662522823
 21
7.21094012896184
  0
LINE
  8
0
  6
CONTINUOUS
 62
     7
 10
-19.45441662522823
 20
7.21094012896184
 11
-19.48140043418633
 21
7.295259874910309
  0
LINE
  8
0
  6
CONTINUOUS
 62
     7
 10
-19.48140043418633
 20
7.295259874910309
 11
-19.50347809606112
 21
7.381914047215276
  0
LINE
  8
0
  6
CONTINUOUS
 62
     7
 10
-19.50347809606112
 20
7.381914047215276
 11
-19.52064961085254
 21
7.470902645876687
  0
LINE
  8
0
  6
CONTINUOUS
 62
     7
 10
-19.52064961085254
 20
7.470902645876687
 11
-19.53291497856069
 21
7.562225670894707
  0
LINE
  8
0
  6
CONTINUOUS
 62
     7
 10
-19.53291497856069
 20
7.562225670894707
 11
-19.54027419918558
 21
7.655883122269002
  0
LINE
  8
0
  6
CONTINUOUS
 62
     7
 10
-19.54027419918558
 20
7.655883122269002
 11
-19.54272727272732
 21
7.751874999999908
  0
LINE
  8
0
  6
CONTINUOUS
 62
     7
 10
-19.54272727272732
 20
7.751874999999908
 11
-19.54073054123517
 21
7.840485544773512
  0
LINE
  8
0
  6
CONTINUOUS
 62
     7
 10
-19.54073054123517
 20
7.840485544773512
 11
-19.53474034675895
 21
7.927339906366959
  0
LINE
  8
0
  6
CONTINUOUS
 62
     7
 10
-19.53474034675895
 20
7.927339906366959
 11
-19.52475668929871
 21
8.012438084780193
  0
LINE
  8
0
  6
CONTINUOUS
 62
     7
 10
-19.52475668929871
 20
8.012438084780193
 11
-19.51077956885416
 21
8.095780080013437
  0
LINE
  8
0
  6
CONTINUOUS
 62
     7
 10
-19.51077956885416
 20
8.095780080013437
 11
-19.49280898542566
 21
8.177365892066412
  0
LINE
  8
0
  6
CONTINUOUS
 62
     7
 10
-19.49280898542566
 20
8.177365892066412
 11
-19.47084493901302
 21
8.257195520939286
  0
LINE
  8
0
  6
CONTINUOUS
 62
     7
 10
-19.47084493901302
 20
8.257195520939286
 11
-19.4448874296162
 21
8.335268966632114
  0
LINE
  8
0
  6
CONTINUOUS
 62
     7
 10
-19.4448874296162
 20
8.335268966632114
 11
-19.4149364572353
 21
8.411586229144618
  0
LINE
  8
0
  6
CONTINUOUS
 62
     7
 10
-19.4149364572353
 20
8.411586229144618
 11
-19.38099202187016
 21
8.486147308477133
  0
LINE
  8
0
  6
CONTINUOUS
 62
     7
 10
-19.38099202187016
 20
8.486147308477133
 11
-19.343054123521
 21
8.558952204629433
  0
LINE
  8
0
  6
CONTINUOUS
 62
     7
 10
-19.343054123521
 20
8.558952204629433
 11
-19.30112276218771
 21
8.630000917601743
  0
LINE
  8
0
  6
CONTINUOUS
 62
     7
 10
-19.30112276218771
 20
8.630000917601743
 11
-19.25519793787028
 21
8.69929344739373
  0
LINE
  8
0
  6
CONTINUOUS
 62
     7
 10
-19.25519793787028
 20
8.69929344739373
 11
-19.20527965056873
 21
8.76682979400556
  0
LINE
  8
0
  6
CONTINUOUS
 62
     7
 10
-19.20527965056873
 20
8.76682979400556
 11
-19.15136790028299
 21
8.832609957437398
  0
LINE
  8
0
  6
CONTINUOUS
 62
     7
 10
-19.15136790028299
 20
8.832609957437398
 11
-19.09346268701323
 21
8.896633937689025
  0
LINE
  8
0
  6
CONTINUOUS
 62
     7
 10
-19.09346268701323
 20
8.896633937689025
 11
-19.03156401075928
 21
8.958901734760548
  0
LINE
  8
0
  6
CONTINUOUS
 62
     7
 10
-18.33590909090898
 20
8.508693181818128
 11
-18.39558411871311
 21
8.479767717505304
  0
LINE
  8
0
  6
CONTINUOUS
 62
     7
 10
-18.39558411871311
 20
8.479767717505304
 11
-18.45188192939779
 21
8.449241324566591
  0
LINE
  8
0
  6
CONTINUOUS
 62
     7
 10
-18.45188192939779
 20
8.449241324566591
 11
-18.50480252296349
 21
8.417114003002213
  0
LINE
  8
0
  6
CONTINUOUS
 62
     7
 10
-18.50480252296349
 20
8.417114003002213
 11
-18.55434589940991
 21
8.383385752812
  0
LINE
  8
0
  6
CONTINUOUS
 62
     7
 10
-18.55434589940991
 20
8.383385752812
 11
-18.60051205873708
 21
8.348056573996121
  0
LINE
  8
0
  6
CONTINUOUS
 62
     7
 10
-18.60051205873708
 20
8.348056573996121
 11
-18.64330100094497
 21
8.311126466554464
  0
LINE
  8
0
  6
CONTINUOUS
 62
     7
 10
-18.64330100094497
 20
8.311126466554464
 11
-18.68271272603383
 21
8.272595430487028
  0
LINE
  8
0
  6
CONTINUOUS
 62
     7
 10
-18.68271272603383
 20
8.272595430487028
 11
-18.7187472340033
 21
8.232463465793705
  0
LINE
  8
0
  6
CONTINUOUS
 62
     7
 10
-18.7187472340033
 20
8.232463465793705
 11
-18.75140452485358
 21
8.190730572474768
  0
LINE
  8
0
  6
CONTINUOUS
 62
     7
 10
-18.75140452485358
 20
8.190730572474768
 11
-18.78068459858473
 21
8.147396750530111
  0
LINE
  8
0
  6
CONTINUOUS
 62
     7
 10
-18.78068459858473
 20
8.147396750530111
 11
-18.80658745519659
 21
8.10246199995962
  0
LINE
  8
0
  6
CONTINUOUS
 62
     7
 10
-18.80658745519659
 20
8.10246199995962
 11
-18.82911309468915
 21
8.055926320763406
  0
LINE
  8
0
  6
CONTINUOUS
 62
     7
 10
-18.82911309468915
 20
8.055926320763406
 11
-18.84826151706281
 21
8.00778971294136
  0
LINE
  8
0
  6
CONTINUOUS
 62
     7
 10
-18.84826151706281
 20
8.00778971294136
 11
-18.86403272231696
 21
7.958052176493646
  0
LINE
  8
0
  6
CONTINUOUS
 62
     7
 10
-18.86403272231696
 20
7.958052176493646
 11
-18.87642671045203
 21
7.906713711419988
  0
LINE
  8
0
  6
CONTINUOUS
 62
     7
 10
-18.87642671045203
 20
7.906713711419988
 11
-18.88544348146776
 21
7.853774317720774
  0
LINE
  8
0
  6
CONTINUOUS
 62
     7
 10
-18.88544348146776
 20
7.853774317720774
 11
-18.8916201108017
 21
7.795793284191054
  0
LINE
  8
0
  6
CONTINUOUS
 62
     7
 10
-18.8916201108017
 20
7.795793284191054
 11
-18.89412450553379
 21
7.739370467577499
  0
LINE
  8
0
  6
CONTINUOUS
 62
     7
 10
-18.89412450553379
 20
7.739370467577499
 11
-18.89295666566409
 21
7.68450586788022
  0
LINE
  8
0
  6
CONTINUOUS
 62
     7
 10
-18.89295666566409
 20
7.68450586788022
 11
-18.88811659119283
 21
7.631199485098993
  0
LINE
  8
0
  6
CONTINUOUS
 62
     7
 10
-18.88811659119283
 20
7.631199485098993
 11
-18.87960428211965
 21
7.579451319234042
  0
LINE
  8
0
  6
CONTINUOUS
 62
     7
 10
-18.87960428211965
 20
7.579451319234042
 11
-18.8674197384448
 21
7.529261370285312
  0
LINE
  8
0
  6
CONTINUOUS
 62
     7
 10
-18.8674197384448
 20
7.529261370285312
 11
-18.85156296016832
 21
7.480629638252744
  0
LINE
  8
0
  6
CONTINUOUS
 62
     7
 10
-18.85156296016832
 20
7.480629638252744
 11
-18.83203394728999
 21
7.433556123136397
  0
LINE
  8
0
  6
CONTINUOUS
 62
     7
 10
-18.83203394728999
 20
7.433556123136397
 11
-18.80883269980999
 21
7.388040824936326
  0
LINE
  8
0
  6
CONTINUOUS
 62
     7
 10
-18.80883269980999
 20
7.388040824936326
 11
-18.78195921772829
 21
7.344083743652307
  0
LINE
  8
0
  6
CONTINUOUS
 62
     7
 10
-18.78195921772829
 20
7.344083743652307
 11
-18.7514135010447
 21
7.30168487928462
  0
LINE
  8
0
  6
CONTINUOUS
 62
     7
 10
-18.7514135010447
 20
7.30168487928462
 11
-18.71719554975948
 21
7.260844231833041
  0
LINE
  8
0
  6
CONTINUOUS
 62
     7
 10
-18.71719554975948
 20
7.260844231833041
 11
-18.67930536387247
 21
7.221561801297627
  0
LINE
  8
0
  6
CONTINUOUS
 62
     7
 10
-18.67930536387247
 20
7.221561801297627
 11
-18.63774294338394
 21
7.183837587678543
  0
LINE
  8
0
  6
CONTINUOUS
 62
     7
 10
-18.63774294338394
 20
7.183837587678543
 11
-18.59250828829345
 21
7.147671590975513
  0
LINE
  8
0
  6
CONTINUOUS
 62
     7
 10
-18.59250828829345
 20
7.147671590975513
 11
-18.54360139860128
 21
7.113063811188813
  0
LINE
  8
0
  6
CONTINUOUS
 62
     7
 10
-18.54360139860128
 20
7.113063811188813
 11
-18.50135158138832
 21
7.086242555047361
  0
LINE
  8
0
  6
CONTINUOUS
 62
     7
 10
-18.50135158138832
 20
7.086242555047361
 11
-18.45720702485387
 21
7.060848716693268
  0
LINE
  8
0
  6
CONTINUOUS
 62
     7
 10
-18.45720702485387
 20
7.060848716693268
 11
-18.41116772899837
 21
7.036882296126478
  0
LINE
  8
0
  6
CONTINUOUS
 62
     7
 10
-18.41116772899837
 20
7.036882296126478
 11
-18.36323369382148
 21
7.014343293347047
  0
LINE
  8
0
  6
CONTINUOUS
 62
     7
 10
-18.36323369382148
 20
7.014343293347047
 11
-18.31340491932349
 21
6.993231708354585
  0
LINE
  8
0
  6
CONTINUOUS
 62
     7
 10
-18.31340491932349
 20
6.993231708354585
 11
-18.2616814055041
 21
6.973547541149538
  0
LINE
  8
0
  6
CONTINUOUS
 62
     7
 10
-18.2616814055041
 20
6.973547541149538
 11
-18.2080631523634
 21
6.955290791731683
  0
LINE
  8
0
  6
CONTINUOUS
 62
     7
 10
-18.2080631523634
 20
6.955290791731683
 11
-18.15255015990158
 21
6.938461460101186
  0
LINE
  8
0
  6
CONTINUOUS
 62
     7
 10
-18.15255015990158
 20
6.938461460101186
 11
-18.09514242811849
 21
6.923059546257937
  0
LINE
  8
0
  6
CONTINUOUS
 62
     7
 10
-18.09514242811849
 20
6.923059546257937
 11
-18.03583995701408
 21
6.909085050201935
  0
LINE
  8
0
  6
CONTINUOUS
 62
     7
 10
-18.03583995701408
 20
6.909085050201935
 11
-17.9746427465885
 21
6.896537971933069
  0
LINE
  8
0
  6
CONTINUOUS
 62
     7
 10
-17.9746427465885
 20
6.896537971933069
 11
-17.91155079684159
 21
6.885418311451619
  0
LINE
  8
0
  6
CONTINUOUS
 62
     7
 10
-17.91155079684159
 20
6.885418311451619
 11
-17.84656410777335
 21
6.875726068757304
  0
LINE
  8
0
  6
CONTINUOUS
 62
     7
 10
-17.84656410777335
 20
6.875726068757304
 11
-17.77968267938407
 21
6.867461243850459
  0
LINE
  8
0
  6
CONTINUOUS
 62
     7
 10
-17.77968267938407
 20
6.867461243850459
 11
-17.7109065116734
 21
6.860623836730695
  0
LINE
  8
0
  6
CONTINUOUS
 62
     7
 10
-17.7109065116734
 20
6.860623836730695
 11
-17.64023560464151
 21
6.855213847398233
  0
LINE
  8
0
  6
CONTINUOUS
 62
     7
 10
-17.64023560464151
 20
6.855213847398233
 11
-17.55660850421642
 21
6.850660137865338
  0
LINE
  8
0
  6
CONTINUOUS
 62
     7
 10
-17.55660850421642
 20
6.850660137865338
 11
-17.47442246773767
 21
6.848060993843275
  0
LINE
  8
0
  6
CONTINUOUS
 62
     7
 10
-17.47442246773767
 20
6.848060993843275
 11
-17.39367749520548
 21
6.847416415332208
  0
LINE
  8
0
  6
CONTINUOUS
 62
     7
 10
-17.39367749520548
 20
6.847416415332208
 11
-17.31437358661975
 21
6.84872640233225
  0
LINE
  8
0
  6
CONTINUOUS
 62
     7
 10
-17.31437358661975
 20
6.84872640233225
 11
-17.23651074198057
 21
6.851990954843123
  0
LINE
  8
0
  6
CONTINUOUS
 62
     7
 10
-17.23651074198057
 20
6.851990954843123
 11
-17.16008896128779
 21
6.857210072864994
  0
LINE
  8
0
  6
CONTINUOUS
 62
     7
 10
-17.16008896128779
 20
6.857210072864994
 11
-17.08510824454146
 21
6.864383756397918
  0
LINE
  8
0
  6
CONTINUOUS
 62
     7
 10
-17.08510824454146
 20
6.864383756397918
 11
-17.0115685917418
 21
6.873512005441729
  0
LINE
  8
0
  6
CONTINUOUS
 62
     7
 10
-17.0115685917418
 20
6.873512005441729
 11
-16.93947000288848
 21
6.884594819996425
  0
LINE
  8
0
  6
CONTINUOUS
 62
     7
 10
-16.93947000288848
 20
6.884594819996425
 11
-16.86881247798161
 21
6.89763220006212
  0
LINE
  8
0
  6
CONTINUOUS
 62
     7
 10
-16.86881247798161
 20
6.89763220006212
 11
-16.7995960170213
 21
6.912624145638923
  0
LINE
  8
0
  6
CONTINUOUS
 62
     7
 10
-16.7995960170213
 20
6.912624145638923
 11
-16.73182062000744
 21
6.929570656726503
  0
LINE
  8
0
  6
CONTINUOUS
 62
     7
 10
-16.73182062000744
 20
6.929570656726503
 11
-16.66548628694003
 21
6.948471733325134
  0
LINE
  8
0
  6
CONTINUOUS
 62
     7
 10
-16.66548628694003
 20
6.948471733325134
 11
-16.60059301781908
 21
6.969327375434708
  0
LINE
  8
0
  6
CONTINUOUS
 62
     7
 10
-16.60059301781908
 20
6.969327375434708
 11
-16.53714081264457
 21
6.992137583055335
  0
LINE
  8
0
  6
CONTINUOUS
 62
     7
 10
-16.53714081264457
 20
6.992137583055335
 11
-16.47512967141662
 21
7.016902356186683
  0
LINE
  8
0
  6
CONTINUOUS
 62
     7
 10
-16.47512967141662
 20
7.016902356186683
 11
-16.41047360021569
 21
7.045575036250029
  0
LINE
  8
0
  6
CONTINUOUS
 62
     7
 10
-16.41047360021569
 20
7.045575036250029
 11
-16.34960598628549
 21
7.075690824577096
  0
LINE
  8
0
  6
CONTINUOUS
 62
     7
 10
-16.34960598628549
 20
7.075690824577096
 11
-16.2925268296259
 21
7.107249721168163
  0
LINE
  8
0
  6
CONTINUOUS
 62
     7
 10
-16.2925268296259
 20
7.107249721168163
 11
-16.23923613023675
 21
7.140251726023283
  0
LINE
  8
0
  6
CONTINUOUS
 62
     7
 10
-16.23923613023675
 20
7.140251726023283
 11
-16.18973388811851
 21
7.174696839142347
  0
LINE
  8
0
  6
CONTINUOUS
 62
     7
 10
-16.18973388811851
 20
7.174696839142347
 11
-16.1440201032706
 21
7.210585060525299
  0
LINE
  8
0
  6
CONTINUOUS
 62
     7
 10
-16.1440201032706
 20
7.210585060525299
 11
-16.10209477569352
 21
7.247916390172193
  0
LINE
  8
0
  6
CONTINUOUS
 62
     7
 10
-16.10209477569352
 20
7.247916390172193
 11
-16.06395790538689
 21
7.286690828083198
  0
LINE
  8
0
  6
CONTINUOUS
 62
     7
 10
-16.06395790538689
 20
7.286690828083198
 11
-16.02960949235088
 21
7.326908374258145
  0
LINE
  8
0
  6
CONTINUOUS
 62
     7
 10
-16.02960949235088
 20
7.326908374258145
 11
-15.9990495365856
 21
7.368569028696981
  0
LINE
  8
0
  6
CONTINUOUS
 62
     7
 10
-15.9990495365856
 20
7.368569028696981
 11
-15.97227803809087
 21
7.411672791399814
  0
LINE
  8
0
  6
CONTINUOUS
 62
     7
 10
-15.97227803809087
 20
7.411672791399814
 11
-15.94929499686681
 21
7.456219662366703
  0
LINE
  8
0
  6
CONTINUOUS
 62
     7
 10
-15.94929499686681
 20
7.456219662366703
 11
-15.93010041291326
 21
7.502209641597424
  0
LINE
  8
0
  6
CONTINUOUS
 62
     7
 10
-15.93010041291326
 20
7.502209641597424
 11
-15.91469428623027
 21
7.549642729092143
  0
LINE
  8
0
  6
CONTINUOUS
 62
     7
 10
-15.91469428623027
 20
7.549642729092143
 11
-15.90307661681806
 21
7.598518924850805
  0
LINE
  8
0
  6
CONTINUOUS
 62
     7
 10
-15.90307661681806
 20
7.598518924850805
 11
-15.89524740467635
 21
7.648838228873522
  0
LINE
  8
0
  6
CONTINUOUS
 62
     7
 10
-15.89524740467635
 20
7.648838228873522
 11
-15.88996524285213
 21
7.706866219902575
  0
LINE
  8
0
  6
CONTINUOUS
 62
     7
 10
-15.88996524285213
 20
7.706866219902575
 11
-15.88781697218444
 21
7.763145545662709
  0
LINE
  8
0
  6
CONTINUOUS
 62
     7
 10
-15.88781697218444
 20
7.763145545662709
 11
-15.88880259267372
 21
7.817676206153978
  0
LINE
  8
0
  6
CONTINUOUS
 62
     7
 10
-15.88880259267372
 20
7.817676206153978
 11
-15.89292210431969
 21
7.870458201376384
  0
LINE
  8
0
  6
CONTINUOUS
 62
     7
 10
-15.89292210431969
 20
7.870458201376384
 11
-15.90017550712236
 21
7.921491531329927
  0
LINE
  8
0
  6
CONTINUOUS
 62
     7
 10
-15.90017550712236
 20
7.921491531329927
 11
-15.910562801082
 21
7.970776196014495
  0
LINE
  8
0
  6
CONTINUOUS
 62
     7
 10
-15.910562801082
 20
7.970776196014495
 11
-15.92408398619821
 21
8.018312195430255
  0
LINE
  8
0
  6
CONTINUOUS
 62
     7
 10
-15.92408398619821
 20
8.018312195430255
 11
-15.94073906247129
 21
8.06409952957704
  0
LINE
  8
0
  6
CONTINUOUS
 62
     7
 10
-15.94073906247129
 20
8.06409952957704
 11
-15.96052802990122
 21
8.108138198454906
  0
LINE
  8
0
  6
CONTINUOUS
 62
     7
 10
-15.96052802990122
 20
8.108138198454906
 11
-15.98345088848768
 21
8.150428202064019
  0
LINE
  8
0
  6
CONTINUOUS
 62
     7
 10
-15.98345088848768
 20
8.150428202064019
 11
-16.00950763823122
 21
8.190969540404048
  0
LINE
  8
0
  6
CONTINUOUS
 62
     7
 10
-16.00950763823122
 20
8.190969540404048
 11
-16.03869827913129
 21
8.229762213475212
  0
LINE
  8
0
  6
CONTINUOUS
 62
     7
 10
-16.03869827913129
 20
8.229762213475212
 11
-16.07102281118822
 21
8.266806221277623
  0
LINE
  8
0
  6
CONTINUOUS
 62
     7
 10
-16.07102281118822
 20
8.266806221277623
 11
-16.106481234402
 21
8.302101563810893
  0
LINE
  8
0
  6
CONTINUOUS
 62
     7
 10
-16.106481234402
 20
8.302101563810893
 11
-16.14507354877237
 21
8.335648241075521
  0
LINE
  8
0
  6
CONTINUOUS
 62
     7
 10
-16.14507354877237
 20
8.335648241075521
 11
-16.18679975429971
 21
8.36744625307112
  0
LINE
  8
0
  6
CONTINUOUS
 62
     7
 10
-16.18679975429971
 20
8.36744625307112
 11
-16.23386684663142
 21
8.399595626331468
  0
LINE
  8
0
  6
CONTINUOUS
 62
     7
 10
-16.23386684663142
 20
8.399595626331468
 11
-16.2826771531106
 21
8.43005019574422
  0
LINE
  8
0
  6
CONTINUOUS
 62
     7
 10
-16.2826771531106
 20
8.43005019574422
 11
-16.33323067373715
 21
8.458809961309266
  0
LINE
  8
0
  6
CONTINUOUS
 62
     7
 10
-16.33323067373715
 20
8.458809961309266
 11
-16.3855274085114
 21
8.485874923026437
  0
LINE
  8
0
  6
CONTINUOUS
 62
     7
 10
-16.3855274085114
 20
8.485874923026437
 11
-16.43956735743285
 21
8.51124508089579
  0
LINE
  8
0
  6
CONTINUOUS
 62
     7
 10
-16.43956735743285
 20
8.51124508089579
 11
-16.49535052050199
 21
8.534920434917492
  0
LINE
  8
0
  6
CONTINUOUS
 62
     7
 10
-16.49535052050199
 20
8.534920434917492
 11
-16.55287689771851
 21
8.556900985091486
  0
LINE
  8
0
  6
CONTINUOUS
 62
     7
 10
-16.55287689771851
 20
8.556900985091486
 11
-16.61214648908249
 21
8.577186731417719
  0
LINE
  8
0
  6
CONTINUOUS
 62
     7
 10
-16.61214648908249
 20
8.577186731417719
 11
-16.6731592945939
 21
8.595777673896187
  0
LINE
  8
0
  6
CONTINUOUS
 62
     7
 10
-16.6731592945939
 20
8.595777673896187
 11
-16.73591531425284
 21
8.61267381252695
  0
LINE
  8
0
  6
CONTINUOUS
 62
     7
 10
-16.73591531425284
 20
8.61267381252695
 11
-16.80041454805919
 21
8.627875147309949
  0
LINE
  8
0
  6
CONTINUOUS
 62
     7
 10
-16.80041454805919
 20
8.627875147309949
 11
-16.86665699601308
 21
8.641381678245185
  0
LINE
  8
0
  6
CONTINUOUS
 62
     7
 10
-16.86665699601308
 20
8.641381678245185
 11
-16.9346426581144
 21
8.653193405332715
  0
LINE
  8
0
  6
CONTINUOUS
 62
     7
 10
-16.9346426581144
 20
8.653193405332715
 11
-17.00437153436313
 21
8.663310328572537
  0
LINE
  8
0
  6
CONTINUOUS
 62
     7
 10
-17.00437153436313
 20
8.663310328572537
 11
-17.07584362475939
 21
8.671732447964486
  0
LINE
  8
0
  6
CONTINUOUS
 62
     7
 10
-17.07584362475939
 20
8.671732447964486
 11
-17.14905892930296
 21
8.678459763508894
  0
LINE
  8
0
  6
CONTINUOUS
 62
     7
 10
-17.14905892930296
 20
8.678459763508894
 11
-17.23525065696907
 21
8.684269279007339
  0
LINE
  8
0
  6
CONTINUOUS
 62
     7
 10
-17.23525065696907
 20
8.684269279007339
 11
-17.31984057229308
 21
8.687889470925136
  0
LINE
  8
0
  6
CONTINUOUS
 62
     7
 10
-17.31984057229308
 20
8.687889470925136
 11
-17.40282867527487
 21
8.689320339262396
  0
LINE
  8
0
  6
CONTINUOUS
 62
     7
 10
-17.40282867527487
 20
8.689320339262396
 11
-17.48421496591468
 21
8.688561884019064
  0
LINE
  8
0
  6
CONTINUOUS
 62
     7
 10
-17.48421496591468
 20
8.688561884019064
 11
-17.56399944421239
 21
8.685614105195416
  0
LINE
  8
0
  6
CONTINUOUS
 62
     7
 10
-17.56399944421239
 20
8.685614105195416
 11
-17.64218211016805
 21
8.680477002791065
  0
LINE
  8
0
  6
CONTINUOUS
 62
     7
 10
-17.64218211016805
 20
8.680477002791065
 11
-17.7187629637815
 21
8.673150576806176
  0
LINE
  8
0
  6
CONTINUOUS
 62
     7
 10
-17.7187629637815
 20
8.673150576806176
 11
-17.79374200505302
 21
8.663634827240807
  0
LINE
  8
0
  6
CONTINUOUS
 62
     7
 10
-17.79374200505302
 20
8.663634827240807
 11
-17.86711923398232
 21
8.651929754094956
  0
LINE
  8
0
  6
CONTINUOUS
 62
     7
 10
-17.86711923398232
 20
8.651929754094956
 11
-17.93889465056947
 21
8.63803535736829
  0
LINE
  8
0
  6
CONTINUOUS
 62
     7
 10
-17.93889465056947
 20
8.63803535736829
 11
-18.00906825481469
 21
8.62195163706142
  0
LINE
  8
0
  6
CONTINUOUS
 62
     7
 10
-18.00906825481469
 20
8.62195163706142
 11
-18.0776400467178
 21
8.603678593173846
  0
LINE
  8
0
  6
CONTINUOUS
 62
     7
 10
-18.0776400467178
 20
8.603678593173846
 11
-18.14461002627865
 21
8.583216225705737
  0
LINE
  8
0
  6
CONTINUOUS
 62
     7
 10
-18.14461002627865
 20
8.583216225705737
 11
-18.20997819349762
 21
8.560564534656978
  0
LINE
  8
0
  6
CONTINUOUS
 62
     7
 10
-18.20997819349762
 20
8.560564534656978
 11
-18.27374454837444
 21
8.535723520027794
  0
LINE
  8
0
  6
CONTINUOUS
 62
     7
 10
-18.27374454837444
 20
8.535723520027794
 11
-18.33590909090898
 21
8.508693181818128
  0
LINE
  8
0
  6
CONTINUOUS
 62
     7
 10
-15.28818181818181
 20
19.41068181818168
 11
-15.28818181818181
 21
18.5924999999999
  0
LINE
  8
0
  6
CONTINUOUS
 62
     7
 10
-16.96545454545451
 20
21.14931818181815
 11
-16.96545454545451
 21
19.41068181818168
  0
LINE
  8
0
  6
CONTINUOUS
 62
     7
 10
-15.28818181818181
 20
21.14931818181815
 11
-16.96545454545451
 21
21.14931818181815
  0
LINE
  8
0
  6
CONTINUOUS
 62
     7
 10
-15.28818181818181
 20
21.96749999999986
 11
-15.28818181818181
 21
21.14931818181815
  0
LINE
  8
0
  6
CONTINUOUS
 62
     7
 10
-15.28818181818181
 20
18.5924999999999
 11
-19.50181818181818
 21
18.5924999999999
  0
LINE
  8
0
  6
CONTINUOUS
 62
     7
 10
-19.50181818181806
 20
21.96749999999986
 11
-15.28818181818181
 21
21.96749999999986
  0
LINE
  8
0
  6
CONTINUOUS
 62
     7
 10
-19.50181818181806
 20
21.14931818181815
 11
-19.50181818181806
 21
21.96749999999986
  0
LINE
  8
0
  6
CONTINUOUS
 62
     7
 10
-17.68136363636358
 20
19.41068181818168
 11
-17.68136363636358
 21
21.14931818181815
  0
LINE
  8
0
  6
CONTINUOUS
 62
     7
 10
-19.50181818181806
 20
19.41068181818168
 11
-17.68136363636358
 21
19.41068181818168
  0
LINE
  8
0
  6
CONTINUOUS
 62
     7
 10
-16.96545454545451
 20
19.41068181818168
 11
-15.28818181818181
 21
19.41068181818168
  0
LINE
  8
0
  6
CONTINUOUS
 62
     7
 10
-19.50181818181806
 20
18.5924999999999
 11
-19.50181818181806
 21
19.41068181818168
  0
LINE
  8
0
  6
CONTINUOUS
 62
     7
 10
-17.68136363636358
 20
21.14931818181815
 11
-19.50181818181806
 21
21.14931818181815
  0
LINE
  8
0
  6
CONTINUOUS
 62
     7
 10
14.88197826902032
 20
20.4767265442991
 11
18.21626510597973
 21
20.4767265442991
  0
ARC
  8
0
  6
CONTINUOUS
 62
     7
 10
18.21626510597973
 20
18.80775154429914
 40
1.668975000000017
 50
0.0
 51
90.0
  0
LINE
  8
0
  6
CONTINUOUS
 62
     7
 10
19.88524010597981
 20
18.80775154429914
 11
19.88524010597981
 21
17.05188812666597
  0
LINE
  8
0
  6
CONTINUOUS
 62
     7
 10
19.88524010597981
 20
17.05188812666597
 11
19.15767136220164
 21
17.34584498025027
  0
LINE
  8
0
  6
CONTINUOUS
 62
     7
 10
19.15767136220164
 20
17.34584498025027
 11
19.15767136220164
 21
18.05652040154415
  0
LINE
  8
0
  6
CONTINUOUS
 62
     7
 10
18.04502136220171
 20
19.16917040154409
 11
14.88197826902032
 21
19.16917040154409
  0
LINE
  8
0
  6
CONTINUOUS
 62
     7
 10
14.88197826902032
 20
19.16917040154409
 11
14.88197826902032
 21
20.4767265442991
  0
ARC
  8
0
  6
CONTINUOUS
 62
     7
 10
18.04502136220171
 20
18.05652040154415
 40
1.112649999999993
 50
0.0
 51
90.0
  0
LINE
  8
0
  6
CONTINUOUS
 62
     7
 10
18.72967793910674
 20
8.940131291244214
 11
18.72967793910674
 21
8.136148194717862
  0
LINE
  8
0
  6
CONTINUOUS
 62
     7
 10
18.72967793910674
 20
8.136148194717862
 11
19.88524010597981
 21
7.668930983749767
  0
LINE
  8
0
  6
CONTINUOUS
 62
     7
 10
19.88524010597981
 20
6.376430453433001
 11
16.13392645204059
 21
7.891864399067416
  0
LINE
  8
0
  6
CONTINUOUS
 62
     7
 10
19.88524010597981
 20
7.668930983749767
 11
19.88524010597981
 21
6.376430453433001
  0
LINE
  8
0
  6
CONTINUOUS
 62
     7
 10
16.13392645204059
 20
7.891864399067416
 11
18.72967793910663
 21
8.940131291244214
  0
LINE
  8
0
  6
CONTINUOUS
 62
     7
 10
14.88197826902032
 20
16.85007102329877
 11
14.88197826902032
 21
18.14296445411501
  0
LINE
  8
0
  6
CONTINUOUS
 62
     7
 10
14.88197826902032
 20
18.14296445411512
 11
19.88524010597981
 21
16.1216167781072
  0
LINE
  8
0
  6
CONTINUOUS
 62
     7
 10
19.88524010597981
 20
16.1216167781072
 11
19.88524010597981
 21
14.7549082109007
  0
LINE
  8
0
  6
CONTINUOUS
 62
     7
 10
19.88524010597981
 20
14.7549082109007
 11
17.33621869959573
 21
13.72485685464619
  0
LINE
  8
0
  6
CONTINUOUS
 62
     7
 10
17.33621869959573
 20
13.72485685464619
 11
15.73592660566042
 21
14.37130357005434
  0
LINE
  8
0
  6
CONTINUOUS
 62
     7
 10
15.73592660566042
 20
14.37130357005434
 11
18.37626811962395
 21
15.43812038155728
  0
LINE
  8
0
  6
CONTINUOUS
 62
     7
 10
18.37626811962395
 20
15.43812038155728
 11
14.88197826902032
 21
16.85007102329877
  0
LINE
  8
0
  6
CONTINUOUS
 62
     7
 10
19.88524010597981
 20
12.53176015069579
 11
14.88197826902032
 21
10.51009481045423
  0
LINE
  8
0
  6
CONTINUOUS
 62
     7
 10
19.88524010597981
 20
13.82463686234192
 11
19.88524010597981
 21
12.53176015069579
  0
LINE
  8
0
  6
CONTINUOUS
 62
     7
 10
14.88197826902038
 20
10.51009481045423
 11
14.88197826902038
 21
11.80297152210041
  0
LINE
  8
0
  6
CONTINUOUS
 62
     7
 10
14.88197826902038
 20
11.80297152210041
 11
19.88524010597981
 21
13.82463686234192
  0
LINE
  8
0
  6
CONTINUOUS
 62
     7
 10
14.88197826902032
 20
9.579790023555079
 11
19.88524010597981
 21
11.60145536379659
  0
LINE
  8
0
  6
CONTINUOUS
 62
     7
 10
19.88524010597981
 20
11.60145536379659
 11
19.88524010597981
 21
10.3086706075865
  0
LINE
  8
0
  6
CONTINUOUS
 62
     7
 10
14.88197826902032
 20
8.287289493238204
 11
14.88197826902032
 21
9.579790023555079
  0
LINE
  8
0
  6
CONTINUOUS
 62
     7
 10
19.88524010597981
 20
10.3086706075865
 11
14.88197826902032
 21
8.287289493238204
  0
LINE
  8
0
  6
CONTINUOUS
 62
     7
 10
24.41361166892458
 20
0.0
 11
26.88638833107548
 21
0.0
  0
LINE
  8
0
  6
CONTINUOUS
 62
     7
 10
-13.00000000000001
 20
6.500000000000005
 11
-13.00000000000001
 21
25.2640810616776
  0
ARC
  8
0
  6
CONTINUOUS
 62
     7
 10
-17.50000000000001
 20
6.500000000000005
 40
4.500000000000004
 50
250.5287793655093
 51
0.0
  0
LINE
  8
0
  6
CONTINUOUS
 62
     7
 10
-19.00000000000002
 20
0.0
 11
-19.00000000000002
 21
2.25735931288068
  0
LINE
  8
0
  6
CONTINUOUS
 62
     7
 10
-21.75638833107535
 20
0.0
 11
-19.00000000000002
 21
0.0
  0
LINE
  8
0
  6
CONTINUOUS
 62
     7
 10
12.99999999999996
 20
25.2640810616776
 11
12.99999999999996
 21
6.500000000000005
  0
LINE
  8
0
  6
CONTINUOUS
 62
     7
 10
12.99999999999996
 20
6.500000000000005
 11
11.50000000000001
 21
6.500000000000005
  0
LINE
  8
0
  6
CONTINUOUS
 62
     7
 10
11.50000000000001
 20
6.500000000000005
 11
11.50000000000001
 21
25.84421917411683
  0
LINE
  8
0
  6
CONTINUOUS
 62
     7
 10
-37.14638833107542
 20
0.0
 11
-34.67361166892441
 21
0.0
  0
LINE
  8
0
  6
CONTINUOUS
 62
     7
 10
34.67361166892463
 20
0.0
 11
37.14638833107547
 21
0.0
  0
ARC
  8
0
  6
CONTINUOUS
 62
     7
 10
-17.50000000000001
 20
6.500000000000005
 40
6.000000000000005
 50
270.0
 51
0.0
  0
LINE
  8
0
  6
CONTINUOUS
 62
     7
 10
-19.00000000000002
 20
2.25735931288068
 11
-17.50000000000001
 21
0.5000000000000002
  0
LINE
  8
0
  6
CONTINUOUS
 62
     7
 10
-11.50000000000001
 20
6.500000000000005
 11
-13.00000000000001
 21
6.500000000000005
  0
LINE
  8
0
  6
CONTINUOUS
 62
     7
 10
39.80361166892465
 20
0.0
 11
42.27638833107549
 21
0.0
  0
LINE
  8
0
  6
CONTINUOUS
 62
     7
 10
-26.88638833107537
 20
0.0
 11
-24.41361166892453
 21
0.0
  0
LINE
  8
0
  6
CONTINUOUS
 62
     7
 10
-17.50000000000001
 20
0.5000000000000004
 11
-17.50000000000001
 21
0.0
  0
LINE
  8
0
  6
CONTINUOUS
 62
     7
 10
-17.50000000000001
 20
0.0
 11
-19.00000000000002
 21
0.0
  0
LINE
  8
0
  6
CONTINUOUS
 62
     7
 10
51.49999999999999
 20
0.0
 11
51.49999999999999
 21
25.2640810616776
  0
LINE
  8
0
  6
CONTINUOUS
 62
     7
 10
50.06361166892464
 20
0.0
 11
51.49999999999999
 21
0.0
  0
LINE
  8
0
  6
CONTINUOUS
 62
     7
 10
-47.40638833107536
 20
0.0
 11
-44.93361166892451
 21
0.0
  0
LINE
  8
0
  6
CONTINUOUS
 62
     7
 10
-42.27638833107539
 20
0.0
 11
-39.80361166892449
 21
0.0
  0
LINE
  8
0
  6
CONTINUOUS
 62
     7
 10
-11.50000000000001
 20
25.84421917411683
 11
-11.50000000000001
 21
6.500000000000005
  0
LINE
  8
0
  6
CONTINUOUS
 62
     7
 10
29.54361166892466
 20
0.0
 11
32.0163883310755
 21
0.0
  0
LINE
  8
0
  6
CONTINUOUS
 62
     7
 10
-32.01638833107534
 20
0.0
 11
-29.54361166892449
 21
0.0
  0
LINE
  8
0
  6
CONTINUOUS
 62
     7
 10
-52.99999999999991
 20
0.0
 11
-52.99999999999991
 21
25.84421917411683
  0
LINE
  8
0
  6
CONTINUOUS
 62
     7
 10
-51.49999999999991
 20
25.2640810616776
 11
-51.49999999999991
 21
0.0
  0
LINE
  8
0
  6
CONTINUOUS
 62
     7
 10
-51.49999999999991
 20
0.0
 11
-52.99999999999991
 21
0.0
  0
LINE
  8
0
  6
CONTINUOUS
 62
     7
 10
44.93361166892473
 20
0.0
 11
47.40638833107558
 21
0.0
  0
LINE
  8
0
  6
CONTINUOUS
 62
     7
 10
19.00000000000007
 20
2.25735931288068
 11
19.00000000000007
 21
0.0
  0
ARC
  8
0
  6
CONTINUOUS
 62
     7
 10
17.50000000000007
 20
6.500000000000005
 40
4.500000000000004
 50
180.0
 51
289.4712206344907
  0
LINE
  8
0
  6
CONTINUOUS
 62
     7
 10
19.00000000000007
 20
0.0
 11
21.75638833107552
 21
0.0
  0
LINE
  8
0
  6
CONTINUOUS
 62
     7
 10
17.50000000000007
 20
0.0
 11
17.50000000000007
 21
0.5000000000000004
  0
LINE
  8
0
  6
CONTINUOUS
 62
     7
 10
19.00000000000007
 20
2.25735931288068
 11
17.50000000000007
 21
0.5000000000000002
  0
LINE
  8
0
  6
CONTINUOUS
 62
     7
 10
19.00000000000007
 20
0.0
 11
17.50000000000007
 21
0.0
  0
LINE
  8
0
  6
CONTINUOUS
 62
     7
 10
52.99999999999999
 20
25.84421917411683
 11
52.99999999999999
 21
0.0
  0
LINE
  8
0
  6
CONTINUOUS
 62
     7
 10
52.99999999999999
 20
0.0
 11
51.49999999999999
 21
0.0
  0
LINE
  8
0
  6
CONTINUOUS
 62
     7
 10
-51.49999999999991
 20
0.0
 11
-50.06361166892448
 21
0.0
  0
ARC
  8
0
  6
CONTINUOUS
 62
     7
 10
17.50000000000007
 20
6.500000000000005
 40
6.000000000000005
 50
180.0
 51
270.0
  0
LINE
  8
0
  6
CONTINUOUS
 62
     7
 10
-11.50000000000001
 20
29.99999999999991
 11
11.50000000000001
 21
29.99999999999991
  0
LINE
  8
0
  6
CONTINUOUS
 62
     7
 10
-11.50000000000001
 20
30.87895127299911
 11
11.50000000000001
 21
30.87895127299911
  0
LINE
  8
0
  6
CONTINUOUS
 62
     7
 10
-12.82184017706639
 20
34.20980757781628
 11
-12.33685675133939
 21
34.20980757781245
  0
LINE
  8
0
  6
CONTINUOUS
 62
     7
 10
-12.48289795770247
 20
34.22641966603329
 11
-8.037102042297239
 21
34.22641966603329
  0
LINE
  8
0
  6
CONTINUOUS
 62
     7
 10
-8.183143248639723
 20
34.20980757781628
 11
-7.206856751360236
 21
34.20980757781628
  0
LINE
  8
0
  6
CONTINUOUS
 62
     7
 10
-7.352897957702497
 20
34.22641966603329
 11
-2.907102042297272
 21
34.22641966603329
  0
LINE
  8
0
  6
CONTINUOUS
 62
     7
 10
-3.0531432486397
 20
34.20980757781628
 11
-2.076856751360212
 21
34.20980757781628
  0
LINE
  8
0
  6
CONTINUOUS
 62
     7
 10
-2.222897957702585
 20
34.22641966603329
 11
2.222897957702363
 21
34.22641966603329
  0
LINE
  8
0
  6
CONTINUOUS
 62
     7
 10
2.076856751360212
 20
34.20980757781628
 11
3.053143248639756
 21
34.20980757781628
  0
LINE
  8
0
  6
CONTINUOUS
 62
     7
 10
2.907102042297494
 20
34.22641966603329
 11
7.352897957702442
 21
34.22641966603329
  0
LINE
  8
0
  6
CONTINUOUS
 62
     7
 10
7.206856751360236
 20
34.20980757781628
 11
8.18314324863989
 21
34.20980757781628
  0
LINE
  8
0
  6
CONTINUOUS
 62
     7
 10
8.037102042297406
 20
34.22641966603329
 11
12.48289795770241
 21
34.22641966603329
  0
LINE
  8
0
  6
CONTINUOUS
 62
     7
 10
12.33685675135115
 20
34.20980757781467
 11
12.8218401770665
 21
34.20980757781628
  0
LINE
  8
0
  6
CONTINUOUS
 62
     7
 10
11.58017191637517
 20
33.02659162119637
 11
-11.58017191637511
 21
33.02659162119637
  0
LINE
  8
0
  6
CONTINUOUS
 62
     7
 10
13.12740777928312
 20
34.22720779386407
 11
12.522592220717
 21
34.22720779386407
  0
ARC
  8
0
  6
CONTINUOUS
 62
     7
 10
13.12740777928312
 20
33.22720779386407
 40
1.000000000000001
 50
83.32959495100053
 51
89.99999999999999
  0
ARC
  8
0
  6
CONTINUOUS
 62
     7
 10
12.522592220717
 20
33.22720779386407
 40
1.000000000000001
 50
89.99999999999889
 51
100.7040148760634
  0
LINE
  8
0
  6
CONTINUOUS
 62
     7
 10
7.99740777928315
 20
34.22720779386407
 11
7.392592220716976
 21
34.22720779386407
  0
ARC
  8
0
  6
CONTINUOUS
 62
     7
 10
7.99740777928315
 20
33.22720779386407
 40
1.000000000000001
 50
79.29598512447156
 51
90.00000000000058
  0
ARC
  8
0
  6
CONTINUOUS
 62
     7
 10
7.392592220716976
 20
33.22720779386407
 40
1.000000000000001
 50
89.99999999999883
 51
100.7040148755329
  0
LINE
  8
0
  6
CONTINUOUS
 62
     7
 10
-7.39259222071692
 20
34.22720779386407
 11
-7.997407779282983
 21
34.22720779386407
  0
ARC
  8
0
  6
CONTINUOUS
 62
     7
 10
-7.39259222071692
 20
33.22720779386407
 40
1.000000000000001
 50
79.29598512447156
 51
90.0
  0
ARC
  8
0
  6
CONTINUOUS
 62
     7
 10
-7.997407779282983
 20
33.22720779386407
 40
1.000000000000001
 50
90.0000000000006
 51
100.704014875529
  0
ARC
  8
0
  6
CONTINUOUS
 62
     7
 10
-12.52259222071689
 20
33.22720779386407
 40
1.000000000000001
 50
79.2959851232624
 51
90.00000000000004
  0
LINE
  8
0
  6
CONTINUOUS
 62
     7
 10
-12.52259222071689
 20
34.22720779386407
 11
-13.12740777928301
 21
34.22720779386407
  0
ARC
  8
0
  6
CONTINUOUS
 62
     7
 10
-13.1274077792829
 20
33.22720779386407
 40
1.000000000000001
 50
90.0000000000011
 51
96.67040504900059
  0
LINE
  8
0
  6
CONTINUOUS
 62
     7
 10
2.867407779283071
 20
34.22720779386407
 11
2.262592220717008
 21
34.22720779386407
  0
ARC
  8
0
  6
CONTINUOUS
 62
     7
 10
2.867407779283071
 20
33.22720779386407
 40
1.000000000000001
 50
79.29598512447131
 51
90.0000000000003
  0
ARC
  8
0
  6
CONTINUOUS
 62
     7
 10
2.262592220717008
 20
33.22720779386407
 40
1.000000000000001
 50
89.99999999999856
 51
100.7040148755326
  0
LINE
  8
0
  6
CONTINUOUS
 62
     7
 10
-2.262592220716897
 20
34.22720779386407
 11
-2.867407779283015
 21
34.22720779386407
  0
ARC
  8
0
  6
CONTINUOUS
 62
     7
 10
-2.262592220716897
 20
33.22720779386407
 40
1.000000000000001
 50
79.29598512447129
 51
89.99999999999996
  0
ARC
  8
0
  6
CONTINUOUS
 62
     7
 10
-2.867407779283015
 20
33.22720779386407
 40
1.000000000000001
 50
90.00000000000085
 51
100.7040148755287
  0
LINE
  8
0
  6
CONTINUOUS
 62
     7
 10
-1.260335031960269
 20
34.77954375010711
 11
-1.260335031960269
 21
34.22720779386423
  0
LINE
  8
0
  6
CONTINUOUS
 62
     7
 10
-2.258964566714816
 20
35.72720779386407
 11
-2.258964566714816
 21
34.2272012139056
  0
LINE
  8
0
  6
CONTINUOUS
 62
     7
 10
3.86966496803981
 20
34.77954375010711
 11
3.86966496803981
 21
34.22720779386423
  0
LINE
  8
0
  6
CONTINUOUS
 62
     7
 10
2.871035433285096
 20
35.72720779386407
 11
2.871035433285096
 21
34.2272012139056
  0
LINE
  8
0
  6
CONTINUOUS
 62
     7
 10
8.999664968039832
 20
34.77954375010711
 11
8.999664968039832
 21
34.22720779386423
  0
LINE
  8
0
  6
CONTINUOUS
 62
     7
 10
8.001035433285175
 20
35.72720779386407
 11
8.001035433285175
 21
34.2272012139056
  0
LINE
  8
0
  6
CONTINUOUS
 62
     7
 10
-11.52033503196026
 20
34.77954375010711
 11
-11.52033503196026
 21
34.22720779386423
  0
LINE
  8
0
  6
CONTINUOUS
 62
     7
 10
-12.51896456671492
 20
35.72720779386407
 11
-12.51896456671492
 21
34.22720121390571
  0
LINE
  8
0
  6
CONTINUOUS
 62
     7
 10
-6.390335031960181
 20
34.77954375010711
 11
-6.390335031960181
 21
34.22720779386423
  0
LINE
  8
0
  6
CONTINUOUS
 62
     7
 10
-7.388964566714895
 20
35.72720779386407
 11
-7.388964566714895
 21
34.22720121390571
  0
LINE
  8
0
  6
CONTINUOUS
 62
     7
 10
14.12966496803969
 20
34.77954375010711
 11
14.12966496803969
 21
34.22720779386423
  0
LINE
  8
0
  6
CONTINUOUS
 62
     7
 10
13.1310354332852
 20
35.72720779386407
 11
13.1310354332852
 21
34.2272012139056
  0
LINE
  8
0
  6
CONTINUOUS
 62
     7
 10
-7.991035433285054
 20
35.72720779386407
 11
-7.991035433285054
 21
34.22720779386407
  0
LINE
  8
0
  6
CONTINUOUS
 62
     7
 10
-8.989664968039602
 20
34.77954375010711
 11
-8.989664968039602
 21
34.22720779386423
  0
LINE
  8
0
  6
CONTINUOUS
 62
     7
 10
-13.12103543328513
 20
35.72720779386407
 11
-13.12103543328513
 21
34.22720779386407
  0
LINE
  8
0
  6
CONTINUOUS
 62
     7
 10
-14.11966496803957
 20
34.77954375010711
 11
-14.11966496803957
 21
34.22720779386423
  0
LINE
  8
0
  6
CONTINUOUS
 62
     7
 10
-2.861035433285086
 20
35.72720779386407
 11
-2.861035433285086
 21
34.22720779386407
  0
LINE
  8
0
  6
CONTINUOUS
 62
     7
 10
-3.859664968039689
 20
34.77954375010711
 11
-3.859664968039689
 21
34.22720779386423
  0
LINE
  8
0
  6
CONTINUOUS
 62
     7
 10
7.398964566715016
 20
35.72720779386407
 11
7.398964566715016
 21
34.22720779386407
  0
LINE
  8
0
  6
CONTINUOUS
 62
     7
 10
6.400335031960302
 20
34.77954375010711
 11
6.400335031960302
 21
34.22720779386423
  0
LINE
  8
0
  6
CONTINUOUS
 62
     7
 10
12.52896456671493
 20
35.72720779386407
 11
12.52896456671493
 21
34.22720779386407
  0
LINE
  8
0
  6
CONTINUOUS
 62
     7
 10
11.53033503196038
 20
34.77954375010711
 11
11.53033503196038
 21
34.22720779386423
  0
LINE
  8
0
  6
CONTINUOUS
 62
     7
 10
2.268964566714937
 20
35.72720779386407
 11
2.268964566714937
 21
34.22720779386407
  0
LINE
  8
0
  6
CONTINUOUS
 62
     7
 10
1.270335031960279
 20
34.77954375010711
 11
1.270335031960279
 21
34.22720779386423
  0
LINE
  8
0
  6
CONTINUOUS
 62
     7
 10
-11.50000000000001
 20
26.61156548915039
 11
11.50000000000001
 21
26.61156548915039
  0
LINE
  8
0
  6
CONTINUOUS
 62
     7
 10
13.53137303340318
 20
2.000000000000002
 11
-13.53137303340313
 21
2.000000000000002
  0
LINE
  8
0
  6
CONTINUOUS
 62
     7
 10
-17.50000000000001
 20
0.0
 11
17.49999999999996
 21
0.0
  0
ARC
  8
0
  6
CONTINUOUS
 62
     7
 10
38.7810354332852
 20
34.72720779386407
 40
1.000000000000001
 50
3.000000000000652
 51
90.00000000000011
  0
LINE
  8
0
  6
CONTINUOUS
 62
     7
 10
49.04103543328508
 20
35.72720779386407
 11
48.43896456671487
 21
35.72720779386407
  0
ARC
  8
0
  6
CONTINUOUS
 62
     7
 10
49.04103543328508
 20
34.72720779386407
 40
1.000000000000001
 50
3.000000000000166
 51
90.00000000000001
  0
ARC
  8
0
  6
CONTINUOUS
 62
     7
 10
43.3089645667149
 20
34.72720779386407
 40
1.000000000000001
 50
90.0
 51
176.9999999999995
  0
LINE
  8
0
  6
CONTINUOUS
 62
     7
 10
43.91103543328523
 20
35.72720779386407
 11
43.3089645667149
 21
35.72720779386407
  0
ARC
  8
0
  6
CONTINUOUS
 62
     7
 10
43.91103543328523
 20
34.72720779386407
 40
1.000000000000001
 50
3.000000000000166
 51
90.00000000000001
  0
LINE
  8
0
  6
CONTINUOUS
 62
     7
 10
28.52103543328521
 20
35.72720779386407
 11
27.91896456671489
 21
35.72720779386407
  0
ARC
  8
0
  6
CONTINUOUS
 62
     7
 10
28.52103543328521
 20
34.72720779386407
 40
1.000000000000001
 50
3.000000000000166
 51
90.00000000000001
  0
ARC
  8
0
  6
CONTINUOUS
 62
     7
 10
48.43896456671498
 20
34.72720779386407
 40
1.000000000000001
 50
90.0
 51
176.9999999999995
  0
LINE
  8
0
  6
CONTINUOUS
 62
     7
 10
33.65103543328512
 20
35.72720779386407
 11
33.0489645667148
 21
35.72720779386407
  0
ARC
  8
0
  6
CONTINUOUS
 62
     7
 10
27.91896456671489
 20
34.72720779386407
 40
1.000000000000001
 50
90.0
 51
176.9999999999995
  0
ARC
  8
0
  6
CONTINUOUS
 62
     7
 10
38.17896456671488
 20
34.72720779386407
 40
1.000000000000001
 50
90.0
 51
176.9999999999995
  0
ARC
  8
0
  6
CONTINUOUS
 62
     7
 10
33.65103543328512
 20
34.72720779386407
 40
1.000000000000001
 50
3.000000000000652
 51
90.00000000000011
  0
ARC
  8
0
  6
CONTINUOUS
 62
     7
 10
33.04896456671491
 20
34.72720779386407
 40
1.000000000000001
 50
90.0
 51
176.9999999999995
  0
LINE
  8
0
  6
CONTINUOUS
 62
     7
 10
38.7810354332852
 20
35.72720779386407
 11
38.17896456671488
 21
35.72720779386407
  0
LINE
  8
0
  6
CONTINUOUS
 62
     7
 10
23.39103543328513
 20
35.72720779386407
 11
22.78896456671481
 21
35.72720779386407
  0
ARC
  8
0
  6
CONTINUOUS
 62
     7
 10
23.39103543328513
 20
34.72720779386407
 40
1.000000000000001
 50
3.000000000000166
 51
90.00000000000001
  0
LINE
  8
0
  6
CONTINUOUS
 62
     7
 10
18.26103543328517
 20
35.72720779386407
 11
17.6589645667149
 21
35.72720779386407
  0
ARC
  8
0
  6
CONTINUOUS
 62
     7
 10
-17.64896456671489
 20
34.72720779386407
 40
1.000000000000001
 50
3.000000000000166
 51
90.00000000000001
  0
ARC
  8
0
  6
CONTINUOUS
 62
     7
 10
22.78896456671492
 20
34.72720779386407
 40
1.000000000000001
 50
90.0
 51
176.9999999999995
  0
ARC
  8
0
  6
CONTINUOUS
 62
     7
 10
18.26103543328517
 20
34.72720779386407
 40
1.000000000000001
 50
3.000000000000166
 51
90.00000000000001
  0
ARC
  8
0
  6
CONTINUOUS
 62
     7
 10
17.6589645667149
 20
34.72720779386407
 40
1.000000000000001
 50
90.0
 51
176.9999999999995
  0
LINE
  8
0
  6
CONTINUOUS
 62
     7
 10
-17.64896456671489
 20
35.72720779386407
 11
-18.2510354332851
 21
35.72720779386407
  0
ARC
  8
0
  6
CONTINUOUS
 62
     7
 10
-28.51103543328509
 20
34.72720779386407
 40
1.000000000000001
 50
90.0
 51
176.9999999999995
  0
ARC
  8
0
  6
CONTINUOUS
 62
     7
 10
-49.03103543328508
 20
34.72720779386407
 40
1.000000000000001
 50
90.0
 51
176.9999999999995
  0
ARC
  8
0
  6
CONTINUOUS
 62
     7
 10
-27.90896456671476
 20
34.72720779386407
 40
1.000000000000001
 50
3.000000000000166
 51
90.00000000000001
  0
LINE
  8
0
  6
CONTINUOUS
 62
     7
 10
-27.90896456671476
 20
35.72720779386407
 11
-28.51103543328509
 21
35.72720779386407
  0
LINE
  8
0
  6
CONTINUOUS
 62
     7
 10
-33.03896456671479
 20
35.72720779386407
 11
-33.64103543328512
 21
35.72720779386407
  0
ARC
  8
0
  6
CONTINUOUS
 62
     7
 10
-23.38103543328512
 20
34.72720779386407
 40
1.000000000000001
 50
90.0
 51
176.9999999999995
  0
LINE
  8
0
  6
CONTINUOUS
 62
     7
 10
-48.42896456671489
 20
35.72720779386407
 11
-49.03103543328499
 21
35.72720779386407
  0
ARC
  8
0
  6
CONTINUOUS
 62
     7
 10
-38.77103543328509
 20
34.72720779386407
 40
1.000000000000001
 50
90.0
 51
176.9999999999995
  0
LINE
  8
0
  6
CONTINUOUS
 62
     7
 10
-38.16896456671487
 20
35.72720779386407
 11
-38.77103543328519
 21
35.72720779386407
  0
ARC
  8
0
  6
CONTINUOUS
 62
     7
 10
-38.16896456671487
 20
34.72720779386407
 40
1.000000000000001
 50
3.000000000000652
 51
90.00000000000011
  0
ARC
  8
0
  6
CONTINUOUS
 62
     7
 10
-18.2510354332851
 20
34.72720779386407
 40
1.000000000000001
 50
90.0
 51
176.9999999999995
  0
LINE
  8
0
  6
CONTINUOUS
 62
     7
 10
-43.29896456671489
 20
35.72720779386407
 11
-43.90103543328511
 21
35.72720779386407
  0
ARC
  8
0
  6
CONTINUOUS
 62
     7
 10
-33.64103543328512
 20
34.72720779386407
 40
1.000000000000001
 50
90.0
 51
176.9999999999995
  0
ARC
  8
0
  6
CONTINUOUS
 62
     7
 10
-43.29896456671489
 20
34.72720779386407
 40
1.000000000000001
 50
3.000000000000652
 51
90.00000000000011
  0
ARC
  8
0
  6
CONTINUOUS
 62
     7
 10
-33.03896456671479
 20
34.72720779386407
 40
1.000000000000001
 50
3.000000000000166
 51
90.00000000000001
  0
LINE
  8
0
  6
CONTINUOUS
 62
     7
 10
-22.7789645667148
 20
35.72720779386407
 11
-23.38103543328512
 21
35.72720779386407
  0
ARC
  8
0
  6
CONTINUOUS
 62
     7
 10
-48.42896456671489
 20
34.72720779386407
 40
1.000000000000029
 50
3.000000000000652
 51
90.00000000000011
  0
ARC
  8
0
  6
CONTINUOUS
 62
     7
 10
-43.90103543328511
 20
34.72720779386407
 40
1.000000000000001
 50
90.0
 51
176.9999999999995
  0
ARC
  8
0
  6
CONTINUOUS
 62
     7
 10
-22.7789645667148
 20
34.72720779386407
 40
1.000000000000001
 50
3.000000000000166
 51
90.00000000000001
  0
LINE
  8
0
  6
CONTINUOUS
 62
     7
 10
44.9386116689246
 20
34.22720779386407
 11
44.90966496803972
 21
34.77954375010711
  0
LINE
  8
0
  6
CONTINUOUS
 62
     7
 10
42.31033503196041
 20
34.77954375010711
 11
42.28138833107548
 21
34.22720779386407
  0
LINE
  8
0
  6
CONTINUOUS
 62
     7
 10
37.18033503196033
 20
34.77954375010711
 11
37.15138833107545
 21
34.22720779386407
  0
LINE
  8
0
  6
CONTINUOUS
 62
     7
 10
50.06861166892462
 20
34.22720779386407
 11
50.03966496803974
 21
34.77954375010711
  0
LINE
  8
0
  6
CONTINUOUS
 62
     7
 10
32.05033503196031
 20
34.77954375010711
 11
32.02138833107537
 21
34.22720779386407
  0
LINE
  8
0
  6
CONTINUOUS
 62
     7
 10
26.92033503196039
 20
34.77954375010711
 11
26.89138833107551
 21
34.22720779386407
  0
LINE
  8
0
  6
CONTINUOUS
 62
     7
 10
39.80861166892463
 20
34.22720779386407
 11
39.77966496803975
 21
34.77954375010711
  0
LINE
  8
0
  6
CONTINUOUS
 62
     7
 10
29.54861166892464
 20
34.22720779386407
 11
29.51966496803971
 21
34.77954375010711
  0
LINE
  8
0
  6
CONTINUOUS
 62
     7
 10
34.67861166892461
 20
34.22720779386407
 11
34.64966496803967
 21
34.77954375010711
  0
LINE
  8
0
  6
CONTINUOUS
 62
     7
 10
47.44033503196032
 20
34.77954375010711
 11
47.41138833107544
 21
34.22720779386407
  0
LINE
  8
0
  6
CONTINUOUS
 62
     7
 10
21.79033503196032
 20
34.77954375010711
 11
21.76138833107538
 21
34.22720779386407
  0
LINE
  8
0
  6
CONTINUOUS
 62
     7
 10
19.28861166892459
 20
34.22720779386407
 11
19.25966496803971
 21
34.77954375010711
  0
LINE
  8
0
  6
CONTINUOUS
 62
     7
 10
16.66033503196029
 20
34.77954375010711
 11
16.63138833107541
 21
34.22720779386407
  0
LINE
  8
0
  6
CONTINUOUS
 62
     7
 10
-16.6213883310754
 20
34.22720779386407
 11
-16.65033503196029
 21
34.77954375010711
  0
LINE
  8
0
  6
CONTINUOUS
 62
     7
 10
24.41861166892462
 20
34.22720779386407
 11
24.38966496803968
 21
34.77954375010711
  0
LINE
  8
0
  6
CONTINUOUS
 62
     7
 10
-47.40138833107537
 20
34.22720779386407
 11
-47.43033503196031
 21
34.77954375010711
  0
LINE
  8
0
  6
CONTINUOUS
 62
     7
 10
-50.02966496803968
 20
34.77954375010711
 11
-50.0586116689245
 21
34.22720779386407
  0
LINE
  8
0
  6
CONTINUOUS
 62
     7
 10
-39.76966496803968
 20
34.77954375010711
 11
-39.79861166892462
 21
34.22720779386423
  0
LINE
  8
0
  6
CONTINUOUS
 62
     7
 10
-26.8813883310754
 20
34.22720779386407
 11
-26.91033503196033
 21
34.77954375010711
  0
LINE
  8
0
  6
CONTINUOUS
 62
     7
 10
-29.50966496803969
 20
34.77954375010711
 11
-29.53861166892457
 21
34.22720779386423
  0
LINE
  8
0
  6
CONTINUOUS
 62
     7
 10
-42.27138833107541
 20
34.22720779386407
 11
-42.30033503196029
 21
34.77954375010711
  0
LINE
  8
0
  6
CONTINUOUS
 62
     7
 10
-32.01138833107536
 20
34.22720779386407
 11
-32.0403350319603
 21
34.77954375010711
  0
LINE
  8
0
  6
CONTINUOUS
 62
     7
 10
-34.63966496803966
 20
34.77954375010711
 11
-34.6686116689246
 21
34.22720779386423
  0
LINE
  8
0
  6
CONTINUOUS
 62
     7
 10
-21.75138833107537
 20
34.22720779386407
 11
-21.78033503196025
 21
34.77954375010711
  0
LINE
  8
0
  6
CONTINUOUS
 62
     7
 10
-24.37966496803967
 20
34.77954375010711
 11
-24.40861166892455
 21
34.22720779386423
  0
LINE
  8
0
  6
CONTINUOUS
 62
     7
 10
-37.14138833107538
 20
34.22720779386407
 11
-37.17033503196032
 21
34.77954375010711
  0
LINE
  8
0
  6
CONTINUOUS
 62
     7
 10
-44.89966496803971
 20
34.77954375010711
 11
-44.92861166892459
 21
34.22720779386407
  0
LINE
  8
0
  6
CONTINUOUS
 62
     7
 10
-19.2496649680397
 20
34.77954375010711
 11
-19.27861166892458
 21
34.22720779386407
  0
ARC
  8
0
  6
CONTINUOUS
 62
     7
 10
51.49999999999999
 20
32.72720779386407
 40
1.500000000000001
 50
359.9999999999997
 51
90.0
  0
LINE
  8
0
  6
CONTINUOUS
 62
     7
 10
16.63138833107541
 20
34.22720779386407
 11
13.12740777928312
 21
34.22720779386407
  0
LINE
  8
0
  6
CONTINUOUS
 62
     7
 10
51.49999999999999
 20
34.22720779386407
 11
50.06861166892473
 21
34.22720779386407
  0
LINE
  8
0
  6
CONTINUOUS
 62
     7
 10
37.15138833107545
 20
34.22720779386407
 11
34.67861166892461
 21
34.22720779386407
  0
LINE
  8
0
  6
CONTINUOUS
 62
     7
 10
47.41138833107544
 20
34.22720779386407
 11
44.9386116689246
 21
34.22720779386407
  0
LINE
  8
0
  6
CONTINUOUS
 62
     7
 10
26.89138833107551
 20
34.22720779386407
 11
24.41861166892462
 21
34.22720779386407
  0
LINE
  8
0
  6
CONTINUOUS
 62
     7
 10
32.02138833107537
 20
34.22720779386407
 11
29.54861166892464
 21
34.22720779386407
  0
LINE
  8
0
  6
CONTINUOUS
 62
     7
 10
42.28138833107548
 20
34.22720779386407
 11
39.80861166892463
 21
34.22720779386407
  0
LINE
  8
0
  6
CONTINUOUS
 62
     7
 10
21.76138833107538
 20
34.22720779386407
 11
19.28861166892459
 21
34.22720779386407
  0
LINE
  8
0
  6
CONTINUOUS
 62
     7
 10
-13.12740777928301
 20
34.22720779386407
 11
-16.6213883310754
 21
34.22720779386407
  0
LINE
  8
0
  6
CONTINUOUS
 62
     7
 10
-19.27861166892453
 20
34.22720779386407
 11
-21.75138833107537
 21
34.22720779386407
  0
ARC
  8
0
  6
CONTINUOUS
 62
     7
 10
-51.49999999999991
 20
32.72720779386407
 40
1.500000000000001
 50
90.0
 51
180.0
  0
LINE
  8
0
  6
CONTINUOUS
 62
     7
 10
-24.40861166892455
 20
34.22720779386407
 11
-26.8813883310754
 21
34.22720779386407
  0
LINE
  8
0
  6
CONTINUOUS
 62
     7
 10
-29.53861166892452
 20
34.22720779386407
 11
-32.01138833107536
 21
34.22720779386407
  0
LINE
  8
0
  6
CONTINUOUS
 62
     7
 10
-44.92861166892447
 20
34.22720779386407
 11
-47.40138833107549
 21
34.22720779386407
  0
LINE
  8
0
  6
CONTINUOUS
 62
     7
 10
-34.6686116689246
 20
34.22720779386407
 11
-37.14138833107538
 21
34.22720779386407
  0
LINE
  8
0
  6
CONTINUOUS
 62
     7
 10
-39.79861166892462
 20
34.22720779386407
 11
-42.27138833107541
 21
34.22720779386407
  0
LINE
  8
0
  6
CONTINUOUS
 62
     7
 10
-50.05861166892461
 20
34.22720779386407
 11
-51.49999999999999
 21
34.22720779386407
  0
LINE
  8
0
  6
CONTINUOUS
 62
     7
 10
-2.867407779283015
 20
34.22720779386407
 11
-7.39259222071692
 21
34.22720779386407
  0
LINE
  8
0
  6
CONTINUOUS
 62
     7
 10
7.392592220716976
 20
34.22720779386407
 11
2.867407779283071
 21
34.22720779386407
  0
LINE
  8
0
  6
CONTINUOUS
 62
     7
 10
2.262592220717008
 20
34.22720779386407
 11
-2.262592220716897
 21
34.22720779386407
  0
LINE
  8
0
  6
CONTINUOUS
 62
     7
 10
12.522592220717
 20
34.22720779386407
 11
7.99740777928315
 21
34.22720779386407
  0
LINE
  8
0
  6
CONTINUOUS
 62
     7
 10
-7.997407779282983
 20
34.22720779386407
 11
-12.52259222071689
 21
34.22720779386407
  0
ARC
  8
0
  6
CONTINUOUS
 62
     7
 10
-2.258964566714816
 20
34.72720779386407
 40
1.000000000000001
 50
3.000000000000409
 51
89.99999999999986
  0
ARC
  8
0
  6
CONTINUOUS
 62
     7
 10
2.871035433285096
 20
34.72720779386407
 40
1.000000000000001
 50
3.000000000000652
 51
90.00000000000009
  0
ARC
  8
0
  6
CONTINUOUS
 62
     7
 10
8.001035433285175
 20
34.72720779386407
 40
1.000000000000001
 50
3.000000000000409
 51
89.99999999999986
  0
ARC
  8
0
  6
CONTINUOUS
 62
     7
 10
-12.51896456671492
 20
34.72720779386407
 40
1.000000000000001
 50
3.000000000000409
 51
89.99999999999986
  0
ARC
  8
0
  6
CONTINUOUS
 62
     7
 10
-7.388964566714895
 20
34.72720779386407
 40
1.000000000000001
 50
3.000000000000166
 51
90.00000000000001
  0
ARC
  8
0
  6
CONTINUOUS
 62
     7
 10
13.1310354332852
 20
34.72720779386407
 40
1.000000000000001
 50
3.000000000000409
 51
89.99999999999986
  0
ARC
  8
0
  6
CONTINUOUS
 62
     7
 10
-7.991035433285054
 20
34.72720779386407
 40
1.000000000000001
 50
90.0
 51
176.9999999999994
  0
ARC
  8
0
  6
CONTINUOUS
 62
     7
 10
-13.12103543328513
 20
34.72720779386407
 40
1.000000000000001
 50
90.0
 51
176.9999999999994
  0
ARC
  8
0
  6
CONTINUOUS
 62
     7
 10
-2.861035433285086
 20
34.72720779386407
 40
1.000000000000001
 50
90.0
 51
176.9999999999994
  0
ARC
  8
0
  6
CONTINUOUS
 62
     7
 10
7.398964566715016
 20
34.72720779386407
 40
1.000000000000001
 50
90.0
 51
176.9999999999994
  0
ARC
  8
0
  6
CONTINUOUS
 62
     7
 10
12.52896456671493
 20
34.72720779386407
 40
1.000000000000001
 50
90.0
 51
176.9999999999994
  0
ARC
  8
0
  6
CONTINUOUS
 62
     7
 10
2.268964566714937
 20
34.72720779386407
 40
1.000000000000001
 50
90.0
 51
176.9999999999994
  0
LINE
  8
0
  6
CONTINUOUS
 62
     7
 10
13.1310354332852
 20
35.72720779386407
 11
12.52896456671504
 21
35.72720779386407
  0
LINE
  8
0
  6
CONTINUOUS
 62
     7
 10
8.001035433285175
 20
35.72720779386407
 11
7.398964566715016
 21
35.72720779386407
  0
LINE
  8
0
  6
CONTINUOUS
 62
     7
 10
-2.258964566714816
 20
35.72720779386407
 11
-2.861035433285031
 21
35.72720779386407
  0
LINE
  8
0
  6
CONTINUOUS
 62
     7
 10
2.871035433285096
 20
35.72720779386407
 11
2.268964566714937
 21
35.72720779386407
  0
LINE
  8
0
  6
CONTINUOUS
 62
     7
 10
-7.388964566714895
 20
35.72720779386407
 11
-7.991035433285054
 21
35.72720779386407
  0
LINE
  8
0
  6
CONTINUOUS
 62
     7
 10
-12.51896456671492
 20
35.72720779386407
 11
-13.12103543328513
 21
35.72720779386407
  0
LINE
  8
0
  6
CONTINUOUS
 62
     7
 10
11.53033503196038
 20
34.77954375010711
 11
11.5013883310755
 21
34.22720779386407
  0
LINE
  8
0
  6
CONTINUOUS
 62
     7
 10
-3.859664968039689
 20
34.77954375010711
 11
-3.888611668924458
 21
34.22720779386423
  0
LINE
  8
0
  6
CONTINUOUS
 62
     7
 10
1.270335031960279
 20
34.77954375010711
 11
1.24138833107551
 21
34.22720779386407
  0
LINE
  8
0
  6
CONTINUOUS
 62
     7
 10
6.400335031960302
 20
34.77954375010711
 11
6.371388331075534
 21
34.22720779386407
  0
LINE
  8
0
  6
CONTINUOUS
 62
     7
 10
14.15861166892457
 20
34.22720779386423
 11
14.12966496803969
 21
34.77954375010711
  0
LINE
  8
0
  6
CONTINUOUS
 62
     7
 10
9.028611668924603
 20
34.22720779386423
 11
8.999664968039722
 21
34.77954375010711
  0
LINE
  8
0
  6
CONTINUOUS
 62
     7
 10
3.898611668924579
 20
34.22720779386423
 11
3.86966496803981
 21
34.77954375010711
  0
LINE
  8
0
  6
CONTINUOUS
 62
     7
 10
-6.361388331075412
 20
34.22720779386423
 11
-6.390335031960293
 21
34.77954375010711
  0
LINE
  8
0
  6
CONTINUOUS
 62
     7
 10
-1.231388331075389
 20
34.22720779386423
 11
-1.260335031960269
 21
34.77954375010711
  0
LINE
  8
0
  6
CONTINUOUS
 62
     7
 10
-8.989664968039602
 20
34.77954375010711
 11
-9.01861166892448
 21
34.22720779386407
  0
LINE
  8
0
  6
CONTINUOUS
 62
     7
 10
-14.11966496803957
 20
34.77954375010711
 11
-14.14861166892445
 21
34.22720779386407
  0
LINE
  8
0
  6
CONTINUOUS
 62
     7
 10
-11.49138833107538
 20
34.22720779386423
 11
-11.52033503196026
 21
34.77954375010711
  0
LINE
  8
0
  6
CONTINUOUS
 62
   252
 10
157.5
 20
32.06227362436809
 11
159.5994180189763
 21
34.16169164334443
  0
LINE
  8
0
  6
CONTINUOUS
 62
   252
 10
159.1365799000916
 20
31.19885352445973
 11
161.4608802931546
 21
33.5231539175227
  0
LINE
  8
0
  6
CONTINUOUS
 62
   252
 10
160.7247907741387
 20
30.28706439850681
 11
164.6624924652695
 21
34.22476608963743
  0
LINE
  8
0
  6
CONTINUOUS
 62
   252
 10
164.076710756113
 20
31.13898438048096
 11
166.7694679556105
 21
33.83174157997865
  0
LINE
  8
0
  6
CONTINUOUS
 62
   252
 10
166.1902873132159
 20
30.75256093758405
 11
168.3221533062184
 21
32.88442693058652
  0
LINE
  8
0
  6
CONTINUOUS
 62
   252
 10
167.1734185409862
 20
29.23569216535432
 11
169.4594571452711
 21
31.5217307696391
  0
LINE
  8
0
  6
CONTINUOUS
 62
   252
 10
166.0761319145095
 20
25.63840553887747
 11
170.1394345454977
 21
29.70170816986584
  0
LINE
  8
0
  6
CONTINUOUS
 62
   252
 10
166.1190209460006
 20
23.18129457036871
 11
169.9483242744456
 21
27.01059789881371
  0
LINE
  8
0
  6
CONTINUOUS
 62
   252
 10
166.1619099774918
 20
20.72418360185985
 11
169.0000000000001
 21
23.56227362436808
  0
LINE
  8
0
  6
CONTINUOUS
 62
   252
 10
166.2047990089829
 20
18.26707263335103
 11
169.0000000000001
 21
21.06227362436808
  0
LINE
  8
0
  6
CONTINUOUS
 62
   252
 10
166.2476880404741
 20
15.80996166484222
 11
169.0000000000001
 21
18.56227362436807
  0
LINE
  8
0
  6
CONTINUOUS
 62
   252
 10
166.2905770719653
 20
13.3528506963333
 11
169.0000000000001
 21
16.06227362436807
  0
LINE
  8
0
  6
CONTINUOUS
 62
   252
 10
166.3334661034564
 20
10.89573972782443
 11
169.0000000000001
 21
13.56227362436807
  0
LINE
  8
0
  6
CONTINUOUS
 62
   252
 10
166.3763551349476
 20
8.438628759315614
 11
168.9999999999999
 21
11.06227362436807
  0
LINE
  8
0
  6
CONTINUOUS
 62
   252
 10
166.4192441664387
 20
5.981517790806801
 11
168.9999999999999
 21
8.562273624368066
  0
LINE
  8
0
  6
CONTINUOUS
 62
   252
 10
166.4621331979299
 20
3.524406822297876
 11
168.9999999999999
 21
6.062273624368064
  0
LINE
  8
0
  6
CONTINUOUS
 62
   252
 10
166.4887418179901
 20
1.051015442358194
 11
168.9999999999999
 21
3.562273624368062
  0
LINE
  8
0
  6
CONTINUOUS
 62
   252
 10
167.9377263756319
 20
0.0
 11
168.9999999999999
 21
1.06227362436806
  0
TEXT
  8
0
 62
     7
 10
5.829545454545565
 20
-13.2545454545456
 40
3.5
  1
A
  7
MTXPL_HG丸ｺﾞｼｯｸM-PRO
  0
TEXT
  8
0
 62
     7
 10
5.829545454545565
 20
52.47266233931872
 40
3.5
  1
A
  7
MTXPL_HG丸ｺﾞｼｯｸM-PRO
  0
LINE
  8
0
  6
CENTER
 62
     1
 10
0.0
 20
-12.50000000000018
 11
0.0
 21
48.22720779386418
  0
LINE
  8
0
  6
CONTINUOUS
 62
     7
 10
0.0
 20
-12.50000000000018
 11
0.0
 21
-17.50000000000018
  0
LINE
  8
0
  6
CONTINUOUS
 62
     7
 10
0.0
 20
48.22720779386419
 11
0.0
 21
53.2272077938642
  0
LINE
  8
0
  6
CONTINUOUS
 62
     7
 10
10.00000000000001
 20
-15.00000000000018
 11
0.0
 21
-15.00000000000018
  0
LINE
  8
0
  6
CONTINUOUS
 62
     7
 10
10.00000000000001
 20
50.72720779386419
 11
0.0
 21
50.72720779386419
  0
ARC
  8
0
  6
CONTINUOUS
 62
     7
 10
164.7272077938643
 20
28.72720779386412
 40
2.499999999999947
 50
302.1931442192079
 51
149.3949763859474
  0
LINE
  8
0
  6
CONTINUOUS
 62
     7
 10
162.5754643147293
 20
29.99999999999991
 11
160.9245356852709
 21
29.99999999999991
  0
ARC
  8
0
  6
CONTINUOUS
 62
     7
 10
158.7727922061358
 20
28.72720779386412
 40
5.500000000000004
 50
57.22710456438614
 51
90.96997335316752
  0
LINE
  8
0
  6
CONTINUOUS
 62
     7
 10
170.4999999999999
 20
24.76805761424511
 11
170.4999999999999
 21
0.0
  0
LINE
  8
0
  6
CONTINUOUS
 62
     7
 10
158.7727922061358
 20
34.22720779386407
 11
158.5
 21
34.22720779386407
  0
LINE
  8
0
  6
CONTINUOUS
 62
     7
 10
154.5
 20
2.000000000000002
 11
154.5
 21
6.500000000000005
  0
LINE
  8
0
  6
CONTINUOUS
 62
     7
 10
154.0
 20
15.45954545454542
 11
154.5
 21
15.45954545454542
  0
LINE
  8
0
  6
CONTINUOUS
 62
     7
 10
157.5
 20
30.87895127299911
 11
157.5
 21
33.02659162119637
  0
ARC
  8
0
  6
CONTINUOUS
 62
     7
 10
158.7727922061358
 20
28.72720779386412
 40
2.500000000000002
 50
30.60502361405258
 51
120.6050236140523
  0
LINE
  8
0
  6
CONTINUOUS
 62
     7
 10
158.5
 20
34.20980757781628
 11
158.5
 21
34.22720779386407
  0
LINE
  8
0
  6
CONTINUOUS
 62
     7
 10
154.0
 20
21.96749999999986
 11
154.0
 21
21.14931818181815
  0
LINE
  8
0
  6
CONTINUOUS
 62
     7
 10
154.5
 20
6.500000000000005
 11
154.5
 21
25.2640810616776
  0
LINE
  8
0
  6
CONTINUOUS
 62
     7
 10
154.0
 20
14.01128553825487
 11
154.0
 21
10.54230312220911
  0
LINE
  8
0
  6
CONTINUOUS
 62
     7
 10
154.0
 20
16.15499999999986
 11
154.5
 21
16.15499999999986
  0
LINE
  8
0
  6
CONTINUOUS
 62
     7
 10
154.0
 20
16.15499999999986
 11
154.0
 21
15.45954545454542
  0
ARC
  8
0
  6
CONTINUOUS
 62
     7
 10
158.7727922061358
 20
28.72720779386412
 40
5.500000000000004
 50
92.84295590653618
 51
219.024998585805
  0
LINE
  8
0
  6
CONTINUOUS
 62
     7
 10
160.4876954881797
 20
33.95301937994538
 11
160.3970724172854
 21
34.22720121390571
  0
LINE
  8
0
  6
CONTINUOUS
 62
     7
 10
157.0898059749757
 20
6.5000000451923
 11
157.4408546556081
 21
26.61156548915039
  0
ARC
  8
0
  6
CONTINUOUS
 62
     7
 10
158.7727922061358
 20
28.72720779386412
 40
6.052335956242993
 50
71.3190878661432
 51
225.0917090568785
  0
LINE
  8
0
  6
CONTINUOUS
 62
     7
 10
154.0
 20
21.14931818181815
 11
154.0
 21
19.41068181818168
  0
LINE
  8
0
  6
CONTINUOUS
 62
     7
 10
156.0
 20
0.0
 11
154.5
 21
0.0
  0
ARC
  8
0
  6
CONTINUOUS
 62
     7
 10
164.7272077938643
 20
28.72720779386412
 40
6.052335956242938
 50
321.3954180464938
 51
125.4813968991047
  0
LINE
  8
0
  6
CONTINUOUS
 62
     7
 10
156.0
 20
6.500000000000005
 11
157.089808564048
 21
6.500000000000005
  0
LINE
  8
0
  6
CONTINUOUS
 62
     7
 10
169.552335956243
 20
24.97445035504819
 11
169.4569302728045
 21
24.95090062952515
  0
LINE
  8
0
  6
CONTINUOUS
 62
     7
 10
157.0112581820099
 20
2.000000000000002
 11
157.0112581820099
 21
0.5000000000000004
  0
ARC
  8
0
  6
CONTINUOUS
 62
     7
 10
164.7272077938643
 20
28.72720779386412
 40
5.499999999999949
 50
320.9750014141945
 51
122.7728954356141
  0
LINE
  8
0
  6
CONTINUOUS
 62
     7
 10
156.0
 20
6.500000000000005
 11
154.5
 21
6.500000000000005
  0
LINE
  8
0
  6
CONTINUOUS
 62
     7
 10
169.4569302728045
 20
24.95090062952515
 11
168.9999999999999
 21
25.11447869726141
  0
LINE
  8
0
  6
CONTINUOUS
 62
     7
 10
153.0
 20
24.76805761424511
 11
153.0
 21
0.0
  0
LINE
  8
0
  6
CONTINUOUS
 62
     7
 10
153.947664043757
 20
0.0
 11
153.0
 21
0.0
  0
LINE
  8
0
  6
CONTINUOUS
 62
     7
 10
154.5
 20
0.0
 11
154.5
 21
2.000000000000002
  0
LINE
  8
0
  6
CONTINUOUS
 62
     7
 10
169.552335956243
 20
24.97445035504819
 11
169.552335956243
 21
0.0
  0
ARC
  8
0
  6
CONTINUOUS
 62
     7
 10
158.7727922061358
 20
28.72720779386412
 40
7.000000000000006
 50
64.82937122049003
 51
232.3816493467222
  0
LINE
  8
0
  6
CONTINUOUS
 62
     7
 10
156.0
 20
0.5000000000000004
 11
156.0
 21
0.0
  0
LINE
  8
0
  6
CONTINUOUS
 62
     7
 10
154.0
 20
19.41068181818168
 11
154.0
 21
18.5924999999999
  0
LINE
  8
0
  6
CONTINUOUS
 62
     7
 10
154.0
 20
17.30045454545442
 11
154.5
 21
17.30045454545442
  0
ARC
  8
0
  6
CONTINUOUS
 62
     7
 10
158.7727922061358
 20
28.72720779386412
 40
4.000000000000004
 50
108.5539856279415
 51
226.1162014309795
  0
LINE
  8
0
  6
CONTINUOUS
 62
     7
 10
156.0
 20
0.5000000000000004
 11
157.0112581820099
 21
0.5000000000000004
  0
ARC
  8
0
  6
CONTINUOUS
 62
     7
 10
164.7272077938643
 20
28.72720779386412
 40
7.000000000000006
 50
0.0
 51
128.2132977669635
  0
ARC
  8
0
  6
CONTINUOUS
 62
     7
 10
158.7727922061358
 20
28.72720779386412
 40
2.500000000000002
 50
120.6050236140527
 51
237.8068557807918
  0
LINE
  8
0
  6
CONTINUOUS
 62
     7
 10
154.0
 20
9.511285538254866
 11
154.0
 21
6.042303122209103
  0
ARC
  8
0
  6
CONTINUOUS
 62
     7
 10
158.7
 20
33.02659162119637
 40
1.199999999999979
 50
90.96997335316689
 51
180.0000000000014
  0
LINE
  8
0
  6
CONTINUOUS
 62
     7
 10
154.0
 20
21.96749999999986
 11
154.5
 21
21.96749999999986
  0
LINE
  8
0
  6
CONTINUOUS
 62
     7
 10
168.9999999999999
 20
25.26408106167749
 11
168.9999999999999
 21
0.0000000000000035
  0
LINE
  8
0
  6
CONTINUOUS
 62
     7
 10
170.4999999999999
 20
0.0
 11
169.552335956243
 21
0.0
  0
LINE
  8
0
  6
CONTINUOUS
 62
     7
 10
154.0
 20
17.30045454545442
 11
154.0
 21
16.15499999999986
  0
LINE
  8
0
  6
CONTINUOUS
 62
     7
 10
166.4887418179901
 20
0.0
 11
166.4887418179901
 21
2.000000000000002
  0
LINE
  8
0
  6
CONTINUOUS
 62
     7
 10
160.3970807749421
 20
34.22720779386407
 11
158.7727922061358
 21
34.22720779386407
  0
LINE
  8
0
  6
CONTINUOUS
 62
     7
 10
156.0
 20
25.84421917411683
 11
156.0
 21
6.500000000000005
  0
LINE
  8
0
  6
CONTINUOUS
 62
     7
 10
157.0112581820099
 20
2.000000000000002
 11
157.0898059749757
 21
6.5000000451923
  0
LINE
  8
0
  6
CONTINUOUS
 62
     7
 10
154.0
 20
21.14931818181815
 11
154.5
 21
21.14931818181815
  0
LINE
  8
0
  6
CONTINUOUS
 62
     7
 10
153.947664043757
 20
23.6559024178668
 11
153.947664043757
 21
0.0000000000000069
  0
LINE
  8
0
  6
CONTINUOUS
 62
     7
 10
154.5
 20
0.0
 11
153.947664043757
 21
0.0
  0
LINE
  8
0
  6
CONTINUOUS
 62
     7
 10
166.4887418179901
 20
2.000000000000002
 11
157.0112581820099
 21
2.000000000000002
  0
LINE
  8
0
  6
CONTINUOUS
 62
     7
 10
157.0112581820099
 20
0.0
 11
166.4887418179901
 21
0.0
  0
ARC
  8
0
  6
CONTINUOUS
 62
     7
 10
156.0
 20
2.000000000000002
 40
1.500000000000001
 50
180.0
 51
270.0
  0
LINE
  8
0
  6
CONTINUOUS
 62
     7
 10
156.0
 20
0.0
 11
157.0112581820099
 21
0.0
  0
LINE
  8
0
  6
CONTINUOUS
 62
     7
 10
157.0112581820099
 20
0.5000000000000004
 11
157.0112581820099
 21
0.0
  0
LINE
  8
0
  6
CONTINUOUS
 62
     7
 10
170.4999874999218
 20
24.76803938808381
 11
169.552335956243
 21
24.97445035504819
  0
LINE
  8
0
  6
CONTINUOUS
 62
     7
 10
154.0
 20
18.5924999999999
 11
154.5
 21
18.5924999999999
  0
ARC
  8
0
  6
CONTINUOUS
 62
     7
 10
164.7272077938643
 20
28.72720779386412
 40
7.000000000000006
 50
325.5563468193549
 51
0.0
  0
LINE
  8
0
  6
CONTINUOUS
 62
     7
 10
156.0
 20
6.500000000000005
 11
156.0
 21
0.5000000000000004
  0
LINE
  8
0
  6
CONTINUOUS
 62
     7
 10
156.0
 20
25.84421917411683
 11
154.5
 21
25.2640810616776
  0
LINE
  8
0
  6
CONTINUOUS
 62
     7
 10
168.9999999999999
 20
0.0
 11
166.4887418179901
 21
0.0
  0
LINE
  8
0
  6
CONTINUOUS
 62
     7
 10
169.552335956243
 20
0.0
 11
168.9999999999999
 21
0.0
  0
LINE
  8
0
  6
CONTINUOUS
 62
     7
 10
154.0
 20
19.41068181818168
 11
154.5
 21
19.41068181818168
  0
LINE
  8
0
  6
CONTINUOUS
 62
     7
 10
166.0591453443919
 20
26.61156548915039
 11
166.4887418179901
 21
2.000000000000002
  0
LINE
  8
0
  6
CONTINUOUS
 62
     7
 10
154.5
 20
9.511285562308514
 11
154.0
 21
9.511285562308514
  0
LINE
  8
0
  6
CONTINUOUS
 62
     7
 10
154.0
 20
6.042303084491107
 11
154.5
 21
6.042303084491107
  0
LINE
  8
0
  6
CONTINUOUS
 62
     7
 10
154.5
 20
14.01128556230852
 11
154.0
 21
14.01128556230852
  0
LINE
  8
0
  6
CONTINUOUS
 62
     7
 10
154.0
 20
10.54230308449111
 11
154.5
 21
10.54230308449111
  0
ENDSEC
  0
EOF
