  0
SECTION
  2
HEADER
  9
$ACADVER
  1
AC1004
  9
$INSBASE
 10
0.0
 20
0.0
  9
$EXTMIN
 10
-132.24549494768
 20
-125.3196059467415
  9
$EXTMAX
 10
133.25450505232
 20
33.11327013705597
  9
$LIMMIN
 10
0.0
 20
0.0
  9
$LIMMAX
 10
12.0
 20
9.0
  9
$ORTHOMODE
 70
     0
  9
$REGENMODE
 70
     1
  9
$FILLMODE
 70
     1
  9
$QTEXTMODE
 70
     0
  9
$DRAGMODE
 70
     2
  9
$LTSCALE
 40
1.0
  9
$OSMODE
 70
    37
  9
$ATTMODE
 70
     1
  9
$TEXTSIZE
 40
0.2
  9
$TRACEWID
 40
0.05
  9
$TEXTSTYLE
  7
STANDARD
  9
$CLAYER
  8
0
  9
$CELTYPE
  6
BYLAYER
  9
$CECOLOR
 62
   256
  9
$DIMSCALE
 40
1.0
  9
$DIMASZ
 40
2.5
  9
$DIMEXO
 40
0.0625
  9
$DIMDLI
 40
0.38
  9
$DIMRND
 40
0.0
  9
$DIMDLE
 40
0.0
  9
$DIMEXE
 40
1.25
  9
$DIMTP
 40
0.0
  9
$DIMTM
 40
0.0
  9
$DIMTXT
 40
4.0
  9
$DIMCEN
 40
0.09
  9
$DIMTSZ
 40
0.0
  9
$DIMTOL
 70
     0
  9
$DIMLIM
 70
     0
  9
$DIMTIH
 70
     1
  9
$DIMTOH
 70
     1
  9
$DIMSE1
 70
     0
  9
$DIMSE2
 70
     0
  9
$DIMTAD
 70
     1
  9
$DIMZIN
 70
     0
  9
$DIMBLK
  1

  9
$DIMASO
 70
     1
  9
$DIMSHO
 70
     1
  9
$DIMPOST
  1

  9
$DIMAPOST
  1

  9
$DIMALT
 70
     0
  9
$DIMALTD
 70
     2
  9
$DIMALTF
 40
25.4
  9
$DIMLFAC
 40
1.0
  9
$DIMTOFL
 70
     0
  9
$DIMTVP
 40
0.0
  9
$DIMTIX
 70
     0
  9
$DIMSOXD
 70
     0
  9
$DIMSAH
 70
     0
  9
$DIMBLK1
  1

  9
$DIMBLK2
  1

  9
$LUNITS
 70
     2
  9
$LUPREC
 70
     4
  9
$SKETCHINC
 40
0.1
  9
$FILLETRAD
 40
0.0
  9
$AUNITS
 70
     0
  9
$AUPREC
 70
     0
  9
$MENU
  1
.
  9
$ELEVATION
 40
0.0
  9
$THICKNESS
 40
0.0
  9
$LIMCHECK
 70
     0
  9
$CHAMFERA
 40
0.0
  9
$CHAMFERB
 40
0.0
  9
$SKPOLY
 70
     0
  9
$TDCREATE
 40
2460108.684157373
  9
$TDUPDATE
 40
2460108.684157373
  9
$TDINDWG
 40
0.0000000116
  9
$TDUSRTIMER
 40
0.0000000116
  9
$USRTIMER
 70
     1
  9
$ANGBASE
 50
0.0
  9
$ANGDIR
 70
     0
  9
$PDMODE
 70
     0
  9
$PDSIZE
 40
0.0
  9
$PLINEWID
 40
0.0
  9
$COORDS
 70
     1
  9
$SPLFRAME
 70
     0
  9
$SPLINETYPE
 70
     6
  9
$SPLINESEGS
 70
     8
  9
$ATTDIA
 70
     0
  9
$ATTREQ
 70
     1
  9
$SURFTAB1
 70
     6
  9
$SURFTAB2
 70
     6
  9
$SURFTYPE
 70
     6
  9
$SURFU
 70
     6
  9
$SURFV
 70
     6
  9
$UCSNAME
  2

  9
$UCSORG
 10
0.0
 20
0.0
 30
0.0
  9
$UCSXDIR
 10
1.0
 20
0.0
 30
0.0
  9
$UCSYDIR
 10
0.0
 20
1.0
 30
0.0
  9
$USERI1
 70
     0
  9
$USERI2
 70
     0
  9
$USERI3
 70
     0
  9
$USERI4
 70
     0
  9
$USERI5
 70
     0
  9
$USERR1
 40
0.0
  9
$USERR2
 40
0.0
  9
$USERR3
 40
0.0
  9
$USERR4
 40
0.0
  9
$USERR5
 40
0.0
  9
$WORLDVIEW
 70
     1
  0
ENDSEC
  0
SECTION
  2
TABLES
  0
TABLE
  2
LTYPE
 70
     2
  0
LTYPE
  2
CONTINUOUS
 70
     0
  3
Solid line
 72
    65
 73
     0
 40
0.0
  0
LTYPE
  2
CENTER
 70
     0
  3

 72
    65
 73
     0
 40
0.0
  0
ENDTAB
  0
TABLE
  2
LAYER
 70
     1
  0
LAYER
  2
0
 70
     0
 62
     7
  6
CONTINUOUS
  0
ENDTAB
  0
TABLE
  2
STYLE
 70
     3
  0
STYLE
  2
STANDARD
 70
     0
 40
0.0
 41
1.0
 50
0.0
 71
     0
 42
0.2
  3
txt
  4

  0
STYLE
  2
HG丸ｺﾞｼｯｸM-PRO
 70
     0
 40
0.0
 41
1.0
 50
0.0
 71
     0
 42
0.2
  3
HGRSMP.TTF
  4

  0
STYLE
  2
MTXPL_FG教科書体NT-M
 70
     0
 40
0.2
 41
1.0
 50
0.0
 71
     0
 42
0.2
  3
txt.shx
  4

  0
ENDTAB
  0
TABLE
  2
VIEW
 70
     0
  0
ENDTAB
  0
ENDSEC
  0
SECTION
  2
BLOCKS
  0
ENDSEC
  0
SECTION
  2
ENTITIES
  0
LINE
  8
0
  6
CONTINUOUS
 62
     7
 10
4.000000000000004
 20
-21.75000000000007
 11
0.0
 21
-23.00000000000007
  0
LINE
  8
0
  6
CONTINUOUS
 62
     7
 10
0.0
 20
-23.00000000000007
 11
4.000000000000004
 21
-24.25000000000008
  0
LINE
  8
0
  6
CONTINUOUS
 62
     7
 10
4.000000000000004
 20
23.39836805188991
 11
0.0
 21
24.64836805188991
  0
LINE
  8
0
  6
CONTINUOUS
 62
     7
 10
0.0
 20
24.64836805188991
 11
4.000000000000004
 21
25.89836805188991
  0
LINE
  8
0
  6
CONTINUOUS
 62
     7
 10
111.25450505232
 20
8.705758589268697
 11
111.4209319175488
 21
8.8721854544975
  0
LINE
  8
0
  6
CONTINUOUS
 62
     7
 10
113.1552100532759
 20
8.1064635902246
 11
114.6552100532759
 21
9.606463590224601
  0
LINE
  8
0
  6
CONTINUOUS
 62
     7
 10
115.6123210217847
 20
8.063574558733382
 11
117.1123210217848
 21
9.563574558733523
  0
LINE
  8
0
  6
CONTINUOUS
 62
     7
 10
117.75450505232
 20
7.705758589268696
 11
119.2545050523202
 21
9.205758589268893
  0
LINE
  8
0
  6
CONTINUOUS
 62
     7
 10
118.5351207651007
 20
5.986374302049402
 11
120.009387346206
 21
7.460640883154706
  0
LINE
  8
0
  6
CONTINUOUS
 62
     7
 10
120.9922317336096
 20
5.943485270558213
 11
122.4664983147148
 21
7.41775185166349
  0
LINE
  8
0
  6
CONTINUOUS
 62
     7
 10
123.4493427021184
 20
5.900596239067108
 11
124.9168700452486
 21
7.368123582197322
  0
LINE
  8
0
  6
CONTINUOUS
 62
     7
 10
124.75450505232
 20
4.705758589268694
 11
126.223619386428
 21
6.174872923376706
  0
LINE
  8
0
  6
CONTINUOUS
 62
     7
 10
126.1466322469777
 20
3.597885783926419
 11
127.6466322469777
 21
5.09788578392642
  0
LINE
  8
0
  6
CONTINUOUS
 62
     7
 10
117.75450505232
 20
-7.294241410731289
 11
119.0717388647733
 21
-5.977007598277989
  0
LINE
  8
0
  6
CONTINUOUS
 62
     7
 10
128.6037432154866
 20
3.55499675243523
 11
130.1037432154865
 21
5.054996752435231
  0
LINE
  8
0
  6
CONTINUOUS
 62
     7
 10
120.0895040216686
 20
-7.459242441382685
 11
121.6161517570116
 21
-5.932594706039795
  0
LINE
  8
0
  6
CONTINUOUS
 62
     7
 10
131.0608541839954
 20
3.512107720944096
 11
132.418595684203
 21
4.8698492211518
  0
LINE
  8
0
  6
CONTINUOUS
 62
     7
 10
122.6339169139068
 20
-7.414829549144492
 11
124.1605646492498
 21
-5.888181813801602
  0
LINE
  8
0
  6
CONTINUOUS
 62
     7
 10
124.75450505232
 20
-5.294241410731288
 11
126.4562653449539
 21
-3.592481118097401
  0
LINE
  8
0
  6
CONTINUOUS
 62
     7
 10
131.75450505232
 20
1.705758589268691
 11
133.25450505232
 21
3.205758589268692
  0
LINE
  8
0
  6
CONTINUOUS
 62
     7
 10
125.25947955947
 20
-7.28926690358131
 11
126.165541705362
 21
-6.383204757689303
  0
LINE
  8
0
  6
CONTINUOUS
 62
     7
 10
127.4473827665063
 20
-5.101363696545014
 11
129.0006782371922
 21
-3.548068225859069
  0
LINE
  8
0
  6
CONTINUOUS
 62
     7
 10
131.75450505232
 20
-0.7942414107313112
 11
133.25450505232
 21
0.7057585892686902
  0
LINE
  8
0
  6
CONTINUOUS
 62
     7
 10
129.9917956587445
 20
-5.056950804306765
 11
131.5450911294303
 21
-3.503655333620875
  0
LINE
  8
0
  6
CONTINUOUS
 62
     7
 10
131.75450505232
 20
-3.294241410731285
 11
133.25450505232
 21
-1.794241410731312
  0
LINE
  8
0
  6
CONTINUOUS
 62
     7
 10
100.25450505232
 20
5.205758589268694
 11
102.9829130802969
 21
7.934166617245608
  0
LINE
  8
0
  6
CONTINUOUS
 62
     7
 10
100.25450505232
 20
2.705758589268692
 11
101.75450505232
 21
4.205758589268693
  0
LINE
  8
0
  6
CONTINUOUS
 62
     7
 10
104.0006782371922
 20
6.451931774140801
 11
107.1072691785639
 21
9.558522715512607
  0
LINE
  8
0
  6
CONTINUOUS
 62
     7
 10
100.25450505232
 20
0.2057585892686897
 11
101.75450505232
 21
1.705758589268691
  0
LINE
  8
0
  6
CONTINUOUS
 62
     7
 10
106.5450911294304
 20
6.496344666379105
 11
106.754505052321
 21
6.705758589269722
  0
LINE
  8
0
  6
CONTINUOUS
 62
     7
 10
108.0983866001162
 20
8.049640137064829
 11
109.6516820708021
 21
9.602935607750801
  0
LINE
  8
0
  6
CONTINUOUS
 62
     7
 10
100.25450505232
 20
-2.294241410731312
 11
101.75450505232
 21
-0.7942414107313112
  0
LINE
  8
0
  6
CONTINUOUS
 62
     7
 10
110.6427994923544
 20
8.094053029303023
 11
111.25450505232
 21
8.705758589268697
  0
LINE
  8
0
  6
CONTINUOUS
 62
     7
 10
111.4709319175488
 20
8.922185454497411
 11
112.1960949630403
 21
9.647348499988995
  0
LINE
  8
0
  6
CONTINUOUS
 62
     7
 10
100.25450505232
 20
-4.794241410731287
 11
101.75450505232
 21
-3.294241410731285
  0
LINE
  8
0
  6
CONTINUOUS
 62
     7
 10
100.4314693601421
 20
-7.117277102909187
 11
101.75450505232
 21
-5.794241410731288
  0
LINE
  8
0
  6
CONTINUOUS
 62
     7
 10
102.1294766343813
 20
-7.919269828670084
 11
103.6037432154866
 21
-6.445003247564779
  0
LINE
  8
0
  6
CONTINUOUS
 62
     7
 10
104.5865876028901
 20
-7.962158860161189
 11
106.0608541839954
 21
-6.487892279055885
  0
LINE
  8
0
  6
CONTINUOUS
 62
     7
 10
124.75450505232
 20
3.622185454497495
 11
131.75450505232
 21
3.500000000000003
  0
LINE
  8
0
  6
CONTINUOUS
 62
     7
 10
131.75450505232
 20
3.500000000000003
 11
131.75450505232
 21
-3.500000000000002
  0
LINE
  8
0
  6
CONTINUOUS
 62
     7
 10
131.75450505232
 20
-3.500000000000003
 11
124.75450505232
 21
-3.622185454497578
  0
LINE
  8
0
  6
CONTINUOUS
 62
     7
 10
101.7283264426641
 20
7.9122677260276
 11
105.2545050523196
 21
7.973817402607608
  0
LINE
  8
0
  6
CONTINUOUS
 62
     7
 10
105.2545050523196
 20
-7.973817402607692
 11
101.7283264426641
 21
-7.912267726027683
  0
ARC
  8
0
  6
CONTINUOUS
 62
     7
 10
101.75450505232
 20
-6.412496183293093
 40
1.500000000000001
 50
180.0
 51
269.0
  0
LINE
  8
0
  6
CONTINUOUS
 62
     7
 10
100.25450505232
 20
6.412496183293009
 11
100.25450505232
 21
-6.412496183293093
  0
ARC
  8
0
  6
CONTINUOUS
 62
     7
 10
101.75450505232
 20
6.412496183293009
 40
1.500000000000001
 50
91.00000000000051
 51
180.0
  0
LINE
  8
0
  6
CONTINUOUS
 62
     7
 10
105.2545050523196
 20
9.526182597392324
 11
105.2545050523196
 21
7.973817402607608
  0
LINE
  8
0
  6
CONTINUOUS
 62
     7
 10
112.25450505232
 20
9.648368051889816
 11
105.2545050523196
 21
9.526182597392324
  0
LINE
  8
0
  6
CONTINUOUS
 62
     7
 10
112.25450505232
 20
9.648368051889816
 11
112.25450505232
 21
8.922185454497411
  0
LINE
  8
0
  6
CONTINUOUS
 62
     7
 10
111.25450505232
 20
8.922185454497411
 11
112.25450505232
 21
8.922185454497411
  0
LINE
  8
0
  6
CONTINUOUS
 62
     7
 10
111.25450505232
 20
8.104730389569214
 11
111.25450505232
 21
8.8721854544975
  0
LINE
  8
0
  6
CONTINUOUS
 62
     7
 10
111.25450505232
 20
8.8721854544975
 11
111.25450505232
 21
8.922185454497411
  0
LINE
  8
0
  6
CONTINUOUS
 62
     7
 10
111.25450505232
 20
8.104730389569214
 11
106.7545050523199
 21
8.026182597392184
  0
LINE
  8
0
  6
CONTINUOUS
 62
     7
 10
106.7545050523199
 20
8.026182597392184
 11
106.75450505232
 21
6.500000000000005
  0
LINE
  8
0
  6
CONTINUOUS
 62
     7
 10
101.75450505232
 20
6.412724675358916
 11
106.75450505232
 21
6.500000000000005
  0
LINE
  8
0
  6
CONTINUOUS
 62
     7
 10
101.75450505232
 20
6.412724675358916
 11
101.75450505232
 21
-6.412724675358889
  0
LINE
  8
0
  6
CONTINUOUS
 62
     7
 10
106.75450505232
 20
-6.500000000000005
 11
101.75450505232
 21
-6.412724675358889
  0
LINE
  8
0
  6
CONTINUOUS
 62
     7
 10
106.75450505232
 20
-6.500000000000005
 11
106.75450505232
 21
-8.000000000000007
  0
LINE
  8
0
  6
CONTINUOUS
 62
     7
 10
106.75450505232
 20
-8.000000000000007
 11
105.2545050523195
 21
-8.000000000000007
  0
LINE
  8
0
  6
CONTINUOUS
 62
     7
 10
105.2545050523196
 20
-7.973817402607692
 11
105.2545050523195
 21
-8.000000000000007
  0
LINE
  8
0
  6
CONTINUOUS
 62
     7
 10
106.7545050523199
 20
6.500000000000005
 11
106.75450505232
 21
-6.500000000000004
  0
LINE
  8
0
  6
CONTINUOUS
 62
     7
 10
111.25450505232
 20
3.753606761760508
 11
106.75450505232
 21
3.686411708838516
  0
LINE
  8
0
  6
CONTINUOUS
 62
     7
 10
111.25450505232
 20
3.753606761760508
 11
111.25450505232
 21
8.104730389569214
  0
LINE
  8
0
  6
CONTINUOUS
 62
     7
 10
103.7545050523195
 20
-7.947634805215375
 11
103.7545050523195
 21
-8.000000000000007
  0
LINE
  8
0
  6
CONTINUOUS
 62
     7
 10
105.2545050523196
 20
-8.000000000000007
 11
103.7545050523195
 21
-8.000000000000007
  0
LINE
  8
0
  6
CONTINUOUS
 62
     7
 10
111.25450505232
 20
1.953079134006913
 11
106.75450505232
 21
1.953079134006913
  0
LINE
  8
0
  6
CONTINUOUS
 62
     7
 10
111.25450505232
 20
1.953079134006913
 11
111.25450505232
 21
3.753606761760508
  0
LINE
  8
0
  6
CONTINUOUS
 62
     7
 10
106.75450505232
 20
-8.000000000000007
 11
111.25450505232
 21
-8.000000000000007
  0
LINE
  8
0
  6
CONTINUOUS
 62
     7
 10
111.25450505232
 20
1.953079134006913
 11
111.25450505232
 21
-8.000000000000007
  0
ARC
  8
0
  6
CONTINUOUS
 62
     7
 10
124.75450505232
 20
-5.877586053436606
 40
1.500000000000001
 50
270.999999999998
 51
0.0
  0
LINE
  8
0
  6
CONTINUOUS
 62
     7
 10
119.2545050523205
 20
-7.473817402607691
 11
124.7806836619758
 21
-7.377357596171169
  0
LINE
  8
0
  6
CONTINUOUS
 62
     7
 10
119.2545050523204
 20
-8.000000000000007
 11
119.2545050523205
 21
-7.473817402607691
  0
LINE
  8
0
  6
CONTINUOUS
 62
     7
 10
119.2545050523204
 20
-8.000000000000007
 11
117.75450505232
 21
-8.000000000000007
  0
LINE
  8
0
  6
CONTINUOUS
 62
     7
 10
117.75450505232
 20
-6.000000000000005
 11
117.75450505232
 21
-8.000000000000007
  0
LINE
  8
0
  6
CONTINUOUS
 62
     7
 10
117.75450505232
 20
-6.000000000000005
 11
124.75450505232
 21
-5.877814545502486
  0
LINE
  8
0
  6
CONTINUOUS
 62
     7
 10
124.75450505232
 20
-3.622185454497578
 11
124.75450505232
 21
-5.877814545502486
  0
LINE
  8
0
  6
CONTINUOUS
 62
     7
 10
131.75450505232
 20
-3.500000000000003
 11
124.75450505232
 21
-3.622185454497578
  0
LINE
  8
0
  6
CONTINUOUS
 62
     7
 10
131.75450505232
 20
3.500000000000003
 11
131.75450505232
 21
-3.500000000000002
  0
LINE
  8
0
  6
CONTINUOUS
 62
     7
 10
124.75450505232
 20
3.622185454497495
 11
131.75450505232
 21
3.500000000000003
  0
LINE
  8
0
  6
CONTINUOUS
 62
     7
 10
124.75450505232
 20
5.87781454550243
 11
117.75450505232
 21
6.000000000000005
  0
LINE
  8
0
  6
CONTINUOUS
 62
     7
 10
117.7545050523201
 20
8.026182597392184
 11
117.75450505232
 21
6.000000000000005
  0
LINE
  8
0
  6
CONTINUOUS
 62
     7
 10
112.25450505232
 20
8.1221854544975
 11
117.7545050523201
 21
8.026182597392184
  0
LINE
  8
0
  6
CONTINUOUS
 62
     7
 10
111.25450505232
 20
8.1221854544975
 11
112.25450505232
 21
8.1221854544975
  0
LINE
  8
0
  6
CONTINUOUS
 62
     7
 10
111.25450505232
 20
8.1221854544975
 11
111.25450505232
 21
8.8721854544975
  0
LINE
  8
0
  6
CONTINUOUS
 62
     7
 10
112.25450505232
 20
8.8721854544975
 11
111.25450505232
 21
8.8721854544975
  0
LINE
  8
0
  6
CONTINUOUS
 62
     7
 10
112.25450505232
 20
9.648368051889816
 11
112.25450505232
 21
8.8721854544975
  0
LINE
  8
0
  6
CONTINUOUS
 62
     7
 10
112.25450505232
 20
9.648368051889816
 11
119.2545050523205
 21
9.526182597392324
  0
LINE
  8
0
  6
CONTINUOUS
 62
     7
 10
119.2545050523205
 20
7.473817402607607
 11
119.2545050523205
 21
9.526182597392324
  0
LINE
  8
0
  6
CONTINUOUS
 62
     7
 10
124.7806836619758
 20
7.377357596171224
 11
119.2545050523205
 21
7.473817402607607
  0
ARC
  8
0
  6
CONTINUOUS
 62
     7
 10
124.75450505232
 20
5.877586053436606
 40
1.500000000000001
 50
0.0
 51
89.00000000000205
  0
LINE
  8
0
  6
CONTINUOUS
 62
     7
 10
126.25450505232
 20
5.877586053436606
 11
126.25450505232
 21
5.122185454497497
  0
LINE
  8
0
  6
CONTINUOUS
 62
     7
 10
126.25450505232
 20
5.122185454497497
 11
131.7806836619758
 21
5.025725648061003
  0
ARC
  8
0
  6
CONTINUOUS
 62
     7
 10
131.75450505232
 20
3.525954105326412
 40
1.500000000000001
 50
0.0
 51
89.00000000000176
  0
LINE
  8
0
  6
CONTINUOUS
 62
     7
 10
133.25450505232
 20
3.525954105326412
 11
133.25450505232
 21
-3.525954105326495
  0
ARC
  8
0
  6
CONTINUOUS
 62
     7
 10
131.75450505232
 20
-3.525954105326495
 40
1.500000000000001
 50
270.9999999999982
 51
0.0
  0
LINE
  8
0
  6
CONTINUOUS
 62
     7
 10
131.7806836619758
 20
-5.025725648061085
 11
126.2545050523199
 21
-5.12218545449758
  0
LINE
  8
0
  6
CONTINUOUS
 62
     7
 10
126.2545050523199
 20
-5.12218545449758
 11
126.25450505232
 21
-5.877586053436606
  0
LINE
  8
0
  6
CONTINUOUS
 62
     7
 10
117.7545050523199
 20
6.000000000000005
 11
117.75450505232
 21
-6.000000000000005
  0
LINE
  8
0
  6
CONTINUOUS
 62
     7
 10
112.25450505232
 20
3.768538995743198
 11
117.75450505232
 21
3.686411708838627
  0
LINE
  8
0
  6
CONTINUOUS
 62
     7
 10
112.25450505232
 20
8.1221854544975
 11
112.25450505232
 21
3.768538995743198
  0
LINE
  8
0
  6
CONTINUOUS
 62
     7
 10
111.25450505232
 20
3.768538995743309
 11
112.25450505232
 21
3.768538995743198
  0
LINE
  8
0
  6
CONTINUOUS
 62
     7
 10
120.7545050523205
 20
-7.447634805215375
 11
120.7545050523205
 21
-8.000000000000007
  0
LINE
  8
0
  6
CONTINUOUS
 62
     7
 10
119.2545050523205
 20
-8.000000000000007
 11
120.7545050523205
 21
-8.000000000000007
  0
LINE
  8
0
  6
CONTINUOUS
 62
     7
 10
112.25450505232
 20
1.953079134006913
 11
117.75450505232
 21
1.953079134006913
  0
LINE
  8
0
  6
CONTINUOUS
 62
     7
 10
112.25450505232
 20
3.768538995743198
 11
112.25450505232
 21
1.953079134006913
  0
LINE
  8
0
  6
CONTINUOUS
 62
     7
 10
111.25450505232
 20
1.953079134006913
 11
112.25450505232
 21
1.953079134006913
  0
LINE
  8
0
  6
CONTINUOUS
 62
     7
 10
112.25450505232
 20
-8.000000000000007
 11
112.25450505232
 21
1.953079134006913
  0
LINE
  8
0
  6
CONTINUOUS
 62
     7
 10
117.75450505232
 20
-8.000000000000007
 11
112.25450505232
 21
-8.000000000000007
  0
LINE
  8
0
  6
CONTINUOUS
 62
     7
 10
111.25450505232
 20
-8.000000000000007
 11
112.25450505232
 21
-8.000000000000007
  0
TEXT
  8
0
 62
     7
 10
74.46450505232004
 20
28.46904791483374
 40
4.0
  1
断面 A-A
  7
MTXPL_FG教科書体NT-M
  0
LINE
  8
0
  6
CONTINUOUS
 62
     7
 10
16.60473038956928
 20
-103.3196059467415
 11
16.62218545449751
 21
-103.3196059467415
  0
LINE
  8
0
  6
CONTINUOUS
 62
     7
 10
16.62218545449751
 20
-103.3196059467415
 11
17.37218545449751
 21
-103.3196059467415
  0
LINE
  8
0
  6
CONTINUOUS
 62
     7
 10
17.37218545449751
 20
-103.3196059467415
 11
17.42218545449747
 21
-103.3196059467415
  0
LINE
  8
0
  6
CONTINUOUS
 62
     7
 10
16.60473038956928
 20
-103.3196059467415
 11
16.50000000000001
 21
-97.3196059467415
  0
LINE
  8
0
  6
CONTINUOUS
 62
     7
 10
16.4999999999999
 20
-95.8196059467415
 11
16.50000000000001
 21
-97.3196059467415
  0
LINE
  8
0
  6
CONTINUOUS
 62
     7
 10
18.14836805188982
 20
-104.3196059467415
 11
17.9999999999999
 21
-95.8196059467415
  0
LINE
  8
0
  6
CONTINUOUS
 62
     7
 10
18.14836805188982
 20
-104.3196059467415
 11
17.42218545449747
 21
-104.3196059467415
  0
LINE
  8
0
  6
CONTINUOUS
 62
     7
 10
17.42218545449747
 20
-104.3196059467415
 11
17.42218545449747
 21
-103.3196059467415
  0
LINE
  8
0
  6
CONTINUOUS
 62
     7
 10
17.9999999999999
 20
-95.8196059467415
 11
16.4999999999999
 21
-95.8196059467415
  0
LINE
  8
0
  6
CONTINUOUS
 62
     7
 10
-11.00000000000012
 20
-95.8196059467415
 11
-11.0000000000002
 21
-97.31960594674142
  0
LINE
  8
0
  6
CONTINUOUS
 62
     7
 10
-9.525954105326722
 20
-95.81960594674105
 11
-11.00000000000012
 21
-95.8196059467415
  0
LINE
  8
0
  6
CONTINUOUS
 62
     7
 10
-9.499771507934296
 20
-97.31960594674109
 11
-9.525954105326722
 21
-95.81960594674105
  0
LINE
  8
0
  6
CONTINUOUS
 62
     7
 10
9.525954105326612
 20
-95.81960594674105
 11
9.499771507934296
 21
-97.31960594674109
  0
LINE
  8
0
  6
CONTINUOUS
 62
     7
 10
-10.97381740260789
 20
-98.81960594674135
 11
-11.0000000000002
 21
-97.31960594674142
  0
LINE
  8
0
  6
CONTINUOUS
 62
     7
 10
9.499771507934296
 20
-97.31960594674109
 11
-9.499771507934296
 21
-97.31960594674109
  0
LINE
  8
0
  6
CONTINUOUS
 62
     7
 10
10.9999999999999
 20
-95.8196059467415
 11
11.00000000000009
 21
-97.3196059467414
  0
LINE
  8
0
  6
CONTINUOUS
 62
     7
 10
11.00000000000009
 20
-97.3196059467414
 11
10.97381740260781
 21
-98.81960594674135
  0
LINE
  8
0
  6
CONTINUOUS
 62
     7
 10
10.97381740260781
 20
-98.81960594674135
 11
-10.97381740260789
 21
-98.81960594674135
  0
LINE
  8
0
  6
CONTINUOUS
 62
     7
 10
10.9999999999999
 20
-95.8196059467415
 11
9.525954105326612
 21
-95.81960594674105
  0
LINE
  8
0
  6
CONTINUOUS
 62
     7
 10
-18.6500000000003
 20
-108.3196059467417
 11
-18.1500000000003
 21
-108.3196059467417
  0
LINE
  8
0
  6
CONTINUOUS
 62
     7
 10
-18.6500000000003
 20
-102.3196059467415
 11
-18.6500000000003
 21
-108.3196059467417
  0
LINE
  8
0
  6
CONTINUOUS
 62
     7
 10
-18.1134579220335
 20
-102.3196059467415
 11
-18.6500000000003
 21
-102.3196059467415
  0
LINE
  8
0
  6
CONTINUOUS
 62
     7
 10
-18.0000000000001
 20
-95.8196059467415
 11
-18.1134579220335
 21
-102.3196059467415
  0
LINE
  8
0
  6
CONTINUOUS
 62
     7
 10
-16.5000000000001
 20
-97.3196059467415
 11
-16.6047303895693
 21
-103.3196059467415
  0
LINE
  8
0
  6
CONTINUOUS
 62
     7
 10
-17.42218545449758
 20
-104.3196059467415
 11
-17.42218545449758
 21
-103.3196059467415
  0
LINE
  8
0
  6
CONTINUOUS
 62
     7
 10
-18.1500000000003
 20
-108.3196059467417
 11
-18.1500000000003
 21
-104.3196059467415
  0
LINE
  8
0
  6
CONTINUOUS
 62
     7
 10
-16.5000000000001
 20
-95.8196059467415
 11
-16.5000000000001
 21
-97.3196059467415
  0
LINE
  8
0
  6
CONTINUOUS
 62
     7
 10
-16.5000000000001
 20
-95.8196059467415
 11
-18.0000000000001
 21
-95.8196059467415
  0
LINE
  8
0
  6
CONTINUOUS
 62
     7
 10
-17.42218545449758
 20
-104.3196059467415
 11
-18.14836805188991
 21
-104.3196059467415
  0
LINE
  8
0
  6
CONTINUOUS
 62
     7
 10
-18.14836805188991
 20
-104.3196059467415
 11
-18.1500000000003
 21
-104.3196059467415
  0
LINE
  8
0
  6
CONTINUOUS
 62
     7
 10
-17.42218545449758
 20
-103.3196059467415
 11
-17.37218545449748
 21
-103.3196059467415
  0
LINE
  8
0
  6
CONTINUOUS
 62
     7
 10
-17.37218545449748
 20
-103.3196059467415
 11
-16.62218545449748
 21
-103.3196059467415
  0
LINE
  8
0
  6
CONTINUOUS
 62
     7
 10
-16.62218545449748
 20
-103.3196059467415
 11
-16.6047303895693
 21
-103.3196059467415
  0
LINE
  8
0
  6
CONTINUOUS
 62
     7
 10
-18.6500000000003
 20
-101.3196059467415
 11
-18.6500000000003
 21
-102.3196059467415
  0
LINE
  8
0
  6
CONTINUOUS
 62
     7
 10
-18.6500000000003
 20
-101.3196059467415
 11
-18.09600285710522
 21
-101.3196059467415
  0
LINE
  8
0
  6
CONTINUOUS
 62
     7
 10
-19.6500000000003
 20
-108.3196059467417
 11
-18.6500000000003
 21
-108.3196059467417
  0
LINE
  8
0
  6
CONTINUOUS
 62
     7
 10
-19.6500000000003
 20
-108.3196059467417
 11
-19.6500000000003
 21
-102.3196059467415
  0
LINE
  8
0
  6
CONTINUOUS
 62
     7
 10
-19.6500000000003
 20
-102.3196059467415
 11
-18.6500000000003
 21
-102.3196059467415
  0
ARC
  8
0
  6
CONTINUOUS
 62
     7
 10
-18.6500000000003
 20
-102.3196059467415
 40
1.000000000000001
 50
90.0
 51
180.0
  0
LINE
  8
0
  6
CONTINUOUS
 62
     7
 10
-18.1500000000003
 20
-108.3196059467417
 11
-18.1500000000003
 21
-109.3196059467417
  0
LINE
  8
0
  6
CONTINUOUS
 62
     7
 10
-18.1500000000003
 20
-109.3196059467417
 11
-18.6500000000003
 21
-109.3196059467417
  0
LINE
  8
0
  6
CONTINUOUS
 62
     7
 10
-18.6500000000003
 20
-109.3196059467417
 11
-18.6500000000003
 21
-108.3196059467417
  0
ARC
  8
0
  6
CONTINUOUS
 62
     7
 10
-18.6500000000003
 20
-108.3196059467417
 40
1.000000000000001
 50
179.9999999999998
 51
270.0
  0
LINE
  8
0
  6
CONTINUOUS
 62
     7
 10
7.912267726027627
 20
-93.79342733708556
 11
-7.912267726027683
 21
-93.79342733708556
  0
LINE
  8
0
  6
CONTINUOUS
 62
     7
 10
-6.41249618329312
 20
-92.3196059467415
 11
6.412496183293009
 21
-92.3196059467415
  0
LINE
  8
0
  6
CONTINUOUS
 62
     7
 10
11.9999999999999
 20
-95.8196059467415
 11
11.9999999999999
 21
-97.3196059467415
  0
LINE
  8
0
  6
CONTINUOUS
 62
     7
 10
10.9999999999999
 20
-97.3196059467415
 11
11.9999999999999
 21
-97.3196059467415
  0
LINE
  8
0
  6
CONTINUOUS
 62
     7
 10
11.9999999999999
 20
-95.8196059467415
 11
10.9999999999999
 21
-95.8196059467415
  0
LINE
  8
0
  6
CONTINUOUS
 62
     7
 10
15.50000000000001
 20
-97.3196059467415
 11
15.50000000000001
 21
-95.8196059467415
  0
LINE
  8
0
  6
CONTINUOUS
 62
     7
 10
15.50000000000001
 20
-97.3196059467415
 11
16.50000000000001
 21
-97.3196059467415
  0
LINE
  8
0
  6
CONTINUOUS
 62
     7
 10
16.4999999999999
 20
-95.8196059467415
 11
15.50000000000001
 21
-95.8196059467415
  0
LINE
  8
0
  6
CONTINUOUS
 62
     7
 10
-15.5000000000001
 20
-95.8196059467415
 11
-15.5000000000001
 21
-97.3196059467415
  0
LINE
  8
0
  6
CONTINUOUS
 62
     7
 10
-16.5000000000001
 20
-97.3196059467415
 11
-15.5000000000001
 21
-97.3196059467415
  0
LINE
  8
0
  6
CONTINUOUS
 62
     7
 10
-15.5000000000001
 20
-95.8196059467415
 11
-16.5000000000001
 21
-95.8196059467415
  0
LINE
  8
0
  6
CONTINUOUS
 62
     7
 10
-12.00000000000009
 20
-97.3196059467415
 11
-12.00000000000009
 21
-95.8196059467415
  0
LINE
  8
0
  6
CONTINUOUS
 62
     7
 10
-12.00000000000009
 20
-97.3196059467415
 11
-11.00000000000012
 21
-97.3196059467415
  0
LINE
  8
0
  6
CONTINUOUS
 62
     7
 10
-11.00000000000012
 20
-95.8196059467415
 11
-12.00000000000009
 21
-95.8196059467415
  0
LINE
  8
0
  6
CONTINUOUS
 62
     7
 10
11.9999999999999
 20
-97.3196059467415
 11
15.50000000000001
 21
-97.3196059467415
  0
LINE
  8
0
  6
CONTINUOUS
 62
     7
 10
11.9999999999999
 20
-95.8196059467415
 11
15.50000000000001
 21
-95.8196059467415
  0
LINE
  8
0
  6
CONTINUOUS
 62
     7
 10
-15.5000000000001
 20
-97.3196059467415
 11
-12.00000000000009
 21
-97.3196059467415
  0
LINE
  8
0
  6
CONTINUOUS
 62
     7
 10
-15.5000000000001
 20
-95.8196059467415
 11
-12.00000000000009
 21
-95.8196059467415
  0
LINE
  8
0
  6
CONTINUOUS
 62
     7
 10
-15.16745844733672
 20
-95.61960594674152
 11
-15.16745844733672
 21
-95.8196059467415
  0
LINE
  8
0
  6
CONTINUOUS
 62
     7
 10
-14.25642844733668
 20
-95.61960594674152
 11
-14.25642844733668
 21
-95.8196059467415
  0
LINE
  8
0
  6
CONTINUOUS
 62
     7
 10
-14.25642844733668
 20
-95.61960594674152
 11
-15.16745844733672
 21
-95.61960594674152
  0
LINE
  8
0
  6
CONTINUOUS
 62
     7
 10
-12.3365874473367
 20
-95.61960594674152
 11
-12.3365874473367
 21
-95.8196059467415
  0
LINE
  8
0
  6
CONTINUOUS
 62
     7
 10
-12.3365874473367
 20
-95.61960594674152
 11
-14.25642844733668
 21
-95.61960594674152
  0
LINE
  8
0
  6
CONTINUOUS
 62
     7
 10
-15.589949666027
 20
-103.3196059467415
 11
-15.5357142857144
 21
-97.3196059467415
  0
LINE
  8
0
  6
CONTINUOUS
 62
     7
 10
-16.6047303895693
 20
-103.3196059467415
 11
-15.589949666027
 21
-103.3196059467415
  0
LINE
  8
0
  6
CONTINUOUS
 62
     7
 10
15.58994966602689
 20
-103.3196059467415
 11
15.53571428571432
 21
-97.3196059467415
  0
LINE
  8
0
  6
CONTINUOUS
 62
     7
 10
15.58994966602689
 20
-103.3196059467415
 11
16.60473038956928
 21
-103.3196059467415
  0
LINE
  8
0
  6
CONTINUOUS
 62
     7
 10
-15.589949666027
 20
-103.3196059467415
 11
15.58994966602689
 21
-103.3196059467415
  0
LINE
  8
0
  6
CONTINUOUS
 62
     7
 10
17.9999999999999
 20
-112.8196059467415
 11
16.4999999999999
 21
-112.8196059467415
  0
LINE
  8
0
  6
CONTINUOUS
 62
     7
 10
16.50000000000001
 20
-111.3196059467415
 11
16.4999999999999
 21
-112.8196059467415
  0
LINE
  8
0
  6
CONTINUOUS
 62
     7
 10
16.62218545449751
 20
-104.3196059467415
 11
16.50000000000001
 21
-111.3196059467415
  0
LINE
  8
0
  6
CONTINUOUS
 62
     7
 10
16.62218545449751
 20
-103.3196059467415
 11
16.62218545449751
 21
-104.3196059467415
  0
LINE
  8
0
  6
CONTINUOUS
 62
     7
 10
16.62218545449751
 20
-103.3196059467415
 11
17.37218545449751
 21
-103.3196059467415
  0
LINE
  8
0
  6
CONTINUOUS
 62
     7
 10
17.37218545449751
 20
-103.3196059467415
 11
17.37218545449751
 21
-104.3196059467415
  0
LINE
  8
0
  6
CONTINUOUS
 62
     7
 10
18.14836805188982
 20
-104.3196059467415
 11
17.42218545449747
 21
-104.3196059467415
  0
LINE
  8
0
  6
CONTINUOUS
 62
     7
 10
17.42218545449747
 20
-104.3196059467415
 11
17.37218545449751
 21
-104.3196059467415
  0
LINE
  8
0
  6
CONTINUOUS
 62
     7
 10
18.14836805188982
 20
-104.3196059467415
 11
17.9999999999999
 21
-112.8196059467415
  0
LINE
  8
0
  6
CONTINUOUS
 62
     7
 10
-17.99999999999999
 20
-112.8196059467415
 11
-18.14836805188991
 21
-104.3196059467415
  0
LINE
  8
0
  6
CONTINUOUS
 62
     7
 10
-17.37218545449748
 20
-103.3196059467415
 11
-17.37218545449748
 21
-104.3196059467415
  0
LINE
  8
0
  6
CONTINUOUS
 62
     7
 10
-17.37218545449748
 20
-103.3196059467415
 11
-16.62218545449748
 21
-103.3196059467415
  0
LINE
  8
0
  6
CONTINUOUS
 62
     7
 10
-16.62218545449748
 20
-103.3196059467415
 11
-16.62218545449748
 21
-104.3196059467415
  0
LINE
  8
0
  6
CONTINUOUS
 62
     7
 10
-16.49999999999999
 20
-111.3196059467415
 11
-16.62218545449748
 21
-104.3196059467415
  0
LINE
  8
0
  6
CONTINUOUS
 62
     7
 10
-16.49999999999999
 20
-111.3196059467415
 11
-16.5000000000001
 21
-112.8196059467415
  0
LINE
  8
0
  6
CONTINUOUS
 62
     7
 10
-16.5000000000001
 20
-112.8196059467415
 11
-17.99999999999999
 21
-112.8196059467415
  0
LINE
  8
0
  6
CONTINUOUS
 62
     7
 10
-17.37218545449748
 20
-104.3196059467415
 11
-17.42218545449758
 21
-104.3196059467415
  0
LINE
  8
0
  6
CONTINUOUS
 62
     7
 10
-17.42218545449758
 20
-104.3196059467415
 11
-18.14836805188991
 21
-104.3196059467415
  0
LINE
  8
0
  6
CONTINUOUS
 62
     7
 10
-9.525954105326722
 20
-112.819605946742
 11
-11.00000000000012
 21
-112.8196059467415
  0
LINE
  8
0
  6
CONTINUOUS
 62
     7
 10
-11.00000000000012
 20
-112.8196059467415
 11
-11.0000000000002
 21
-111.3196059467416
  0
LINE
  8
0
  6
CONTINUOUS
 62
     7
 10
-11.0000000000002
 20
-111.3196059467416
 11
-10.97381740260789
 21
-109.8196059467415
  0
LINE
  8
0
  6
CONTINUOUS
 62
     7
 10
10.97381740260781
 20
-109.8196059467416
 11
11.00000000000001
 21
-111.3196059467416
  0
LINE
  8
0
  6
CONTINUOUS
 62
     7
 10
9.525954105326612
 20
-112.8196059467415
 11
9.499771507934296
 21
-111.319605946742
  0
LINE
  8
0
  6
CONTINUOUS
 62
     7
 10
9.499771507934296
 20
-111.319605946742
 11
-9.499771507934407
 21
-111.319605946742
  0
LINE
  8
0
  6
CONTINUOUS
 62
     7
 10
-9.499771507934407
 20
-111.319605946742
 11
-9.525954105326722
 21
-112.819605946742
  0
LINE
  8
0
  6
CONTINUOUS
 62
     7
 10
10.97381740260781
 20
-109.8196059467416
 11
-10.97381740260789
 21
-109.8196059467415
  0
LINE
  8
0
  6
CONTINUOUS
 62
     7
 10
10.9999999999999
 20
-112.8196059467415
 11
11.00000000000001
 21
-111.3196059467416
  0
LINE
  8
0
  6
CONTINUOUS
 62
     7
 10
10.9999999999999
 20
-112.8196059467415
 11
9.525954105326612
 21
-112.8196059467415
  0
LINE
  8
0
  6
CONTINUOUS
 62
     7
 10
-7.377357596171197
 20
-116.8457845563974
 11
7.377357596171197
 21
-116.8457845563974
  0
LINE
  8
0
  6
CONTINUOUS
 62
     7
 10
5.877586053436606
 20
-118.3196059467415
 11
-5.877586053436604
 21
-118.3196059467415
  0
LINE
  8
0
  6
CONTINUOUS
 62
     7
 10
15.50000000000001
 20
-112.8196059467415
 11
15.50000000000001
 21
-111.3196059467415
  0
LINE
  8
0
  6
CONTINUOUS
 62
     7
 10
16.50000000000001
 20
-111.3196059467415
 11
15.50000000000001
 21
-111.3196059467415
  0
LINE
  8
0
  6
CONTINUOUS
 62
     7
 10
15.50000000000001
 20
-112.8196059467415
 11
16.50000000000001
 21
-112.8196059467415
  0
LINE
  8
0
  6
CONTINUOUS
 62
     7
 10
11.9999999999999
 20
-111.3196059467415
 11
10.9999999999999
 21
-111.3196059467415
  0
LINE
  8
0
  6
CONTINUOUS
 62
     7
 10
11.9999999999999
 20
-111.3196059467415
 11
11.9999999999999
 21
-112.8196059467415
  0
LINE
  8
0
  6
CONTINUOUS
 62
     7
 10
10.9999999999999
 20
-112.8196059467415
 11
11.9999999999999
 21
-112.8196059467415
  0
LINE
  8
0
  6
CONTINUOUS
 62
     7
 10
-15.5000000000001
 20
-111.3196059467415
 11
-16.5000000000001
 21
-111.3196059467415
  0
LINE
  8
0
  6
CONTINUOUS
 62
     7
 10
-15.5000000000001
 20
-111.3196059467415
 11
-15.5000000000001
 21
-112.8196059467415
  0
LINE
  8
0
  6
CONTINUOUS
 62
     7
 10
-16.5000000000001
 20
-112.8196059467415
 11
-15.5000000000001
 21
-112.8196059467415
  0
LINE
  8
0
  6
CONTINUOUS
 62
     7
 10
-12.00000000000009
 20
-112.8196059467415
 11
-12.00000000000009
 21
-111.3196059467415
  0
LINE
  8
0
  6
CONTINUOUS
 62
     7
 10
-11.00000000000012
 20
-111.3196059467415
 11
-12.00000000000009
 21
-111.3196059467415
  0
LINE
  8
0
  6
CONTINUOUS
 62
     7
 10
-12.00000000000009
 20
-112.8196059467415
 11
-11.00000000000012
 21
-112.8196059467415
  0
LINE
  8
0
  6
CONTINUOUS
 62
     7
 10
-19.85000000000031
 20
-106.3196059467416
 11
-19.6500000000003
 21
-106.3196059467416
  0
LINE
  8
0
  6
CONTINUOUS
 62
     7
 10
-18.1500000000003
 20
-106.3196059467416
 11
-18.1134579220335
 21
-106.3196059467416
  0
LINE
  8
0
  6
CONTINUOUS
 62
     7
 10
-19.6500000000003
 20
-105.5339763453931
 11
-19.85000000000031
 21
-105.8196059467415
  0
LINE
  8
0
  6
CONTINUOUS
 62
     7
 10
-19.85000000000031
 20
-105.8196059467415
 11
-19.85000000000031
 21
-106.3196059467416
  0
LINE
  8
0
  6
CONTINUOUS
 62
     7
 10
-5.025725648061085
 20
-123.8457845563974
 11
5.025725648061003
 21
-123.8457845563974
  0
LINE
  8
0
  6
CONTINUOUS
 62
     7
 10
3.525954105326412
 20
-125.3196059467415
 11
-3.525954105326523
 21
-125.3196059467415
  0
LINE
  8
0
  6
CONTINUOUS
 62
     7
 10
11.9999999999999
 20
-111.3196059467415
 11
15.50000000000001
 21
-111.3196059467415
  0
LINE
  8
0
  6
CONTINUOUS
 62
     7
 10
15.50000000000001
 20
-112.8196059467415
 11
11.9999999999999
 21
-112.8196059467415
  0
LINE
  8
0
  6
CONTINUOUS
 62
     7
 10
-15.5000000000001
 20
-111.3196059467415
 11
-12.00000000000009
 21
-111.3196059467415
  0
LINE
  8
0
  6
CONTINUOUS
 62
     7
 10
-12.00000000000009
 20
-112.8196059467415
 11
-15.5000000000001
 21
-112.8196059467415
  0
LINE
  8
0
  6
CONTINUOUS
 62
     7
 10
15.59898889607911
 20
-104.3196059467415
 11
15.53571428571432
 21
-111.3196059467415
  0
LINE
  8
0
  6
CONTINUOUS
 62
     7
 10
16.62218545449751
 20
-104.3196059467415
 11
15.59898889607911
 21
-104.3196059467415
  0
LINE
  8
0
  6
CONTINUOUS
 62
     7
 10
-15.59898889607922
 20
-104.3196059467415
 11
-16.62218545449748
 21
-104.3196059467415
  0
LINE
  8
0
  6
CONTINUOUS
 62
     7
 10
-15.59898889607911
 20
-104.3196059467415
 11
-15.53571428571429
 21
-111.3196059467415
  0
LINE
  8
0
  6
CONTINUOUS
 62
     7
 10
15.59898889607911
 20
-103.3196059467415
 11
15.59898889607911
 21
-104.3196059467415
  0
LINE
  8
0
  6
CONTINUOUS
 62
     7
 10
-15.59898889607911
 20
-103.3196059467415
 11
-15.59898889607911
 21
-104.3196059467415
  0
LINE
  8
0
  6
CONTINUOUS
 62
     7
 10
15.59898889607911
 20
-104.3196059467415
 11
-15.59898889607922
 21
-104.3196059467415
  0
LINE
  8
0
  6
CONTINUOUS
 62
     7
 10
7.973817402607608
 20
-97.31960594674109
 11
7.912267726027627
 21
-93.79342733708556
  0
LINE
  8
0
  6
CONTINUOUS
 62
     7
 10
-7.912267726027683
 20
-93.79342733708556
 11
-7.973817402607692
 21
-97.31960594674109
  0
ARC
  8
0
  6
CONTINUOUS
 62
     7
 10
6.412496183293009
 20
-93.8196059467415
 40
1.500000000000001
 50
0.9999999999999835
 51
90.00000000000001
  0
ARC
  8
0
  6
CONTINUOUS
 62
     7
 10
-6.41249618329312
 20
-93.8196059467415
 40
1.500000000000001
 50
90.00000000000001
 51
179.0000000000001
  0
LINE
  8
0
  6
CONTINUOUS
 62
     7
 10
-7.473817402607691
 20
-111.319605946742
 11
-7.377357596171197
 21
-116.8457845563974
  0
LINE
  8
0
  6
CONTINUOUS
 62
     7
 10
7.377357596171197
 20
-116.8457845563974
 11
7.473817402607607
 21
-111.319605946742
  0
ARC
  8
0
  6
CONTINUOUS
 62
     7
 10
5.877586053436606
 20
-116.8196059467415
 40
1.500000000000001
 50
270.0
 51
358.9999999999999
  0
ARC
  8
0
  6
CONTINUOUS
 62
     7
 10
-5.877586053436606
 20
-116.8196059467415
 40
1.500000000000001
 50
181.0
 51
270.0
  0
LINE
  8
0
  6
CONTINUOUS
 62
     7
 10
-5.122185454497497
 20
-118.3196059467415
 11
-5.025725648061085
 21
-123.8457845563974
  0
LINE
  8
0
  6
CONTINUOUS
 62
     7
 10
5.025725648061003
 20
-123.8457845563974
 11
5.122185454497497
 21
-118.3196059467415
  0
ARC
  8
0
  6
CONTINUOUS
 62
     7
 10
3.525954105326412
 20
-123.8196059467415
 40
1.500000000000001
 50
270.0
 51
359.0000000000018
  0
ARC
  8
0
  6
CONTINUOUS
 62
     7
 10
-3.525954105326523
 20
-123.8196059467415
 40
1.500000000000001
 50
180.9999999999983
 51
270.0
  0
CIRCLE
  8
0
  6
CONTINUOUS
 62
     7
 10
0.0
 20
0.0
 40
6.412496183293037
  0
CIRCLE
  8
0
  6
CONTINUOUS
 62
     7
 10
0.0
 20
0.0
 40
7.912267726027627
  0
CIRCLE
  8
0
  6
CONTINUOUS
 62
     7
 10
0.0
 20
0.0
 40
7.973817402607663
  0
LINE
  8
0
  6
CONTINUOUS
 62
     7
 10
-14.46744344733669
 20
3.302696406116495
 11
-14.46744344733669
 21
3.708934406116498
  0
LINE
  8
0
  6
CONTINUOUS
 62
     7
 10
-14.46744344733669
 20
3.708934406116498
 11
-15.16745844733672
 21
3.991966406116515
  0
LINE
  8
0
  6
CONTINUOUS
 62
     7
 10
-15.16745844733672
 20
3.991966406116515
 11
-15.16745844733672
 21
4.559253406116515
  0
LINE
  8
0
  6
CONTINUOUS
 62
     7
 10
-15.16745844733672
 20
4.559253406116515
 11
-13.26200644733672
 21
3.789499406116503
  0
LINE
  8
0
  6
CONTINUOUS
 62
     7
 10
-13.26200644733672
 20
3.789499406116503
 11
-14.46744344733669
 21
3.302696406116495
  0
LINE
  8
0
  6
CONTINUOUS
 62
     7
 10
-15.16745844733672
 20
-1.128477593883487
 11
-15.16745844733672
 21
-0.4354495938835024
  0
LINE
  8
0
  6
CONTINUOUS
 62
     7
 10
-15.16745844733672
 20
-0.4354495938835024
 11
-13.72330944733668
 21
0.1481264061165277
  0
LINE
  8
0
  6
CONTINUOUS
 62
     7
 10
-12.3365874473367
 20
-1.704656593883497
 11
-12.3365874473367
 21
-2.272163593883492
  0
LINE
  8
0
  6
CONTINUOUS
 62
     7
 10
-12.3365874473367
 20
-2.272163593883492
 11
-15.16745844733672
 21
-1.128477593883487
  0
LINE
  8
0
  6
CONTINUOUS
 62
     7
 10
-14.62028344733671
 20
-0.7818755938834854
 11
-12.3365874473367
 21
-1.704656593883497
  0
LINE
  8
0
  6
CONTINUOUS
 62
     7
 10
-13.02085344733672
 20
-0.1356335938834663
 11
-14.62028344733671
 21
-0.7818755938834854
  0
LINE
  8
0
  6
CONTINUOUS
 62
     7
 10
-13.72330944733668
 20
0.1481264061165277
 11
-13.02085344733672
 21
-0.1356335938834663
  0
LINE
  8
0
  6
CONTINUOUS
 62
     7
 10
-15.16745844733672
 20
0.3437994061165073
 11
-15.16745844733672
 21
0.911284406116486
  0
LINE
  8
0
  6
CONTINUOUS
 62
     7
 10
-15.16745844733672
 20
0.911284406116486
 11
-12.3365874473367
 21
2.055153406116533
  0
LINE
  8
0
  6
CONTINUOUS
 62
     7
 10
-12.3365874473367
 20
2.055153406116533
 11
-12.3365874473367
 21
1.487666406116528
  0
LINE
  8
0
  6
CONTINUOUS
 62
     7
 10
-12.3365874473367
 20
1.487666406116528
 11
-15.16745844733672
 21
0.3437994061165073
  0
LINE
  8
0
  6
CONTINUOUS
 62
     7
 10
-15.16745844733672
 20
2.257982406116493
 11
-12.3365874473367
 21
3.401689406116515
  0
LINE
  8
0
  6
CONTINUOUS
 62
     7
 10
-12.3365874473367
 20
3.401689406116515
 11
-12.3365874473367
 21
2.834422406116532
  0
LINE
  8
0
  6
CONTINUOUS
 62
     7
 10
-12.3365874473367
 20
2.834422406116532
 11
-15.16745844733672
 21
1.690555406116512
  0
LINE
  8
0
  6
CONTINUOUS
 62
     7
 10
-15.16745844733672
 20
1.690555406116512
 11
-15.16745844733672
 21
2.257982406116493
  0
LINE
  8
0
  6
CONTINUOUS
 62
     7
 10
-14.9267124473367
 20
-2.004989593883483
 11
-14.9267124473367
 21
-2.36805059388348
  0
LINE
  8
0
  6
CONTINUOUS
 62
     7
 10
-12.3365874473367
 20
-3.734160593883512
 11
-14.25642844733668
 21
-3.734160593883512
  0
ARC
  8
0
  6
CONTINUOUS
 62
     7
 10
-14.25642844733668
 20
-2.823130593883477
 40
0.9110300000000071
 50
179.9999999999999
 51
270.0000000000001
  0
LINE
  8
0
  6
CONTINUOUS
 62
     7
 10
-15.16745844733672
 20
-2.823130593883477
 11
-15.16745844733672
 21
-1.907721593883471
  0
LINE
  8
0
  6
CONTINUOUS
 62
     7
 10
-15.16745844733672
 20
-1.907721593883471
 11
-14.9267124473367
 21
-2.004989593883483
  0
LINE
  8
0
  6
CONTINUOUS
 62
     7
 10
-12.3365874473367
 20
-3.142070593883495
 11
-12.3365874473367
 21
-3.734160593883512
  0
LINE
  8
0
  6
CONTINUOUS
 62
     7
 10
-14.1526924473368
 20
-3.142070593883495
 11
-12.3365874473367
 21
-3.142070593883495
  0
ARC
  8
0
  6
CONTINUOUS
 62
     7
 10
-14.1526924473368
 20
-2.36805059388348
 40
0.7740199999999864
 50
180.0
 51
270.0
  0
LINE
  8
0
  6
CONTINUOUS
 62
     7
 10
9.499771507934296
 20
5.195141254384916
 11
9.499771507934296
 21
-8.000000000000005
  0
LINE
  8
0
  6
CONTINUOUS
 62
     7
 10
9.525954105326612
 20
5.155614074588699
 11
9.499771507934296
 21
5.195141254384916
  0
LINE
  8
0
  6
CONTINUOUS
 62
     7
 10
9.525954105326612
 20
5.155614074588699
 11
9.525954105326612
 21
-8.000000000000007
  0
LINE
  8
0
  6
CONTINUOUS
 62
     7
 10
9.525954105326612
 20
-8.000000000000007
 11
9.499771507934296
 21
-8.000000000000007
  0
LINE
  8
0
  6
CONTINUOUS
 62
     7
 10
-9.525954105326722
 20
5.155614074588616
 11
-9.525954105326722
 21
-8.000000000000007
  0
LINE
  8
0
  6
CONTINUOUS
 62
     7
 10
-9.499771507934296
 20
5.195141254384916
 11
-9.525954105326722
 21
5.155614074588616
  0
LINE
  8
0
  6
CONTINUOUS
 62
     7
 10
-9.499771507934296
 20
5.195141254384916
 11
-9.499771507934296
 21
-8.000000000000005
  0
LINE
  8
0
  6
CONTINUOUS
 62
     7
 10
-9.499771507934296
 20
-8.000000000000007
 11
-9.525954105326722
 21
-8.000000000000007
  0
LINE
  8
0
  6
CONTINUOUS
 62
     7
 10
-11.00000000000012
 20
-8.000000000000007
 11
-11.00000000000012
 21
-6.000000000000005
  0
ARC
  8
0
  6
CONTINUOUS
 62
     7
 10
-12.00000000000009
 20
-6.000000000000005
 40
1.000000000000001
 50
0.0
 51
90.0
  0
LINE
  8
0
  6
CONTINUOUS
 62
     7
 10
-15.5000000000001
 20
-5.000000000000004
 11
-12.00000000000009
 21
-5.000000000000004
  0
ARC
  8
0
  6
CONTINUOUS
 62
     7
 10
-15.5000000000001
 20
-6.000000000000005
 40
1.000000000000001
 50
90.0
 51
180.0000000000001
  0
LINE
  8
0
  6
CONTINUOUS
 62
     7
 10
-16.5000000000001
 20
-8.000000000000007
 11
-16.5000000000001
 21
-6.000000000000005
  0
LINE
  8
0
  6
CONTINUOUS
 62
     7
 10
-16.5000000000001
 20
-8.000000000000007
 11
-18.0000000000001
 21
-8.000000000000007
  0
LINE
  8
0
  6
CONTINUOUS
 62
     7
 10
-18.0000000000001
 20
-8.000000000000007
 11
-18.0000000000001
 21
1.953379569649914
  0
ARC
  8
0
  6
CONTINUOUS
 62
     7
 10
-14.50061184711238
 20
1.953423969737716
 40
3.499388153169303
 50
121.1885101360129
 51
180.0007269664095
  0
ARC
  8
0
  6
CONTINUOUS
 62
     7
 10
0.0
 20
-21.99999999999999
 40
31.5
 50
112.99781029007
 51
121.189237102423
  0
ARC
  8
0
  6
CONTINUOUS
 62
     7
 10
-11.52546197869822
 20
5.155897370020812
 40
1.999507893440527
 50
359.991882186248
 51
113.0059281038213
  0
LINE
  8
0
  6
CONTINUOUS
 62
     7
 10
-9.525954105326722
 20
-8.000000000000007
 11
-11.00000000000012
 21
-8.000000000000007
  0
LINE
  8
0
  6
CONTINUOUS
 62
     7
 10
-12.30692238321579
 20
6.996373246554499
 11
-12.27827376362889
 21
7.036945131151495
  0
ARC
  8
0
  6
CONTINUOUS
 62
     7
 10
-11.4992800625891
 20
5.195423110289199
 40
1.999508574520359
 50
359.9919234385869
 51
112.9291508168552
  0
ARC
  8
0
  6
CONTINUOUS
 62
     7
 10
14.50061184712609
 20
1.953423969745433
 40
3.499388153155508
 50
359.9992730334633
 51
58.81148986411358
  0
LINE
  8
0
  6
CONTINUOUS
 62
     7
 10
17.9999999999999
 20
1.953379569649916
 11
17.9999999999999
 21
-8.000000000000005
  0
LINE
  8
0
  6
CONTINUOUS
 62
     7
 10
17.9999999999999
 20
-8.000000000000007
 11
16.4999999999999
 21
-8.000000000000007
  0
LINE
  8
0
  6
CONTINUOUS
 62
     7
 10
16.4999999999999
 20
-6.000000000000005
 11
16.4999999999999
 21
-8.000000000000007
  0
ARC
  8
0
  6
CONTINUOUS
 62
     7
 10
15.50000000000001
 20
-6.000000000000005
 40
0.9999999999999731
 50
0.0000000000001137
 51
90.0
  0
LINE
  8
0
  6
CONTINUOUS
 62
     7
 10
11.9999999999999
 20
-5.000000000000004
 11
15.50000000000001
 21
-5.000000000000004
  0
ARC
  8
0
  6
CONTINUOUS
 62
     7
 10
11.9999999999999
 20
-6.000000000000005
 40
1.000000000000001
 50
90.0
 51
180.0
  0
LINE
  8
0
  6
CONTINUOUS
 62
     7
 10
10.9999999999999
 20
-6.000000000000005
 11
10.9999999999999
 21
-8.000000000000007
  0
ARC
  8
0
  6
CONTINUOUS
 62
     7
 10
11.52546197900259
 20
5.155897369560819
 40
1.999507893744978
 50
66.99407190936216
 51
180.0081178005689
  0
ARC
  8
0
  6
CONTINUOUS
 62
     7
 10
0.0
 20
-21.99999999999999
 40
31.5
 50
58.81076289757699
 51
67.00218970993
  0
LINE
  8
0
  6
CONTINUOUS
 62
     7
 10
10.9999999999999
 20
-8.000000000000007
 11
9.525954105326612
 21
-8.000000000000007
  0
LINE
  8
0
  6
CONTINUOUS
 62
     7
 10
12.27827376362881
 20
7.036945131151495
 11
12.30692238321571
 21
6.996373246554499
  0
ARC
  8
0
  6
CONTINUOUS
 62
     7
 10
11.49928006229559
 20
5.195423110732011
 40
1.999508574226899
 50
67.07084917045609
 51
180.0080765741038
  0
LINE
  8
0
  6
CONTINUOUS
 62
     7
 10
18.14836805188982
 20
2.036853583793907
 11
17.9999999999999
 21
1.953379569649916
  0
LINE
  8
0
  6
CONTINUOUS
 62
     7
 10
16.3127891357219
 20
4.947038995286118
 11
16.47005018801712
 21
5.025111417940126
  0
ARC
  8
0
  6
CONTINUOUS
 62
     7
 10
14.64897939567411
 20
2.036897547003313
 40
3.499388656491909
 50
359.9992801867419
 51
58.64112561864182
  0
LINE
  8
0
  6
CONTINUOUS
 62
     7
 10
-16.4700501880172
 20
5.025111417940126
 11
-16.31278913572198
 21
4.947038995286118
  0
ARC
  8
0
  6
CONTINUOUS
 62
     7
 10
0.0
 20
-21.99999999999999
 40
31.64836805188986
 50
58.640405805383
 51
121.359594194617
  0
ARC
  8
0
  6
CONTINUOUS
 62
     7
 10
0.0
 20
-21.99999999999999
 40
31.52618259739231
 50
67.078925744559
 51
112.9210742554411
  0
LINE
  8
0
  6
CONTINUOUS
 62
     7
 10
18.14836805188982
 20
2.036853583793907
 11
18.14836805188982
 21
-8.000000000000005
  0
LINE
  8
0
  6
CONTINUOUS
 62
     7
 10
18.14836805188982
 20
-8.000000000000007
 11
17.9999999999999
 21
-8.000000000000007
  0
LINE
  8
0
  6
CONTINUOUS
 62
     7
 10
-18.0000000000001
 20
1.953379569649916
 11
-18.14836805188991
 21
2.036853583793907
  0
ARC
  8
0
  6
CONTINUOUS
 62
     7
 10
-14.64897939568952
 20
2.036897547011918
 40
3.499388656476532
 50
121.358874381217
 51
180.0007198134003
  0
LINE
  8
0
  6
CONTINUOUS
 62
     7
 10
-18.1134579220335
 20
2.000000000000002
 11
-18.09600285710522
 21
1.000000000000001
  0
LINE
  8
0
  6
CONTINUOUS
 62
     7
 10
-18.14836805188991
 20
2.000000000000002
 11
-18.14836805188991
 21
2.036853583793907
  0
LINE
  8
0
  6
CONTINUOUS
 62
     7
 10
-18.09600285710522
 20
-7.000000000000006
 11
-18.1134579220335
 21
-8.000000000000007
  0
LINE
  8
0
  6
CONTINUOUS
 62
     7
 10
-18.09600285710522
 20
1.000000000000001
 11
-18.09600285710522
 21
-7.000000000000006
  0
LINE
  8
0
  6
CONTINUOUS
 62
     7
 10
-18.0000000000001
 20
-8.000000000000007
 11
-18.1134579220335
 21
-8.000000000000007
  0
LINE
  8
0
  6
CONTINUOUS
 62
     7
 10
9.499771507934296
 20
-8.000000000000007
 11
-9.499771507934296
 21
-8.000000000000007
  0
LINE
  8
0
  6
CONTINUOUS
 62
     7
 10
-18.6500000000003
 20
-7.000000000000006
 11
-18.6500000000003
 21
-8.000000000000007
  0
ARC
  8
0
  6
CONTINUOUS
 62
     7
 10
-18.6500000000003
 20
-7.000000000000006
 40
1.000000000000001
 50
180.0
 51
270.0
  0
LINE
  8
0
  6
CONTINUOUS
 62
     7
 10
-19.6500000000003
 20
-7.000000000000006
 11
-18.6500000000003
 21
-7.000000000000006
  0
LINE
  8
0
  6
CONTINUOUS
 62
     7
 10
-18.6500000000003
 20
2.000000000000002
 11
-18.6500000000003
 21
1.000000000000001
  0
LINE
  8
0
  6
CONTINUOUS
 62
     7
 10
-18.6500000000003
 20
1.000000000000001
 11
-19.6500000000003
 21
1.000000000000001
  0
ARC
  8
0
  6
CONTINUOUS
 62
     7
 10
-18.6500000000003
 20
1.000000000000001
 40
1.000000000000001
 50
90.0
 51
180.0
  0
LINE
  8
0
  6
CONTINUOUS
 62
     7
 10
-19.6500000000003
 20
1.000000000000001
 11
-19.6500000000003
 21
-7.000000000000006
  0
LINE
  8
0
  6
CONTINUOUS
 62
     7
 10
-18.6500000000003
 20
1.000000000000001
 11
-18.6500000000003
 21
-7.000000000000006
  0
LINE
  8
0
  6
CONTINUOUS
 62
     7
 10
-18.6500000000003
 20
-7.000000000000006
 11
-18.09600285710522
 21
-7.000000000000006
  0
LINE
  8
0
  6
CONTINUOUS
 62
     7
 10
-18.1134579220335
 20
-8.000000000000007
 11
-18.6500000000003
 21
-8.000000000000007
  0
LINE
  8
0
  6
CONTINUOUS
 62
     7
 10
-18.09600285710522
 20
1.000000000000001
 11
-18.6500000000003
 21
1.000000000000001
  0
LINE
  8
0
  6
CONTINUOUS
 62
     7
 10
-18.6500000000003
 20
2.000000000000002
 11
-18.1134579220335
 21
2.000000000000002
  0
LINE
  8
0
  6
CONTINUOUS
 62
     7
 10
-18.14836805188991
 20
2.000000000000002
 11
-18.14836805188991
 21
2.036853583793907
  0
ARC
  8
0
  6
CONTINUOUS
 62
     7
 10
-14.6489793956755
 20
2.036897547004118
 40
3.499388656490493
 50
121.3588743813453
 51
180.0007198132716
  0
ARC
  8
0
  6
CONTINUOUS
 62
     7
 10
0.0
 20
-21.99999999999999
 40
31.64836805188986
 50
58.640405805383
 51
121.359594194617
  0
ARC
  8
0
  6
CONTINUOUS
 62
     7
 10
14.64897939568679
 20
2.036897547010391
 40
3.499388656479197
 50
359.9992801866248
 51
58.6411256187585
  0
LINE
  8
0
  6
CONTINUOUS
 62
     7
 10
18.14836805188982
 20
2.036853583793907
 11
18.14836805188982
 21
-8.000000000000005
  0
LINE
  8
0
  6
CONTINUOUS
 62
     7
 10
-19.6500000000003
 20
-5.500000000000004
 11
-19.85000000000031
 21
-5.500000000000004
  0
LINE
  8
0
  6
CONTINUOUS
 62
     7
 10
-19.85000000000031
 20
-5.500000000000004
 11
-19.85000000000031
 21
-0.5000000000000004
  0
LINE
  8
0
  6
CONTINUOUS
 62
     7
 10
-19.6500000000003
 20
-0.5000000000000004
 11
-19.85000000000031
 21
-0.5000000000000004
  0
ARC
  8
0
  6
CONTINUOUS
 62
     7
 10
-109.24549494768
 20
-7.000000000000006
 40
1.000000000000001
 50
270.0
 51
0.0
  0
LINE
  8
0
  6
CONTINUOUS
 62
     7
 10
-109.24549494768
 20
-7.000000000000006
 11
-109.24549494768
 21
-8.000000000000007
  0
LINE
  8
0
  6
CONTINUOUS
 62
     7
 10
-109.24549494768
 20
-7.000000000000006
 11
-108.24549494768
 21
-7.000000000000006
  0
ARC
  8
0
  6
CONTINUOUS
 62
     7
 10
-109.24549494768
 20
1.000000000000001
 40
1.000000000000001
 50
0.0
 51
90.0
  0
LINE
  8
0
  6
CONTINUOUS
 62
     7
 10
-108.24549494768
 20
1.000000000000001
 11
-109.24549494768
 21
1.000000000000001
  0
LINE
  8
0
  6
CONTINUOUS
 62
     7
 10
-109.24549494768
 20
2.000000000000002
 11
-109.24549494768
 21
1.000000000000001
  0
LINE
  8
0
  6
CONTINUOUS
 62
     7
 10
-115.2454949476802
 20
-7.000000000000006
 11
-109.24549494768
 21
-7.000000000000006
  0
LINE
  8
0
  6
CONTINUOUS
 62
     7
 10
-115.2454949476802
 20
1.000000000000001
 11
-115.2454949476802
 21
-7.000000000000006
  0
LINE
  8
0
  6
CONTINUOUS
 62
     7
 10
-109.24549494768
 20
1.000000000000001
 11
-115.2454949476802
 21
1.000000000000001
  0
LINE
  8
0
  6
CONTINUOUS
 62
     7
 10
-109.24549494768
 20
1.000000000000001
 11
-109.24549494768
 21
-7.000000000000006
  0
LINE
  8
0
  6
CONTINUOUS
 62
     7
 10
-113.2954949476801
 20
-0.299999999999967
 11
-113.2954949476801
 21
-5.699999999999982
  0
LINE
  8
0
  6
CONTINUOUS
 62
     7
 10
-113.2954949476801
 20
-5.699999999999982
 11
-111.2454949476801
 21
-5.699999999999982
  0
LINE
  8
0
  6
CONTINUOUS
 62
     7
 10
-111.2454949476801
 20
-0.299999999999967
 11
-111.2454949476801
 21
-5.699999999999982
  0
LINE
  8
0
  6
CONTINUOUS
 62
     7
 10
-111.2454949476801
 20
-0.299999999999967
 11
-113.2954949476801
 21
-0.299999999999967
  0
LINE
  8
0
  6
CONTINUOUS
 62
     7
 10
-115.2454949476802
 20
2.000000000000002
 11
-115.2454949476802
 21
1.000000000000001
  0
LINE
  8
0
  6
CONTINUOUS
 62
     7
 10
-115.2454949476802
 20
1.000000000000001
 11
-116.2454949476802
 21
1.000000000000001
  0
ARC
  8
0
  6
CONTINUOUS
 62
     7
 10
-115.2454949476802
 20
1.000000000000001
 40
1.000000000000001
 50
89.99999999999986
 51
180.0
  0
LINE
  8
0
  6
CONTINUOUS
 62
     7
 10
-115.2454949476802
 20
-7.000000000000006
 11
-115.2454949476802
 21
-8.000000000000007
  0
ARC
  8
0
  6
CONTINUOUS
 62
     7
 10
-115.2454949476802
 20
-7.000000000000006
 40
1.000000000000001
 50
180.0
 51
270.0000000000002
  0
LINE
  8
0
  6
CONTINUOUS
 62
     7
 10
-116.2454949476802
 20
-7.000000000000006
 11
-115.2454949476802
 21
-7.000000000000006
  0
LINE
  8
0
  6
CONTINUOUS
 62
     7
 10
-109.24549494768
 20
-8.000000000000007
 11
-115.2454949476802
 21
-8.000000000000007
  0
LINE
  8
0
  6
CONTINUOUS
 62
     7
 10
-116.2454949476802
 20
1.000000000000001
 11
-116.2454949476802
 21
-7.000000000000006
  0
LINE
  8
0
  6
CONTINUOUS
 62
     7
 10
-115.2454949476802
 20
2.000000000000002
 11
-109.24549494768
 21
2.000000000000002
  0
LINE
  8
0
  6
CONTINUOUS
 62
     7
 10
-108.24549494768
 20
1.000000000000001
 11
-108.24549494768
 21
-7.000000000000006
  0
LINE
  8
0
  6
CONTINUOUS
 62
     7
 10
-111.24549494768
 20
5.025111417940126
 11
-102.74549494768
 21
4.947038995286118
  0
LINE
  8
0
  6
CONTINUOUS
 62
     7
 10
-102.74549494768
 20
4.947038995286118
 11
-102.74549494768
 21
1.953379569649916
  0
LINE
  8
0
  6
CONTINUOUS
 62
     7
 10
-102.74549494768
 20
1.953379569649916
 11
-109.21900912956
 21
2.016978875108294
  0
LINE
  8
0
  6
CONTINUOUS
 62
     7
 10
-109.21900912956
 20
2.016978875108294
 11
-111.24549494768
 21
2.036853583793907
  0
LINE
  8
0
  6
CONTINUOUS
 62
     7
 10
-111.24549494768
 20
2.036853583793907
 11
-111.24549494768
 21
2.086873383020105
  0
LINE
  8
0
  6
CONTINUOUS
 62
     7
 10
-111.24549494768
 20
2.086873383020105
 11
-111.24549494768
 21
5.025111417940126
  0
LINE
  8
0
  6
CONTINUOUS
 62
     7
 10
-102.74549494768
 20
-8.000000000000007
 11
-102.74549494768
 21
1.953379569649914
  0
LINE
  8
0
  6
CONTINUOUS
 62
     7
 10
-111.2454949476801
 20
2.000000000000002
 11
-111.24549494768
 21
2.036853583793907
  0
LINE
  8
0
  6
CONTINUOUS
 62
     7
 10
-102.74549494768
 20
-8.000000000000007
 11
-109.24549494768
 21
-8.000000000000007
  0
LINE
  8
0
  6
CONTINUOUS
 62
     7
 10
-102.74549494768
 20
6.996373246554499
 11
-104.2454949476796
 21
7.036945131151495
  0
LINE
  8
0
  6
CONTINUOUS
 62
     7
 10
-104.2454949476796
 20
7.036945131151495
 11
-104.2454949476796
 21
9.526182597392324
  0
LINE
  8
0
  6
CONTINUOUS
 62
     7
 10
-102.74549494768
 20
4.947038995286118
 11
-102.74549494768
 21
6.996373246554499
  0
LINE
  8
0
  6
CONTINUOUS
 62
     7
 10
-111.24549494768
 20
5.025111417940126
 11
-111.24549494768
 21
9.648368051889816
  0
LINE
  8
0
  6
CONTINUOUS
 62
     7
 10
-102.54549494768
 20
-1.907721593883471
 11
-102.74549494768
 21
-1.907721593883471
  0
LINE
  8
0
  6
CONTINUOUS
 62
     7
 10
-102.54549494768
 20
-2.823130593883477
 11
-102.54549494768
 21
-1.907721593883471
  0
LINE
  8
0
  6
CONTINUOUS
 62
     7
 10
-102.54549494768
 20
-2.823130593883477
 11
-102.74549494768
 21
-2.823130593883477
  0
LINE
  8
0
  6
CONTINUOUS
 62
     7
 10
-102.54549494768
 20
0.911284406116486
 11
-102.74549494768
 21
0.911284406116486
  0
LINE
  8
0
  6
CONTINUOUS
 62
     7
 10
-102.54549494768
 20
0.3437994061165073
 11
-102.54549494768
 21
0.911284406116486
  0
LINE
  8
0
  6
CONTINUOUS
 62
     7
 10
-102.54549494768
 20
0.3437994061165073
 11
-102.74549494768
 21
0.3437994061165073
  0
LINE
  8
0
  6
CONTINUOUS
 62
     7
 10
-102.54549494768
 20
3.991966406116515
 11
-102.54549494768
 21
4.559253406116515
  0
LINE
  8
0
  6
CONTINUOUS
 62
     7
 10
-102.54549494768
 20
3.991966406116515
 11
-102.74549494768
 21
3.991966406116515
  0
LINE
  8
0
  6
CONTINUOUS
 62
     7
 10
-102.54549494768
 20
4.559253406116515
 11
-102.74549494768
 21
4.559253406116515
  0
LINE
  8
0
  6
CONTINUOUS
 62
     7
 10
-102.54549494768
 20
2.257982406116493
 11
-102.54549494768
 21
3.302696406116495
  0
LINE
  8
0
  6
CONTINUOUS
 62
     7
 10
-102.54549494768
 20
2.257982406116493
 11
-102.74549494768
 21
2.257982406116493
  0
LINE
  8
0
  6
CONTINUOUS
 62
     7
 10
-102.54549494768
 20
0.911284406116486
 11
-102.54549494768
 21
1.690555406116512
  0
LINE
  8
0
  6
CONTINUOUS
 62
     7
 10
-102.54549494768
 20
0.1481264061165277
 11
-102.74549494768
 21
0.1481264061165277
  0
LINE
  8
0
  6
CONTINUOUS
 62
     7
 10
-102.54549494768
 20
-0.4354495938835024
 11
-102.74549494768
 21
-0.4354495938835024
  0
LINE
  8
0
  6
CONTINUOUS
 62
     7
 10
-102.54549494768
 20
-0.4354495938835024
 11
-102.54549494768
 21
0.1481264061165277
  0
LINE
  8
0
  6
CONTINUOUS
 62
     7
 10
-102.54549494768
 20
-3.734160593883512
 11
-102.74549494768
 21
-3.734160593883512
  0
LINE
  8
0
  6
CONTINUOUS
 62
     7
 10
-102.54549494768
 20
-3.734160593883512
 11
-102.54549494768
 21
-2.823130593883477
  0
LINE
  8
0
  6
CONTINUOUS
 62
     7
 10
-102.54549494768
 20
-1.128477593883487
 11
-102.74549494768
 21
-1.128477593883487
  0
LINE
  8
0
  6
CONTINUOUS
 62
     7
 10
-102.54549494768
 20
-1.128477593883487
 11
-102.54549494768
 21
-0.4354495938835024
  0
LINE
  8
0
  6
CONTINUOUS
 62
     7
 10
-102.54549494768
 20
-1.907721593883471
 11
-102.54549494768
 21
-1.128477593883487
  0
LINE
  8
0
  6
CONTINUOUS
 62
     7
 10
-102.54549494768
 20
1.690555406116512
 11
-102.74549494768
 21
1.690555406116512
  0
LINE
  8
0
  6
CONTINUOUS
 62
     7
 10
-102.54549494768
 20
1.690555406116512
 11
-102.54549494768
 21
2.257982406116493
  0
LINE
  8
0
  6
CONTINUOUS
 62
     7
 10
-102.54549494768
 20
3.708934406116498
 11
-102.74549494768
 21
3.708934406116498
  0
LINE
  8
0
  6
CONTINUOUS
 62
     7
 10
-102.54549494768
 20
3.708934406116498
 11
-102.54549494768
 21
3.991966406116515
  0
LINE
  8
0
  6
CONTINUOUS
 62
     7
 10
-102.54549494768
 20
3.302696406116495
 11
-102.74549494768
 21
3.302696406116495
  0
LINE
  8
0
  6
CONTINUOUS
 62
     7
 10
-102.54549494768
 20
3.302696406116495
 11
-102.54549494768
 21
3.708934406116498
  0
LINE
  8
0
  6
CONTINUOUS
 62
     7
 10
-102.74549494768
 20
7.155233015784218
 11
-102.74549494768
 21
6.996373246554499
  0
LINE
  8
0
  6
CONTINUOUS
 62
     7
 10
-100.7193163380241
 20
-7.912267726027683
 11
-100.7193163380241
 21
7.9122677260276
  0
LINE
  8
0
  6
CONTINUOUS
 62
     7
 10
-99.24549494767999
 20
6.412496183293009
 11
-99.24549494767999
 21
-6.412496183293093
  0
LINE
  8
0
  6
CONTINUOUS
 62
     7
 10
-111.2454949476801
 20
-5.500000000000004
 11
-112.7454949476801
 21
-5.500000000000004
  0
LINE
  8
0
  6
CONTINUOUS
 62
     7
 10
-112.7454949476801
 20
-5.500000000000004
 11
-112.7454949476801
 21
-0.5000000000000004
  0
LINE
  8
0
  6
CONTINUOUS
 62
     7
 10
-111.24549494768
 20
-0.5000000000000004
 11
-112.7454949476801
 21
-0.5000000000000004
  0
LINE
  8
0
  6
CONTINUOUS
 62
     7
 10
-113.2454949476801
 20
-0.5000000000000004
 11
-113.2454949476801
 21
-5.500000000000004
  0
LINE
  8
0
  6
CONTINUOUS
 62
     7
 10
-112.7454949476801
 20
-0.5000000000000004
 11
-113.2454949476801
 21
-0.5000000000000004
  0
LINE
  8
0
  6
CONTINUOUS
 62
     7
 10
-112.7454949476801
 20
-5.500000000000004
 11
-113.2454949476801
 21
-5.500000000000004
  0
LINE
  8
0
  6
CONTINUOUS
 62
     7
 10
-111.24549494768
 20
2.036853583793907
 11
-115.0015054002161
 21
2.000003588293525
  0
LINE
  8
0
  6
CONTINUOUS
 62
     7
 10
-115.3201426361716
 20
1.996874853400499
 11
-119.74549494768
 21
1.953379569649916
  0
LINE
  8
0
  6
CONTINUOUS
 62
     7
 10
-119.74549494768
 20
1.953379569649916
 11
-119.74549494768
 21
4.947038995286118
  0
LINE
  8
0
  6
CONTINUOUS
 62
     7
 10
-119.74549494768
 20
4.947038995286118
 11
-111.24549494768
 21
5.025111417940126
  0
LINE
  8
0
  6
CONTINUOUS
 62
     7
 10
-111.24549494768
 20
5.025111417940126
 11
-111.24549494768
 21
2.0868743560358
  0
LINE
  8
0
  6
CONTINUOUS
 62
     7
 10
-111.24549494768
 20
2.0868743560358
 11
-111.24549494768
 21
2.036853583793907
  0
LINE
  8
0
  6
CONTINUOUS
 62
     7
 10
-119.74549494768
 20
-8.000000000000007
 11
-115.2454949476802
 21
-8.000000000000007
  0
LINE
  8
0
  6
CONTINUOUS
 62
     7
 10
-119.74549494768
 20
-8.000000000000007
 11
-119.74549494768
 21
1.953379569649914
  0
LINE
  8
0
  6
CONTINUOUS
 62
     7
 10
-111.24549494768
 20
2.000000000000002
 11
-111.24549494768
 21
2.036853583793907
  0
LINE
  8
0
  6
CONTINUOUS
 62
     7
 10
-118.2454949476805
 20
7.036945131151495
 11
-119.74549494768
 21
6.996373246554499
  0
LINE
  8
0
  6
CONTINUOUS
 62
     7
 10
-118.2454949476805
 20
7.036945131151495
 11
-118.2454949476805
 21
9.526182597392324
  0
LINE
  8
0
  6
CONTINUOUS
 62
     7
 10
-119.74549494768
 20
4.947038995286118
 11
-119.74549494768
 21
6.996373246554499
  0
LINE
  8
0
  6
CONTINUOUS
 62
     7
 10
-111.24549494768
 20
5.025111417940126
 11
-111.24549494768
 21
9.648368051889816
  0
LINE
  8
0
  6
CONTINUOUS
 62
     7
 10
-119.74549494768
 20
6.996373246554499
 11
-119.74549494768
 21
7.155012714745501
  0
LINE
  8
0
  6
CONTINUOUS
 62
     7
 10
-123.7716735573359
 20
7.377357596171086
 11
-123.7716735573359
 21
0.0
  0
LINE
  8
0
  6
CONTINUOUS
 62
     7
 10
-123.7716735573359
 20
0.0
 11
-123.7716735573359
 21
-7.377357596171169
  0
LINE
  8
0
  6
CONTINUOUS
 62
     7
 10
-125.24549494768
 20
-5.877586053436606
 11
-125.24549494768
 21
5.877586053436604
  0
LINE
  8
0
  6
CONTINUOUS
 62
     7
 10
-130.7716735573359
 20
5.025725648061003
 11
-130.7716735573359
 21
-5.025725648061085
  0
LINE
  8
0
  6
CONTINUOUS
 62
     7
 10
-132.24549494768
 20
-3.525954105326495
 11
-132.24549494768
 21
3.525954105326412
  0
LINE
  8
0
  6
CONTINUOUS
 62
     7
 10
-104.2454949476796
 20
9.526182597392324
 11
-111.24549494768
 21
9.648368051889816
  0
LINE
  8
0
  6
CONTINUOUS
 62
     7
 10
-102.7173605229584
 20
7.153510920148626
 11
-104.2641797847339
 21
7.194241715814009
  0
LINE
  8
0
  6
CONTINUOUS
 62
     7
 10
-102.74549494768
 20
-7.947634805215375
 11
-100.7193163380241
 21
-7.912267726027683
  0
LINE
  8
0
  6
CONTINUOUS
 62
     7
 10
-100.7193163380241
 20
7.9122677260276
 11
-104.2454949476796
 21
7.973817402607608
  0
ARC
  8
0
  6
CONTINUOUS
 62
     7
 10
-100.74549494768
 20
-6.412496183293093
 40
1.500000000000001
 50
271.0
 51
0.0
  0
ARC
  8
0
  6
CONTINUOUS
 62
     7
 10
-100.74549494768
 20
6.412496183293009
 40
1.500000000000001
 50
0.0
 51
89.00000000000001
  0
LINE
  8
0
  6
CONTINUOUS
 62
     7
 10
-111.24549494768
 20
9.648368051889816
 11
-118.2454949476805
 21
9.526182597392324
  0
LINE
  8
0
  6
CONTINUOUS
 62
     7
 10
-118.2454949554558
 20
7.193750073155313
 11
-119.7736293732105
 21
7.153510920127309
  0
LINE
  8
0
  6
CONTINUOUS
 62
     7
 10
-118.2454949476805
 20
7.473817402607607
 11
-123.7716735573359
 21
7.377357596171224
  0
LINE
  8
0
  6
CONTINUOUS
 62
     7
 10
-123.7716735573359
 20
-7.377357596171169
 11
-119.74549494768
 21
-7.447634805215375
  0
ARC
  8
0
  6
CONTINUOUS
 62
     7
 10
-123.74549494768
 20
-5.877586053436606
 40
1.500000000000001
 50
180.0
 51
269.0
  0
ARC
  8
0
  6
CONTINUOUS
 62
     7
 10
-123.74549494768
 20
5.877586053436606
 40
1.500000000000001
 50
91.00000000000001
 51
180.0
  0
LINE
  8
0
  6
CONTINUOUS
 62
     7
 10
-125.24549494768
 20
5.122185454497497
 11
-130.7716735573359
 21
5.025725648061003
  0
LINE
  8
0
  6
CONTINUOUS
 62
     7
 10
-130.7716735573359
 20
-5.025725648061085
 11
-125.24549494768
 21
-5.12218545449758
  0
ARC
  8
0
  6
CONTINUOUS
 62
     7
 10
-130.74549494768
 20
-3.525954105326495
 40
1.500000000000001
 50
180.0
 51
269.0000000000017
  0
ARC
  8
0
  6
CONTINUOUS
 62
     7
 10
-130.74549494768
 20
3.525954105326412
 40
1.500000000000001
 50
90.99999999999824
 51
180.0
  0
TEXT
  8
0
 62
     7
 10
5.934797979797979
 20
26.00190340542525
 40
5.0
  1
A
  7
MTXPL_FG教科書体NT-M
  0
TEXT
  8
0
 62
     7
 10
5.934797979797979
 20
-21.64646464646463
 40
5.0
  1
A
  7
MTXPL_FG教科書体NT-M
  0
POINT
  8
0
 62
     7
 10
0.0
 20
9.648368051889816
 30
0.0
  0
POINT
  8
0
 62
     7
 10
0.0
 20
0.0
 30
0.0
  0
POINT
  8
0
 62
     7
 10
0.0
 20
0.0
 30
0.0
  0
POINT
  8
0
 62
     7
 10
0.0
 20
9.648368051889816
 30
0.0
  0
LINE
  8
0
  6
CONTINUOUS
 62
     7
 10
10.00000000000001
 20
24.64836805188991
 11
0.0
 21
24.64836805188991
  0
LINE
  8
0
  6
CONTINUOUS
 62
     7
 10
124.75450505232
 20
5.87781454550243
 11
124.75450505232
 21
-3.622185454497578
  0
LINE
  8
0
  6
CENTER
 62
     1
 10
0.0
 20
-20.50000000000007
 11
0.0
 21
22.14836805188991
  0
LINE
  8
0
  6
CONTINUOUS
 62
     7
 10
0.0
 20
22.14836805188991
 11
0.0
 21
27.14836805188991
  0
LINE
  8
0
  6
CONTINUOUS
 62
     7
 10
0.0
 20
-20.50000000000007
 11
0.0
 21
-25.50000000000008
  0
LINE
  8
0
  6
CONTINUOUS
 62
     7
 10
10.00000000000001
 20
-23.00000000000007
 11
0.0
 21
-23.00000000000007
  0
ENDSEC
  0
EOF
