  0
SECTION
  2
HEADER
  9
$ACADVER
  1
AC1004
  9
$INSBASE
 10
0.0
 20
0.0
  9
$EXTMIN
 10
-125.4460591489064
 20
-40.24673610381202
  9
$EXTMAX
 10
337.3786660035153
 20
251.7658588416552
  9
$LIMMIN
 10
0.0
 20
0.0
  9
$LIMMAX
 10
12.0
 20
9.0
  9
$ORTHOMODE
 70
     0
  9
$REGENMODE
 70
     1
  9
$FILLMODE
 70
     1
  9
$QTEXTMODE
 70
     0
  9
$DRAGMODE
 70
     2
  9
$LTSCALE
 40
1.0
  9
$OSMODE
 70
    37
  9
$ATTMODE
 70
     1
  9
$TEXTSIZE
 40
0.2
  9
$TRACEWID
 40
0.05
  9
$TEXTSTYLE
  7
STANDARD
  9
$CLAYER
  8
0
  9
$CELTYPE
  6
BYLAYER
  9
$CECOLOR
 62
   256
  9
$DIMSCALE
 40
1.0
  9
$DIMASZ
 40
2.5
  9
$DIMEXO
 40
0.0625
  9
$DIMDLI
 40
0.38
  9
$DIMRND
 40
0.0
  9
$DIMDLE
 40
0.0
  9
$DIMEXE
 40
1.25
  9
$DIMTP
 40
0.0
  9
$DIMTM
 40
0.0
  9
$DIMTXT
 40
4.0
  9
$DIMCEN
 40
0.09
  9
$DIMTSZ
 40
0.0
  9
$DIMTOL
 70
     0
  9
$DIMLIM
 70
     0
  9
$DIMTIH
 70
     1
  9
$DIMTOH
 70
     1
  9
$DIMSE1
 70
     0
  9
$DIMSE2
 70
     0
  9
$DIMTAD
 70
     1
  9
$DIMZIN
 70
     0
  9
$DIMBLK
  1

  9
$DIMASO
 70
     1
  9
$DIMSHO
 70
     1
  9
$DIMPOST
  1

  9
$DIMAPOST
  1

  9
$DIMALT
 70
     0
  9
$DIMALTD
 70
     2
  9
$DIMALTF
 40
25.4
  9
$DIMLFAC
 40
1.0
  9
$DIMTOFL
 70
     0
  9
$DIMTVP
 40
0.0
  9
$DIMTIX
 70
     0
  9
$DIMSOXD
 70
     0
  9
$DIMSAH
 70
     0
  9
$DIMBLK1
  1

  9
$DIMBLK2
  1

  9
$LUNITS
 70
     2
  9
$LUPREC
 70
     4
  9
$SKETCHINC
 40
0.1
  9
$FILLETRAD
 40
0.0
  9
$AUNITS
 70
     0
  9
$AUPREC
 70
     0
  9
$MENU
  1
.
  9
$ELEVATION
 40
0.0
  9
$THICKNESS
 40
0.0
  9
$LIMCHECK
 70
     0
  9
$CHAMFERA
 40
0.0
  9
$CHAMFERB
 40
0.0
  9
$SKPOLY
 70
     0
  9
$TDCREATE
 40
2460103.891488935
  9
$TDUPDATE
 40
2460103.89148912
  9
$TDINDWG
 40
0.0000000116
  9
$TDUSRTIMER
 40
0.0000000116
  9
$USRTIMER
 70
     1
  9
$ANGBASE
 50
0.0
  9
$ANGDIR
 70
     0
  9
$PDMODE
 70
     0
  9
$PDSIZE
 40
0.0
  9
$PLINEWID
 40
0.0
  9
$COORDS
 70
     1
  9
$SPLFRAME
 70
     0
  9
$SPLINETYPE
 70
     6
  9
$SPLINESEGS
 70
     8
  9
$ATTDIA
 70
     0
  9
$ATTREQ
 70
     1
  9
$SURFTAB1
 70
     6
  9
$SURFTAB2
 70
     6
  9
$SURFTYPE
 70
     6
  9
$SURFU
 70
     6
  9
$SURFV
 70
     6
  9
$UCSNAME
  2

  9
$UCSORG
 10
0.0
 20
0.0
 30
0.0
  9
$UCSXDIR
 10
1.0
 20
0.0
 30
0.0
  9
$UCSYDIR
 10
0.0
 20
1.0
 30
0.0
  9
$USERI1
 70
     0
  9
$USERI2
 70
     0
  9
$USERI3
 70
     0
  9
$USERI4
 70
     0
  9
$USERI5
 70
     0
  9
$USERR1
 40
0.0
  9
$USERR2
 40
0.0
  9
$USERR3
 40
0.0
  9
$USERR4
 40
0.0
  9
$USERR5
 40
0.0
  9
$WORLDVIEW
 70
     1
  0
ENDSEC
  0
SECTION
  2
TABLES
  0
TABLE
  2
LTYPE
 70
     1
  0
LTYPE
  2
CONTINUOUS
 70
     0
  3
Solid line
 72
    65
 73
     0
 40
0.0
  0
ENDTAB
  0
TABLE
  2
LAYER
 70
     1
  0
LAYER
  2
0
 70
     0
 62
     7
  6
CONTINUOUS
  0
ENDTAB
  0
TABLE
  2
STYLE
 70
     2
  0
STYLE
  2
STANDARD
 70
     0
 40
0.0
 41
1.0
 50
0.0
 71
     0
 42
0.2
  3
txt
  4

  0
STYLE
  2
HG丸ｺﾞｼｯｸM-PRO
 70
     0
 40
0.0
 41
1.0
 50
0.0
 71
     0
 42
0.2
  3
HGRSMP.TTF
  4

  0
ENDTAB
  0
TABLE
  2
VIEW
 70
     0
  0
ENDTAB
  0
ENDSEC
  0
SECTION
  2
BLOCKS
  0
ENDSEC
  0
SECTION
  2
ENTITIES
  0
POINT
  8
0
 62
     7
 10
0.0
 20
0.0
 30
0.0
  0
LINE
  8
0
  6
CONTINUOUS
 62
     7
 10
8.49999999999998
 20
-33.50000000000192
 11
8.49999999999998
 21
33.50000000000227
  0
LINE
  8
0
  6
CONTINUOUS
 62
     7
 10
8.49999999999998
 20
-33.50000000000192
 11
-6.534904812874526
 21
-33.500000000002
  0
LINE
  8
0
  6
CONTINUOUS
 62
     7
 10
-6.534904812874526
 20
33.5000000000022
 11
-6.534904812874526
 21
-33.500000000002
  0
LINE
  8
0
  6
CONTINUOUS
 62
     7
 10
8.49999999999998
 20
33.50000000000227
 11
-6.534904812874526
 21
33.5000000000022
  0
LINE
  8
0
  6
CONTINUOUS
 62
     7
 10
8.49999999999998
 20
-40.24673610378651
 11
8.49999999999998
 21
-33.50000000000192
  0
LINE
  8
0
  6
CONTINUOUS
 62
     7
 10
8.49999999999998
 20
-40.24673610378252
 11
-6.534904812874526
 21
-39.98430086408422
  0
LINE
  8
0
  6
CONTINUOUS
 62
     7
 10
-6.534904812874526
 20
-33.500000000002
 11
-6.534904812874526
 21
-39.98430086408822
  0
LINE
  8
0
  6
CONTINUOUS
 62
     7
 10
-6.534904812874526
 20
38.98430086408211
 11
-6.534904812874526
 21
33.5000000000022
  0
LINE
  8
0
  6
CONTINUOUS
 62
     7
 10
8.49999999999998
 20
33.50000000000227
 11
8.49999999999998
 21
39.24673610378038
  0
LINE
  8
0
  6
CONTINUOUS
 62
     7
 10
-8.500000000000007
 20
-37.98460547377552
 11
-8.500000000000007
 21
-33.50000000000222
  0
LINE
  8
0
  6
CONTINUOUS
 62
     7
 10
-8.500000000000007
 20
-33.50000000000222
 11
-6.534904812874526
 21
-33.50000000000222
  0
ARC
  8
0
  6
CONTINUOUS
 62
     7
 10
-6.500000000000005
 20
-37.98460547377142
 40
2.000000000000002
 50
180.0
 51
269.0000000000005
  0
LINE
  8
0
  6
CONTINUOUS
 62
     7
 10
-8.500000000000007
 20
-33.50000000000222
 11
-8.500000000000007
 21
33.50000000000189
  0
LINE
  8
0
  6
CONTINUOUS
 62
     7
 10
-8.500000000000007
 20
33.50000000000189
 11
-6.534904812874526
 21
33.50000000000189
  0
LINE
  8
0
  6
CONTINUOUS
 62
     7
 10
-8.500000000000007
 20
33.50000000000189
 11
-8.500000000000007
 21
36.98460547376928
  0
ARC
  8
0
  6
CONTINUOUS
 62
     7
 10
-2.634188104327528
 20
2.317519987363958
 40
0.2671406670980703
 50
91.42126041931952
 51
185.3203277444712
  0
ARC
  8
0
  6
CONTINUOUS
 62
     7
 10
-1.465400732814537
 20
-2.184304318965518
 40
0.3180378263179517
 50
262.6482262242502
 51
353.3981283052279
  0
ARC
  8
0
  6
CONTINUOUS
 62
     7
 10
-1.556971459336115
 20
-2.231538767252433
 40
0.2729715403787802
 50
162.5172607131167
 51
280.7411511049565
  0
LINE
  8
0
  6
CONTINUOUS
 62
     7
 10
-2.640814029025329
 20
2.007405965984393
 11
-0.0212390040080228
 21
2.007405965984393
  0
ARC
  8
0
  6
CONTINUOUS
 62
     7
 10
-2.649242684743924
 20
2.260291283405297
 40
0.2530257417819592
 50
172.6297314374673
 51
271.90895896333
  0
LINE
  8
0
  6
CONTINUOUS
 62
     7
 10
0.3483545020009915
 20
2.584578469984361
 11
-2.640814029025329
 21
2.584578469984361
  0
ARC
  8
0
  6
CONTINUOUS
 62
     7
 10
0.401774482259587
 20
2.290283801273496
 40
0.2991037383960615
 50
352.7600497106421
 51
100.2882346168126
  0
ARC
  8
0
  6
CONTINUOUS
 62
     7
 10
-0.0358342216131013
 20
2.266323682733773
 40
0.7344561379506731
 50
315.1121814389779
 51
358.9284993653143
  0
ARC
  8
0
  6
CONTINUOUS
 62
     7
 10
9.398203717628284
 20
-4.242573279883116
 40
10.73968096685793
 50
146.0963275770603
 51
169.1495470999304
  0
ARC
  8
0
  6
CONTINUOUS
 62
     7
 10
10.21379009335449
 20
-4.881348259950208
 40
12.33737230568926
 50
146.0572130517074
 51
167.2071964706747
  0
ARC
  8
0
  6
CONTINUOUS
 62
     7
 10
1.750951106936099
 20
-1.56243861292571
 40
0.2994585483523937
 50
116.093635463655
 51
209.2032840468966
  0
ARC
  8
0
  6
CONTINUOUS
 62
     7
 10
1.86573873614479
 20
-0.0251426985309056
 40
0.3293756923809232
 50
257.4749213029832
 51
334.8551192424228
  0
LINE
  8
0
  6
CONTINUOUS
 62
     7
 10
2.157417452010285
 20
0.7039040209843861
 11
2.280615286897492
 21
1.910129701995583
  0
LINE
  8
0
  6
CONTINUOUS
 62
     7
 10
4.420367164024802
 20
2.584578469984361
 11
2.1963220320112
 21
2.584578469984361
  0
ARC
  8
0
  6
CONTINUOUS
 62
     7
 10
2.160128356110569
 20
2.168421757457378
 40
0.4177276523722462
 50
85.02942086198388
 51
180.7370895544067
  0
LINE
  8
0
  6
CONTINUOUS
 62
     7
 10
1.742435270005976
 20
2.163047989984373
 11
1.528460082000888
 21
-0.0289105060157224
  0
LINE
  8
0
  6
CONTINUOUS
 62
     7
 10
2.280615287007598
 20
1.91012970198437
 11
2.410297219016588
 21
2.026861218984377
  0
ARC
  8
0
  6
CONTINUOUS
 62
     7
 10
1.783546821775173
 20
-0.0915912551757991
 40
0.255315268701567
 50
177.5756114381794
 51
272.4156614966487
  0
LINE
  8
0
  6
CONTINUOUS
 62
     7
 10
1.528460082000888
 20
-0.0289105060156114
 11
1.528460082000888
 21
-0.080791180015638
  0
ARC
  8
0
  6
CONTINUOUS
 62
     7
 10
1.777592560500807
 20
-1.540981724184626
 40
0.2938070563689443
 50
26.42423618071845
 51
122.6139980665475
  0
LINE
  8
0
  6
CONTINUOUS
 62
     7
 10
2.410297219016588
 20
2.026861218984377
 11
4.420367164024802
 21
2.026861218984377
  0
LINE
  8
0
  6
CONTINUOUS
 62
     7
 10
2.099060583008794
 20
0.4055901429843856
 11
2.157417452010285
 21
0.7039040209843861
  0
ARC
  8
0
  6
CONTINUOUS
 62
     7
 10
4.377186041412684
 20
2.305719844484383
 40
0.2821821085147169
 50
278.8023128659887
 51
81.1976871340114
  0
LINE
  8
0
  6
CONTINUOUS
 62
     7
 10
2.163901549004588
 20
-0.1650972760157132
 11
2.178502647662173
 21
-0.1430129022430005
  0
LINE
  8
0
  6
CONTINUOUS
 62
     7
 10
2.178502647662173
 20
-0.1430129022430005
 11
2.193458771578283
 21
-0.1214331741524188
  0
LINE
  8
0
  6
CONTINUOUS
 62
     7
 10
2.193458771578283
 20
-0.1214331741524188
 11
2.208769920752779
 21
-0.1003580917441071
  0
LINE
  8
0
  6
CONTINUOUS
 62
     7
 10
2.208769920752779
 20
-0.1003580917441071
 11
2.224436095185689
 21
-0.0797876550180376
  0
LINE
  8
0
  6
CONTINUOUS
 62
     7
 10
2.224436095185689
 20
-0.0797876550180376
 11
2.240457294876985
 21
-0.0597218639740993
  0
LINE
  8
0
  6
CONTINUOUS
 62
     7
 10
2.240457294876985
 20
-0.0597218639740993
 11
2.256833519826778
 21
-0.0401607186124031
  0
LINE
  8
0
  6
CONTINUOUS
 62
     7
 10
2.256833519826778
 20
-0.0401607186124031
 11
2.273564770034902
 21
-0.0211042189329214
  0
LINE
  8
0
  6
CONTINUOUS
 62
     7
 10
2.273564770034902
 20
-0.0211042189329214
 11
2.290651045501385
 21
-0.0025523649355153
  0
LINE
  8
0
  6
CONTINUOUS
 62
     7
 10
2.290651045501385
 20
-0.0025523649355153
 11
2.308092346226281
 21
0.0154948433794821
  0
LINE
  8
0
  6
CONTINUOUS
 62
     7
 10
2.308092346226281
 20
0.0154948433794821
 11
2.325888672209675
 21
0.0330374060124872
  0
LINE
  8
0
  6
CONTINUOUS
 62
     7
 10
2.325888672209675
 20
0.0330374060124872
 11
2.344040023451371
 21
0.0500753229631945
  0
LINE
  8
0
  6
CONTINUOUS
 62
     7
 10
2.344040023451371
 20
0.0500753229631945
 11
2.362546399951593
 21
0.0666085942317984
  0
LINE
  8
0
  6
CONTINUOUS
 62
     7
 10
2.362546399951593
 20
0.0666085942317984
 11
2.381407801710089
 21
0.0826372198180769
  0
LINE
  8
0
  6
CONTINUOUS
 62
     7
 10
2.381407801710089
 20
0.0826372198180769
 11
2.400624228727111
 21
0.0981611997222798
  0
LINE
  8
0
  6
CONTINUOUS
 62
     7
 10
2.400624228727111
 20
0.0981611997222798
 11
2.42019568100249
 21
0.1131805339441849
  0
LINE
  8
0
  6
CONTINUOUS
 62
     7
 10
2.42019568100249
 20
0.1131805339441849
 11
2.440122158536284
 21
0.1276952224839589
  0
LINE
  8
0
  6
CONTINUOUS
 62
     7
 10
2.440122158536284
 20
0.1276952224839589
 11
2.460403661328464
 21
0.1417052653414907
  0
LINE
  8
0
  6
CONTINUOUS
 62
     7
 10
2.460403661328464
 20
0.1417052653414907
 11
2.481040189379085
 21
0.1552106625168914
  0
LINE
  8
0
  6
CONTINUOUS
 62
     7
 10
2.481040189379085
 20
0.1552106625168914
 11
2.502031742688176
 21
0.1682114140099944
  0
LINE
  8
0
  6
CONTINUOUS
 62
     7
 10
2.502031742688176
 20
0.1682114140099944
 11
2.52337832125557
 21
0.1807075198209662
  0
LINE
  8
0
  6
CONTINUOUS
 62
     7
 10
2.52337832125557
 20
0.1807075198209662
 11
2.545079925081406
 21
0.1926989799497791
  0
LINE
  8
0
  6
CONTINUOUS
 62
     7
 10
2.545079925081406
 20
0.1926989799497791
 11
2.567136554165572
 21
0.2041857943963776
  0
LINE
  8
0
  6
CONTINUOUS
 62
     7
 10
2.567136554165572
 20
0.2041857943963776
 11
2.589548208508291
 21
0.2151679631606784
  0
LINE
  8
0
  6
CONTINUOUS
 62
     7
 10
2.589548208508291
 20
0.2151679631606784
 11
2.612314888109396
 21
0.2256454862428758
  0
LINE
  8
0
  6
CONTINUOUS
 62
     7
 10
2.612314888109396
 20
0.2256454862428758
 11
2.635436592968776
 21
0.2356183636428866
  0
LINE
  8
0
  6
CONTINUOUS
 62
     7
 10
2.635436592968776
 20
0.2356183636428866
 11
2.658913323086681
 21
0.2450865953606829
  0
LINE
  8
0
  6
CONTINUOUS
 62
     7
 10
2.658913323086681
 20
0.2450865953606829
 11
2.682745078463
 21
0.2540501813962925
  0
LINE
  8
0
  6
CONTINUOUS
 62
     7
 10
2.682745078463
 20
0.2540501813962925
 11
2.706931859097677
 21
0.2625091217496878
  0
LINE
  8
0
  6
CONTINUOUS
 62
     7
 10
2.706931859097677
 20
0.2625091217496878
 11
2.731473664990685
 21
0.2704634164207853
  0
LINE
  8
0
  6
CONTINUOUS
 62
     7
 10
2.731473664990685
 20
0.2704634164207853
 11
2.756370496142274
 21
0.2779130654098905
  0
LINE
  8
0
  6
CONTINUOUS
 62
     7
 10
2.756370496142274
 20
0.2779130654098905
 11
2.779326038552687
 21
0.2842459444656886
  0
LINE
  8
0
  6
CONTINUOUS
 62
     7
 10
2.779326038552687
 20
0.2842459444656886
 11
2.802569239837987
 21
0.2901488579967748
  0
LINE
  8
0
  6
CONTINUOUS
 62
     7
 10
2.802569239837987
 20
0.2901488579967748
 11
2.826100099998285
 21
0.2956218060031768
  0
LINE
  8
0
  6
CONTINUOUS
 62
     7
 10
2.826100099998285
 20
0.2956218060031768
 11
2.849918619033498
 21
0.3006647884848945
  0
LINE
  8
0
  6
CONTINUOUS
 62
     7
 10
2.849918619033498
 20
0.3006647884848945
 11
2.874024796943569
 21
0.3052778054418726
  0
LINE
  8
0
  6
CONTINUOUS
 62
     7
 10
2.874024796943569
 20
0.3052778054418726
 11
2.898418633728694
 21
0.3094608568740831
  0
LINE
  8
0
  6
CONTINUOUS
 62
     7
 10
2.898418633728694
 20
0.3094608568740831
 11
2.923100129388761
 21
0.3132139427816927
  0
LINE
  8
0
  6
CONTINUOUS
 62
     7
 10
2.923100129388761
 20
0.3132139427816927
 11
2.948069283923688
 21
0.316537063164396
  0
LINE
  8
0
  6
CONTINUOUS
 62
     7
 10
2.948069283923688
 20
0.316537063164396
 11
2.973326097333584
 21
0.3194302180224984
  0
LINE
  8
0
  6
CONTINUOUS
 62
     7
 10
2.973326097333584
 20
0.3194302180224984
 11
2.998870569618367
 21
0.3218934073558888
  0
LINE
  8
0
  6
CONTINUOUS
 62
     7
 10
2.998870569618367
 20
0.3218934073558888
 11
3.024702700778287
 21
0.3239266311644839
  0
LINE
  8
0
  6
CONTINUOUS
 62
     7
 10
3.024702700778287
 20
0.3239266311644839
 11
3.050822490812982
 21
0.3255298894483949
  0
LINE
  8
0
  6
CONTINUOUS
 62
     7
 10
3.050822490812982
 20
0.3255298894483949
 11
3.077229939722592
 21
0.3267031822075939
  0
LINE
  8
0
  6
CONTINUOUS
 62
     7
 10
3.077229939722592
 20
0.3267031822075939
 11
3.1039250475072
 21
0.3274465094420809
  0
LINE
  8
0
  6
CONTINUOUS
 62
     7
 10
3.1039250475072
 20
0.3274465094420809
 11
3.130907814166778
 21
0.3277598711518837
  0
LINE
  8
0
  6
CONTINUOUS
 62
     7
 10
3.130907814166778
 20
0.3277598711518837
 11
3.157550769083778
 21
0.3276194264136556
  0
LINE
  8
0
  6
CONTINUOUS
 62
     7
 10
3.157550769083778
 20
0.3276194264136556
 11
3.183953611687468
 21
0.3270039715032869
  0
LINE
  8
0
  6
CONTINUOUS
 62
     7
 10
3.183953611687468
 20
0.3270039715032869
 11
3.210116341977987
 21
0.3259135064204721
  0
LINE
  8
0
  6
CONTINUOUS
 62
     7
 10
3.210116341977987
 20
0.3259135064204721
 11
3.236038959955195
 21
0.3243480311654057
  0
LINE
  8
0
  6
CONTINUOUS
 62
     7
 10
3.236038959955195
 20
0.3243480311654057
 11
3.261721465619094
 21
0.3223075457378932
  0
LINE
  8
0
  6
CONTINUOUS
 62
     7
 10
3.261721465619094
 20
0.3223075457378932
 11
3.287163858969683
 21
0.3197920501380735
  0
LINE
  8
0
  6
CONTINUOUS
 62
     7
 10
3.287163858969683
 20
0.3197920501380735
 11
3.312366140006962
 21
0.3168015443658911
  0
LINE
  8
0
  6
CONTINUOUS
 62
     7
 10
3.312366140006962
 20
0.3168015443658911
 11
3.337328308730986
 21
0.3133360284214015
  0
LINE
  8
0
  6
CONTINUOUS
 62
     7
 10
3.337328308730986
 20
0.3133360284214015
 11
3.362050365141811
 21
0.3093955023045769
  0
LINE
  8
0
  6
CONTINUOUS
 62
     7
 10
3.362050365141811
 20
0.3093955023045769
 11
3.386532309239187
 21
0.3049799660153618
  0
LINE
  8
0
  6
CONTINUOUS
 62
     7
 10
3.386532309239187
 20
0.3049799660153618
 11
3.410774141023392
 21
0.3000894195538673
  0
LINE
  8
0
  6
CONTINUOUS
 62
     7
 10
3.410774141023392
 20
0.3000894195538673
 11
3.43477586049426
 21
0.2947238629199822
  0
LINE
  8
0
  6
CONTINUOUS
 62
     7
 10
3.43477586049426
 20
0.2947238629199822
 11
3.458537467651873
 21
0.2888832961137622
  0
LINE
  8
0
  6
CONTINUOUS
 62
     7
 10
3.458537467651873
 20
0.2888832961137622
 11
3.482058962496204
 21
0.2825677191352904
  0
LINE
  8
0
  6
CONTINUOUS
 62
     7
 10
3.482058962496204
 20
0.2825677191352904
 11
3.50534034502728
 21
0.2757771319843727
  0
LINE
  8
0
  6
CONTINUOUS
 62
     7
 10
3.50534034502728
 20
0.2757771319843727
 11
3.530260945376174
 21
0.2678900665049888
  0
LINE
  8
0
  6
CONTINUOUS
 62
     7
 10
3.530260945376174
 20
0.2678900665049888
 11
3.554805930718774
 21
0.2594667026036002
  0
LINE
  8
0
  6
CONTINUOUS
 62
     7
 10
3.554805930718774
 20
0.2594667026036002
 11
3.578975301055193
 21
0.250507040280179
  0
LINE
  8
0
  6
CONTINUOUS
 62
     7
 10
3.578975301055193
 20
0.250507040280179
 11
3.602769056385263
 21
0.2410110795347808
  0
LINE
  8
0
  6
CONTINUOUS
 62
     7
 10
3.602769056385263
 20
0.2410110795347808
 11
3.626187196709179
 21
0.2309788203672947
  0
LINE
  8
0
  6
CONTINUOUS
 62
     7
 10
3.626187196709179
 20
0.2309788203672947
 11
3.649229722026803
 21
0.2204102627778037
  0
LINE
  8
0
  6
CONTINUOUS
 62
     7
 10
3.649229722026803
 20
0.2204102627778037
 11
3.67189663233819
 21
0.2093054067662803
  0
LINE
  8
0
  6
CONTINUOUS
 62
     7
 10
3.67189663233819
 20
0.2093054067662803
 11
3.694187927643283
 21
0.1976642523326966
  0
LINE
  8
0
  6
CONTINUOUS
 62
     7
 10
3.694187927643283
 20
0.1976642523326966
 11
3.716103607942084
 21
0.1854867994770804
  0
LINE
  8
0
  6
CONTINUOUS
 62
     7
 10
3.716103607942084
 20
0.1854867994770804
 11
3.737643673234786
 21
0.1727730481994871
  0
LINE
  8
0
  6
CONTINUOUS
 62
     7
 10
3.737643673234786
 20
0.1727730481994871
 11
3.758808123521085
 21
0.1595229984997781
  0
LINE
  8
0
  6
CONTINUOUS
 62
     7
 10
3.758808123521085
 20
0.1595229984997781
 11
3.779596958801173
 21
0.1457366503780644
  0
LINE
  8
0
  6
CONTINUOUS
 62
     7
 10
3.779596958801173
 20
0.1457366503780644
 11
3.800010179074997
 21
0.1314140038343736
  0
LINE
  8
0
  6
CONTINUOUS
 62
     7
 10
3.800010179074997
 20
0.1314140038343736
 11
3.820047784342584
 21
0.1165550588686781
  0
LINE
  8
0
  6
CONTINUOUS
 62
     7
 10
3.820047784342584
 20
0.1165550588686781
 11
3.839709774603878
 21
0.1011598154808946
  0
LINE
  8
0
  6
CONTINUOUS
 62
     7
 10
3.839709774603878
 20
0.1011598154808946
 11
3.859038512222995
 21
0.0851831609465781
  0
LINE
  8
0
  6
CONTINUOUS
 62
     7
 10
3.859038512222995
 20
0.0851831609465781
 11
3.877896217295673
 21
0.0687248738109603
  0
LINE
  8
0
  6
CONTINUOUS
 62
     7
 10
3.877896217295673
 20
0.0687248738109603
 11
3.896282889822272
 21
0.0517849540741799
  0
LINE
  8
0
  6
CONTINUOUS
 62
     7
 10
3.896282889822272
 20
0.0517849540741799
 11
3.914198529802682
 21
0.0343634017360706
  0
LINE
  8
0
  6
CONTINUOUS
 62
     7
 10
3.914198529802682
 20
0.0343634017360706
 11
3.93164313723679
 21
0.0164602167966876
  0
LINE
  8
0
  6
CONTINUOUS
 62
     7
 10
3.93164313723679
 20
0.0164602167966876
 11
3.948616712124764
 21
-0.0019246007439133
  0
LINE
  8
0
  6
CONTINUOUS
 62
     7
 10
3.948616712124764
 20
-0.0019246007439133
 11
3.965119254466465
 21
-0.0207910508858156
  0
LINE
  8
0
  6
CONTINUOUS
 62
     7
 10
3.965119254466465
 20
-0.0207910508858156
 11
3.981150764261976
 21
-0.0401391336290191
  0
LINE
  8
0
  6
CONTINUOUS
 62
     7
 10
3.981150764261976
 20
-0.0401391336290191
 11
3.996711241511186
 21
-0.0599688489734129
  0
LINE
  8
0
  6
CONTINUOUS
 62
     7
 10
3.996711241511186
 20
-0.0599688489734129
 11
4.011800686214261
 21
-0.080280196919108
  0
LINE
  8
0
  6
CONTINUOUS
 62
     7
 10
4.011800686214261
 20
-0.080280196919108
 11
4.026419098371092
 21
-0.1010731774661322
  0
LINE
  8
0
  6
CONTINUOUS
 62
     7
 10
4.026419098371092
 20
-0.1010731774661322
 11
4.040566477981677
 21
-0.1223477906143189
  0
LINE
  8
0
  6
CONTINUOUS
 62
     7
 10
4.040566477981677
 20
-0.1223477906143189
 11
4.054242825046073
 21
-0.1441040363638069
  0
LINE
  8
0
  6
CONTINUOUS
 62
     7
 10
4.054242825046073
 20
-0.1441040363638069
 11
4.067448139564306
 21
-0.1663419147146239
  0
LINE
  8
0
  6
CONTINUOUS
 62
     7
 10
4.067448139564306
 20
-0.1663419147146239
 11
4.080182421536183
 21
-0.1890614256666312
  0
LINE
  8
0
  6
CONTINUOUS
 62
     7
 10
4.080182421536183
 20
-0.1890614256666312
 11
4.09152833387369
 21
-0.2104933136237164
  0
LINE
  8
0
  6
CONTINUOUS
 62
     7
 10
4.09152833387369
 20
-0.2104933136237164
 11
4.102418266899887
 21
-0.2322662862546954
  0
LINE
  8
0
  6
CONTINUOUS
 62
     7
 10
4.102418266899887
 20
-0.2322662862546954
 11
4.112852220615109
 21
-0.2543803435594294
  0
LINE
  8
0
  6
CONTINUOUS
 62
     7
 10
4.112852220615109
 20
-0.2543803435594294
 11
4.122830195019189
 21
-0.2768354855380017
  0
LINE
  8
0
  6
CONTINUOUS
 62
     7
 10
4.122830195019189
 20
-0.2768354855380017
 11
4.132352190112182
 21
-0.2996317121905234
  0
LINE
  8
0
  6
CONTINUOUS
 62
     7
 10
4.132352190112182
 20
-0.2996317121905234
 11
4.141418205893976
 21
-0.3227690235168279
  0
LINE
  8
0
  6
CONTINUOUS
 62
     7
 10
4.141418205893976
 20
-0.3227690235168279
 11
4.150028242364795
 21
-0.3462474195169152
  0
LINE
  8
0
  6
CONTINUOUS
 62
     7
 10
4.150028242364795
 20
-0.3462474195169152
 11
4.15818229952436
 21
-0.3700669001908408
  0
LINE
  8
0
  6
CONTINUOUS
 62
     7
 10
4.15818229952436
 20
-0.3700669001908408
 11
4.165880377372893
 21
-0.3942274655386047
  0
LINE
  8
0
  6
CONTINUOUS
 62
     7
 10
4.165880377372893
 20
-0.3942274655386047
 11
4.173122475910174
 21
-0.4187291155602069
  0
LINE
  8
0
  6
CONTINUOUS
 62
     7
 10
4.173122475910174
 20
-0.4187291155602069
 11
4.179908595136506
 21
-0.4435718502556196
  0
LINE
  8
0
  6
CONTINUOUS
 62
     7
 10
4.179908595136506
 20
-0.4435718502556196
 11
4.186238735051667
 21
-0.4687556696248152
  0
LINE
  8
0
  6
CONTINUOUS
 62
     7
 10
4.186238735051667
 20
-0.4687556696248152
 11
4.192112895655686
 21
-0.4942805736679323
  0
LINE
  8
0
  6
CONTINUOUS
 62
     7
 10
4.192112895655686
 20
-0.4942805736679323
 11
4.19753107694859
 21
-0.5201465623849155
  0
LINE
  8
0
  6
CONTINUOUS
 62
     7
 10
4.19753107694859
 20
-0.5201465623849155
 11
4.202493278930381
 21
-0.546353635775626
  0
LINE
  8
0
  6
CONTINUOUS
 62
     7
 10
4.202493278930381
 20
-0.546353635775626
 11
4.206629668920075
 21
-0.5705777796867206
  0
LINE
  8
0
  6
CONTINUOUS
 62
     7
 10
4.206629668920075
 20
-0.5705777796867206
 11
4.210366613855071
 21
-0.5949311662032108
  0
LINE
  8
0
  6
CONTINUOUS
 62
     7
 10
4.210366613855071
 20
-0.5949311662032108
 11
4.213704113735283
 21
-0.6194137953252077
  0
LINE
  8
0
  6
CONTINUOUS
 62
     7
 10
4.213704113735283
 20
-0.6194137953252077
 11
4.216642168560686
 21
-0.6440256670527111
  0
LINE
  8
0
  6
CONTINUOUS
 62
     7
 10
4.216642168560686
 20
-0.6440256670527111
 11
4.219180778331388
 21
-0.6687667813856102
  0
LINE
  8
0
  6
CONTINUOUS
 62
     7
 10
4.219180778331388
 20
-0.6687667813856102
 11
4.221319943047197
 21
-0.6936371383240159
  0
LINE
  8
0
  6
CONTINUOUS
 62
     7
 10
4.221319943047197
 20
-0.6936371383240159
 11
4.223059662708279
 21
-0.7186367378679004
  0
LINE
  8
0
  6
CONTINUOUS
 62
     7
 10
4.223059662708279
 20
-0.7186367378679004
 11
4.224399937314577
 21
-0.7437655800172083
  0
LINE
  8
0
  6
CONTINUOUS
 62
     7
 10
4.224399937314577
 20
-0.7437655800172083
 11
4.225340766866176
 21
-0.7690236647720228
  0
LINE
  8
0
  6
CONTINUOUS
 62
     7
 10
4.225340766866176
 20
-0.7690236647720228
 11
4.225882151362992
 21
-0.7944109921323161
  0
LINE
  8
0
  6
CONTINUOUS
 62
     7
 10
4.225882151362992
 20
-0.7944109921323161
 11
4.226024090804859
 21
-0.8199275620980329
  0
LINE
  8
0
  6
CONTINUOUS
 62
     7
 10
4.226024090804859
 20
-0.8199275620980329
 11
4.225766585192164
 21
-0.8455733746692007
  0
LINE
  8
0
  6
CONTINUOUS
 62
     7
 10
4.225766585192164
 20
-0.8455733746692007
 11
4.225109634524577
 21
-0.8713484298459306
  0
LINE
  8
0
  6
CONTINUOUS
 62
     7
 10
4.225109634524577
 20
-0.8713484298459306
 11
4.224053238802289
 21
-0.8972527276280284
  0
LINE
  8
0
  6
CONTINUOUS
 62
     7
 10
4.224053238802289
 20
-0.8972527276280284
 11
4.222597398025163
 21
-0.9232862680156328
  0
LINE
  8
0
  6
CONTINUOUS
 62
     7
 10
4.222597398025163
 20
-0.9232862680156328
 11
4.220720193604893
 21
-0.9494072172292201
  0
LINE
  8
0
  6
CONTINUOUS
 62
     7
 10
4.220720193604893
 20
-0.9494072172292201
 11
4.218416573405576
 21
-0.9753078601348053
  0
LINE
  8
0
  6
CONTINUOUS
 62
     7
 10
4.218416573405576
 20
-0.9753078601348053
 11
4.215686537427376
 21
-1.000988196732638
  0
LINE
  8
0
  6
CONTINUOUS
 62
     7
 10
4.215686537427376
 20
-1.000988196732638
 11
4.212530085670407
 21
-1.026448227022414
  0
LINE
  8
0
  6
CONTINUOUS
 62
     7
 10
4.212530085670407
 20
-1.026448227022414
 11
4.208947218134501
 21
-1.051687951004493
  0
LINE
  8
0
  6
CONTINUOUS
 62
     7
 10
4.208947218134501
 20
-1.051687951004493
 11
4.204937934819602
 21
-1.076707368678625
  0
LINE
  8
0
  6
CONTINUOUS
 62
     7
 10
4.204937934819602
 20
-1.076707368678625
 11
4.200502235725906
 21
-1.101506480044839
  0
LINE
  8
0
  6
CONTINUOUS
 62
     7
 10
4.200502235725906
 20
-1.101506480044839
 11
4.195640120853272
 21
-1.126085285103218
  0
LINE
  8
0
  6
CONTINUOUS
 62
     7
 10
4.195640120853272
 20
-1.126085285103218
 11
4.190351590201674
 21
-1.150443783853705
  0
LINE
  8
0
  6
CONTINUOUS
 62
     7
 10
4.190351590201674
 20
-1.150443783853705
 11
4.184636643771277
 21
-1.174581976296329
  0
LINE
  8
0
  6
CONTINUOUS
 62
     7
 10
4.184636643771277
 20
-1.174581976296329
 11
4.178495281561889
 21
-1.198499862431007
  0
LINE
  8
0
  6
CONTINUOUS
 62
     7
 10
4.178495281561889
 20
-1.198499862431007
 11
4.171927503573674
 21
-1.222197442257933
  0
LINE
  8
0
  6
CONTINUOUS
 62
     7
 10
4.171927503573674
 20
-1.222197442257933
 11
4.164933309806579
 21
-1.245674715776829
  0
LINE
  8
0
  6
CONTINUOUS
 62
     7
 10
4.164933309806579
 20
-1.245674715776829
 11
4.15751270026049
 21
-1.268931682987917
  0
LINE
  8
0
  6
CONTINUOUS
 62
     7
 10
4.15751270026049
 20
-1.268931682987917
 11
4.149665674935576
 21
-1.291968343891114
  0
LINE
  8
0
  6
CONTINUOUS
 62
     7
 10
4.149665674935576
 20
-1.291968343891114
 11
4.140739696098683
 21
-1.316513154631604
  0
LINE
  8
0
  6
CONTINUOUS
 62
     7
 10
4.140739696098683
 20
-1.316513154631604
 11
4.131346403503766
 21
-1.340698747985924
  0
LINE
  8
0
  6
CONTINUOUS
 62
     7
 10
4.131346403503766
 20
-1.340698747985924
 11
4.121485797150687
 21
-1.364525123953908
  0
LINE
  8
0
  6
CONTINUOUS
 62
     7
 10
4.121485797150687
 20
-1.364525123953908
 11
4.111157877039473
 21
-1.387992282535722
  0
LINE
  8
0
  6
CONTINUOUS
 62
     7
 10
4.111157877039473
 20
-1.387992282535722
 11
4.10036264317018
 21
-1.411100223731115
  0
LINE
  8
0
  6
CONTINUOUS
 62
     7
 10
4.10036264317018
 20
-1.411100223731115
 11
4.08910009554278
 21
-1.433848947540312
  0
LINE
  8
0
  6
CONTINUOUS
 62
     7
 10
4.08910009554278
 20
-1.433848947540312
 11
4.077370234157273
 21
-1.456238453963227
  0
LINE
  8
0
  6
CONTINUOUS
 62
     7
 10
4.077370234157273
 20
-1.456238453963227
 11
4.065173059013577
 21
-1.478268742999916
  0
LINE
  8
0
  6
CONTINUOUS
 62
     7
 10
4.065173059013577
 20
-1.478268742999916
 11
4.052508570111912
 21
-1.499939814650325
  0
LINE
  8
0
  6
CONTINUOUS
 62
     7
 10
4.052508570111912
 20
-1.499939814650325
 11
4.039376767452085
 21
-1.521251668914425
  0
LINE
  8
0
  6
CONTINUOUS
 62
     7
 10
4.039376767452085
 20
-1.521251668914425
 11
4.025777651034179
 21
-1.542204305792327
  0
LINE
  8
0
  6
CONTINUOUS
 62
     7
 10
4.025777651034179
 20
-1.542204305792327
 11
4.011711220858083
 21
-1.562797725283921
  0
LINE
  8
0
  6
CONTINUOUS
 62
     7
 10
4.011711220858083
 20
-1.562797725283921
 11
3.997177476923991
 21
-1.583031927389206
  0
LINE
  8
0
  6
CONTINUOUS
 62
     7
 10
3.997177476923991
 20
-1.583031927389206
 11
3.982176419231792
 21
-1.602906912108321
  0
LINE
  8
0
  6
CONTINUOUS
 62
     7
 10
3.982176419231792
 20
-1.602906912108321
 11
3.966708047781375
 21
-1.622422679441099
  0
LINE
  8
0
  6
CONTINUOUS
 62
     7
 10
3.966708047781375
 20
-1.622422679441099
 11
3.950445989513274
 21
-1.641952312023937
  0
LINE
  8
0
  6
CONTINUOUS
 62
     7
 10
3.950445989513274
 20
-1.641952312023937
 11
3.933762540795998
 21
-1.661008520659507
  0
LINE
  8
0
  6
CONTINUOUS
 62
     7
 10
3.933762540795998
 20
-1.661008520659507
 11
3.9166577016293
 21
-1.679591305348033
  0
LINE
  8
0
  6
CONTINUOUS
 62
     7
 10
3.9166577016293
 20
-1.679591305348033
 11
3.899131472013484
 21
-1.697700666089513
  0
LINE
  8
0
  6
CONTINUOUS
 62
     7
 10
3.899131472013484
 20
-1.697700666089513
 11
3.881183851948383
 21
-1.715336602883921
  0
LINE
  8
0
  6
CONTINUOUS
 62
     7
 10
3.881183851948383
 20
-1.715336602883921
 11
3.86281484143397
 21
-1.732499115731229
  0
LINE
  8
0
  6
CONTINUOUS
 62
     7
 10
3.86281484143397
 20
-1.732499115731229
 11
3.844024440470384
 21
-1.749188204631408
  0
LINE
  8
0
  6
CONTINUOUS
 62
     7
 10
3.844024440470384
 20
-1.749188204631408
 11
3.824812649057596
 21
-1.765403869584514
  0
LINE
  8
0
  6
CONTINUOUS
 62
     7
 10
3.824812649057596
 20
-1.765403869584514
 11
3.805179467195496
 21
-1.781146110590603
  0
LINE
  8
0
  6
CONTINUOUS
 62
     7
 10
3.805179467195496
 20
-1.781146110590603
 11
3.785124894884195
 21
-1.79641492764962
  0
LINE
  8
0
  6
CONTINUOUS
 62
     7
 10
3.785124894884195
 20
-1.79641492764962
 11
3.764648932123582
 21
-1.811210320761508
  0
LINE
  8
0
  6
CONTINUOUS
 62
     7
 10
3.764648932123582
 20
-1.811210320761508
 11
3.743751578913768
 21
-1.825532289926213
  0
LINE
  8
0
  6
CONTINUOUS
 62
     7
 10
3.743751578913768
 20
-1.825532289926213
 11
3.722432835254808
 21
-1.8393808351439
  0
LINE
  8
0
  6
CONTINUOUS
 62
     7
 10
3.722432835254808
 20
-1.8393808351439
 11
3.70069270114648
 21
-1.852755956414626
  0
LINE
  8
0
  6
CONTINUOUS
 62
     7
 10
3.70069270114648
 20
-1.852755956414626
 11
3.678531176588895
 21
-1.865657653738112
  0
LINE
  8
0
  6
CONTINUOUS
 62
     7
 10
3.678531176588895
 20
-1.865657653738112
 11
3.656896599171205
 21
-1.877570351740715
  0
LINE
  8
0
  6
CONTINUOUS
 62
     7
 10
3.656896599171205
 20
-1.877570351740715
 11
3.634957112122084
 21
-1.888986248783725
  0
LINE
  8
0
  6
CONTINUOUS
 62
     7
 10
3.634957112122084
 20
-1.888986248783725
 11
3.612712715441474
 21
-1.899905344867003
  0
LINE
  8
0
  6
CONTINUOUS
 62
     7
 10
3.612712715441474
 20
-1.899905344867003
 11
3.590163409129488
 21
-1.910327639990717
  0
LINE
  8
0
  6
CONTINUOUS
 62
     7
 10
3.590163409129488
 20
-1.910327639990717
 11
3.56730919318618
 21
-1.920253134154726
  0
LINE
  8
0
  6
CONTINUOUS
 62
     7
 10
3.56730919318618
 20
-1.920253134154726
 11
3.544150067611412
 21
-1.929681827359198
  0
LINE
  8
0
  6
CONTINUOUS
 62
     7
 10
3.544150067611412
 20
-1.929681827359198
 11
3.520686032405185
 21
-1.938613719604021
  0
LINE
  8
0
  6
CONTINUOUS
 62
     7
 10
3.520686032405185
 20
-1.938613719604021
 11
3.49691708756758
 21
-1.947048810889113
  0
LINE
  8
0
  6
CONTINUOUS
 62
     7
 10
3.49691708756758
 20
-1.947048810889113
 11
3.472843233098488
 21
-1.954987101214722
  0
LINE
  8
0
  6
CONTINUOUS
 62
     7
 10
3.472843233098488
 20
-1.954987101214722
 11
3.448464468998103
 21
-1.962428590580517
  0
LINE
  8
0
  6
CONTINUOUS
 62
     7
 10
3.448464468998103
 20
-1.962428590580517
 11
3.42378079526609
 21
-1.96937327898683
  0
LINE
  8
0
  6
CONTINUOUS
 62
     7
 10
3.42378079526609
 20
-1.96937327898683
 11
3.398792211902895
 21
-1.975821166433522
  0
LINE
  8
0
  6
CONTINUOUS
 62
     7
 10
3.398792211902895
 20
-1.975821166433522
 11
3.373498718908186
 21
-1.981772252920538
  0
LINE
  8
0
  6
CONTINUOUS
 62
     7
 10
3.373498718908186
 20
-1.981772252920538
 11
3.347900316281987
 21
-1.987226538447906
  0
LINE
  8
0
  6
CONTINUOUS
 62
     7
 10
3.347900316281987
 20
-1.987226538447906
 11
3.321997004024496
 21
-1.992184023015625
  0
LINE
  8
0
  6
CONTINUOUS
 62
     7
 10
3.321997004024496
 20
-1.992184023015625
 11
3.297843497906794
 21
-1.996315303218643
  0
LINE
  8
0
  6
CONTINUOUS
 62
     7
 10
3.297843497906794
 20
-1.996315303218643
 11
3.273553202104401
 21
-2.000003292724123
  0
LINE
  8
0
  6
CONTINUOUS
 62
     7
 10
3.273553202104401
 20
-2.000003292724123
 11
3.249126116617373
 21
-2.003247991532009
  0
LINE
  8
0
  6
CONTINUOUS
 62
     7
 10
3.249126116617373
 20
-2.003247991532009
 11
3.224562241445711
 21
-2.006049399642523
  0
LINE
  8
0
  6
CONTINUOUS
 62
     7
 10
3.224562241445711
 20
-2.006049399642523
 11
3.199861576589385
 21
-2.008407517055333
  0
LINE
  8
0
  6
CONTINUOUS
 62
     7
 10
3.199861576589385
 20
-2.008407517055333
 11
3.175024122048481
 21
-2.010322343770715
  0
LINE
  8
0
  6
CONTINUOUS
 62
     7
 10
3.175024122048481
 20
-2.010322343770715
 11
3.150049877822775
 21
-2.011793879788504
  0
LINE
  8
0
  6
CONTINUOUS
 62
     7
 10
3.150049877822775
 20
-2.011793879788504
 11
3.124938843912572
 21
-2.01282212510892
  0
LINE
  8
0
  6
CONTINUOUS
 62
     7
 10
3.124938843912572
 20
-2.01282212510892
 11
3.099691020317791
 21
-2.013407079731716
  0
LINE
  8
0
  6
CONTINUOUS
 62
     7
 10
3.099691020317791
 20
-2.013407079731716
 11
3.07430640703818
 21
-2.013548743657029
  0
LINE
  8
0
  6
CONTINUOUS
 62
     7
 10
3.07430640703818
 20
-2.013548743657029
 11
3.048785004073989
 21
-2.01324711688472
  0
LINE
  8
0
  6
CONTINUOUS
 62
     7
 10
3.048785004073989
 20
-2.01324711688472
 11
3.023126811425164
 21
-2.012502199415012
  0
LINE
  8
0
  6
CONTINUOUS
 62
     7
 10
3.023126811425164
 20
-2.012502199415012
 11
2.997331829091787
 21
-2.011313991247737
  0
LINE
  8
0
  6
CONTINUOUS
 62
     7
 10
2.997331829091787
 20
-2.011313991247737
 11
2.971400057073692
 21
-2.009682492383036
  0
LINE
  8
0
  6
CONTINUOUS
 62
     7
 10
2.971400057073692
 20
-2.009682492383036
 11
2.945331495370989
 21
-2.007607702820602
  0
LINE
  8
0
  6
CONTINUOUS
 62
     7
 10
2.945331495370989
 20
-2.007607702820602
 11
2.919066477092974
 21
-2.005054508931625
  0
LINE
  8
0
  6
CONTINUOUS
 62
     7
 10
2.919066477092974
 20
-2.005054508931625
 11
2.893057203271876
 21
-2.002032770623302
  0
LINE
  8
0
  6
CONTINUOUS
 62
     7
 10
2.893057203271876
 20
-2.002032770623302
 11
2.867303673907667
 21
-1.998542487895633
  0
LINE
  8
0
  6
CONTINUOUS
 62
     7
 10
2.867303673907667
 20
-1.998542487895633
 11
2.841805889000265
 21
-1.994583660748617
  0
LINE
  8
0
  6
CONTINUOUS
 62
     7
 10
2.841805889000265
 20
-1.994583660748617
 11
2.816563848549891
 21
-1.990156289182227
  0
LINE
  8
0
  6
CONTINUOUS
 62
     7
 10
2.816563848549891
 20
-1.990156289182227
 11
2.791577552556296
 21
-1.985260373196518
  0
LINE
  8
0
  6
CONTINUOUS
 62
     7
 10
2.791577552556296
 20
-1.985260373196518
 11
2.766847001019562
 21
-1.979895912791407
  0
LINE
  8
0
  6
CONTINUOUS
 62
     7
 10
2.766847001019562
 20
-1.979895912791407
 11
2.742372193939774
 21
-1.974062907967006
  0
LINE
  8
0
  6
CONTINUOUS
 62
     7
 10
2.742372193939774
 20
-1.974062907967006
 11
2.718153131316903
 21
-1.967761358723313
  0
LINE
  8
0
  6
CONTINUOUS
 62
     7
 10
2.718153131316903
 20
-1.967761358723313
 11
2.694189813150893
 21
-1.960991265060219
  0
LINE
  8
0
  6
CONTINUOUS
 62
     7
 10
2.694189813150893
 20
-1.960991265060219
 11
2.670482239441801
 21
-1.953752626977834
  0
LINE
  8
0
  6
CONTINUOUS
 62
     7
 10
2.670482239441801
 20
-1.953752626977834
 11
2.647030410189488
 21
-1.946045444476019
  0
LINE
  8
0
  6
CONTINUOUS
 62
     7
 10
2.647030410189488
 20
-1.946045444476019
 11
2.623834325394175
 21
-1.937869717554913
  0
LINE
  8
0
  6
CONTINUOUS
 62
     7
 10
2.623834325394175
 20
-1.937869717554913
 11
2.600893985055697
 21
-1.929225446214405
  0
LINE
  8
0
  6
CONTINUOUS
 62
     7
 10
2.600893985055697
 20
-1.929225446214405
 11
2.57820938917408
 21
-1.920112630454607
  0
LINE
  8
0
  6
CONTINUOUS
 62
     7
 10
2.57820938917408
 20
-1.920112630454607
 11
2.554548586825383
 21
-1.909982965005219
  0
LINE
  8
0
  6
CONTINUOUS
 62
     7
 10
2.554548586825383
 20
-1.909982965005219
 11
2.531259087071192
 21
-1.899357024978315
  0
LINE
  8
0
  6
CONTINUOUS
 62
     7
 10
2.531259087071192
 20
-1.899357024978315
 11
2.508340889911587
 21
-1.888234810373923
  0
LINE
  8
0
  6
CONTINUOUS
 62
     7
 10
2.508340889911587
 20
-1.888234810373923
 11
2.485793995346458
 21
-1.876616321192015
  0
LINE
  8
0
  6
CONTINUOUS
 62
     7
 10
2.485793995346458
 20
-1.876616321192015
 11
2.463618403376083
 21
-1.864501557432618
  0
LINE
  8
0
  6
CONTINUOUS
 62
     7
 10
2.463618403376083
 20
-1.864501557432618
 11
2.441814114000185
 21
-1.851890519095817
  0
LINE
  8
0
  6
CONTINUOUS
 62
     7
 10
2.441814114000185
 20
-1.851890519095817
 11
2.42038112721879
 21
-1.838783206181416
  0
LINE
  8
0
  6
CONTINUOUS
 62
     7
 10
2.42038112721879
 20
-1.838783206181416
 11
2.399319443032066
 21
-1.825179618689526
  0
LINE
  8
0
  6
CONTINUOUS
 62
     7
 10
2.399319443032066
 20
-1.825179618689526
 11
2.378629061439902
 21
-1.811079756620121
  0
LINE
  8
0
  6
CONTINUOUS
 62
     7
 10
2.378629061439902
 20
-1.811079756620121
 11
2.358309982442297
 21
-1.79648361997331
  0
LINE
  8
0
  6
CONTINUOUS
 62
     7
 10
2.358309982442297
 20
-1.79648361997331
 11
2.338362206039168
 21
-1.7813912087489
  0
LINE
  8
0
  6
CONTINUOUS
 62
     7
 10
2.338362206039168
 20
-1.7813912087489
 11
2.318785732230682
 21
-1.765802522947113
  0
LINE
  8
0
  6
CONTINUOUS
 62
     7
 10
2.318785732230682
 20
-1.765802522947113
 11
2.299580561016701
 21
-1.74971756256781
  0
LINE
  8
0
  6
CONTINUOUS
 62
     7
 10
2.299580561016701
 20
-1.74971756256781
 11
2.280746692397389
 21
-1.733136327610935
  0
LINE
  8
0
  6
CONTINUOUS
 62
     7
 10
2.280746692397389
 20
-1.733136327610935
 11
2.262284126372582
 21
-1.716058818076599
  0
LINE
  8
0
  6
CONTINUOUS
 62
     7
 10
2.262284126372582
 20
-1.716058818076599
 11
2.244306016652569
 21
-1.698590745757705
  0
LINE
  8
0
  6
CONTINUOUS
 62
     7
 10
2.244306016652569
 20
-1.698590745757705
 11
2.226785918669982
 21
-1.680705489912393
  0
LINE
  8
0
  6
CONTINUOUS
 62
     7
 10
2.226785918669982
 20
-1.680705489912393
 11
2.209723832424876
 21
-1.662403050540634
  0
LINE
  8
0
  6
CONTINUOUS
 62
     7
 10
2.209723832424876
 20
-1.662403050540634
 11
2.193119757917278
 21
-1.643683427642317
  0
LINE
  8
0
  6
CONTINUOUS
 62
     7
 10
2.193119757917278
 20
-1.643683427642317
 11
2.176973695147189
 21
-1.624546621217637
  0
LINE
  8
0
  6
CONTINUOUS
 62
     7
 10
2.176973695147189
 20
-1.624546621217637
 11
2.16128564411458
 21
-1.6049926312664
  0
LINE
  8
0
  6
CONTINUOUS
 62
     7
 10
2.16128564411458
 20
-1.6049926312664
 11
2.146055604819369
 21
-1.58502145778891
  0
LINE
  8
0
  6
CONTINUOUS
 62
     7
 10
2.146055604819369
 20
-1.58502145778891
 11
2.131283577261667
 21
-1.564633100784807
  0
LINE
  8
0
  6
CONTINUOUS
 62
     7
 10
2.131283577261667
 20
-1.564633100784807
 11
2.116969561441584
 21
-1.543827560254313
  0
LINE
  8
0
  6
CONTINUOUS
 62
     7
 10
2.116969561441584
 20
-1.543827560254313
 11
2.103113557358899
 21
-1.522604836197317
  0
LINE
  8
0
  6
CONTINUOUS
 62
     7
 10
2.103113557358899
 20
-1.522604836197317
 11
2.089715565013694
 21
-1.500964928613818
  0
LINE
  8
0
  6
CONTINUOUS
 62
     7
 10
2.089715565013694
 20
-1.500964928613818
 11
2.076775584405888
 21
-1.478907837504012
  0
LINE
  8
0
  6
CONTINUOUS
 62
     7
 10
2.076775584405888
 20
-1.478907837504012
 11
2.064293615535589
 21
-1.456433562867621
  0
LINE
  8
0
  6
CONTINUOUS
 62
     7
 10
2.064293615535589
 20
-1.456433562867621
 11
2.052269658402883
 21
-1.433542104704894
  0
LINE
  8
0
  6
CONTINUOUS
 62
     7
 10
2.052269658402883
 20
-1.433542104704894
 11
2.040703713007574
 21
-1.410233463015609
  0
ARC
  8
0
  6
CONTINUOUS
 62
     7
 10
3.244305579236384
 20
-0.7290220271793935
 40
1.612119994934602
 50
357.5340919496039
 51
135.26721482808
  0
LINE
  8
0
  6
CONTINUOUS
 62
     7
 10
1.489555502999701
 20
-1.708547341015609
 11
1.634635618525282
 21
-1.938351775488095
  0
LINE
  8
0
  6
CONTINUOUS
 62
     7
 10
1.634635618525282
 20
-1.938351775488095
 11
1.814202366615003
 21
-2.134180397792729
  0
LINE
  8
0
  6
CONTINUOUS
 62
     7
 10
1.814202366615003
 20
-2.134180397792729
 11
2.025409278391677
 21
-2.293609453941608
  0
LINE
  8
0
  6
CONTINUOUS
 62
     7
 10
2.025409278391677
 20
-2.293609453941608
 11
2.268539530009689
 21
-2.417059089015627
  0
LINE
  8
0
  6
CONTINUOUS
 62
     7
 10
2.268539530009689
 20
-2.417059089015627
 11
2.51561583197249
 21
-2.497221428490126
  0
ARC
  8
0
  6
CONTINUOUS
 62
     7
 10
3.092060850794276
 20
-0.0657252774982076
 40
2.49889223297306
 50
256.6628773545684
 51
275.2908679760021
  0
LINE
  8
0
  6
CONTINUOUS
 62
     7
 10
3.322488411015068
 20
-2.553970750015733
 11
3.592331453079578
 21
-2.508616872543029
  0
LINE
  8
0
  6
CONTINUOUS
 62
     7
 10
3.592331453079578
 20
-2.508616872543029
 11
3.843881416413397
 21
-2.427710789751125
  0
LINE
  8
0
  6
CONTINUOUS
 62
     7
 10
3.843881416413397
 20
-2.427710789751125
 11
4.085396694128191
 21
-2.305335158664018
  0
LINE
  8
0
  6
CONTINUOUS
 62
     7
 10
4.085396694128191
 20
-2.305335158664018
 11
4.299452847028373
 21
-2.146028091015634
  0
LINE
  8
0
  6
CONTINUOUS
 62
     7
 10
4.299452847028373
 20
-2.146028091015634
 11
4.482904997968578
 21
-1.952164514067323
  0
LINE
  8
0
  6
CONTINUOUS
 62
     7
 10
4.482904997968578
 20
-1.952164514067323
 11
4.632171506716881
 21
-1.72650694511714
  0
LINE
  8
0
  6
CONTINUOUS
 62
     7
 10
4.632171506716881
 20
-1.72650694511714
 11
4.740325917289067
 21
-1.485590196561998
  0
LINE
  8
0
  6
CONTINUOUS
 62
     7
 10
4.740325917289067
 20
-1.485590196561998
 11
4.813349688036983
 21
-1.222359169015613
  0
LINE
  8
0
  6
CONTINUOUS
 62
     7
 10
4.813349688036983
 20
-1.222359169015613
 11
4.844536984517894
 21
-1.01349631560832
  0
LINE
  8
0
  6
CONTINUOUS
 62
     7
 10
4.844536984517894
 20
-1.01349631560832
 11
4.854932749432689
 21
-0.798383375878009
  0
LINE
  8
0
  6
CONTINUOUS
 62
     7
 10
8.49999999999998
 20
39.24673610378038
 11
-6.534904812874526
 21
38.98430086408211
  0
ARC
  8
0
  6
CONTINUOUS
 62
     7
 10
-6.500000000000005
 20
36.98460547376928
 40
2.000000000000002
 50
90.9999999999995
 51
180.0
  0
ARC
  8
0
  6
CONTINUOUS
 62
     7
 10
89.30241834668595
 20
33.50000000000136
 40
3.694675541882519
 50
59.99999999993235
 51
179.9999999999923
  0
LINE
  8
0
  6
CONTINUOUS
 62
     7
 10
85.6077428048035
 20
33.50000000000189
 11
84.60789510964727
 21
33.50000000000208
  0
ARC
  8
0
  6
CONTINUOUS
 62
     7
 10
89.30241834668595
 20
33.50000000000136
 40
4.694523237038895
 50
59.99999999993258
 51
179.9999999999914
  0
LINE
  8
0
  6
CONTINUOUS
 62
     7
 10
91.14975611763093
 20
36.69968287801017
 11
91.64967996521017
 21
37.5655763819307
  0
LINE
  8
0
  6
CONTINUOUS
 62
     7
 10
95.05374733835636
 20
32.10258782624508
 11
95.84601231145196
 21
33.47483101270057
  0
LINE
  8
0
  6
CONTINUOUS
 62
     7
 10
95.84601231145196
 20
33.47483101270057
 11
96.7119058153722
 21
32.97490716512147
  0
LINE
  8
0
  6
CONTINUOUS
 62
     7
 10
96.7119058153722
 20
32.97490716512147
 11
95.91964084227672
 21
31.60266397866607
  0
LINE
  8
0
  6
CONTINUOUS
 62
     7
 10
95.05374733835636
 20
32.10258782624508
 11
95.91964084227672
 21
31.60266397866607
  0
ARC
  8
0
  6
CONTINUOUS
 62
     7
 10
95.46091199574019
 20
33.69716878364229
 40
0.4446755418825998
 50
329.9999999999392
 51
59.99999999993145
  0
LINE
  8
0
  6
CONTINUOUS
 62
     7
 10
95.68324976668208
 20
34.08226909935389
 11
96.18317361426121
 21
34.9481626032741
  0
ARC
  8
0
  6
CONTINUOUS
 62
     7
 10
95.46091199574019
 20
33.69716878364229
 40
1.444523237038919
 50
329.9999999999399
 51
59.99999999993253
  0
LINE
  8
0
  6
CONTINUOUS
 62
     7
 10
90.75241834667608
 20
-33.75326389622352
 11
120.8524183466762
 21
-33.7532638962486
  0
ARC
  8
0
  6
CONTINUOUS
 62
     7
 10
120.8524183466768
 20
-33.05000000002831
 40
0.7032638962202742
 50
269.9999999999512
 51
359.9999999999919
  0
LINE
  8
0
  6
CONTINUOUS
 62
     7
 10
121.5556822428971
 20
-33.05000000002842
 11
121.5556822429062
 21
29.12492559718668
  0
ARC
  8
0
  6
CONTINUOUS
 62
     7
 10
120.8524183466859
 20
29.12492559718677
 40
0.7032638962202742
 50
359.9999999999921
 51
90.0
  0
LINE
  8
0
  6
CONTINUOUS
 62
     7
 10
120.8524183466859
 20
29.82818949340698
 11
116.9361896707128
 21
29.82818949340698
  0
ARC
  8
0
  6
CONTINUOUS
 62
     7
 10
116.9361896707128
 20
32.32492559718678
 40
2.496736103779817
 50
209.9999999999652
 51
270.0
  0
LINE
  8
0
  6
CONTINUOUS
 62
     7
 10
114.7739527782929
 20
31.0765575452982
 11
113.9816878052128
 21
32.44880073173218
  0
ARC
  8
0
  6
CONTINUOUS
 62
     7
 10
116.1439246976325
 20
33.69716878362077
 40
2.496736103779651
 50
119.9999999999622
 51
209.9999999999668
  0
LINE
  8
0
  6
CONTINUOUS
 62
     7
 10
114.8955566457442
 20
35.85940567604059
 11
119.4290502947995
 21
38.47681945468817
  0
ARC
  8
0
  6
CONTINUOUS
 62
     7
 10
122.3024183466862
 20
33.49999999996759
 40
5.746736103780125
 50
359.999999999992
 51
119.9999999999619
  0
LINE
  8
0
  6
CONTINUOUS
 62
     7
 10
128.0491544504662
 20
33.49999999996678
 11
128.0491544504567
 21
-33.50000000003062
  0
ARC
  8
0
  6
CONTINUOUS
 62
     7
 10
121.3024183466768
 20
-33.50000000002962
 40
6.746736103782347
 50
269.9999999999525
 51
359.999999999992
  0
LINE
  8
0
  6
CONTINUOUS
 62
     7
 10
121.3024183466711
 20
-40.24673610381202
 11
90.30241834666919
 21
-40.24673610378252
  0
ARC
  8
0
  6
CONTINUOUS
 62
     7
 10
90.30241834667468
 20
-33.50000000000291
 40
6.746736103783679
 50
179.999999999992
 51
269.9999999999525
  0
ARC
  8
0
  6
CONTINUOUS
 62
     7
 10
89.30241834668595
 20
33.50000000000147
 40
5.74673610377896
 50
59.99999999993219
 51
179.999999999992
  0
LINE
  8
0
  6
CONTINUOUS
 62
     7
 10
92.17578639858131
 20
38.47681945471576
 11
96.70928004763269
 21
35.85940567605989
  0
ARC
  8
0
  6
CONTINUOUS
 62
     7
 10
95.46091199574019
 20
33.69716878364229
 40
2.49673610377954
 50
329.9999999999408
 51
59.99999999993338
  0
LINE
  8
0
  6
CONTINUOUS
 62
     7
 10
97.62314888815776
 20
32.4488007317503
 11
96.8308839150625
 21
31.07655754529479
  0
ARC
  8
0
  6
CONTINUOUS
 62
     7
 10
94.6686470226447
 20
32.32492559718678
 40
2.496736103779762
 50
270.0
 51
329.9999999999429
  0
LINE
  8
0
  6
CONTINUOUS
 62
     7
 10
94.6686470226447
 20
29.82818949340698
 11
90.75241834668502
 21
29.82818949340698
  0
ARC
  8
0
  6
CONTINUOUS
 62
     7
 10
90.75241834668502
 20
29.12492559718677
 40
0.7032638962202742
 50
90.0
 51
179.9999999999921
  0
LINE
  8
0
  6
CONTINUOUS
 62
     7
 10
90.04915445046468
 20
29.12492559718691
 11
90.04915445045647
 21
-33.05000000000312
  0
ARC
  8
0
  6
CONTINUOUS
 62
     7
 10
90.75241834667679
 20
-33.05000000000322
 40
0.7032638962203297
 50
179.9999999999926
 51
269.9999999999511
  0
ARC
  8
0
  6
CONTINUOUS
 62
     7
 10
122.3024183466862
 20
33.49999999996759
 40
4.694523237039061
 50
359.9999999999916
 51
119.9999999999622
  0
LINE
  8
0
  6
CONTINUOUS
 62
     7
 10
115.4216630791138
 20
34.9481626032539
 11
119.9551567281693
 21
37.56557638190139
  0
ARC
  8
0
  6
CONTINUOUS
 62
     7
 10
116.1439246976325
 20
33.69716878362067
 40
1.444523237038975
 50
119.9999999999603
 51
209.999999999964
  0
LINE
  8
0
  6
CONTINUOUS
 62
     7
 10
115.6851958510797
 20
31.60266397866798
 11
114.8929308779994
 21
32.97490716510198
  0
ARC
  8
0
  6
CONTINUOUS
 62
     7
 10
116.9361896707128
 20
32.32492559718678
 40
1.444523237038975
 50
209.9999999999682
 51
269.9999999999984
  0
LINE
  8
0
  6
CONTINUOUS
 62
     7
 10
122.3524183466861
 20
30.88040236014777
 11
116.9361896707127
 21
30.88040236014777
  0
ARC
  8
0
  6
CONTINUOUS
 62
     7
 10
122.3524183466861
 20
30.62492559718677
 40
0.2554767629610599
 50
359.9999999999782
 51
90.0
  0
LINE
  8
0
  6
CONTINUOUS
 62
     7
 10
122.6078951096378
 20
-33.50000000002881
 11
122.6078951096471
 21
30.62492559718669
  0
ARC
  8
0
  6
CONTINUOUS
 62
     7
 10
121.3024183466757
 20
-33.50000000002862
 40
1.305476762962166
 50
269.9999999999516
 51
359.9999999999917
  0
LINE
  8
0
  6
CONTINUOUS
 62
     7
 10
90.30241834667596
 20
-34.80547676296391
 11
121.3024183466745
 21
-34.8054767629897
  0
ARC
  8
0
  6
CONTINUOUS
 62
     7
 10
90.30241834667713
 20
-33.50000000000214
 40
1.305476762961777
 50
179.9999999999925
 51
269.999999999954
  0
LINE
  8
0
  6
CONTINUOUS
 62
     7
 10
88.99694158372412
 20
30.62492559718677
 11
88.99694158371568
 21
-33.50000000000192
  0
ARC
  8
0
  6
CONTINUOUS
 62
     7
 10
89.25241834668518
 20
30.62492559718677
 40
0.2554767629610599
 50
90.0
 51
180.0
  0
LINE
  8
0
  6
CONTINUOUS
 62
     7
 10
94.6686470226447
 20
30.88040236014777
 11
89.25241834668512
 21
30.88040236014777
  0
ARC
  8
0
  6
CONTINUOUS
 62
     7
 10
94.6686470226447
 20
32.32492559718678
 40
1.444523237038919
 50
269.9999999999993
 51
329.9999999999445
  0
LINE
  8
0
  6
CONTINUOUS
 62
     7
 10
91.64967996521028
 20
37.5655763819307
 11
96.18317361426126
 21
34.9481626032741
  0
LINE
  8
0
  6
CONTINUOUS
 62
     7
 10
84.60789510963801
 20
-33.50000000000214
 11
84.60789510964727
 21
33.50000000000208
  0
ARC
  8
0
  6
CONTINUOUS
 62
     7
 10
90.30241834667468
 20
-33.50000000000291
 40
5.694523237036786
 50
179.999999999992
 51
269.9999999999523
  0
LINE
  8
0
  6
CONTINUOUS
 62
     7
 10
121.3024183466721
 20
-39.19452323706759
 11
90.30241834667002
 21
-39.19452323704184
  0
ARC
  8
0
  6
CONTINUOUS
 62
     7
 10
121.3024183466768
 20
-33.50000000002962
 40
5.694523237037785
 50
269.9999999999527
 51
359.9999999999919
  0
LINE
  8
0
  6
CONTINUOUS
 62
     7
 10
126.9969415837252
 20
33.49999999996689
 11
126.9969415837159
 21
-33.5000000000304
  0
LINE
  8
0
  6
CONTINUOUS
 62
     7
 10
83.55568224289117
 20
-33.50000000000192
 11
83.5556822429066
 21
33.50000000000227
  0
LINE
  8
0
  6
CONTINUOUS
 62
     7
 10
85.60774280480365
 20
33.50000000000189
 11
85.60774280479438
 21
-33.50000000000222
  0
LINE
  8
0
  6
CONTINUOUS
 62
     7
 10
85.60774280479438
 20
-33.50000000000222
 11
84.60789510963801
 21
-33.50000000000214
  0
ARC
  8
0
  6
CONTINUOUS
 62
     7
 10
90.30241834667468
 20
-33.50000000000291
 40
4.694675541880355
 50
179.999999999992
 51
269.9999999999524
  0
LINE
  8
0
  6
CONTINUOUS
 62
     7
 10
90.3024183466709
 20
-38.19467554188333
 11
90.30241834667002
 21
-39.19452323704184
  0
LINE
  8
0
  6
CONTINUOUS
 62
     7
 10
95.68324976668197
 20
34.08226909935389
 11
91.14975611763099
 21
36.69968287801048
  0
LINE
  8
0
  6
CONTINUOUS
 62
     7
 10
90.30241834667596
 20
-34.80547676296391
 11
90.30241834667513
 21
-35.80532445812029
  0
ARC
  8
0
  6
CONTINUOUS
 62
     7
 10
90.30241834667713
 20
-33.50000000000214
 40
2.305324458118208
 50
179.9999999999925
 51
269.9999999999528
  0
LINE
  8
0
  6
CONTINUOUS
 62
     7
 10
87.99709388855892
 20
-33.5000000000018
 11
88.99694158371568
 21
-33.50000000000192
  0
LINE
  8
0
  6
CONTINUOUS
 62
     7
 10
87.9970938885593
 20
-33.5000000000018
 11
87.99709388856775
 21
30.62492559718691
  0
LINE
  8
0
  6
CONTINUOUS
 62
     7
 10
87.99709388856775
 20
30.62492559718691
 11
88.99694158372412
 21
30.62492559718677
  0
ARC
  8
0
  6
CONTINUOUS
 62
     7
 10
89.25241834668518
 20
30.62492559718677
 40
1.255324458117435
 50
90.0
 51
179.9999999999955
  0
LINE
  8
0
  6
CONTINUOUS
 62
     7
 10
89.25241834668518
 20
31.88025005530418
 11
89.25241834668518
 21
30.88040236014777
  0
LINE
  8
0
  6
CONTINUOUS
 62
     7
 10
89.25241834668518
 20
31.88025005530418
 11
94.6686470226447
 21
31.88025005530418
  0
LINE
  8
0
  6
CONTINUOUS
 62
     7
 10
94.6686470226447
 20
31.88025005530418
 11
94.6686470226447
 21
30.88040236014777
  0
LINE
  8
0
  6
CONTINUOUS
 62
     7
 10
121.3024183466746
 20
-34.8054767629897
 11
121.3024183466737
 21
-35.8053244581461
  0
LINE
  8
0
  6
CONTINUOUS
 62
     7
 10
121.3024183466737
 20
-35.8053244581461
 11
90.30241834667518
 21
-35.80532445812029
  0
LINE
  8
0
  6
CONTINUOUS
 62
     7
 10
90.3024183466709
 20
-38.19467554188544
 11
121.3024183466727
 21
-38.194675541911
  0
LINE
  8
0
  6
CONTINUOUS
 62
     7
 10
121.3024183466727
 20
-38.19467554191122
 11
121.3024183466721
 21
-39.19452323706759
  0
ARC
  8
0
  6
CONTINUOUS
 62
     7
 10
94.6686470226447
 20
32.32492559718678
 40
0.4446755418825443
 50
269.9999999999975
 51
329.9999999999409
  0
LINE
  8
0
  6
CONTINUOUS
 62
     7
 10
114.8929308779994
 20
32.97490716510198
 11
115.7588243819205
 21
33.47483101267959
  0
LINE
  8
0
  6
CONTINUOUS
 62
     7
 10
115.7588243819205
 20
33.4748310126797
 11
116.5510893550007
 21
32.10258782624567
  0
LINE
  8
0
  6
CONTINUOUS
 62
     7
 10
115.6851958510797
 20
31.60266397866798
 11
116.5510893550007
 21
32.10258782624567
  0
ARC
  8
0
  6
CONTINUOUS
 62
     7
 10
116.9361896707128
 20
32.32492559718678
 40
0.4446755418825998
 50
209.9999999999706
 51
269.9999999999976
  0
LINE
  8
0
  6
CONTINUOUS
 62
     7
 10
116.9361896707127
 20
30.88040236014777
 11
116.9361896707128
 21
31.88025005530418
  0
LINE
  8
0
  6
CONTINUOUS
 62
     7
 10
115.4216630791138
 20
34.9481626032539
 11
115.9215869266916
 21
34.08226909933276
  0
ARC
  8
0
  6
CONTINUOUS
 62
     7
 10
116.1439246976325
 20
33.69716878362067
 40
0.4446755418825443
 50
119.999999999958
 51
209.9999999999584
  0
LINE
  8
0
  6
CONTINUOUS
 62
     7
 10
119.9551567281693
 20
37.56557638190139
 11
120.4550805757469
 21
36.69968287798028
  0
LINE
  8
0
  6
CONTINUOUS
 62
     7
 10
120.4550805757469
 20
36.69968287798028
 11
115.9215869266916
 21
34.08226909933276
  0
LINE
  8
0
  6
CONTINUOUS
 62
     7
 10
116.9361896707128
 20
31.88025005530418
 11
122.3524183466861
 21
31.88025005530418
  0
LINE
  8
0
  6
CONTINUOUS
 62
     7
 10
122.3524183466861
 20
30.88040236014777
 11
122.3524183466861
 21
31.88025005530418
  0
LINE
  8
0
  6
CONTINUOUS
 62
     7
 10
126.9969415837252
 20
33.49999999996689
 11
125.9970938885689
 21
33.49999999996697
  0
ARC
  8
0
  6
CONTINUOUS
 62
     7
 10
122.3024183466862
 20
33.49999999996759
 40
3.694675541882686
 50
359.9999999999923
 51
119.9999999999625
  0
LINE
  8
0
  6
CONTINUOUS
 62
     7
 10
122.6078951096378
 20
-33.50000000002881
 11
123.6077428047941
 21
-33.500000000029
  0
ARC
  8
0
  6
CONTINUOUS
 62
     7
 10
121.3024183466757
 20
-33.50000000002862
 40
2.305324458118485
 50
269.9999999999516
 51
359.9999999999916
  0
ARC
  8
0
  6
CONTINUOUS
 62
     7
 10
121.3024183466768
 20
-33.50000000002962
 40
4.69467554188141
 50
269.9999999999505
 51
359.9999999999919
  0
LINE
  8
0
  6
CONTINUOUS
 62
     7
 10
126.9969415837159
 20
-33.5000000000304
 11
125.9970938885594
 21
-33.50000000003031
  0
ARC
  8
0
  6
CONTINUOUS
 62
     7
 10
122.3524183466861
 20
30.62492559718677
 40
1.255324458117435
 50
359.9999999999911
 51
90.0
  0
LINE
  8
0
  6
CONTINUOUS
 62
     7
 10
122.6078951096471
 20
30.62492559718669
 11
123.6077428048035
 21
30.62492559718649
  0
LINE
  8
0
  6
CONTINUOUS
 62
     7
 10
123.6077428048035
 20
30.62492559718658
 11
123.6077428047941
 21
-33.500000000029
  0
LINE
  8
0
  6
CONTINUOUS
 62
     7
 10
125.9970938885594
 20
-33.50000000003031
 11
125.9970938885688
 21
33.49999999996708
  0
LINE
  8
0
  6
CONTINUOUS
 62
     7
 10
87.75241834668512
 20
30.62492559718699
 11
87.75241834667668
 21
-33.50000000000172
  0
LINE
  8
0
  6
CONTINUOUS
 62
     7
 10
87.99709388856775
 20
30.62492559718691
 11
87.75241834668512
 21
30.62492559718699
  0
LINE
  8
0
  6
CONTINUOUS
 62
     7
 10
87.9970938885593
 20
-33.5000000000018
 11
87.75241834667668
 21
-33.50000000000172
  0
ARC
  8
0
  6
CONTINUOUS
 62
     7
 10
89.25241834668518
 20
30.62492559718677
 40
1.500000000000001
 50
90.0
 51
179.999999999992
  0
LINE
  8
0
  6
CONTINUOUS
 62
     7
 10
89.25241834668518
 20
31.88025005530418
 11
89.25241834668518
 21
32.12492559718677
  0
LINE
  8
0
  6
CONTINUOUS
 62
     7
 10
122.3524183466861
 20
32.12492559718677
 11
116.9361896707128
 21
32.12492559718677
  0
LINE
  8
0
  6
CONTINUOUS
 62
     7
 10
122.3524183466861
 20
31.88025005530418
 11
122.3524183466861
 21
32.12492559718677
  0
LINE
  8
0
  6
CONTINUOUS
 62
     7
 10
116.9361896707128
 20
31.88025005530418
 11
116.9361896707128
 21
32.12492559718677
  0
ARC
  8
0
  6
CONTINUOUS
 62
     7
 10
122.3524183466861
 20
30.62492559718677
 40
1.500000000000001
 50
359.999999999989
 51
90.0
  0
LINE
  8
0
  6
CONTINUOUS
 62
     7
 10
123.6077428048035
 20
30.62492559718658
 11
123.8524183466861
 21
30.62492559718649
  0
ARC
  8
0
  6
CONTINUOUS
 62
     7
 10
90.30241834667713
 20
-33.50000000000214
 40
2.550000000000774
 50
179.9999999999926
 51
269.9999999999528
  0
LINE
  8
0
  6
CONTINUOUS
 62
     7
 10
90.30241834667518
 20
-35.80532445812029
 11
90.30241834667501
 21
-36.05000000000283
  0
LINE
  8
0
  6
CONTINUOUS
 62
     7
 10
90.30241834667501
 20
-36.05000000000283
 11
121.3024183466735
 21
-36.05000000002861
  0
LINE
  8
0
  6
CONTINUOUS
 62
     7
 10
121.3024183466737
 20
-35.8053244581461
 11
121.3024183466735
 21
-36.05000000002861
  0
ARC
  8
0
  6
CONTINUOUS
 62
     7
 10
121.3024183466757
 20
-33.50000000002862
 40
2.550000000001107
 50
269.9999999999516
 51
359.9999999999916
  0
LINE
  8
0
  6
CONTINUOUS
 62
     7
 10
123.6077428047941
 20
-33.500000000029
 11
123.8524183466766
 21
-33.500000000029
  0
LINE
  8
0
  6
CONTINUOUS
 62
     7
 10
123.8524183466766
 20
-33.500000000029
 11
123.8524183466861
 21
30.62492559718649
  0
LINE
  8
0
  6
CONTINUOUS
 62
     7
 10
121.3024183466731
 20
-37.95000000002852
 11
90.30241834667108
 21
-37.95000000000282
  0
LINE
  8
0
  6
CONTINUOUS
 62
     7
 10
121.3024183466727
 20
-38.194675541911
 11
121.3024183466731
 21
-37.95000000002852
  0
LINE
  8
0
  6
CONTINUOUS
 62
     7
 10
90.3024183466709
 20
-38.19467554188544
 11
90.30241834667108
 21
-37.95000000000282
  0
ARC
  8
0
  6
CONTINUOUS
 62
     7
 10
90.30241834667468
 20
-33.50000000000291
 40
4.449999999997845
 50
179.9999999999918
 51
269.9999999999524
  0
LINE
  8
0
  6
CONTINUOUS
 62
     7
 10
85.60774280479438
 20
-33.50000000000222
 11
85.8524183466769
 21
-33.50000000000222
  0
LINE
  8
0
  6
CONTINUOUS
 62
     7
 10
85.8524183466769
 20
-33.50000000000222
 11
85.85241834668622
 21
33.50000000000189
  0
LINE
  8
0
  6
CONTINUOUS
 62
     7
 10
85.60774280480365
 20
33.50000000000189
 11
85.85241834668622
 21
33.50000000000189
  0
ARC
  8
0
  6
CONTINUOUS
 62
     7
 10
89.30241834668595
 20
33.50000000000136
 40
3.449999999999953
 50
59.99999999993275
 51
179.9999999999917
  0
LINE
  8
0
  6
CONTINUOUS
 62
     7
 10
91.14975611763099
 20
36.69968287801048
 11
91.02741834668947
 21
36.48778764305568
  0
LINE
  8
0
  6
CONTINUOUS
 62
     7
 10
94.6686470226447
 20
32.12492559718677
 11
89.25241834668512
 21
32.12492559718677
  0
LINE
  8
0
  6
CONTINUOUS
 62
     7
 10
94.6686470226447
 20
31.88025005530418
 11
94.6686470226447
 21
32.12492559718677
  0
ARC
  8
0
  6
CONTINUOUS
 62
     7
 10
121.3024183466768
 20
-33.50000000002962
 40
4.449999999998844
 50
269.9999999999523
 51
359.9999999999918
  0
LINE
  8
0
  6
CONTINUOUS
 62
     7
 10
125.9970938885594
 20
-33.50000000003031
 11
125.7524183466769
 21
-33.50000000003031
  0
LINE
  8
0
  6
CONTINUOUS
 62
     7
 10
91.02741834668947
 20
36.48778764305568
 11
95.56091199574063
 21
33.87037386439898
  0
LINE
  8
0
  6
CONTINUOUS
 62
     7
 10
95.68324976668197
 20
34.08226909935389
 11
95.56091199574045
 21
33.87037386439898
  0
ARC
  8
0
  6
CONTINUOUS
 62
     7
 10
94.6686470226447
 20
32.32492559718678
 40
0.2000000000000335
 50
269.9999999999945
 51
329.9999999999385
  0
LINE
  8
0
  6
CONTINUOUS
 62
     7
 10
95.05374733835636
 20
32.10258782624508
 11
94.84185210340151
 21
32.22492559718656
  0
ARC
  8
0
  6
CONTINUOUS
 62
     7
 10
95.46091199574019
 20
33.69716878364229
 40
0.199999999999978
 50
329.9999999999392
 51
59.99999999992372
  0
LINE
  8
0
  6
CONTINUOUS
 62
     7
 10
95.84601231145196
 20
33.47483101270057
 11
95.6341170764971
 21
33.59716878364208
  0
LINE
  8
0
  6
CONTINUOUS
 62
     7
 10
95.6341170764971
 20
33.59716878364208
 11
94.84185210340151
 21
32.22492559718656
  0
ARC
  8
0
  6
CONTINUOUS
 62
     7
 10
116.9361896707128
 20
32.32492559718678
 40
0.199999999999978
 50
209.9999999999693
 51
269.9999999999945
  0
LINE
  8
0
  6
CONTINUOUS
 62
     7
 10
116.5510893550007
 20
32.10258782624567
 11
116.7629845899558
 21
32.22492559718679
  0
LINE
  8
0
  6
CONTINUOUS
 62
     7
 10
116.7629845899558
 20
32.22492559718679
 11
115.9707196168755
 21
33.59716878362079
  0
LINE
  8
0
  6
CONTINUOUS
 62
     7
 10
115.7588243819205
 20
33.4748310126797
 11
115.9707196168755
 21
33.59716878362079
  0
ARC
  8
0
  6
CONTINUOUS
 62
     7
 10
116.1439246976325
 20
33.69716878362067
 40
0.199999999999978
 50
119.9999999999549
 51
209.9999999999627
  0
LINE
  8
0
  6
CONTINUOUS
 62
     7
 10
115.9215869266916
 20
34.08226909933276
 11
116.0439246976327
 21
33.87037386437758
  0
LINE
  8
0
  6
CONTINUOUS
 62
     7
 10
116.0439246976327
 20
33.87037386437758
 11
120.577418346688
 21
36.48778764302518
  0
LINE
  8
0
  6
CONTINUOUS
 62
     7
 10
120.4550805757469
 20
36.69968287798028
 11
120.577418346688
 21
36.48778764302518
  0
ARC
  8
0
  6
CONTINUOUS
 62
     7
 10
122.3024183466862
 20
33.49999999996759
 40
3.45000000000012
 50
359.9999999999917
 51
119.9999999999625
  0
LINE
  8
0
  6
CONTINUOUS
 62
     7
 10
125.9970938885688
 20
33.49999999996708
 11
125.7524183466863
 21
33.49999999996708
  0
LINE
  8
0
  6
CONTINUOUS
 62
     7
 10
125.7524183466863
 20
33.49999999996708
 11
125.7524183466769
 21
-33.50000000003031
  0
ARC
  8
0
  6
CONTINUOUS
 62
     7
 10
-119.6993230451263
 20
33.49999999996759
 40
5.484300864081804
 50
60.00000000003798
 51
180.0000000000073
  0
LINE
  8
0
  6
CONTINUOUS
 62
     7
 10
-116.9571726130885
 20
38.24954387026119
 11
-117.9570203082439
 21
36.5177568624189
  0
ARC
  8
0
  6
CONTINUOUS
 62
     7
 10
-119.6993230451263
 20
33.49999999996759
 40
3.484605473769026
 50
60.00000000003767
 51
180.0000000000082
  0
LINE
  8
0
  6
CONTINUOUS
 62
     7
 10
-125.1836239092078
 20
33.49999999996689
 11
-123.1839285188953
 21
33.49999999996708
  0
LINE
  8
0
  6
CONTINUOUS
 62
     7
 10
-118.6993230451132
 20
-37.98460547380089
 11
-87.69932304511111
 21
-37.98460547377142
  0
LINE
  8
0
  6
CONTINUOUS
 62
     7
 10
-87.69932304511111
 20
-37.98460547377142
 11
-87.69932304510952
 21
-39.98430086408422
  0
LINE
  8
0
  6
CONTINUOUS
 62
     7
 10
-87.69932304510952
 20
-39.98430086408422
 11
-118.6993230451115
 21
-39.98430086411373
  0
LINE
  8
0
  6
CONTINUOUS
 62
     7
 10
-118.6993230451132
 20
-37.98460547380089
 11
-118.6993230451116
 21
-39.98430086411373
  0
LINE
  8
0
  6
CONTINUOUS
 62
     7
 10
-116.9571726130886
 20
38.24954387026108
 11
-112.4236789640333
 21
35.63213009161348
  0
LINE
  8
0
  6
CONTINUOUS
 62
     7
 10
-112.4236789640333
 20
35.63213009161359
 11
-113.4235266591886
 21
33.9003430837713
  0
LINE
  8
0
  6
CONTINUOUS
 62
     7
 10
-113.4235266591885
 20
33.9003430837713
 11
-117.9570203082439
 21
36.5177568624189
  0
ARC
  8
0
  6
CONTINUOUS
 62
     7
 10
-87.69932304511492
 20
-33.50000000000291
 40
4.484605473772565
 50
270.0000000000479
 51
0.0000000000079012
  0
LINE
  8
0
  6
CONTINUOUS
 62
     7
 10
-83.21471757134232
 20
-33.50000000000222
 11
-81.21502218102952
 21
-33.500000000002
  0
ARC
  8
0
  6
CONTINUOUS
 62
     7
 10
-87.69932304511492
 20
-33.50000000000291
 40
6.484300864085371
 50
270.0000000000477
 51
0.0000000000079581
  0
ARC
  8
0
  6
CONTINUOUS
 62
     7
 10
-113.5408293960727
 20
33.69716878362077
 40
2.234300864081384
 50
330.0000000000331
 51
60.00000000003762
  0
LINE
  8
0
  6
CONTINUOUS
 62
     7
 10
-111.60586808808
 20
32.58001835158117
 11
-113.3376550959221
 21
33.5798660467366
  0
ARC
  8
0
  6
CONTINUOUS
 62
     7
 10
-113.5408293960727
 20
33.69716878362077
 40
0.2346054737686065
 50
330.0000000000334
 51
60.00000000002836
  0
LINE
  8
0
  6
CONTINUOUS
 62
     7
 10
-83.21471757134232
 20
-33.50000000000222
 11
-83.21471757135781
 21
33.50000000000189
  0
LINE
  8
0
  6
CONTINUOUS
 62
     7
 10
-83.21471757135781
 20
33.50000000000189
 11
-81.21502218104504
 21
33.5000000000022
  0
LINE
  8
0
  6
CONTINUOUS
 62
     7
 10
-81.21502218104504
 20
33.5000000000022
 11
-81.21502218102964
 21
-33.500000000002
  0
LINE
  8
0
  6
CONTINUOUS
 62
     7
 10
-111.60586808808
 20
32.58001835158117
 11
-112.3981330611601
 21
31.20777516514719
  0
LINE
  8
0
  6
CONTINUOUS
 62
     7
 10
-112.3981330611602
 20
31.20777516514719
 11
-114.1299200690022
 21
32.20762286030249
  0
LINE
  8
0
  6
CONTINUOUS
 62
     7
 10
-114.1299200690022
 20
32.20762286030237
 11
-113.3376550959221
 21
33.5798660467366
  0
ARC
  8
0
  6
CONTINUOUS
 62
     7
 10
-86.69932304512612
 20
33.50000000000147
 40
3.48460547376786
 50
0.0000000000066174
 51
120.0000000000677
  0
LINE
  8
0
  6
CONTINUOUS
 62
     7
 10
-88.44162578201362
 20
36.51775686244868
 11
-89.44147347717201
 21
38.249543870289
  0
ARC
  8
0
  6
CONTINUOUS
 62
     7
 10
-86.69932304512612
 20
33.50000000000147
 40
5.48430086408061
 50
0.0000000000073896
 51
120.0000000000678
  0
ARC
  8
0
  6
CONTINUOUS
 62
     7
 10
-114.3330943691529
 20
32.32492559718678
 40
2.234300864081523
 50
270.0
 51
330.0000000000344
  0
LINE
  8
0
  6
CONTINUOUS
 62
     7
 10
-114.3330943691529
 20
30.09062473310528
 11
-114.3330943691529
 21
32.09032012341817
  0
ARC
  8
0
  6
CONTINUOUS
 62
     7
 10
-114.3330943691529
 20
32.32492559718678
 40
0.2346054737687453
 50
270.0
 51
330.0000000000247
  0
LINE
  8
0
  6
CONTINUOUS
 62
     7
 10
-88.44162578201362
 20
36.51775686244868
 11
-92.97511943106501
 21
33.90034308379269
  0
LINE
  8
0
  6
CONTINUOUS
 62
     7
 10
-92.97511943106501
 20
33.90034308379269
 11
-93.9749671262234
 21
35.63213009163299
  0
LINE
  8
0
  6
CONTINUOUS
 62
     7
 10
-93.9749671262234
 20
35.63213009163299
 11
-89.44147347717201
 21
38.249543870289
  0
LINE
  8
0
  6
CONTINUOUS
 62
     7
 10
-114.3330943691529
 20
30.09062473310539
 11
-118.249323045126
 21
30.09062473310539
  0
LINE
  8
0
  6
CONTINUOUS
 62
     7
 10
-118.249323045126
 20
30.09062473310539
 11
-118.249323045126
 21
32.09032012341817
  0
LINE
  8
0
  6
CONTINUOUS
 62
     7
 10
-118.249323045126
 20
32.09032012341817
 11
-114.3330943691529
 21
32.09032012341817
  0
ARC
  8
0
  6
CONTINUOUS
 62
     7
 10
-92.85781669418041
 20
33.69716878364229
 40
0.23460547376844
 50
120.0000000000642
 51
210.0000000000515
  0
LINE
  8
0
  6
CONTINUOUS
 62
     7
 10
-93.06099099433062
 20
33.57986604675789
 11
-94.79277800217112
 21
32.58001835159968
  0
ARC
  8
0
  6
CONTINUOUS
 62
     7
 10
-92.85781669418041
 20
33.69716878364229
 40
2.234300864081204
 50
120.0000000000673
 51
210.0000000000586
  0
ARC
  8
0
  6
CONTINUOUS
 62
     7
 10
-118.249323045126
 20
29.12492559718677
 40
0.9656991359185962
 50
90.0
 51
180.0000000000057
  0
LINE
  8
0
  6
CONTINUOUS
 62
     7
 10
-119.2150221810446
 20
29.12492559718669
 11
-121.2147175713574
 21
29.12492559718627
  0
ARC
  8
0
  6
CONTINUOUS
 62
     7
 10
-118.249323045126
 20
29.12492559718677
 40
2.965394526231402
 50
90.0
 51
180.0000000000097
  0
LINE
  8
0
  6
CONTINUOUS
 62
     7
 10
-93.06099099433062
 20
33.57986604675789
 11
-92.2687260212352
 21
32.20762286030229
  0
LINE
  8
0
  6
CONTINUOUS
 62
     7
 10
-92.2687260212352
 20
32.20762286030229
 11
-94.00051302907572
 21
31.20777516514408
  0
LINE
  8
0
  6
CONTINUOUS
 62
     7
 10
-94.00051302907572
 20
31.20777516514408
 11
-94.79277800217112
 21
32.58001835159968
  0
LINE
  8
0
  6
CONTINUOUS
 62
     7
 10
-119.2150221810446
 20
29.12492559718669
 11
-119.2150221810356
 21
-33.05000000002841
  0
LINE
  8
0
  6
CONTINUOUS
 62
     7
 10
-119.2150221810355
 20
-33.05000000002842
 11
-121.2147175713483
 21
-33.05000000002872
  0
LINE
  8
0
  6
CONTINUOUS
 62
     7
 10
-121.2147175713483
 20
-33.05000000002872
 11
-121.2147175713574
 21
29.12492559718627
  0
ARC
  8
0
  6
CONTINUOUS
 62
     7
 10
-92.0655517210849
 20
32.32492559718678
 40
0.234605473768662
 50
210.000000000053
 51
270.0000000000001
  0
LINE
  8
0
  6
CONTINUOUS
 62
     7
 10
-92.0655517210849
 20
32.09032012341809
 11
-92.0655517210849
 21
30.09062473310528
  0
ARC
  8
0
  6
CONTINUOUS
 62
     7
 10
-92.0655517210849
 20
32.32492559718678
 40
2.23430086408144
 50
210.0000000000591
 51
270.0
  0
ARC
  8
0
  6
CONTINUOUS
 62
     7
 10
-118.249323045117
 20
-33.05000000002831
 40
0.965699135918624
 50
180.0000000000083
 51
270.0000000000505
  0
LINE
  8
0
  6
CONTINUOUS
 62
     7
 10
-118.2493230451161
 20
-34.01569913594693
 11
-118.2493230451145
 21
-36.01539452625963
  0
ARC
  8
0
  6
CONTINUOUS
 62
     7
 10
-118.249323045117
 20
-33.05000000002831
 40
2.965394526231374
 50
180.0000000000083
 51
270.0000000000483
  0
LINE
  8
0
  6
CONTINUOUS
 62
     7
 10
-92.0655517210849
 20
32.09032012341809
 11
-88.14932304512512
 21
32.09032012341817
  0
LINE
  8
0
  6
CONTINUOUS
 62
     7
 10
-88.14932304512512
 20
32.09032012341817
 11
-88.14932304512512
 21
30.09062473310539
  0
LINE
  8
0
  6
CONTINUOUS
 62
     7
 10
-88.14932304512512
 20
30.09062473310539
 11
-92.0655517210849
 21
30.09062473310539
  0
LINE
  8
0
  6
CONTINUOUS
 62
     7
 10
-118.2493230451161
 20
-34.01569913594693
 11
-88.14932304511612
 21
-34.01569913592184
  0
LINE
  8
0
  6
CONTINUOUS
 62
     7
 10
-88.14932304511612
 20
-34.01569913592184
 11
-88.14932304511441
 21
-36.01539452623462
  0
LINE
  8
0
  6
CONTINUOUS
 62
     7
 10
-88.14932304511441
 20
-36.01539452623462
 11
-118.2493230451145
 21
-36.01539452625963
  0
ARC
  8
0
  6
CONTINUOUS
 62
     7
 10
-88.14932304512512
 20
29.12492559718677
 40
2.965394526231346
 50
0.0000000000077875
 51
90.0
  0
LINE
  8
0
  6
CONTINUOUS
 62
     7
 10
-85.18392851889382
 20
29.12492559718718
 11
-87.18362390920652
 21
29.12492559718691
  0
ARC
  8
0
  6
CONTINUOUS
 62
     7
 10
-88.14932304512512
 20
29.12492559718677
 40
0.9656991359185962
 50
0.0000000000057637
 51
90.0
  0
ARC
  8
0
  6
CONTINUOUS
 62
     7
 10
-88.14932304511692
 20
-33.05000000000322
 40
0.9656991359185962
 50
270.0000000000474
 51
0.0000000000070486
  0
LINE
  8
0
  6
CONTINUOUS
 62
     7
 10
-87.18362390919832
 20
-33.05000000000313
 11
-85.18392851888552
 21
-33.05000000000283
  0
ARC
  8
0
  6
CONTINUOUS
 62
     7
 10
-88.14932304511692
 20
-33.05000000000322
 40
2.965394526231374
 50
270.0000000000483
 51
0.0000000000075602
  0
LINE
  8
0
  6
CONTINUOUS
 62
     7
 10
-85.18392851889382
 20
29.12492559718718
 11
-85.18392851888552
 21
-33.05000000000282
  0
LINE
  8
0
  6
CONTINUOUS
 62
     7
 10
-87.18362390919832
 20
-33.05000000000313
 11
-87.18362390920652
 21
29.12492559718676
  0
ARC
  8
0
  6
CONTINUOUS
 62
     7
 10
-118.6993230451169
 20
-33.50000000002962
 40
4.484605473771302
 50
180.000000000008
 51
270.0000000000473
  0
LINE
  8
0
  6
CONTINUOUS
 62
     7
 10
-123.1839285188953
 20
33.49999999996708
 11
-123.1839285188857
 21
-33.50000000003031
  0
LINE
  8
0
  6
CONTINUOUS
 62
     7
 10
-123.1839285188857
 20
-33.5000000000302
 11
-125.1836239091985
 21
-33.5000000000305
  0
LINE
  8
0
  6
CONTINUOUS
 62
     7
 10
-125.1836239091985
 20
-33.5000000000305
 11
-125.1836239092081
 21
33.49999999996689
  0
ARC
  8
0
  6
CONTINUOUS
 62
     7
 10
-118.6993230451169
 20
-33.50000000002962
 40
6.48430086408408
 50
180.000000000008
 51
270.0000000000477
  0
LINE
  8
0
  6
CONTINUOUS
 62
     7
 10
-92.0655517210849
 20
29.82818949340698
 11
-88.14932304512512
 21
29.82818949340698
  0
LINE
  8
0
  6
CONTINUOUS
 62
     7
 10
-92.0655517210849
 20
29.82818949340698
 11
-92.0655517210849
 21
30.09062473310539
  0
LINE
  8
0
  6
CONTINUOUS
 62
     7
 10
-88.14932304512512
 20
29.82818949340698
 11
-88.14932304512512
 21
30.09062473310539
  0
ARC
  8
0
  6
CONTINUOUS
 62
     7
 10
-88.14932304512512
 20
29.12492559718677
 40
0.7032638962202742
 50
0.0000000000079012
 51
90.0
  0
LINE
  8
0
  6
CONTINUOUS
 62
     7
 10
-87.44605914890482
 20
29.12492559718691
 11
-87.18362390920652
 21
29.12492559718691
  0
LINE
  8
0
  6
CONTINUOUS
 62
     7
 10
-87.44605914890482
 20
29.12492559718691
 11
-87.44605914889662
 21
-33.05000000000312
  0
LINE
  8
0
  6
CONTINUOUS
 62
     7
 10
-87.44605914889662
 20
-33.05000000000313
 11
-87.18362390919832
 21
-33.05000000000313
  0
LINE
  8
0
  6
CONTINUOUS
 62
     7
 10
-118.6993230451113
 20
-40.24673610381202
 11
-87.69932304510931
 21
-40.24673610378252
  0
LINE
  8
0
  6
CONTINUOUS
 62
     7
 10
-118.6993230451113
 20
-40.24673610381202
 11
-118.6993230451115
 21
-39.98430086411373
  0
LINE
  8
0
  6
CONTINUOUS
 62
     7
 10
-87.69932304510931
 20
-40.24673610378252
 11
-87.69932304510952
 21
-39.98430086408422
  0
ARC
  8
0
  6
CONTINUOUS
 62
     7
 10
-88.14932304511692
 20
-33.05000000000322
 40
0.7032638962203019
 50
270.0000000000488
 51
0.0000000000073328
  0
LINE
  8
0
  6
CONTINUOUS
 62
     7
 10
-88.14932304511632
 20
-33.75326389622352
 11
-88.14932304511612
 21
-34.01569913592184
  0
LINE
  8
0
  6
CONTINUOUS
 62
     7
 10
-88.14932304511632
 20
-33.75326389622352
 11
-118.2493230451164
 21
-33.7532638962486
  0
LINE
  8
0
  6
CONTINUOUS
 62
     7
 10
-118.2493230451164
 20
-33.7532638962486
 11
-118.2493230451161
 21
-34.01569913594693
  0
ARC
  8
0
  6
CONTINUOUS
 62
     7
 10
-118.249323045117
 20
-33.05000000002831
 40
0.7032638962203019
 50
180.0000000000082
 51
270.0000000000488
  0
LINE
  8
0
  6
CONTINUOUS
 62
     7
 10
-118.9525869413373
 20
-33.05000000002842
 11
-119.2150221810356
 21
-33.05000000002842
  0
LINE
  8
0
  6
CONTINUOUS
 62
     7
 10
-118.9525869413373
 20
-33.05000000002842
 11
-118.9525869413463
 21
29.12492559718668
  0
LINE
  8
0
  6
CONTINUOUS
 62
     7
 10
-118.9525869413463
 20
29.12492559718669
 11
-119.2150221810446
 21
29.12492559718669
  0
ARC
  8
0
  6
CONTINUOUS
 62
     7
 10
-118.249323045126
 20
29.12492559718677
 40
0.7032638962203019
 50
90.0
 51
180.000000000008
  0
LINE
  8
0
  6
CONTINUOUS
 62
     7
 10
-118.249323045126
 20
29.82818949340698
 11
-118.249323045126
 21
30.09062473310539
  0
LINE
  8
0
  6
CONTINUOUS
 62
     7
 10
-118.249323045126
 20
29.82818949340698
 11
-114.3330943691529
 21
29.82818949340698
  0
LINE
  8
0
  6
CONTINUOUS
 62
     7
 10
-114.3330943691529
 20
29.82818949340698
 11
-114.3330943691529
 21
30.09062473310539
  0
ARC
  8
0
  6
CONTINUOUS
 62
     7
 10
-114.3330943691529
 20
32.32492559718678
 40
2.496736103779817
 50
270.0
 51
330.0000000000348
  0
LINE
  8
0
  6
CONTINUOUS
 62
     7
 10
-112.170857476733
 20
31.0765575452982
 11
-112.3981330611601
 21
31.20777516514719
  0
LINE
  8
0
  6
CONTINUOUS
 62
     7
 10
-112.170857476733
 20
31.0765575452982
 11
-111.378592503653
 21
32.44880073173218
  0
LINE
  8
0
  6
CONTINUOUS
 62
     7
 10
-111.378592503653
 20
32.44880073173218
 11
-111.60586808808
 21
32.58001835158117
  0
ARC
  8
0
  6
CONTINUOUS
 62
     7
 10
-113.5408293960727
 20
33.69716878362077
 40
2.496736103779693
 50
330.0000000000333
 51
60.00000000003786
  0
LINE
  8
0
  6
CONTINUOUS
 62
     7
 10
-112.2924613441843
 20
35.85940567604059
 11
-112.4236789640333
 21
35.63213009161348
  0
LINE
  8
0
  6
CONTINUOUS
 62
     7
 10
-112.2924613441843
 20
35.85940567604059
 11
-116.8259549932396
 21
38.47681945468817
  0
LINE
  8
0
  6
CONTINUOUS
 62
     7
 10
-116.8259549932396
 20
38.47681945468817
 11
-116.9571726130886
 21
38.24954387026108
  0
ARC
  8
0
  6
CONTINUOUS
 62
     7
 10
-119.6993230451263
 20
33.49999999996759
 40
5.746736103780083
 50
60.00000000003811
 51
180.000000000008
  0
LINE
  8
0
  6
CONTINUOUS
 62
     7
 10
-125.4460591489064
 20
33.49999999996678
 11
-125.1836239092081
 21
33.49999999996689
  0
LINE
  8
0
  6
CONTINUOUS
 62
     7
 10
-125.4460591489064
 20
33.49999999996678
 11
-125.4460591488968
 21
-33.50000000003062
  0
LINE
  8
0
  6
CONTINUOUS
 62
     7
 10
-125.4460591488968
 20
-33.50000000003062
 11
-125.1836239091985
 21
-33.5000000000305
  0
ARC
  8
0
  6
CONTINUOUS
 62
     7
 10
-118.6993230451169
 20
-33.50000000002962
 40
6.746736103782403
 50
180.000000000008
 51
270.0000000000476
  0
ARC
  8
0
  6
CONTINUOUS
 62
     7
 10
-92.0655517210849
 20
32.32492559718678
 40
2.496736103779748
 50
210.0000000000571
 51
270.0
  0
LINE
  8
0
  6
CONTINUOUS
 62
     7
 10
-94.22778861350261
 20
31.07655754529479
 11
-94.00051302907572
 21
31.20777516514408
  0
ARC
  8
0
  6
CONTINUOUS
 62
     7
 10
-87.69932304511492
 20
-33.50000000000291
 40
6.746736103783637
 50
270.0000000000475
 51
0.0000000000079581
  0
LINE
  8
0
  6
CONTINUOUS
 62
     7
 10
-80.9525869413312
 20
-33.50000000000192
 11
-81.21502218102964
 21
-33.500000000002
  0
LINE
  8
0
  6
CONTINUOUS
 62
     7
 10
-80.9525869413312
 20
-33.50000000000192
 11
-80.95258694134671
 21
33.50000000000227
  0
LINE
  8
0
  6
CONTINUOUS
 62
     7
 10
-80.95258694134671
 20
33.50000000000227
 11
-81.21502218104504
 21
33.5000000000022
  0
ARC
  8
0
  6
CONTINUOUS
 62
     7
 10
-86.69932304512612
 20
33.50000000000147
 40
5.746736103778932
 50
0.0000000000080251
 51
120.0000000000679
  0
LINE
  8
0
  6
CONTINUOUS
 62
     7
 10
-89.57269109702142
 20
38.47681945471576
 11
-89.44147347717201
 21
38.249543870289
  0
LINE
  8
0
  6
CONTINUOUS
 62
     7
 10
-89.57269109702142
 20
38.47681945471576
 11
-94.10618474607281
 21
35.85940567605989
  0
LINE
  8
0
  6
CONTINUOUS
 62
     7
 10
-94.10618474607281
 20
35.85940567605989
 11
-93.9749671262234
 21
35.63213009163299
  0
ARC
  8
0
  6
CONTINUOUS
 62
     7
 10
-92.85781669418041
 20
33.69716878364229
 40
2.496736103779498
 50
120.0000000000666
 51
210.0000000000593
  0
LINE
  8
0
  6
CONTINUOUS
 62
     7
 10
-95.02005358659801
 20
32.4488007317503
 11
-94.79277800217112
 21
32.58001835159968
  0
LINE
  8
0
  6
CONTINUOUS
 62
     7
 10
-95.02005358659801
 20
32.4488007317503
 11
-94.22778861350261
 21
31.07655754529479
  0
LINE
  8
0
  6
CONTINUOUS
 62
     7
 10
-125.3069553363402
 20
-2.564578466302037
 11
-125.3069553363402
 21
0.8530609597248713
  0
LINE
  8
0
  6
CONTINUOUS
 62
     7
 10
-125.2760570626169
 20
0.8530609599828876
 11
-125.278094290035
 21
-2.564578470012901
  0
LINE
  8
0
  6
CONTINUOUS
 62
     7
 10
-125.3069553363402
 20
2.026861218984266
 11
-125.2551187465347
 21
2.026861218984266
  0
LINE
  8
0
  6
CONTINUOUS
 62
     7
 10
-125.3069553363402
 20
2.584578469984361
 11
-125.2551187465347
 21
2.584578469984361
  0
LINE
  8
0
  6
CONTINUOUS
 62
     7
 10
-125.3069553363402
 20
2.026861218984266
 11
-125.3069553363402
 21
2.584578469984361
  0
LINE
  8
0
  6
CONTINUOUS
 62
     7
 10
-125.2551187465347
 20
2.584578469984361
 11
-125.2551187465347
 21
2.026861218984266
  0
LINE
  8
0
  6
CONTINUOUS
 62
     7
 10
-125.3069553363402
 20
1.910129701995583
 11
-125.2924682544802
 21
1.910129701995583
  0
LINE
  8
0
  6
CONTINUOUS
 62
     7
 10
-125.3069553363402
 20
1.91012970198437
 11
-125.3069553363402
 21
2.026861218984266
  0
LINE
  8
0
  6
CONTINUOUS
 62
     7
 10
-125.2902046479351
 20
2.026861218984266
 11
-125.2924682544802
 21
1.910129701995583
  0
LINE
  8
0
  6
CONTINUOUS
 62
     7
 10
-125.3069553363402
 20
0.8598617170254841
 11
-125.3069553363402
 21
1.910129701995583
  0
LINE
  8
0
  6
CONTINUOUS
 62
     7
 10
-125.2924682544802
 20
1.910129701995583
 11
-125.2943527677692
 21
0.8530609599843864
  0
LINE
  8
0
  6
CONTINUOUS
 62
     7
 10
-125.3828993358153
 20
1.748002593984388
 11
-125.323819205079
 21
1.748002593984388
  0
LINE
  8
0
  6
CONTINUOUS
 62
     7
 10
-125.3828993358153
 20
1.748002593984388
 11
-125.3828993358153
 21
2.584578469984361
  0
LINE
  8
0
  6
CONTINUOUS
 62
     7
 10
-125.3828993358155
 20
2.584578469984361
 11
-125.3261959919388
 21
2.584578469984361
  0
LINE
  8
0
  6
CONTINUOUS
 62
     7
 10
-125.3261959919388
 20
2.584578469984361
 11
-125.3207068400903
 21
2.031441443662768
  0
LINE
  8
0
  6
CONTINUOUS
 62
     7
 10
-125.3207068400903
 20
2.031441443662768
 11
-125.3216736021642
 21
1.920571224760192
  0
LINE
  8
0
  6
CONTINUOUS
 62
     7
 10
-125.3216736021642
 20
1.920571224760192
 11
-125.323819205079
 21
1.748002593984388
  0
LINE
  8
0
  6
CONTINUOUS
 62
     7
 10
-125.3828993358153
 20
-2.220869001015618
 11
-125.3523406475012
 21
-2.220869001015618
  0
LINE
  8
0
  6
CONTINUOUS
 62
     7
 10
-125.3828993358153
 20
-2.220869001015618
 11
-125.3828993358153
 21
1.748002593984388
  0
LINE
  8
0
  6
CONTINUOUS
 62
     7
 10
-125.323819205079
 20
1.748002593984388
 11
-125.3333985028545
 21
0.866948293891362
  0
LINE
  8
0
  6
CONTINUOUS
 62
     7
 10
-125.3333985028545
 20
0.866948293891362
 11
-125.3375208872343
 21
0.3906612265507925
  0
LINE
  8
0
  6
CONTINUOUS
 62
     7
 10
-125.3375208872343
 20
0.3906612265507925
 11
-125.3378962683262
 21
0.3436967441349803
  0
LINE
  8
0
  6
CONTINUOUS
 62
     7
 10
-125.3378962683262
 20
0.3436967441349803
 11
-125.3417360657829
 21
-0.1773138673224206
  0
LINE
  8
0
  6
CONTINUOUS
 62
     7
 10
-125.3417360657829
 20
-0.1773138673224206
 11
-125.3429062972677
 21
-0.352731455791816
  0
LINE
  8
0
  6
CONTINUOUS
 62
     7
 10
-125.3429062972677
 20
-0.352731455791816
 11
-125.347954909339
 21
-1.227220675484919
  0
LINE
  8
0
  6
CONTINUOUS
 62
     7
 10
-125.347954909339
 20
-1.227220675484919
 11
-125.3488273391252
 21
-1.402935507779424
  0
LINE
  8
0
  6
CONTINUOUS
 62
     7
 10
-125.3488273391252
 20
-1.402935507779424
 11
-125.3515272572437
 21
-2.012494795957803
  0
LINE
  8
0
  6
CONTINUOUS
 62
     7
 10
-125.3515272572437
 20
-2.012494795957803
 11
-125.3523406475012
 21
-2.220869001015618
  0
LINE
  8
0
  6
CONTINUOUS
 62
     7
 10
-125.3828993358153
 20
-2.499727626015607
 11
-125.3585655654947
 21
-2.499727626015607
  0
LINE
  8
0
  6
CONTINUOUS
 62
     7
 10
-125.3828993358154
 20
-2.499727626015607
 11
-125.3828993358153
 21
-2.220869001015618
  0
LINE
  8
0
  6
CONTINUOUS
 62
     7
 10
-125.3523406475012
 20
-2.220869001015618
 11
-125.3585655654947
 21
-2.499727626015607
  0
LINE
  8
0
  6
CONTINUOUS
 62
     7
 10
-81.08829538300843
 20
2.584578469984361
 11
-81.1465832125233
 21
2.584578469984361
  0
LINE
  8
0
  6
CONTINUOUS
 62
     7
 10
-81.08829538300843
 20
2.584578469984361
 11
-81.08829538300843
 21
2.292749675984362
  0
LINE
  8
0
  6
CONTINUOUS
 62
     7
 10
-81.08829538300843
 20
2.292749675984362
 11
-81.1511104256094
 21
2.292749675984362
  0
LINE
  8
0
  6
CONTINUOUS
 62
     7
 10
-81.1511104256094
 20
2.292749675984362
 11
-81.1465832125233
 21
2.584578469984361
  0
LINE
  8
0
  6
CONTINUOUS
 62
     7
 10
-81.08829538300843
 20
2.292749675984362
 11
-81.08829538300843
 21
2.007405965984393
  0
LINE
  8
0
  6
CONTINUOUS
 62
     7
 10
-81.08829538300843
 20
2.007405965984393
 11
-81.1465832125233
 21
2.007405965984393
  0
LINE
  8
0
  6
CONTINUOUS
 62
     7
 10
-81.1465832125233
 20
2.007405965984393
 11
-81.1511104256094
 21
2.292749675984362
  0
LINE
  8
0
  6
CONTINUOUS
 62
     7
 10
-81.08829538300843
 20
-2.149533074015636
 11
-81.132209310978
 21
-2.149533074015636
  0
LINE
  8
0
  6
CONTINUOUS
 62
     7
 10
-81.08829538300843
 20
-2.499727626015607
 11
-81.1267766552887
 21
-2.499727626015607
  0
LINE
  8
0
  6
CONTINUOUS
 62
     7
 10
-81.08829538300843
 20
-2.149533074015636
 11
-81.08829538300843
 21
-2.499727626015607
  0
LINE
  8
0
  6
CONTINUOUS
 62
     7
 10
-81.1267766552887
 20
-2.499727626015607
 11
-81.132209310978
 21
-2.149533074015636
  0
LINE
  8
0
  6
CONTINUOUS
 62
     7
 10
-81.08829538300843
 20
2.007405965984393
 11
-81.08829538300843
 21
-2.149533074015635
  0
LINE
  8
0
  6
CONTINUOUS
 62
     7
 10
-81.132209310978
 20
-2.149533074015636
 11
-81.10085836037733
 21
2.007405965984393
  0
LINE
  8
0
  6
CONTINUOUS
 62
     7
 10
-81.04639245432041
 20
-2.564546372968906
 11
-81.05717373385954
 21
-2.488368683031816
  0
LINE
  8
0
  6
CONTINUOUS
 62
     7
 10
-81.05717373385954
 20
-2.488368683031816
 11
-81.06813685196151
 21
-2.168509640789823
  0
LINE
  8
0
  6
CONTINUOUS
 62
     7
 10
-81.06813685196151
 20
-2.168509640789823
 11
-81.0744873441642
 21
-1.708547341015609
  0
LINE
  8
0
  6
CONTINUOUS
 62
     7
 10
-81.01574446581982
 20
-1.708547341015609
 11
-81.07448734416434
 21
-1.708547341015609
  0
LINE
  8
0
  6
CONTINUOUS
 62
     7
 10
-81.01574446581982
 20
-1.708547341015609
 11
-81.01574446581982
 21
-2.564546365445508
  0
LINE
  8
0
  6
CONTINUOUS
 62
     7
 10
-81.01574446581982
 20
-1.293501946015629
 11
-81.07222373762102
 21
-1.293501946015629
  0
LINE
  8
0
  6
CONTINUOUS
 62
     7
 10
-81.01574446581982
 20
-1.293501946015629
 11
-81.01574446581982
 21
-1.708547341015609
  0
LINE
  8
0
  6
CONTINUOUS
 62
     7
 10
-81.07448734416434
 20
-1.708547341015609
 11
-81.07222373762102
 21
-1.293501946015629
  0
LINE
  8
0
  6
CONTINUOUS
 62
     7
 10
-81.01574446581982
 20
-0.080791180015638
 11
-81.0738082622118
 21
-0.080791180015638
  0
LINE
  8
0
  6
CONTINUOUS
 62
     7
 10
-81.01574446581982
 20
-0.3466796370156233
 11
-81.06916786879131
 21
-0.3466796370156233
  0
LINE
  8
0
  6
CONTINUOUS
 62
     7
 10
-81.01574446581982
 20
-0.080791180015638
 11
-81.01574446581982
 21
-0.3466796370156233
  0
LINE
  8
0
  6
CONTINUOUS
 62
     7
 10
-81.06916786879131
 20
-0.3466796370156233
 11
-81.0738082622118
 21
-0.080791180015638
  0
LINE
  8
0
  6
CONTINUOUS
 62
     7
 10
-81.01574446581982
 20
2.163047989984373
 11
-81.0700733114121
 21
2.163047989984373
  0
LINE
  8
0
  6
CONTINUOUS
 62
     7
 10
-81.01574446581982
 20
-0.0289105060156114
 11
-81.0738082622118
 21
-0.0289105060156114
  0
LINE
  8
0
  6
CONTINUOUS
 62
     7
 10
-81.01574446581982
 20
2.163047989984373
 11
-81.01574446581982
 21
-0.0289105060156114
  0
LINE
  8
0
  6
CONTINUOUS
 62
     7
 10
-81.0738082622118
 20
-0.0289105060156114
 11
-81.0700733114121
 21
2.163047989984373
  0
LINE
  8
0
  6
CONTINUOUS
 62
     7
 10
-81.01574446581982
 20
-0.0289105060156114
 11
-81.01574446581982
 21
-0.080791180015638
  0
LINE
  8
0
  6
CONTINUOUS
 62
     7
 10
-81.01574446581982
 20
-1.247946164425806
 11
-81.01574446581982
 21
-1.293501946015629
  0
LINE
  8
0
  6
CONTINUOUS
 62
     7
 10
-81.07222373762102
 20
-1.293501946015629
 11
-81.06918033007693
 21
-1.247946161034241
  0
LINE
  8
0
  6
CONTINUOUS
 62
     7
 10
-81.01574446581982
 20
2.584578469984361
 11
-81.06215068851132
 21
2.584578469984361
  0
LINE
  8
0
  6
CONTINUOUS
 62
     7
 10
-81.01574446581982
 20
2.584578469984361
 11
-81.01574446581982
 21
2.163047989984373
  0
LINE
  8
0
  6
CONTINUOUS
 62
     7
 10
-81.0700733114121
 20
2.163047989984373
 11
-81.06215068851132
 21
2.584578469984361
  0
LINE
  8
0
  6
CONTINUOUS
 62
     7
 10
-81.06806466369932
 20
-0.3534459838442083
 11
-81.06916786879131
 21
-0.3466796370156233
  0
LINE
  8
0
  6
CONTINUOUS
 62
     7
 10
-81.01574446581982
 20
-0.3466796370157066
 11
-81.01574446581982
 21
-0.3534459817011171
  0
LINE
  8
0
  6
CONTINUOUS
 62
     7
 10
-81.01574446581982
 20
-0.3601314994045313
 11
-81.01574446581982
 21
-1.241143168795616
  0
LINE
  8
0
  6
CONTINUOUS
 62
     7
 10
-81.02780152822272
 20
-1.248095100034208
 11
-81.0280309556508
 21
-0.3491145288306298
  0
LINE
  8
0
  6
CONTINUOUS
 62
     7
 10
-97.93499349811601
 20
-33.83722956711091
 11
-97.93499349811601
 21
-33.9233813530006
  0
LINE
  8
0
  6
CONTINUOUS
 62
     7
 10
-97.93499349811601
 20
-33.83722956711091
 11
-96.356803880116
 21
-33.83722956711091
  0
LINE
  8
0
  6
CONTINUOUS
 62
     7
 10
-96.356803880116
 20
-33.83722956711091
 11
-96.356803880116
 21
-33.9032934904282
  0
LINE
  8
0
  6
CONTINUOUS
 62
     7
 10
-96.356803880116
 20
-33.9032934904282
 11
-97.93499349811601
 21
-33.9233813530006
  0
LINE
  8
0
  6
CONTINUOUS
 62
     7
 10
-99.59453510911602
 20
-33.83722956711091
 11
-99.59453510911602
 21
-33.9233813530006
  0
LINE
  8
0
  6
CONTINUOUS
 62
     7
 10
-99.59453510911602
 20
-33.83722956711091
 11
-97.93499349811601
 21
-33.83722956711091
  0
LINE
  8
0
  6
CONTINUOUS
 62
     7
 10
-97.93499349811601
 20
-33.9233813530006
 11
-99.59453510911602
 21
-33.9233813530006
  0
LINE
  8
0
  6
CONTINUOUS
 62
     7
 10
-96.356803880116
 20
-33.83722956711091
 11
-96.23393868099602
 21
-33.83722956711091
  0
LINE
  8
0
  6
CONTINUOUS
 62
     7
 10
-96.23396334711602
 20
-33.88939297324622
 11
-96.356803880116
 21
-33.9032934904282
  0
LINE
  8
0
  6
CONTINUOUS
 62
     7
 10
-101.8909456384725
 20
-33.83722956711091
 11
-101.8909456384725
 21
-33.92348620768743
  0
LINE
  8
0
  6
CONTINUOUS
 62
     7
 10
-101.8909456384725
 20
-33.92348620768743
 11
-102.8306412495194
 21
-33.88347642498463
  0
LINE
  8
0
  6
CONTINUOUS
 62
     7
 10
-102.8306412495782
 20
-33.83722956711091
 11
-101.8909456384725
 21
-33.83722956711091
  0
LINE
  8
0
  6
CONTINUOUS
 62
     7
 10
-100.527595770116
 20
-33.83722956711091
 11
-100.527595770116
 21
-33.92348620768743
  0
LINE
  8
0
  6
CONTINUOUS
 62
     7
 10
-99.59453510911602
 20
-33.8829796914134
 11
-100.527595770116
 21
-33.92348620768743
  0
LINE
  8
0
  6
CONTINUOUS
 62
     7
 10
-100.527595770116
 20
-33.83722956711091
 11
-99.59453510911602
 21
-33.83722956711091
  0
LINE
  8
0
  6
CONTINUOUS
 62
     7
 10
-100.527595770116
 20
-33.92348620768743
 11
-101.8909456384725
 21
-33.92348620768743
  0
LINE
  8
0
  6
CONTINUOUS
 62
     7
 10
-101.8909456384725
 20
-33.83722956711091
 11
-100.527595770116
 21
-33.83722956711091
  0
LINE
  8
0
  6
CONTINUOUS
 62
     7
 10
-104.075297459116
 20
-33.83722956711091
 11
-104.075297459116
 21
-33.9233813530006
  0
LINE
  8
0
  6
CONTINUOUS
 62
     7
 10
-102.8306412495782
 20
-33.83722956711091
 11
-102.8306412494687
 21
-33.92338135299902
  0
LINE
  8
0
  6
CONTINUOUS
 62
     7
 10
-104.075297459116
 20
-33.83722956711091
 11
-102.8306412495782
 21
-33.83722956711091
  0
LINE
  8
0
  6
CONTINUOUS
 62
     7
 10
-102.8306412494687
 20
-33.92338135299902
 11
-104.075297459116
 21
-33.9233813530006
  0
LINE
  8
0
  6
CONTINUOUS
 62
     7
 10
-105.0295338845782
 20
-33.83722956711091
 11
-104.075297459116
 21
-33.83722956711091
  0
LINE
  8
0
  6
CONTINUOUS
 62
     7
 10
-104.075297459116
 20
-33.9233813530006
 11
-105.0295338845782
 21
-33.88252912495962
  0
LINE
  8
0
  6
CONTINUOUS
 62
     7
 10
-106.274190094116
 20
-33.83722956711091
 11
-106.274190094116
 21
-33.9233813530006
  0
LINE
  8
0
  6
CONTINUOUS
 62
     7
 10
-106.274190094116
 20
-33.83722956711091
 11
-105.0295338845782
 21
-33.83722956711091
  0
LINE
  8
0
  6
CONTINUOUS
 62
     7
 10
-105.0295338845782
 20
-33.83722956711091
 11
-105.0295338845782
 21
-33.9233813530006
  0
LINE
  8
0
  6
CONTINUOUS
 62
     7
 10
-105.0295338845782
 20
-33.9233813530006
 11
-106.274190094116
 21
-33.9233813530006
  0
LINE
  8
0
  6
CONTINUOUS
 62
     7
 10
-107.643311923116
 20
-33.83722956711091
 11
-106.274190094116
 21
-33.83722956711091
  0
LINE
  8
0
  6
CONTINUOUS
 62
     7
 10
-106.274190094116
 20
-33.9233813530006
 11
-107.643311923116
 21
-33.8647672866354
  0
LINE
  8
0
  6
CONTINUOUS
 62
     7
 10
-108.887968131116
 20
-33.83722956711091
 11
-108.887968131116
 21
-33.9233813530006
  0
LINE
  8
0
  6
CONTINUOUS
 62
     7
 10
-110.1741128782765
 20
-33.83722956711091
 11
-110.1741128782765
 21
-33.9233813530006
  0
LINE
  8
0
  6
CONTINUOUS
 62
     7
 10
-108.887968131116
 20
-33.9233813530006
 11
-110.1741128782765
 21
-33.9233813530006
  0
LINE
  8
0
  6
CONTINUOUS
 62
     7
 10
-110.1741128782765
 20
-33.83722956711091
 11
-108.887968131116
 21
-33.83722956711091
  0
LINE
  8
0
  6
CONTINUOUS
 62
     7
 10
-108.431594188145
 20
-33.83722956711091
 11
-108.431594188145
 21
-33.90383430913574
  0
LINE
  8
0
  6
CONTINUOUS
 62
     7
 10
-108.431594188145
 20
-33.90383430913574
 11
-108.887968131116
 21
-33.9233813530006
  0
LINE
  8
0
  6
CONTINUOUS
 62
     7
 10
-108.887968131116
 20
-33.83722956711091
 11
-108.431594188145
 21
-33.83722956711091
  0
LINE
  8
0
  6
CONTINUOUS
 62
     7
 10
-107.643311923116
 20
-33.83722956711091
 11
-107.643311923116
 21
-33.90383430913574
  0
LINE
  8
0
  6
CONTINUOUS
 62
     7
 10
-107.643311923116
 20
-33.90383430913574
 11
-108.431594188145
 21
-33.90383430913574
  0
LINE
  8
0
  6
CONTINUOUS
 62
     7
 10
-108.431594188145
 20
-33.83722956711091
 11
-107.643311923116
 21
-33.83722956711091
  0
LINE
  8
0
  6
CONTINUOUS
 62
     7
 10
-92.69803125079292
 20
36.51543827401929
 11
-90.92217371300512
 21
37.54073010150361
  0
LINE
  8
0
  6
CONTINUOUS
 62
     7
 10
-90.9129042307628
 20
37.52467488760946
 11
-92.68937293884082
 21
36.50044163335728
  0
LINE
  8
0
  6
CONTINUOUS
 62
     7
 10
-90.31224920652632
 20
37.89287017950438
 11
-90.29669822958962
 21
37.86593509734276
  0
LINE
  8
0
  6
CONTINUOUS
 62
     7
 10
-90.02245082200471
 20
38.06018535481837
 11
-90.00689984506822
 21
38.03325027265691
  0
LINE
  8
0
  6
CONTINUOUS
 62
     7
 10
-90.31224920599922
 20
37.8928701798088
 11
-90.02245082200491
 21
38.06018535481859
  0
LINE
  8
0
  6
CONTINUOUS
 62
     7
 10
-90.00689984506822
 20
38.03325027265691
 11
-90.29669822958962
 21
37.86593509734276
  0
LINE
  8
0
  6
CONTINUOUS
 62
     7
 10
-90.37290468254852
 20
37.8578507240952
 11
-90.36855855799412
 21
37.85032301555097
  0
LINE
  8
0
  6
CONTINUOUS
 62
     7
 10
-90.3729046825582
 20
37.85785072408959
 11
-90.31371918562301
 21
37.89202148667725
  0
LINE
  8
0
  6
CONTINUOUS
 62
     7
 10
-90.31371918562301
 20
37.89202148667725
 11
-90.31224920650192
 21
37.89287017951848
  0
LINE
  8
0
  6
CONTINUOUS
 62
     7
 10
-90.30722399998541
 20
37.88416626651347
 11
-90.36855855799412
 21
37.85032301555097
  0
LINE
  8
0
  6
CONTINUOUS
 62
     7
 10
-90.91863647175141
 20
37.5427723286933
 11
-90.37290468254852
 21
37.8578507240952
  0
LINE
  8
0
  6
CONTINUOUS
 62
     7
 10
-90.36855855799412
 20
37.85032301555097
 11
-90.91839294230242
 21
37.5341816148661
  0
LINE
  8
0
  6
CONTINUOUS
 62
     7
 10
-90.47993159813191
 20
37.84867425183058
 11
-90.46220755890842
 21
37.81797531538017
  0
LINE
  8
0
  6
CONTINUOUS
 62
     7
 10
-90.47993159813191
 20
37.84867425183047
 11
-90.04523402217481
 21
38.09964701432538
  0
LINE
  8
0
  6
CONTINUOUS
 62
     7
 10
-90.04523402217401
 20
38.099647014324
 11
-90.02822301901102
 21
38.070183092558
  0
LINE
  8
0
  6
CONTINUOUS
 62
     7
 10
-90.02822301901102
 20
38.07018309255788
 11
-90.31268070639712
 21
37.90213714677426
  0
LINE
  8
0
  6
CONTINUOUS
 62
     7
 10
-90.31268070639712
 20
37.90213714677426
 11
-90.36503247265242
 21
37.87249651716229
  0
LINE
  8
0
  6
CONTINUOUS
 62
     7
 10
-90.36503247265242
 20
37.87249651716229
 11
-90.46220755890842
 21
37.81797531538006
  0
LINE
  8
0
  6
CONTINUOUS
 62
     7
 10
-92.54221777374032
 20
36.65801277319699
 11
-92.53305016724181
 21
36.64213401295757
  0
LINE
  8
0
  6
CONTINUOUS
 62
     7
 10
-92.54221777374032
 20
36.65801277319699
 11
-92.43310786274381
 21
36.72100740968209
  0
LINE
  8
0
  6
CONTINUOUS
 62
     7
 10
-92.43310786274381
 20
36.72100740968209
 11
-91.21846665719131
 21
37.42228083667668
  0
LINE
  8
0
  6
CONTINUOUS
 62
     7
 10
-91.21846665719131
 20
37.42228083667668
 11
-90.95037372934621
 21
37.57706436073583
  0
LINE
  8
0
  6
CONTINUOUS
 62
     7
 10
-90.95037372934621
 20
37.57706436073583
 11
-90.92780593670201
 21
37.59009388189399
  0
LINE
  8
0
  6
CONTINUOUS
 62
     7
 10
-90.92780593670201
 20
37.59009388189399
 11
-90.47993159813191
 21
37.84867425183058
  0
LINE
  8
0
  6
CONTINUOUS
 62
     7
 10
-90.46220755890842
 20
37.81797531538017
 11
-90.92289022238911
 21
37.55863678322257
  0
LINE
  8
0
  6
CONTINUOUS
 62
     7
 10
-90.92289022238911
 20
37.55863678322257
 11
-90.98541594315022
 21
37.52329510995067
  0
LINE
  8
0
  6
CONTINUOUS
 62
     7
 10
-91.47667389835141
 20
37.24476458399997
 11
-91.55983191785032
 21
37.19748832942077
  0
LINE
  8
0
  6
CONTINUOUS
 62
     7
 10
-91.55983191785032
 20
37.19748832942077
 11
-92.01541950800042
 21
36.93794968405567
  0
LINE
  8
0
  6
CONTINUOUS
 62
     7
 10
-92.01541950800042
 20
36.93794968405567
 11
-92.10698546416552
 21
36.88568849252766
  0
LINE
  8
0
  6
CONTINUOUS
 62
     7
 10
-92.10698546416552
 20
36.88568849252766
 11
-92.42453173655952
 21
36.70422362482098
  0
LINE
  8
0
  6
CONTINUOUS
 62
     7
 10
-92.42453173655952
 20
36.70422362482098
 11
-92.53305016724181
 21
36.64213401295757
  0
LINE
  8
0
  6
CONTINUOUS
 62
     7
 10
-92.68711696608912
 20
36.57435518548707
 11
-92.67981683499131
 21
36.56171098752367
  0
LINE
  8
0
  6
CONTINUOUS
 62
     7
 10
-92.68711696608912
 20
36.57435518548707
 11
-92.54221777374032
 21
36.65801277319699
  0
LINE
  8
0
  6
CONTINUOUS
 62
     7
 10
-92.53305016724181
 20
36.64213401295757
 11
-92.67981683499131
 21
36.56171098752367
  0
LINE
  8
0
  6
CONTINUOUS
 62
     7
 10
-125.2760570626218
 20
0.8530609599843864
 11
-125.3069553363402
 21
0.8530609599843864
  0
LINE
  8
0
  6
CONTINUOUS
 62
     7
 10
-125.3069553363402
 20
-2.564578470015733
 11
-125.2780942900506
 21
-2.564578470015733
  0
LINE
  8
0
  6
CONTINUOUS
 62
     7
 10
-81.04639245433093
 20
-2.564546372971626
 11
-81.01574446581982
 21
-2.564546372971626
  0
LINE
  8
0
  6
CONTINUOUS
 62
     7
 10
-81.01574446581982
 20
-1.247946161030633
 11
-81.06918033006401
 21
-1.247946161030633
  0
LINE
  8
0
  6
CONTINUOUS
 62
     7
 10
-81.06806466369282
 20
-0.3534459838444304
 11
-81.01574446581982
 21
-0.3534459838444304
  0
LINE
  8
0
  6
CONTINUOUS
 62
     7
 10
-96.23393868093322
 20
-33.88958945213452
 11
-96.23393868093322
 21
-33.83722956711091
  0
LINE
  8
0
  6
CONTINUOUS
 62
     7
 10
-90.91290423076352
 20
37.52467488761246
 11
-90.92217371287032
 21
37.54073010158137
  0
LINE
  8
0
  6
CONTINUOUS
 62
     7
 10
-92.69803125272261
 20
36.51543827290518
 11
-92.6893729388469
 21
36.50044163336457
  0
ENDSEC
  0
EOF
