  0
SECTION
  2
HEADER
  9
$ACADVER
  1
AC1004
  9
$INSBASE
 10
0.0
 20
0.0
  9
$EXTMIN
 10
-127.5460166655018
 20
-25.24673610381259
  9
$EXTMAX
 10
337.9660396971347
 20
253.7860973518561
  9
$LIMMIN
 10
0.0
 20
0.0
  9
$LIMMAX
 10
12.0
 20
9.0
  9
$ORTHOMODE
 70
     0
  9
$REGENMODE
 70
     1
  9
$FILLMODE
 70
     1
  9
$QTEXTMODE
 70
     0
  9
$DRAGMODE
 70
     2
  9
$LTSCALE
 40
1.0
  9
$OSMODE
 70
    37
  9
$ATTMODE
 70
     1
  9
$TEXTSIZE
 40
0.2
  9
$TRACEWID
 40
0.05
  9
$TEXTSTYLE
  7
STANDARD
  9
$CLAYER
  8
0
  9
$CELTYPE
  6
BYLAYER
  9
$CECOLOR
 62
   256
  9
$DIMSCALE
 40
1.0
  9
$DIMASZ
 40
2.5
  9
$DIMEXO
 40
0.0625
  9
$DIMDLI
 40
0.38
  9
$DIMRND
 40
0.0
  9
$DIMDLE
 40
0.0
  9
$DIMEXE
 40
1.25
  9
$DIMTP
 40
0.0
  9
$DIMTM
 40
0.0
  9
$DIMTXT
 40
4.0
  9
$DIMCEN
 40
0.09
  9
$DIMTSZ
 40
0.0
  9
$DIMTOL
 70
     0
  9
$DIMLIM
 70
     0
  9
$DIMTIH
 70
     1
  9
$DIMTOH
 70
     1
  9
$DIMSE1
 70
     0
  9
$DIMSE2
 70
     0
  9
$DIMTAD
 70
     1
  9
$DIMZIN
 70
     0
  9
$DIMBLK
  1

  9
$DIMASO
 70
     1
  9
$DIMSHO
 70
     1
  9
$DIMPOST
  1

  9
$DIMAPOST
  1

  9
$DIMALT
 70
     0
  9
$DIMALTD
 70
     2
  9
$DIMALTF
 40
25.4
  9
$DIMLFAC
 40
1.0
  9
$DIMTOFL
 70
     0
  9
$DIMTVP
 40
0.0
  9
$DIMTIX
 70
     0
  9
$DIMSOXD
 70
     0
  9
$DIMSAH
 70
     0
  9
$DIMBLK1
  1

  9
$DIMBLK2
  1

  9
$LUNITS
 70
     2
  9
$LUPREC
 70
     4
  9
$SKETCHINC
 40
0.1
  9
$FILLETRAD
 40
0.0
  9
$AUNITS
 70
     0
  9
$AUPREC
 70
     0
  9
$MENU
  1
.
  9
$ELEVATION
 40
0.0
  9
$THICKNESS
 40
0.0
  9
$LIMCHECK
 70
     0
  9
$CHAMFERA
 40
0.0
  9
$CHAMFERB
 40
0.0
  9
$SKPOLY
 70
     0
  9
$TDCREATE
 40
2460103.850074896
  9
$TDUPDATE
 40
2460103.850075081
  9
$TDINDWG
 40
0.0000000116
  9
$TDUSRTIMER
 40
0.0000000116
  9
$USRTIMER
 70
     1
  9
$ANGBASE
 50
0.0
  9
$ANGDIR
 70
     0
  9
$PDMODE
 70
     0
  9
$PDSIZE
 40
0.0
  9
$PLINEWID
 40
0.0
  9
$COORDS
 70
     1
  9
$SPLFRAME
 70
     0
  9
$SPLINETYPE
 70
     6
  9
$SPLINESEGS
 70
     8
  9
$ATTDIA
 70
     0
  9
$ATTREQ
 70
     1
  9
$SURFTAB1
 70
     6
  9
$SURFTAB2
 70
     6
  9
$SURFTYPE
 70
     6
  9
$SURFU
 70
     6
  9
$SURFV
 70
     6
  9
$UCSNAME
  2

  9
$UCSORG
 10
0.0
 20
0.0
 30
0.0
  9
$UCSXDIR
 10
1.0
 20
0.0
 30
0.0
  9
$UCSYDIR
 10
0.0
 20
1.0
 30
0.0
  9
$USERI1
 70
     0
  9
$USERI2
 70
     0
  9
$USERI3
 70
     0
  9
$USERI4
 70
     0
  9
$USERI5
 70
     0
  9
$USERR1
 40
0.0
  9
$USERR2
 40
0.0
  9
$USERR3
 40
0.0
  9
$USERR4
 40
0.0
  9
$USERR5
 40
0.0
  9
$WORLDVIEW
 70
     1
  0
ENDSEC
  0
SECTION
  2
TABLES
  0
TABLE
  2
LTYPE
 70
     1
  0
LTYPE
  2
CONTINUOUS
 70
     0
  3
Solid line
 72
    65
 73
     0
 40
0.0
  0
ENDTAB
  0
TABLE
  2
LAYER
 70
     1
  0
LAYER
  2
0
 70
     0
 62
     7
  6
CONTINUOUS
  0
ENDTAB
  0
TABLE
  2
STYLE
 70
     2
  0
STYLE
  2
STANDARD
 70
     0
 40
0.0
 41
1.0
 50
0.0
 71
     0
 42
0.2
  3
txt
  4

  0
STYLE
  2
HG丸ｺﾞｼｯｸM-PRO
 70
     0
 40
0.0
 41
1.0
 50
0.0
 71
     0
 42
0.2
  3
HGRSMP.TTF
  4

  0
ENDTAB
  0
TABLE
  2
VIEW
 70
     0
  0
ENDTAB
  0
ENDSEC
  0
SECTION
  2
BLOCKS
  0
ENDSEC
  0
SECTION
  2
ENTITIES
  0
POINT
  8
0
 62
     7
 10
0.0
 20
0.0
 30
0.0
  0
LINE
  8
0
  6
CONTINUOUS
 62
     7
 10
-125.2838860354907
 20
18.4999999999661
 11
-125.2838860354811
 21
-18.50000000003141
  0
LINE
  8
0
  6
CONTINUOUS
 62
     7
 10
-125.2838860354811
 20
-18.50000000003141
 11
-127.2835814257939
 21
-18.50000000003188
  0
LINE
  8
0
  6
CONTINUOUS
 62
     7
 10
-127.2835814257939
 20
-18.50000000003188
 11
-127.2835814258035
 21
18.4999999999656
  0
LINE
  8
0
  6
CONTINUOUS
 62
     7
 10
-127.2835814258032
 20
18.4999999999656
 11
-125.2838860354907
 21
18.4999999999661
  0
ARC
  8
0
  6
CONTINUOUS
 62
     7
 10
-120.7992805617123
 20
-18.50000000003022
 40
4.484605473771302
 50
180.0000000000145
 51
270.0000000000473
  0
LINE
  8
0
  6
CONTINUOUS
 62
     7
 10
-120.7992805617086
 20
-22.98460547380152
 11
-120.7992805617069
 21
-24.9843008641143
  0
ARC
  8
0
  6
CONTINUOUS
 62
     7
 10
-120.7992805617123
 20
-18.50000000003022
 40
6.48430086408408
 50
180.0000000000145
 51
270.0000000000477
  0
ARC
  8
0
  6
CONTINUOUS
 62
     7
 10
-121.7992805617216
 20
18.49999999996701
 40
5.484300864081887
 50
60.00000000003809
 51
180.0000000000148
  0
LINE
  8
0
  6
CONTINUOUS
 62
     7
 10
-119.0571301296839
 20
23.24954387026073
 11
-120.0569778248392
 21
21.5177568624183
  0
ARC
  8
0
  6
CONTINUOUS
 62
     7
 10
-121.7992805617216
 20
18.49999999996701
 40
3.484605473769067
 50
60.00000000003815
 51
180.000000000014
  0
LINE
  8
0
  6
CONTINUOUS
 62
     7
 10
-120.7992805617086
 20
-22.98460547380152
 11
-89.79928056170651
 21
-22.98460547377201
  0
LINE
  8
0
  6
CONTINUOUS
 62
     7
 10
-89.79928056170651
 20
-22.98460547377201
 11
-89.7992805617049
 21
-24.98430086408479
  0
LINE
  8
0
  6
CONTINUOUS
 62
     7
 10
-89.7992805617049
 20
-24.98430086408479
 11
-120.7992805617069
 21
-24.9843008641143
  0
LINE
  8
0
  6
CONTINUOUS
 62
     7
 10
-119.057130129684
 20
23.24954387026051
 11
-114.5236364806286
 21
20.63213009161302
  0
LINE
  8
0
  6
CONTINUOUS
 62
     7
 10
-114.5236364806286
 20
20.63213009161302
 11
-115.5234841757838
 21
18.90034308377078
  0
LINE
  8
0
  6
CONTINUOUS
 62
     7
 10
-115.5234841757838
 20
18.90034308377078
 11
-120.0569778248392
 21
21.5177568624183
  0
ARC
  8
0
  6
CONTINUOUS
 62
     7
 10
-89.79928056171029
 20
-18.50000000000349
 40
4.48460547377258
 50
270.0000000000479
 51
0.0000000000142677
  0
LINE
  8
0
  6
CONTINUOUS
 62
     7
 10
-85.31467508793772
 20
-18.50000000000229
 11
-83.3149796976249
 21
-18.50000000000179
  0
ARC
  8
0
  6
CONTINUOUS
 62
     7
 10
-89.79928056171029
 20
-18.50000000000349
 40
6.484300864085357
 50
270.0000000000477
 51
0.0000000000143814
  0
ARC
  8
0
  6
CONTINUOUS
 62
     7
 10
-115.6407869126681
 20
18.69716878362021
 40
2.234300864081495
 50
330.0000000000341
 51
60.00000000003781
  0
LINE
  8
0
  6
CONTINUOUS
 62
     7
 10
-113.7058256046753
 20
17.5800183515806
 11
-115.4376126125175
 21
18.579866046736
  0
ARC
  8
0
  6
CONTINUOUS
 62
     7
 10
-115.6407869126681
 20
18.69716878362021
 40
0.2346054737686898
 50
330.0000000000319
 51
60.00000000003604
  0
LINE
  8
0
  6
CONTINUOUS
 62
     7
 10
-85.31467508793772
 20
-18.50000000000229
 11
-85.3146750879531
 21
18.50000000000171
  0
LINE
  8
0
  6
CONTINUOUS
 62
     7
 10
-85.3146750879531
 20
18.50000000000171
 11
-83.31497969764031
 21
18.50000000000218
  0
LINE
  8
0
  6
CONTINUOUS
 62
     7
 10
-83.31497969764031
 20
18.50000000000218
 11
-83.3149796976249
 21
-18.50000000000179
  0
LINE
  8
0
  6
CONTINUOUS
 62
     7
 10
-113.7058256046754
 20
17.5800183515806
 11
-114.4980905777556
 21
16.20777516514663
  0
LINE
  8
0
  6
CONTINUOUS
 62
     7
 10
-114.4980905777556
 20
16.20777516514663
 11
-116.2298775855977
 21
17.207622860302
  0
LINE
  8
0
  6
CONTINUOUS
 62
     7
 10
-116.2298775855977
 20
17.207622860302
 11
-115.4376126125175
 21
18.579866046736
  0
ARC
  8
0
  6
CONTINUOUS
 62
     7
 10
-88.79928056172149
 20
18.50000000000091
 40
3.484605473769553
 50
0.0000000000139194
 51
120.0000000000671
  0
LINE
  8
0
  6
CONTINUOUS
 62
     7
 10
-90.54158329860981
 20
21.5177568624495
 11
-91.54143099376822
 21
23.24954387028988
  0
ARC
  8
0
  6
CONTINUOUS
 62
     7
 10
-88.79928056172149
 20
18.50000000000091
 40
5.484300864082317
 50
0.0000000000140403
 51
120.0000000000671
  0
ARC
  8
0
  6
CONTINUOUS
 62
     7
 10
-116.4330518857483
 20
17.32492559718621
 40
2.234300864081356
 50
270.0
 51
330.0000000000339
  0
LINE
  8
0
  6
CONTINUOUS
 62
     7
 10
-116.4330518857483
 20
15.0906247331048
 11
-116.4330518857483
 21
17.09032012341752
  0
ARC
  8
0
  6
CONTINUOUS
 62
     7
 10
-116.4330518857483
 20
17.32492559718621
 40
0.2346054737685788
 50
270.0
 51
330.0000000000294
  0
LINE
  8
0
  6
CONTINUOUS
 62
     7
 10
-90.54158329860981
 20
21.5177568624495
 11
-95.0750769476603
 21
18.9003430837921
  0
LINE
  8
0
  6
CONTINUOUS
 62
     7
 10
-95.0750769476603
 20
18.9003430837921
 11
-96.07492464281881
 21
20.6321300916325
  0
LINE
  8
0
  6
CONTINUOUS
 62
     7
 10
-96.07492464281881
 20
20.63213009163239
 11
-91.54143099376822
 21
23.24954387028988
  0
LINE
  8
0
  6
CONTINUOUS
 62
     7
 10
-116.4330518857483
 20
15.09062473310471
 11
-120.3492805617209
 21
15.09062473310471
  0
LINE
  8
0
  6
CONTINUOUS
 62
     7
 10
-120.3492805617209
 20
15.09062473310471
 11
-120.3492805617209
 21
17.09032012341752
  0
LINE
  8
0
  6
CONTINUOUS
 62
     7
 10
-120.3492805617209
 20
17.09032012341752
 11
-116.4330518857483
 21
17.09032012341752
  0
ARC
  8
0
  6
CONTINUOUS
 62
     7
 10
-94.95777421077581
 20
18.69716878364169
 40
0.234605473768551
 50
120.0000000000624
 51
210.0000000000525
  0
LINE
  8
0
  6
CONTINUOUS
 62
     7
 10
-95.1609485109261
 20
18.57986604675718
 11
-96.8927355187666
 21
17.58001835159912
  0
ARC
  8
0
  6
CONTINUOUS
 62
     7
 10
-94.95777421077581
 20
18.69716878364169
 40
2.234300864081329
 50
120.0000000000667
 51
210.0000000000575
  0
ARC
  8
0
  6
CONTINUOUS
 62
     7
 10
-120.3492805617209
 20
14.12492559718609
 40
0.9656991359185962
 50
90.0
 51
180.0000000000148
  0
LINE
  8
0
  6
CONTINUOUS
 62
     7
 10
-121.3149796976394
 20
14.12492559718589
 11
-123.3146750879522
 21
14.12492559718542
  0
ARC
  8
0
  6
CONTINUOUS
 62
     7
 10
-120.3492805617209
 20
14.12492559718609
 40
2.965394526231374
 50
90.0
 51
180.0000000000145
  0
LINE
  8
0
  6
CONTINUOUS
 62
     7
 10
-95.1609485109261
 20
18.57986604675718
 11
-94.3686835378306
 21
17.20762286030159
  0
LINE
  8
0
  6
CONTINUOUS
 62
     7
 10
-94.3686835378306
 20
17.20762286030159
 11
-96.10047054567112
 21
16.20777516514349
  0
LINE
  8
0
  6
CONTINUOUS
 62
     7
 10
-96.10047054567112
 20
16.20777516514349
 11
-96.8927355187666
 21
17.58001835159912
  0
LINE
  8
0
  6
CONTINUOUS
 62
     7
 10
-121.3149796976395
 20
14.12492559718589
 11
-121.314979697631
 21
-18.0500000000291
  0
LINE
  8
0
  6
CONTINUOUS
 62
     7
 10
-121.3149796976309
 20
-18.0500000000291
 11
-123.3146750879437
 21
-18.0500000000296
  0
LINE
  8
0
  6
CONTINUOUS
 62
     7
 10
-123.3146750879437
 20
-18.0500000000296
 11
-123.3146750879522
 21
14.12492559718542
  0
ARC
  8
0
  6
CONTINUOUS
 62
     7
 10
-94.1655092376802
 20
17.32492559718621
 40
0.2346054737685788
 50
210.0000000000658
 51
270.0
  0
LINE
  8
0
  6
CONTINUOUS
 62
     7
 10
-94.1655092376802
 20
17.0903201234176
 11
-94.1655092376802
 21
15.0906247331048
  0
ARC
  8
0
  6
CONTINUOUS
 62
     7
 10
-94.1655092376802
 20
17.32492559718621
 40
2.234300864081356
 50
210.0000000000589
 51
270.0
  0
ARC
  8
0
  6
CONTINUOUS
 62
     7
 10
-120.3492805617124
 20
-18.05000000002888
 40
0.9656991359185962
 50
180.0000000000148
 51
270.0000000000504
  0
LINE
  8
0
  6
CONTINUOUS
 62
     7
 10
-120.3492805617115
 20
-19.01569913594739
 11
-120.3492805617099
 21
-21.0153945262602
  0
ARC
  8
0
  6
CONTINUOUS
 62
     7
 10
-120.3492805617124
 20
-18.05000000002888
 40
2.965394526231374
 50
180.0000000000151
 51
270.0000000000483
  0
LINE
  8
0
  6
CONTINUOUS
 62
     7
 10
-94.1655092376802
 20
17.0903201234176
 11
-90.24928056172
 21
17.09032012341752
  0
LINE
  8
0
  6
CONTINUOUS
 62
     7
 10
-90.24928056172
 20
17.09032012341752
 11
-90.24928056172
 21
15.09062473310471
  0
LINE
  8
0
  6
CONTINUOUS
 62
     7
 10
-90.24928056172
 20
15.09062473310471
 11
-94.1655092376802
 21
15.0906247331048
  0
LINE
  8
0
  6
CONTINUOUS
 62
     7
 10
-120.3492805617115
 20
-19.01569913594739
 11
-90.24928056171152
 21
-19.01569913592241
  0
LINE
  8
0
  6
CONTINUOUS
 62
     7
 10
-90.24928056171152
 20
-19.01569913592241
 11
-90.24928056170981
 21
-21.01539452623522
  0
LINE
  8
0
  6
CONTINUOUS
 62
     7
 10
-90.24928056170981
 20
-21.01539452623522
 11
-120.3492805617099
 21
-21.0153945262602
  0
ARC
  8
0
  6
CONTINUOUS
 62
     7
 10
-90.24928056172
 20
14.12492559718609
 40
2.965394526231374
 50
0.0000000000144951
 51
90.0
  0
LINE
  8
0
  6
CONTINUOUS
 62
     7
 10
-87.28388603548869
 20
14.12492559718689
 11
-89.2835814258014
 21
14.12492559718639
  0
ARC
  8
0
  6
CONTINUOUS
 62
     7
 10
-90.24928056172
 20
14.12492559718609
 40
0.9656991359185962
 50
0.0000000000148209
 51
90.0
  0
ARC
  8
0
  6
CONTINUOUS
 62
     7
 10
-90.2492805617123
 20
-18.05000000000378
 40
0.9656991359185962
 50
270.0000000000474
 51
0.0000000000142109
  0
LINE
  8
0
  6
CONTINUOUS
 62
     7
 10
-89.2835814257937
 20
-18.05000000000351
 11
-87.2838860354809
 21
-18.05000000000312
  0
ARC
  8
0
  6
CONTINUOUS
 62
     7
 10
-90.2492805617123
 20
-18.05000000000378
 40
2.965394526231374
 50
270.0000000000483
 51
0.0000000000139266
  0
LINE
  8
0
  6
CONTINUOUS
 62
     7
 10
-87.28388603548869
 20
14.12492559718689
 11
-87.2838860354809
 21
-18.05000000000312
  0
LINE
  8
0
  6
CONTINUOUS
 62
     7
 10
-89.2835814257937
 20
-18.05000000000351
 11
-89.2835814258014
 21
14.12492559718639
  0
LINE
  8
0
  6
CONTINUOUS
 62
     7
 10
-89.5460166654997
 20
14.12492559718628
 11
-89.546016665492
 21
-18.05000000000359
  0
LINE
  8
0
  6
CONTINUOUS
 62
     7
 10
-89.5460166654997
 20
14.12492559718628
 11
-89.2835814258014
 21
14.12492559718639
  0
LINE
  8
0
  6
CONTINUOUS
 62
     7
 10
-89.546016665492
 20
-18.05000000000359
 11
-89.2835814257937
 21
-18.05000000000351
  0
ARC
  8
0
  6
CONTINUOUS
 62
     7
 10
-120.7992805617123
 20
-18.50000000003022
 40
6.746736103782375
 50
180.0000000000145
 51
270.0000000000475
  0
LINE
  8
0
  6
CONTINUOUS
 62
     7
 10
-127.5460166654922
 20
-18.50000000003188
 11
-127.2835814257939
 21
-18.50000000003188
  0
LINE
  8
0
  6
CONTINUOUS
 62
     7
 10
-120.7992805617067
 20
-25.24673610381259
 11
-120.7992805617069
 21
-24.9843008641143
  0
ARC
  8
0
  6
CONTINUOUS
 62
     7
 10
-90.2492805617123
 20
-18.05000000000378
 40
0.7032638962203019
 50
270.0000000000488
 51
0.0000000000147224
  0
LINE
  8
0
  6
CONTINUOUS
 62
     7
 10
-90.2492805617117
 20
-18.75326389622409
 11
-90.24928056171152
 21
-19.01569913592241
  0
LINE
  8
0
  6
CONTINUOUS
 62
     7
 10
-90.2492805617117
 20
-18.75326389622409
 11
-120.3492805617118
 21
-18.75326389624909
  0
LINE
  8
0
  6
CONTINUOUS
 62
     7
 10
-120.3492805617118
 20
-18.75326389624909
 11
-120.3492805617115
 21
-19.01569913594739
  0
ARC
  8
0
  6
CONTINUOUS
 62
     7
 10
-120.3492805617124
 20
-18.05000000002888
 40
0.7032638962203019
 50
180.0000000000148
 51
270.0000000000488
  0
LINE
  8
0
  6
CONTINUOUS
 62
     7
 10
-121.0525444579327
 20
-18.05000000002899
 11
-121.314979697631
 21
-18.0500000000291
  0
LINE
  8
0
  6
CONTINUOUS
 62
     7
 10
-121.0525444579327
 20
-18.05000000002899
 11
-121.0525444579412
 21
14.124925597186
  0
LINE
  8
0
  6
CONTINUOUS
 62
     7
 10
-121.0525444579412
 20
14.124925597186
 11
-121.3149796976395
 21
14.12492559718589
  0
ARC
  8
0
  6
CONTINUOUS
 62
     7
 10
-120.3492805617209
 20
14.12492559718609
 40
0.7032638962203019
 50
90.0
 51
180.0000000000118
  0
LINE
  8
0
  6
CONTINUOUS
 62
     7
 10
-120.3492805617209
 20
14.8281894934065
 11
-120.3492805617209
 21
15.09062473310471
  0
LINE
  8
0
  6
CONTINUOUS
 62
     7
 10
-120.3492805617209
 20
14.8281894934065
 11
-116.4330518857483
 21
14.8281894934065
  0
LINE
  8
0
  6
CONTINUOUS
 62
     7
 10
-116.4330518857483
 20
14.8281894934065
 11
-116.4330518857483
 21
15.09062473310471
  0
ARC
  8
0
  6
CONTINUOUS
 62
     7
 10
-116.4330518857483
 20
17.32492559718621
 40
2.496736103779651
 50
270.0
 51
330.0000000000341
  0
LINE
  8
0
  6
CONTINUOUS
 62
     7
 10
-114.2708149933285
 20
16.0765575452976
 11
-114.4980905777556
 21
16.20777516514663
  0
LINE
  8
0
  6
CONTINUOUS
 62
     7
 10
-114.2708149933285
 20
16.0765575452976
 11
-113.4785500202483
 21
17.44880073173161
  0
LINE
  8
0
  6
CONTINUOUS
 62
     7
 10
-113.4785500202483
 20
17.44880073173161
 11
-113.7058256046754
 21
17.5800183515806
  0
ARC
  8
0
  6
CONTINUOUS
 62
     7
 10
-115.6407869126681
 20
18.69716878362021
 40
2.496736103779762
 50
330.0000000000344
 51
60.00000000003752
  0
LINE
  8
0
  6
CONTINUOUS
 62
     7
 10
-114.3924188607796
 20
20.85940567604
 11
-114.5236364806286
 21
20.63213009161302
  0
LINE
  8
0
  6
CONTINUOUS
 62
     7
 10
-114.3924188607796
 20
20.85940567604
 11
-118.9259125098349
 21
23.4768194546876
  0
LINE
  8
0
  6
CONTINUOUS
 62
     7
 10
-118.9259125098349
 20
23.4768194546876
 11
-119.057130129684
 21
23.24954387026051
  0
ARC
  8
0
  6
CONTINUOUS
 62
     7
 10
-121.7992805617216
 20
18.49999999996701
 40
5.746736103780154
 50
60.00000000003821
 51
180.0000000000145
  0
LINE
  8
0
  6
CONTINUOUS
 62
     7
 10
-127.5460166655018
 20
18.4999999999656
 11
-127.2835814258035
 21
18.4999999999656
  0
LINE
  8
0
  6
CONTINUOUS
 62
     7
 10
-127.5460166655018
 20
18.4999999999656
 11
-127.5460166654922
 21
-18.50000000003188
  0
ARC
  8
0
  6
CONTINUOUS
 62
     7
 10
-94.95777421077581
 20
18.69716878364169
 40
2.496736103779609
 50
120.0000000000668
 51
210.000000000058
  0
LINE
  8
0
  6
CONTINUOUS
 62
     7
 10
-96.2061422626682
 20
20.85940567605932
 11
-96.07492464281881
 21
20.63213009163239
  0
LINE
  8
0
  6
CONTINUOUS
 62
     7
 10
-97.1200111031935
 20
17.4488007317497
 11
-96.8927355187666
 21
17.58001835159912
  0
LINE
  8
0
  6
CONTINUOUS
 62
     7
 10
-120.7992805617067
 20
-25.24673610381259
 11
-89.7992805617047
 21
-25.24673610378309
  0
LINE
  8
0
  6
CONTINUOUS
 62
     7
 10
-89.7992805617047
 20
-25.24673610378309
 11
-89.7992805617049
 21
-24.98430086408479
  0
ARC
  8
0
  6
CONTINUOUS
 62
     7
 10
-89.79928056171029
 20
-18.50000000000349
 40
6.746736103783651
 50
270.0000000000475
 51
0.0000000000143245
  0
LINE
  8
0
  6
CONTINUOUS
 62
     7
 10
-83.05254445792661
 20
-18.50000000000179
 11
-83.3149796976249
 21
-18.50000000000179
  0
LINE
  8
0
  6
CONTINUOUS
 62
     7
 10
-83.05254445792661
 20
-18.50000000000179
 11
-83.0525444579421
 21
18.50000000000229
  0
LINE
  8
0
  6
CONTINUOUS
 62
     7
 10
-83.0525444579421
 20
18.50000000000229
 11
-83.31497969764031
 21
18.50000000000218
  0
ARC
  8
0
  6
CONTINUOUS
 62
     7
 10
-88.79928056172149
 20
18.50000000000091
 40
5.746736103780667
 50
0.000000000014459
 51
120.0000000000672
  0
LINE
  8
0
  6
CONTINUOUS
 62
     7
 10
-91.67264861361761
 20
23.47681945471669
 11
-91.54143099376822
 21
23.24954387028988
  0
LINE
  8
0
  6
CONTINUOUS
 62
     7
 10
-91.67264861361761
 20
23.47681945471669
 11
-96.2061422626682
 21
20.85940567605932
  0
LINE
  8
0
  6
CONTINUOUS
 62
     7
 10
-94.1655092376802
 20
14.8281894934065
 11
-90.24928056172
 21
14.8281894934065
  0
LINE
  8
0
  6
CONTINUOUS
 62
     7
 10
-94.1655092376802
 20
14.8281894934065
 11
-94.1655092376802
 21
15.0906247331048
  0
LINE
  8
0
  6
CONTINUOUS
 62
     7
 10
-90.24928056172
 20
14.8281894934065
 11
-90.24928056172
 21
15.09062473310471
  0
LINE
  8
0
  6
CONTINUOUS
 62
     7
 10
-97.1200111031935
 20
17.4488007317497
 11
-96.327746130098
 21
16.07655754529411
  0
LINE
  8
0
  6
CONTINUOUS
 62
     7
 10
-96.327746130098
 20
16.07655754529411
 11
-96.10047054567112
 21
16.20777516514349
  0
ARC
  8
0
  6
CONTINUOUS
 62
     7
 10
-94.1655092376802
 20
17.32492559718621
 40
2.496736103779651
 50
210.0000000000583
 51
270.0
  0
ARC
  8
0
  6
CONTINUOUS
 62
     7
 10
-90.24928056172
 20
14.12492559718609
 40
0.7032638962203019
 50
0.0000000000163709
 51
90.0
  0
LINE
  8
0
  6
CONTINUOUS
 62
     7
 10
-127.4841584261748
 20
-1.244863813016195
 11
-127.4197588200658
 21
-1.244863813016195
  0
LINE
  8
0
  6
CONTINUOUS
 62
     7
 10
-127.4841584261748
 20
-1.244863813016195
 11
-127.4841584261748
 21
-0.7130869000162021
  0
LINE
  8
0
  6
CONTINUOUS
 62
     7
 10
-127.4841584261749
 20
-0.7130869000162021
 11
-127.4197588200658
 21
-0.7130869000162021
  0
LINE
  8
0
  6
CONTINUOUS
 62
     7
 10
-127.4197588200658
 20
-0.7130869000162021
 11
-127.4197588200658
 21
-1.244863813016195
  0
LINE
  8
0
  6
CONTINUOUS
 62
     7
 10
-127.4367356725171
 20
2.633216601893501
 11
-127.4318617205812
 21
2.533773290214897
  0
LINE
  8
0
  6
CONTINUOUS
 62
     7
 10
-127.4318608626296
 20
2.533818500943391
 11
-127.4303977708111
 21
2.270051880983726
  0
LINE
  8
0
  6
CONTINUOUS
 62
     7
 10
-127.4841584261748
 20
2.270051880983726
 11
-127.4303977708111
 21
2.270051880983726
  0
LINE
  8
0
  6
CONTINUOUS
 62
     7
 10
-127.4841584261748
 20
2.270051880983726
 11
-127.4841584261748
 21
2.633216600692017
  0
LINE
  8
0
  6
CONTINUOUS
 62
     7
 10
-127.4841584261748
 20
-2.548365759016208
 11
-127.4356040658497
 21
-2.548365759016208
  0
LINE
  8
0
  6
CONTINUOUS
 62
     7
 10
-127.4841584261749
 20
-2.282477302016195
 11
-127.4303977708112
 21
-2.282477302016195
  0
LINE
  8
0
  6
CONTINUOUS
 62
     7
 10
-127.4841584261748
 20
-2.548365759016208
 11
-127.4841584261748
 21
-2.282477302016195
  0
LINE
  8
0
  6
CONTINUOUS
 62
     7
 10
-127.4303977708111
 20
-2.282477302016195
 11
-127.4356040658497
 21
-2.548365759016208
  0
LINE
  8
0
  6
CONTINUOUS
 62
     7
 10
-127.4841584261749
 20
-2.282477302016195
 11
-127.4841584261749
 21
-1.244863813016195
  0
LINE
  8
0
  6
CONTINUOUS
 62
     7
 10
-127.4303977708111
 20
-1.244863813016195
 11
-127.4303977708111
 21
-1.481252755435009
  0
LINE
  8
0
  6
CONTINUOUS
 62
     7
 10
-127.4303977708111
 20
-1.481252755435009
 11
-127.4303977708111
 21
-2.282477302016195
  0
LINE
  8
0
  6
CONTINUOUS
 62
     7
 10
-127.4841584261749
 20
-0.7130869000162021
 11
-127.4841584261748
 21
2.270051880983726
  0
LINE
  8
0
  6
CONTINUOUS
 62
     7
 10
-127.4303977708111
 20
2.270051880983726
 11
-127.4303977708111
 21
-0.1925717663436854
  0
LINE
  8
0
  6
CONTINUOUS
 62
     7
 10
-127.4303977708111
 20
-0.1925717663436854
 11
-127.4303977708111
 21
-0.7130869000162021
  0
LINE
  8
0
  6
CONTINUOUS
 62
     7
 10
-127.4056112791714
 20
-2.613216598302575
 11
-127.4056112791714
 21
0.8044228267241882
  0
LINE
  8
0
  6
CONTINUOUS
 62
     7
 10
-127.3747130054482
 20
0.8044228269822873
 11
-127.3767502328663
 21
-2.613216602013414
  0
LINE
  8
0
  6
CONTINUOUS
 62
     7
 10
-127.4056112791714
 20
1.97822308698381
 11
-127.3537746893659
 21
1.97822308698381
  0
LINE
  8
0
  6
CONTINUOUS
 62
     7
 10
-127.4056112791714
 20
2.535940336983789
 11
-127.3537746893659
 21
2.535940336983789
  0
LINE
  8
0
  6
CONTINUOUS
 62
     7
 10
-127.4056112791714
 20
1.97822308698381
 11
-127.4056112791714
 21
2.535940336983789
  0
LINE
  8
0
  6
CONTINUOUS
 62
     7
 10
-127.3537746893659
 20
2.535940336983789
 11
-127.3537746893659
 21
1.97822308698381
  0
LINE
  8
0
  6
CONTINUOUS
 62
     7
 10
-127.4056112791714
 20
1.861491568995011
 11
-127.3911241973115
 21
1.861491568995011
  0
LINE
  8
0
  6
CONTINUOUS
 62
     7
 10
-127.4056112791714
 20
1.861491568983797
 11
-127.4056112791714
 21
1.97822308698381
  0
LINE
  8
0
  6
CONTINUOUS
 62
     7
 10
-127.3888605907663
 20
1.97822308698381
 11
-127.3911241973115
 21
1.861491568995011
  0
LINE
  8
0
  6
CONTINUOUS
 62
     7
 10
-127.4056112791714
 20
0.8112235840367077
 11
-127.4056112791714
 21
1.861491568995011
  0
LINE
  8
0
  6
CONTINUOUS
 62
     7
 10
-127.3911241973115
 20
1.861491568995011
 11
-127.3930087106004
 21
0.8044228269837028
  0
LINE
  8
0
  6
CONTINUOUS
 62
     7
 10
-83.14496132718641
 20
-2.613216602013801
 11
-83.15509113464661
 21
-2.547786647666195
  0
LINE
  8
0
  6
CONTINUOUS
 62
     7
 10
-83.15509140536689
 20
-2.547849891048726
 11
-83.16527725637529
 21
-2.284920632429799
  0
LINE
  8
0
  6
CONTINUOUS
 62
     7
 10
-83.16527783276842
 20
-2.284966332238708
 11
-83.1731432869954
 21
-1.757185473016204
  0
LINE
  8
0
  6
CONTINUOUS
 62
     7
 10
-83.1144026972439
 20
-1.757185473016204
 11
-83.1731432869954
 21
-1.757185473016204
  0
LINE
  8
0
  6
CONTINUOUS
 62
     7
 10
-83.1144026972439
 20
-1.757185473016204
 11
-83.1144026972439
 21
-2.613216598302575
  0
LINE
  8
0
  6
CONTINUOUS
 62
     7
 10
-83.1144026972439
 20
-1.342140078016196
 11
-83.17087968045223
 21
-1.342140078016196
  0
LINE
  8
0
  6
CONTINUOUS
 62
     7
 10
-83.1144026972439
 20
-1.342140078016196
 11
-83.1144026972439
 21
-1.757185473016204
  0
LINE
  8
0
  6
CONTINUOUS
 62
     7
 10
-83.1731432869954
 20
-1.757185473016204
 11
-83.17087968045223
 21
-1.342140078016196
  0
LINE
  8
0
  6
CONTINUOUS
 62
     7
 10
-83.1144026972439
 20
-0.1294293130162105
 11
-83.1724642050429
 21
-0.1294293130162105
  0
LINE
  8
0
  6
CONTINUOUS
 62
     7
 10
-83.1144026972439
 20
-0.3953177690161902
 11
-83.16782381162271
 21
-0.3953177690161902
  0
LINE
  8
0
  6
CONTINUOUS
 62
     7
 10
-83.1144026972439
 20
-0.1294293130162105
 11
-83.1144026972439
 21
-0.3953177690161902
  0
LINE
  8
0
  6
CONTINUOUS
 62
     7
 10
-83.16782381162271
 20
-0.3953177690161902
 11
-83.1724642050429
 21
-0.1294293130162105
  0
LINE
  8
0
  6
CONTINUOUS
 62
     7
 10
-83.1144026972439
 20
2.114409856983801
 11
-83.16872925424329
 21
2.114409856983801
  0
LINE
  8
0
  6
CONTINUOUS
 62
     7
 10
-83.1144026972439
 20
-0.077548638016206
 11
-83.1724642050429
 21
-0.077548638016206
  0
LINE
  8
0
  6
CONTINUOUS
 62
     7
 10
-83.1144026972439
 20
2.114409856983801
 11
-83.1144026972439
 21
-0.077548638016206
  0
LINE
  8
0
  6
CONTINUOUS
 62
     7
 10
-83.1724642050429
 20
-0.077548638016206
 11
-83.16872925424329
 21
2.114409856983801
  0
LINE
  8
0
  6
CONTINUOUS
 62
     7
 10
-83.1144026972439
 20
-0.077548638016206
 11
-83.1144026972439
 21
-0.1294293130162105
  0
LINE
  8
0
  6
CONTINUOUS
 62
     7
 10
-83.1724642050429
 20
-0.1294293130162105
 11
-83.1724642050429
 21
-0.077548638016206
  0
LINE
  8
0
  6
CONTINUOUS
 62
     7
 10
-83.1144026972439
 20
-1.296744488016199
 11
-83.1144026972439
 21
-1.342140078016196
  0
LINE
  8
0
  6
CONTINUOUS
 62
     7
 10
-83.17087968045209
 20
-1.342140078016196
 11
-83.16782381706281
 21
-1.296744488016283
  0
LINE
  8
0
  6
CONTINUOUS
 62
     7
 10
-83.1144026972439
 20
2.535940336983789
 11
-83.1608066313424
 21
2.535940336983789
  0
LINE
  8
0
  6
CONTINUOUS
 62
     7
 10
-83.1144026972439
 20
2.535940336983789
 11
-83.1144026972439
 21
2.114409856983801
  0
LINE
  8
0
  6
CONTINUOUS
 62
     7
 10
-83.1687292542432
 20
2.114409856983801
 11
-83.16781849175159
 21
2.310373837023705
  0
LINE
  8
0
  6
CONTINUOUS
 62
     7
 10
-83.16781849175159
 20
2.310373837023705
 11
-83.1608066313424
 21
2.535940336983789
  0
LINE
  8
0
  6
CONTINUOUS
 62
     7
 10
-83.1666921607094
 20
-0.4018028530161921
 11
-83.16782381162271
 21
-0.3953177690161902
  0
LINE
  8
0
  6
CONTINUOUS
 62
     7
 10
-83.1144026972439
 20
-0.3953177690161902
 11
-83.1144026972439
 21
-0.4018028499172821
  0
LINE
  8
0
  6
CONTINUOUS
 62
     7
 10
-83.1144026972439
 20
-0.4090795643475198
 11
-83.1144026972439
 21
-1.289263603804186
  0
LINE
  8
0
  6
CONTINUOUS
 62
     7
 10
-83.12639872812619
 20
-1.285732872006701
 11
-83.12669927811051
 21
-0.3959043150512098
  0
LINE
  8
0
  6
CONTINUOUS
 62
     7
 10
-83.18366905742421
 20
-0.3823476014906957
 11
-83.24886092582001
 21
-0.3823476010161864
  0
LINE
  8
0
  6
CONTINUOUS
 62
     7
 10
-83.18366905742421
 20
-0.3823476010161864
 11
-83.18366905742421
 21
-1.244863813016195
  0
LINE
  8
0
  6
CONTINUOUS
 62
     7
 10
-83.18366905742421
 20
-1.244863813016195
 11
-83.2461445979753
 21
-1.244863813016195
  0
LINE
  8
0
  6
CONTINUOUS
 62
     7
 10
-83.2461445979753
 20
-1.244863813016195
 11
-83.24886092582001
 21
-0.3823476010161864
  0
LINE
  8
0
  6
CONTINUOUS
 62
     7
 10
-83.18366905742411
 20
2.315447470983806
 11
-83.2143409260552
 21
2.315447470983806
  0
LINE
  8
0
  6
CONTINUOUS
 62
     7
 10
-83.18366905742411
 20
2.315447470983806
 11
-83.18366905742421
 21
-0.3823476014906957
  0
LINE
  8
0
  6
CONTINUOUS
 62
     7
 10
-83.24886092582001
 20
-0.3823476010161864
 11
-83.2143409260552
 21
2.315447470983806
  0
LINE
  8
0
  6
CONTINUOUS
 62
     7
 10
-83.18366905742421
 20
2.633216600692017
 11
-83.18366905742421
 21
2.315447470983806
  0
LINE
  8
0
  6
CONTINUOUS
 62
     7
 10
-83.2143409260552
 20
2.315447470983806
 11
-83.2049652285452
 21
2.633723408197786
  0
LINE
  8
0
  6
CONTINUOUS
 62
     7
 10
-83.18366905742421
 20
-2.288962386016197
 11
-83.2089082703657
 21
-2.288962386016197
  0
LINE
  8
0
  6
CONTINUOUS
 62
     7
 10
-83.18366905742421
 20
-2.548365759016208
 11
-83.2038151556439
 21
-2.548365759016208
  0
LINE
  8
0
  6
CONTINUOUS
 62
     7
 10
-83.18366905742421
 20
-2.288962386016197
 11
-83.18366905742421
 21
-2.546154625434421
  0
LINE
  8
0
  6
CONTINUOUS
 62
     7
 10
-83.18366905742421
 20
-2.546154625434421
 11
-83.18366905742421
 21
-2.546953645223504
  0
LINE
  8
0
  6
CONTINUOUS
 62
     7
 10
-83.18366905742421
 20
-2.546953645223504
 11
-83.18366905742421
 21
-2.548365759016208
  0
LINE
  8
0
  6
CONTINUOUS
 62
     7
 10
-83.2038151556439
 20
-2.548365759016208
 11
-83.2089082703657
 21
-2.288962386016197
  0
LINE
  8
0
  6
CONTINUOUS
 62
     7
 10
-83.18366905742411
 20
-1.244863813016195
 11
-83.18366905742421
 21
-2.288962386016197
  0
LINE
  8
0
  6
CONTINUOUS
 62
     7
 10
-83.2089082703657
 20
-2.288962386016197
 11
-83.2089082703657
 21
-1.244863813016195
  0
LINE
  8
0
  6
CONTINUOUS
 62
     7
 10
-100.0249510147113
 20
-18.83722956711151
 11
-100.0249510147113
 21
-18.92338135300112
  0
LINE
  8
0
  6
CONTINUOUS
 62
     7
 10
-100.0249510147113
 20
-18.83722956711151
 11
-98.44676139671131
 21
-18.83722956711151
  0
LINE
  8
0
  6
CONTINUOUS
 62
     7
 10
-98.44676139671131
 20
-18.83722956711151
 11
-98.44676139671131
 21
-18.9032934904288
  0
LINE
  8
0
  6
CONTINUOUS
 62
     7
 10
-98.44676139671131
 20
-18.9032934904288
 11
-100.0249510147113
 21
-18.92338135300112
  0
LINE
  8
0
  6
CONTINUOUS
 62
     7
 10
-101.6844926257113
 20
-18.83722956711151
 11
-101.6844926257113
 21
-18.92338135300112
  0
LINE
  8
0
  6
CONTINUOUS
 62
     7
 10
-101.6844926257113
 20
-18.83722956711151
 11
-100.0249510147113
 21
-18.83722956711151
  0
LINE
  8
0
  6
CONTINUOUS
 62
     7
 10
-100.0249510147113
 20
-18.92338135300112
 11
-101.6844926257113
 21
-18.92338135300112
  0
LINE
  8
0
  6
CONTINUOUS
 62
     7
 10
-98.44676139671131
 20
-18.83722956711151
 11
-98.32389619759131
 21
-18.83722956711151
  0
LINE
  8
0
  6
CONTINUOUS
 62
     7
 10
-98.32392086371131
 20
-18.88939297324679
 11
-98.44676139671131
 21
-18.9032934904288
  0
LINE
  8
0
  6
CONTINUOUS
 62
     7
 10
-103.9809031550678
 20
-18.83722956711151
 11
-103.9809031550678
 21
-18.92348620768799
  0
LINE
  8
0
  6
CONTINUOUS
 62
     7
 10
-103.9809031550678
 20
-18.92348620768799
 11
-104.9205987661736
 21
-18.8834764249827
  0
LINE
  8
0
  6
CONTINUOUS
 62
     7
 10
-104.9205987661736
 20
-18.83722956711151
 11
-103.9809031550678
 21
-18.83722956711151
  0
LINE
  8
0
  6
CONTINUOUS
 62
     7
 10
-102.6175532867113
 20
-18.83722956711151
 11
-102.6175532867113
 21
-18.92348620768799
  0
LINE
  8
0
  6
CONTINUOUS
 62
     7
 10
-102.6175532867113
 20
-18.92348620768799
 11
-103.9809031550678
 21
-18.92348620768799
  0
LINE
  8
0
  6
CONTINUOUS
 62
     7
 10
-103.9809031550678
 20
-18.83722956711151
 11
-102.6175532867113
 21
-18.83722956711151
  0
LINE
  8
0
  6
CONTINUOUS
 62
     7
 10
-101.6844926257113
 20
-18.882979691414
 11
-102.6175532867113
 21
-18.92348620768799
  0
LINE
  8
0
  6
CONTINUOUS
 62
     7
 10
-102.6175532867113
 20
-18.83722956711151
 11
-101.6844926257113
 21
-18.83722956711151
  0
LINE
  8
0
  6
CONTINUOUS
 62
     7
 10
-106.1652549757113
 20
-18.83722956711151
 11
-106.1652549757113
 21
-18.92338135300112
  0
LINE
  8
0
  6
CONTINUOUS
 62
     7
 10
-106.1652549757113
 20
-18.83722956711151
 11
-104.9205987661736
 21
-18.83722956711151
  0
LINE
  8
0
  6
CONTINUOUS
 62
     7
 10
-104.9205987661736
 20
-18.83722956711151
 11
-104.9205987661736
 21
-18.92338135299018
  0
LINE
  8
0
  6
CONTINUOUS
 62
     7
 10
-104.9205987661736
 20
-18.92338135299018
 11
-106.1652549757113
 21
-18.92338135300112
  0
LINE
  8
0
  6
CONTINUOUS
 62
     7
 10
-107.1194914011736
 20
-18.83722956711151
 11
-106.1652549757113
 21
-18.83722956711151
  0
LINE
  8
0
  6
CONTINUOUS
 62
     7
 10
-106.1652549757113
 20
-18.92338135300112
 11
-107.119491401116
 21
-18.88252912496791
  0
LINE
  8
0
  6
CONTINUOUS
 62
     7
 10
-108.3641476107113
 20
-18.83722956711151
 11
-108.3641476107113
 21
-18.92338135300112
  0
LINE
  8
0
  6
CONTINUOUS
 62
     7
 10
-107.1194914011736
 20
-18.83722956711151
 11
-107.119491401064
 21
-18.92338135299959
  0
LINE
  8
0
  6
CONTINUOUS
 62
     7
 10
-107.119491401064
 20
-18.92338135299959
 11
-108.3641476107113
 21
-18.92338135300112
  0
LINE
  8
0
  6
CONTINUOUS
 62
     7
 10
-108.3641476107113
 20
-18.83722956711151
 11
-107.1194914011736
 21
-18.83722956711151
  0
LINE
  8
0
  6
CONTINUOUS
 62
     7
 10
-108.3641476107113
 20
-18.92338135300112
 11
-109.7332694397113
 21
-18.86476728663169
  0
LINE
  8
0
  6
CONTINUOUS
 62
     7
 10
-109.7332694397113
 20
-18.83722956711151
 11
-108.3641476107113
 21
-18.83722956711151
  0
LINE
  8
0
  6
CONTINUOUS
 62
     7
 10
-112.2640703948718
 20
-18.83722956711151
 11
-110.9779256477113
 21
-18.83722956711151
  0
LINE
  8
0
  6
CONTINUOUS
 62
     7
 10
-110.9779256477113
 20
-18.83722956711151
 11
-110.9779256477113
 21
-18.92338135300112
  0
LINE
  8
0
  6
CONTINUOUS
 62
     7
 10
-110.9779256477113
 20
-18.92338135300112
 11
-112.2640703948718
 21
-18.92338135301408
  0
LINE
  8
0
  6
CONTINUOUS
 62
     7
 10
-112.2640703948718
 20
-18.83722956711151
 11
-112.2640703948718
 21
-18.92338135301408
  0
LINE
  8
0
  6
CONTINUOUS
 62
     7
 10
-110.5215517047403
 20
-18.83722956711151
 11
-110.5215517047403
 21
-18.90383430913631
  0
LINE
  8
0
  6
CONTINUOUS
 62
     7
 10
-110.5215517047403
 20
-18.90383430913631
 11
-110.9779256477113
 21
-18.92338135300112
  0
LINE
  8
0
  6
CONTINUOUS
 62
     7
 10
-110.9779256477113
 20
-18.83722956711151
 11
-110.5215517047403
 21
-18.83722956711151
  0
LINE
  8
0
  6
CONTINUOUS
 62
     7
 10
-109.7332694397113
 20
-18.83722956711151
 11
-109.7332694397113
 21
-18.90383430913631
  0
LINE
  8
0
  6
CONTINUOUS
 62
     7
 10
-109.7332694397113
 20
-18.90383430913631
 11
-110.5215517047403
 21
-18.90383430913631
  0
LINE
  8
0
  6
CONTINUOUS
 62
     7
 10
-110.5215517047403
 20
-18.83722956711151
 11
-109.7332694397113
 21
-18.83722956711151
  0
LINE
  8
0
  6
CONTINUOUS
 62
     7
 10
-127.4367356723823
 20
2.633216601983679
 11
-127.4841584261748
 21
2.633216601983679
  0
LINE
  8
0
  6
CONTINUOUS
 62
     7
 10
-127.374713005453
 20
0.8044228269837028
 11
-127.4056112791714
 21
0.8044228269837028
  0
LINE
  8
0
  6
CONTINUOUS
 62
     7
 10
-127.4056112791714
 20
-2.613216602016188
 11
-127.3767502328819
 21
-2.613216602016188
  0
LINE
  8
0
  6
CONTINUOUS
 62
     7
 10
-83.1449613271967
 20
-2.613216602016188
 11
-83.1144026972439
 21
-2.613216602016188
  0
LINE
  8
0
  6
CONTINUOUS
 62
     7
 10
-83.1144026972439
 20
-1.296744488016199
 11
-83.1678238170632
 21
-1.296744488016199
  0
LINE
  8
0
  6
CONTINUOUS
 62
     7
 10
-83.1666921607094
 20
-0.4018028530161921
 11
-83.1144026972439
 21
-0.4018028530161921
  0
LINE
  8
0
  6
CONTINUOUS
 62
     7
 10
-83.18366905742421
 20
2.633216601983679
 11
-83.20494676217629
 21
2.633216601983679
  0
LINE
  8
0
  6
CONTINUOUS
 62
     7
 10
-98.32389619752851
 20
-18.88958945213512
 11
-98.32389619752851
 21
-18.83722956711151
  0
LINE
  8
0
  6
CONTINUOUS
 62
     7
 10
8.500000000000007
 20
-25.24673610378711
 11
8.500000000000007
 21
-18.50000000000171
  0
LINE
  8
0
  6
CONTINUOUS
 62
     7
 10
8.500000000000007
 20
-25.24673610378309
 11
-6.534904812874607
 21
-24.98430086408479
  0
LINE
  8
0
  6
CONTINUOUS
 62
     7
 10
-6.534904812874609
 20
-18.50000000000179
 11
-6.534904812874609
 21
-24.98430086408879
  0
LINE
  8
0
  6
CONTINUOUS
 62
     7
 10
8.500000000000007
 20
-18.50000000000179
 11
-6.534904812874609
 21
-18.50000000000179
  0
LINE
  8
0
  6
CONTINUOUS
 62
     7
 10
-6.534904812874609
 20
18.50000000000218
 11
-6.534904812874609
 21
-18.50000000000179
  0
LINE
  8
0
  6
CONTINUOUS
 62
     7
 10
8.500000000000007
 20
18.50000000000229
 11
-6.534904812874609
 21
18.50000000000218
  0
LINE
  8
0
  6
CONTINUOUS
 62
     7
 10
8.500000000000007
 20
-18.50000000000179
 11
8.500000000000007
 21
18.50000000000229
  0
LINE
  8
0
  6
CONTINUOUS
 62
     7
 10
-6.534904812874609
 20
23.98430086408321
 11
-6.534904812874609
 21
18.50000000000218
  0
LINE
  8
0
  6
CONTINUOUS
 62
     7
 10
8.500000000000007
 20
18.50000000000229
 11
8.500000000000007
 21
24.24673610378153
  0
LINE
  8
0
  6
CONTINUOUS
 62
     7
 10
-8.500000000000007
 20
-22.98460547377598
 11
-8.500000000000007
 21
-18.50000000000229
  0
LINE
  8
0
  6
CONTINUOUS
 62
     7
 10
-8.500000000000007
 20
-18.50000000000229
 11
-6.534904812874609
 21
-18.50000000000229
  0
ARC
  8
0
  6
CONTINUOUS
 62
     7
 10
-6.500000000000005
 20
-22.98460547377201
 40
2.000000000000002
 50
180.0
 51
269.0000000000005
  0
LINE
  8
0
  6
CONTINUOUS
 62
     7
 10
-8.500000000000007
 20
-18.50000000000229
 11
-8.500000000000007
 21
18.50000000000171
  0
LINE
  8
0
  6
CONTINUOUS
 62
     7
 10
-8.500000000000007
 20
18.50000000000171
 11
-6.534904812874609
 21
18.50000000000171
  0
LINE
  8
0
  6
CONTINUOUS
 62
     7
 10
-8.500000000000007
 20
18.50000000000171
 11
-8.500000000000007
 21
21.9846054737704
  0
ARC
  8
0
  6
CONTINUOUS
 62
     7
 10
2.467977869372389
 20
1.866582659679011
 40
0.1129103075997728
 50
81.39877904281775
 51
182.5843250948131
  0
LINE
  8
0
  6
CONTINUOUS
 62
     7
 10
4.494934275036277
 20
2.535940336983789
 11
2.270889143022592
 21
2.535940336983789
  0
LINE
  8
0
  6
CONTINUOUS
 62
     7
 10
1.81700238101748
 20
2.114409856983801
 11
1.60302719301228
 21
-0.077548638016206
  0
LINE
  8
0
  6
CONTINUOUS
 62
     7
 10
2.484864330028119
 20
1.97822308698381
 11
4.494934275036417
 21
1.97822308698381
  0
ARC
  8
0
  6
CONTINUOUS
 62
     7
 10
1.8517655445138
 20
-1.59104287580622
 40
0.2947953184716245
 50
26.63782730719603
 51
122.4004069400701
  0
LINE
  8
0
  6
CONTINUOUS
 62
     7
 10
2.231984563021788
 20
0.6552658879838136
 11
2.355182397909022
 21
1.861491568995011
  0
ARC
  8
0
  6
CONTINUOUS
 62
     7
 10
1.858176998949412
 20
-0.140166330658581
 40
0.2553756194658974
 50
177.5903448221539
 51
272.4009283244005
  0
LINE
  8
0
  6
CONTINUOUS
 62
     7
 10
2.173627694020297
 20
0.356952009983813
 11
2.231984563021788
 21
0.6552658879838136
  0
LINE
  8
0
  6
CONTINUOUS
 62
     7
 10
1.60302719301228
 20
-0.077548638016206
 11
1.60302719301228
 21
-0.1294293130162105
  0
ARC
  8
0
  6
CONTINUOUS
 62
     7
 10
1.822512278604083
 20
-1.610137531947997
 40
0.2973017250888776
 50
115.6529860747656
 51
209.6439334357841
  0
ARC
  8
0
  6
CONTINUOUS
 62
     7
 10
1.934882557629691
 20
-0.0627422432540048
 40
0.3390626161478283
 50
258.7741943865225
 51
333.5558459069955
  0
ARC
  8
0
  6
CONTINUOUS
 62
     7
 10
2.234072626854794
 20
2.120454273355499
 40
0.4171140430770381
 50
84.93620591038116
 51
180.8303045060073
  0
ARC
  8
0
  6
CONTINUOUS
 62
     7
 10
4.445082078011975
 20
2.257081711983799
 40
0.2832796750298905
 50
280.1358245472071
 51
79.86417545279295
  0
LINE
  8
0
  6
CONTINUOUS
 62
     7
 10
2.238468660016007
 20
-0.2137354090162025
 11
2.270826007071708
 21
-0.166163699277494
  0
LINE
  8
0
  6
CONTINUOUS
 62
     7
 10
2.270826007071708
 20
-0.166163699277494
 11
2.305099185646975
 21
-0.1207466644402022
  0
LINE
  8
0
  6
CONTINUOUS
 62
     7
 10
2.305099185646975
 20
-0.1207466644402022
 11
2.341304681846873
 21
-0.0775282741481975
  0
LINE
  8
0
  6
CONTINUOUS
 62
     7
 10
2.341304681846873
 20
-0.0775282741481975
 11
2.379458981776688
 21
-0.0365524980454057
  0
LINE
  8
0
  6
CONTINUOUS
 62
     7
 10
2.379458981776688
 20
-0.0365524980454057
 11
2.419578571541486
 21
0.0021366942243028
  0
LINE
  8
0
  6
CONTINUOUS
 62
     7
 10
2.419578571541486
 20
0.0021366942243028
 11
2.461679937246497
 21
0.0384953330170856
  0
LINE
  8
0
  6
CONTINUOUS
 62
     7
 10
2.461679937246497
 20
0.0384953330170856
 11
2.505779564996813
 21
0.072479448688989
  0
LINE
  8
0
  6
CONTINUOUS
 62
     7
 10
2.505779564996813
 20
0.072479448688989
 11
2.551893940897692
 21
0.1040450715961982
  0
LINE
  8
0
  6
CONTINUOUS
 62
     7
 10
2.551893940897692
 20
0.1040450715961982
 11
2.600039551054173
 21
0.1331482320948152
  0
LINE
  8
0
  6
CONTINUOUS
 62
     7
 10
2.600039551054173
 20
0.1331482320948152
 11
2.650232881571596
 21
0.159744960540803
  0
LINE
  8
0
  6
CONTINUOUS
 62
     7
 10
2.650232881571596
 20
0.159744960540803
 11
2.702490418554915
 21
0.1837912872904857
  0
LINE
  8
0
  6
CONTINUOUS
 62
     7
 10
2.702490418554915
 20
0.1837912872904857
 11
2.756828648109499
 21
0.2052432426997985
  0
LINE
  8
0
  6
CONTINUOUS
 62
     7
 10
2.756828648109499
 20
0.2052432426997985
 11
2.813264056340386
 21
0.2240568571249824
  0
LINE
  8
0
  6
CONTINUOUS
 62
     7
 10
2.813264056340386
 20
0.2240568571249824
 11
2.871813129352807
 21
0.2401881609220835
  0
LINE
  8
0
  6
CONTINUOUS
 62
     7
 10
2.871813129352807
 20
0.2401881609220835
 11
2.932492353251881
 21
0.2535931844473149
  0
LINE
  8
0
  6
CONTINUOUS
 62
     7
 10
2.932492353251881
 20
0.2535931844473149
 11
2.995318214142811
 21
0.264227958056612
  0
LINE
  8
0
  6
CONTINUOUS
 62
     7
 10
2.995318214142811
 20
0.264227958056612
 11
3.060307198130801
 21
0.2720485121062155
  0
LINE
  8
0
  6
CONTINUOUS
 62
     7
 10
3.060307198130801
 20
0.2720485121062155
 11
3.127475791320916
 21
0.2770108769520885
  0
LINE
  8
0
  6
CONTINUOUS
 62
     7
 10
3.127475791320916
 20
0.2770108769520885
 11
3.196840479818302
 21
0.2790710829505827
  0
LINE
  8
0
  6
CONTINUOUS
 62
     7
 10
3.196840479818302
 20
0.2790710829505827
 11
3.267134963533175
 21
0.2780574957091109
  0
LINE
  8
0
  6
CONTINUOUS
 62
     7
 10
3.267134963533175
 20
0.2780574957091109
 11
3.335679009881492
 21
0.2737110709598034
  0
LINE
  8
0
  6
CONTINUOUS
 62
     7
 10
3.335679009881492
 20
0.2737110709598034
 11
3.402338140720301
 21
0.2660710239375252
  0
LINE
  8
0
  6
CONTINUOUS
 62
     7
 10
3.402338140720301
 20
0.2660710239375252
 11
3.467059070225903
 21
0.2551853191889164
  0
LINE
  8
0
  6
CONTINUOUS
 62
     7
 10
3.467059070225903
 20
0.2551853191889164
 11
3.529788512574711
 21
0.2411019212607834
  0
LINE
  8
0
  6
CONTINUOUS
 62
     7
 10
3.529788512574711
 20
0.2411019212607834
 11
3.590473181943277
 21
0.2238687947004048
  0
LINE
  8
0
  6
CONTINUOUS
 62
     7
 10
3.590473181943277
 20
0.2238687947004048
 11
3.649059792507708
 21
0.2035339040544204
  0
LINE
  8
0
  6
CONTINUOUS
 62
     7
 10
3.649059792507708
 20
0.2035339040544204
 11
3.705495058444613
 21
0.1801452138698034
  0
LINE
  8
0
  6
CONTINUOUS
 62
     7
 10
3.705495058444613
 20
0.1801452138698034
 11
3.75972569393021
 21
0.1537506886933049
  0
LINE
  8
0
  6
CONTINUOUS
 62
     7
 10
3.75972569393021
 20
0.1537506886933049
 11
3.811698413141107
 21
0.1243982930722032
  0
LINE
  8
0
  6
CONTINUOUS
 62
     7
 10
3.811698413141107
 20
0.1243982930722032
 11
3.861359930253494
 21
0.0921359915529996
  0
LINE
  8
0
  6
CONTINUOUS
 62
     7
 10
3.861359930253494
 20
0.0921359915529996
 11
3.908656959443979
 21
0.0570117486828892
  0
LINE
  8
0
  6
CONTINUOUS
 62
     7
 10
3.908656959443979
 20
0.0570117486828892
 11
3.953536214888892
 21
0.019073529008623
  0
LINE
  8
0
  6
CONTINUOUS
 62
     7
 10
3.953536214888892
 20
0.019073529008623
 11
3.995944410764479
 21
-0.0216307029228813
  0
LINE
  8
0
  6
CONTINUOUS
 62
     7
 10
3.995944410764479
 20
-0.0216307029228813
 11
4.035828261247404
 21
-0.0650529825647894
  0
LINE
  8
0
  6
CONTINUOUS
 62
     7
 10
4.035828261247404
 20
-0.0650529825647894
 11
4.073134480513802
 21
-0.1111453453700173
  0
LINE
  8
0
  6
CONTINUOUS
 62
     7
 10
4.073134480513802
 20
-0.1111453453700173
 11
4.107809782740307
 21
-0.1598598267916751
  0
LINE
  8
0
  6
CONTINUOUS
 62
     7
 10
4.107809782740307
 20
-0.1598598267916751
 11
4.139800882103084
 21
-0.211148462283095
  0
LINE
  8
0
  6
CONTINUOUS
 62
     7
 10
4.139800882103084
 20
-0.211148462283095
 11
4.169054492778601
 21
-0.264963287297082
  0
LINE
  8
0
  6
CONTINUOUS
 62
     7
 10
4.169054492778601
 20
-0.264963287297082
 11
4.19551732894341
 21
-0.3212563372869126
  0
LINE
  8
0
  6
CONTINUOUS
 62
     7
 10
4.19551732894341
 20
-0.3212563372869126
 11
4.219136104773701
 21
-0.3799796477055861
  0
LINE
  8
0
  6
CONTINUOUS
 62
     7
 10
4.219136104773701
 20
-0.3799796477055861
 11
4.239857534446001
 21
-0.441085254006407
  0
LINE
  8
0
  6
CONTINUOUS
 62
     7
 10
4.239857534446001
 20
-0.441085254006407
 11
4.25762833213672
 21
-0.5045251916420967
  0
LINE
  8
0
  6
CONTINUOUS
 62
     7
 10
4.25762833213672
 20
-0.5045251916420967
 11
4.272395212022106
 21
-0.570251496066182
  0
LINE
  8
0
  6
CONTINUOUS
 62
     7
 10
4.272395212022106
 20
-0.570251496066182
 11
4.284104888278684
 21
-0.638216202731412
  0
LINE
  8
0
  6
CONTINUOUS
 62
     7
 10
4.284104888278684
 20
-0.638216202731412
 11
4.292704075082781
 21
-0.708371347091008
  0
LINE
  8
0
  6
CONTINUOUS
 62
     7
 10
4.292704075082781
 20
-0.708371347091008
 11
4.298139486610896
 21
-0.780668964598108
  0
LINE
  8
0
  6
CONTINUOUS
 62
     7
 10
4.298139486610896
 20
-0.780668964598108
 11
4.300357837039415
 21
-0.8550610907057943
  0
LINE
  8
0
  6
CONTINUOUS
 62
     7
 10
4.300357837039415
 20
-0.8550610907057943
 11
4.299270371395575
 21
-0.930224712969302
  0
LINE
  8
0
  6
CONTINUOUS
 62
     7
 10
4.299270371395575
 20
-0.930224712969302
 11
4.294816151170694
 21
-1.003639548193686
  0
LINE
  8
0
  6
CONTINUOUS
 62
     7
 10
4.294816151170694
 20
-1.003639548193686
 11
4.287049878809096
 21
-1.075177927768484
  0
LINE
  8
0
  6
CONTINUOUS
 62
     7
 10
4.287049878809096
 20
-1.075177927768484
 11
4.276028584628722
 21
-1.144774170414392
  0
LINE
  8
0
  6
CONTINUOUS
 62
     7
 10
4.276028584628722
 20
-1.144774170414392
 11
4.261809298947094
 21
-1.212362594852218
  0
LINE
  8
0
  6
CONTINUOUS
 62
     7
 10
4.261809298947094
 20
-1.212362594852218
 11
4.244449052082405
 21
-1.277877519802489
  0
LINE
  8
0
  6
CONTINUOUS
 62
     7
 10
4.244449052082405
 20
-1.277877519802489
 11
4.224004874352399
 21
-1.341253263986097
  0
LINE
  8
0
  6
CONTINUOUS
 62
     7
 10
4.224004874352399
 20
-1.341253263986097
 11
4.200533796074795
 21
-1.402424146123793
  0
LINE
  8
0
  6
CONTINUOUS
 62
     7
 10
4.200533796074795
 20
-1.402424146123793
 11
4.1740928475677
 21
-1.461324484935994
  0
LINE
  8
0
  6
CONTINUOUS
 62
     7
 10
4.1740928475677
 20
-1.461324484935994
 11
4.144739059149
 21
-1.517888599143397
  0
LINE
  8
0
  6
CONTINUOUS
 62
     7
 10
4.144739059149
 20
-1.517888599143397
 11
4.112529461136299
 21
-1.572050807467001
  0
LINE
  8
0
  6
CONTINUOUS
 62
     7
 10
4.112529461136299
 20
-1.572050807467001
 11
4.077521083847596
 21
-1.62374542862731
  0
LINE
  8
0
  6
CONTINUOUS
 62
     7
 10
4.077521083847596
 20
-1.62374542862731
 11
4.039770957600775
 21
-1.672906781345018
  0
LINE
  8
0
  6
CONTINUOUS
 62
     7
 10
4.039770957600775
 20
-1.672906781345018
 11
3.999336112713803
 21
-1.719469184340794
  0
LINE
  8
0
  6
CONTINUOUS
 62
     7
 10
3.999336112713803
 20
-1.719469184340794
 11
3.956273579504399
 21
-1.763366956335277
  0
LINE
  8
0
  6
CONTINUOUS
 62
     7
 10
3.956273579504399
 20
-1.763366956335277
 11
3.910640388290421
 21
-1.804534416049497
  0
LINE
  8
0
  6
CONTINUOUS
 62
     7
 10
3.910640388290421
 20
-1.804534416049497
 11
3.86249356938978
 21
-1.842905882203705
  0
LINE
  8
0
  6
CONTINUOUS
 62
     7
 10
3.86249356938978
 20
-1.842905882203705
 11
3.811890153120279
 21
-1.878415673518902
  0
LINE
  8
0
  6
CONTINUOUS
 62
     7
 10
3.811890153120279
 20
-1.878415673518902
 11
3.758887169799885
 21
-1.9109981087157
  0
LINE
  8
0
  6
CONTINUOUS
 62
     7
 10
3.758887169799885
 20
-1.9109981087157
 11
3.7035416497464
 21
-1.940587506514713
  0
LINE
  8
0
  6
CONTINUOUS
 62
     7
 10
3.7035416497464
 20
-1.940587506514713
 11
3.645910623277793
 21
-1.967118185636718
  0
LINE
  8
0
  6
CONTINUOUS
 62
     7
 10
3.645910623277793
 20
-1.967118185636718
 11
3.586051120711697
 21
-1.990524464802301
  0
LINE
  8
0
  6
CONTINUOUS
 62
     7
 10
3.586051120711697
 20
-1.990524464802301
 11
3.524020172366193
 21
-2.01074066273238
  0
LINE
  8
0
  6
CONTINUOUS
 62
     7
 10
3.524020172366193
 20
-2.01074066273238
 11
3.459874808559082
 21
-2.0277010981474
  0
LINE
  8
0
  6
CONTINUOUS
 62
     7
 10
3.459874808559082
 20
-2.0277010981474
 11
3.393672059608194
 21
-2.041340089768306
  0
LINE
  8
0
  6
CONTINUOUS
 62
     7
 10
3.393672059608194
 20
-2.041340089768306
 11
3.325468955831384
 21
-2.051591956315491
  0
LINE
  8
0
  6
CONTINUOUS
 62
     7
 10
3.325468955831384
 20
-2.051591956315491
 11
3.255322527546705
 21
-2.058391016509814
  0
LINE
  8
0
  6
CONTINUOUS
 62
     7
 10
3.255322527546705
 20
-2.058391016509814
 11
3.18328980507171
 21
-2.061671589072084
  0
LINE
  8
0
  6
CONTINUOUS
 62
     7
 10
3.18328980507171
 20
-2.061671589072084
 11
3.110092985984775
 21
-2.0614091173278
  0
LINE
  8
0
  6
CONTINUOUS
 62
     7
 10
3.110092985984775
 20
-2.0614091173278
 11
3.038680579887681
 21
-2.057778579165809
  0
LINE
  8
0
  6
CONTINUOUS
 62
     7
 10
3.038680579887681
 20
-2.057778579165809
 11
2.9694155246833
 21
-2.050877061265111
  0
LINE
  8
0
  6
CONTINUOUS
 62
     7
 10
2.9694155246833
 20
-2.050877061265111
 11
2.902320126766694
 21
-2.040784878880902
  0
LINE
  8
0
  6
CONTINUOUS
 62
     7
 10
2.902320126766694
 20
-2.040784878880902
 11
2.837416692533012
 21
-2.02758234726888
  0
LINE
  8
0
  6
CONTINUOUS
 62
     7
 10
2.837416692533012
 20
-2.02758234726888
 11
2.77472752837718
 21
-2.011349781684685
  0
LINE
  8
0
  6
CONTINUOUS
 62
     7
 10
2.77472752837718
 20
-2.011349781684685
 11
2.714274940694289
 21
-1.992167497383679
  0
LINE
  8
0
  6
CONTINUOUS
 62
     7
 10
2.714274940694289
 20
-1.992167497383679
 11
2.656081235879376
 21
-1.970115809621475
  0
LINE
  8
0
  6
CONTINUOUS
 62
     7
 10
2.656081235879376
 20
-1.970115809621475
 11
2.600168720327506
 21
-1.945275033653798
  0
LINE
  8
0
  6
CONTINUOUS
 62
     7
 10
2.600168720327506
 20
-1.945275033653798
 11
2.546559700433715
 21
-1.917725484735899
  0
LINE
  8
0
  6
CONTINUOUS
 62
     7
 10
2.546559700433715
 20
-1.917725484735899
 11
2.495276482593012
 21
-1.887547478123391
  0
LINE
  8
0
  6
CONTINUOUS
 62
     7
 10
2.495276482593012
 20
-1.887547478123391
 11
2.446341373200489
 21
-1.854821329071915
  0
LINE
  8
0
  6
CONTINUOUS
 62
     7
 10
2.446341373200489
 20
-1.854821329071915
 11
2.399776678651294
 21
-1.819627352836889
  0
LINE
  8
0
  6
CONTINUOUS
 62
     7
 10
2.399776678651294
 20
-1.819627352836889
 11
2.355604705340214
 21
-1.782045864673981
  0
LINE
  8
0
  6
CONTINUOUS
 62
     7
 10
2.355604705340214
 20
-1.782045864673981
 11
2.31384775966248
 21
-1.742157179838583
  0
LINE
  8
0
  6
CONTINUOUS
 62
     7
 10
2.31384775966248
 20
-1.742157179838583
 11
2.274528148013294
 21
-1.700041613586389
  0
LINE
  8
0
  6
CONTINUOUS
 62
     7
 10
2.274528148013294
 20
-1.700041613586389
 11
2.237668176787388
 21
-1.655779481172875
  0
LINE
  8
0
  6
CONTINUOUS
 62
     7
 10
2.237668176787388
 20
-1.655779481172875
 11
2.203290152379994
 21
-1.609451097853515
  0
LINE
  8
0
  6
CONTINUOUS
 62
     7
 10
2.203290152379994
 20
-1.609451097853515
 11
2.171416381186092
 21
-1.561136778884004
  0
LINE
  8
0
  6
CONTINUOUS
 62
     7
 10
2.171416381186092
 20
-1.561136778884004
 11
2.142069169600802
 21
-1.510916839519705
  0
LINE
  8
0
  6
CONTINUOUS
 62
     7
 10
2.142069169600802
 20
-1.510916839519705
 11
2.115270824018994
 21
-1.458871595016203
  0
ARC
  8
0
  6
CONTINUOUS
 62
     7
 10
3.296597941906509
 20
-0.8284108224632103
 40
1.632834107368086
 50
359.4954810090882
 51
133.4517132250995
  0
LINE
  8
0
  6
CONTINUOUS
 62
     7
 10
1.564122614011176
 20
-1.757185473016204
 11
1.606621964825278
 21
-1.834107740090574
  0
LINE
  8
0
  6
CONTINUOUS
 62
     7
 10
1.606621964825278
 20
-1.834107740090574
 11
1.652798638984598
 21
-1.907836761439324
  0
LINE
  8
0
  6
CONTINUOUS
 62
     7
 10
1.652798638984598
 20
-1.907836761439324
 11
1.702652636487889
 21
-1.978305492311205
  0
LINE
  8
0
  6
CONTINUOUS
 62
     7
 10
1.702652636487889
 20
-1.978305492311205
 11
1.756183957333707
 21
-2.045446887955382
  0
LINE
  8
0
  6
CONTINUOUS
 62
     7
 10
1.756183957333707
 20
-2.045446887955382
 11
1.813392601520691
 21
-2.10919390362091
  0
LINE
  8
0
  6
CONTINUOUS
 62
     7
 10
1.813392601520691
 20
-2.10919390362091
 11
1.874278569047511
 21
-2.169479494556703
  0
LINE
  8
0
  6
CONTINUOUS
 62
     7
 10
1.874278569047511
 20
-2.169479494556703
 11
1.938841859912804
 21
-2.226236616011901
  0
LINE
  8
0
  6
CONTINUOUS
 62
     7
 10
1.938841859912804
 20
-2.226236616011901
 11
2.007082474115185
 21
-2.279398223235501
  0
LINE
  8
0
  6
CONTINUOUS
 62
     7
 10
2.007082474115185
 20
-2.279398223235501
 11
2.079000411653292
 21
-2.328897271476393
  0
LINE
  8
0
  6
CONTINUOUS
 62
     7
 10
2.079000411653292
 20
-2.328897271476393
 11
2.154595672525794
 21
-2.374666715983798
  0
LINE
  8
0
  6
CONTINUOUS
 62
     7
 10
2.154595672525794
 20
-2.374666715983798
 11
2.233868256731081
 21
-2.416639512006602
  0
LINE
  8
0
  6
CONTINUOUS
 62
     7
 10
2.233868256731081
 20
-2.416639512006602
 11
2.316818164268208
 21
-2.454748614793889
  0
LINE
  8
0
  6
CONTINUOUS
 62
     7
 10
2.316818164268208
 20
-2.454748614793889
 11
2.403445395135595
 21
-2.488926979594713
  0
LINE
  8
0
  6
CONTINUOUS
 62
     7
 10
2.403445395135595
 20
-2.488926979594713
 11
2.493749949331797
 21
-2.51910756165799
  0
LINE
  8
0
  6
CONTINUOUS
 62
     7
 10
2.493749949331797
 20
-2.51910756165799
 11
2.587731826855594
 21
-2.545223316232803
  0
LINE
  8
0
  6
CONTINUOUS
 62
     7
 10
2.587731826855594
 20
-2.545223316232803
 11
2.685391027705486
 21
-2.567207198568205
  0
LINE
  8
0
  6
CONTINUOUS
 62
     7
 10
2.685391027705486
 20
-2.567207198568205
 11
2.786727551880197
 21
-2.584992163913086
  0
LINE
  8
0
  6
CONTINUOUS
 62
     7
 10
2.786727551880197
 20
-2.584992163913086
 11
2.891741399378394
 21
-2.598511167516693
  0
LINE
  8
0
  6
CONTINUOUS
 62
     7
 10
2.891741399378394
 20
-2.598511167516693
 11
3.000432570198608
 21
-2.607697164627887
  0
LINE
  8
0
  6
CONTINUOUS
 62
     7
 10
3.000432570198608
 20
-2.607697164627887
 11
3.112801064339588
 21
-2.612483110495778
  0
LINE
  8
0
  6
CONTINUOUS
 62
     7
 10
3.112801064339588
 20
-2.612483110495778
 11
3.228232533147385
 21
-2.612686180779394
  0
LINE
  8
0
  6
CONTINUOUS
 62
     7
 10
3.228232533147385
 20
-2.612686180779394
 11
3.341713149558306
 21
-2.607363440731092
  0
LINE
  8
0
  6
CONTINUOUS
 62
     7
 10
3.341713149558306
 20
-2.607363440731092
 11
3.452065168263102
 21
-2.596417741301593
  0
LINE
  8
0
  6
CONTINUOUS
 62
     7
 10
3.452065168263102
 20
-2.596417741301593
 11
3.559198092634691
 21
-2.579967877406997
  0
LINE
  8
0
  6
CONTINUOUS
 62
     7
 10
3.559198092634691
 20
-2.579967877406997
 11
3.663021426045992
 21
-2.55813264396329
  0
LINE
  8
0
  6
CONTINUOUS
 62
     7
 10
3.663021426045992
 20
-2.55813264396329
 11
3.763444671869676
 21
-2.531030835886405
  0
LINE
  8
0
  6
CONTINUOUS
 62
     7
 10
3.763444671869676
 20
-2.531030835886405
 11
3.860377333478798
 21
-2.498781248092607
  0
LINE
  8
0
  6
CONTINUOUS
 62
     7
 10
3.860377333478798
 20
-2.498781248092607
 11
3.953728914246196
 21
-2.461502675497607
  0
LINE
  8
0
  6
CONTINUOUS
 62
     7
 10
3.953728914246196
 20
-2.461502675497607
 11
4.043408917544594
 21
-2.41931391301739
  0
LINE
  8
0
  6
CONTINUOUS
 62
     7
 10
4.043408917544594
 20
-2.41931391301739
 11
4.129326846746994
 21
-2.372333755568195
  0
LINE
  8
0
  6
CONTINUOUS
 62
     7
 10
4.129326846746994
 20
-2.372333755568195
 11
4.211392205226316
 21
-2.320680998065899
  0
LINE
  8
0
  6
CONTINUOUS
 62
     7
 10
4.211392205226316
 20
-2.320680998065899
 11
4.289514496355284
 21
-2.2644744354266
  0
LINE
  8
0
  6
CONTINUOUS
 62
     7
 10
4.289514496355284
 20
-2.2644744354266
 11
4.363603223506901
 21
-2.203832862566202
  0
LINE
  8
0
  6
CONTINUOUS
 62
     7
 10
4.363603223506901
 20
-2.203832862566202
 11
4.433567890053891
 21
-2.138875074400692
  0
LINE
  8
0
  6
CONTINUOUS
 62
     7
 10
4.433567890053891
 20
-2.138875074400692
 11
4.499317999369201
 21
-2.069719865846198
  0
LINE
  8
0
  6
CONTINUOUS
 62
     7
 10
4.499317999369201
 20
-2.069719865846198
 11
4.560763054825806
 21
-1.996486031818595
  0
LINE
  8
0
  6
CONTINUOUS
 62
     7
 10
4.560763054825806
 20
-1.996486031818595
 11
4.617812559796292
 21
-1.919292367233982
  0
LINE
  8
0
  6
CONTINUOUS
 62
     7
 10
4.617812559796292
 20
-1.919292367233982
 11
4.670376017653771
 21
-1.838257667008403
  0
LINE
  8
0
  6
CONTINUOUS
 62
     7
 10
4.670376017653771
 20
-1.838257667008403
 11
4.718362931771081
 21
-1.753500726057705
  0
LINE
  8
0
  6
CONTINUOUS
 62
     7
 10
4.718362931771081
 20
-1.753500726057705
 11
4.761682805521112
 21
-1.665140339298016
  0
LINE
  8
0
  6
CONTINUOUS
 62
     7
 10
4.761682805521112
 20
-1.665140339298016
 11
4.800245142276588
 21
-1.573295301645294
  0
LINE
  8
0
  6
CONTINUOUS
 62
     7
 10
4.800245142276588
 20
-1.573295301645294
 11
4.833959445410513
 21
-1.478084408015501
  0
LINE
  8
0
  6
CONTINUOUS
 62
     7
 10
4.833959445410513
 20
-1.478084408015501
 11
4.862735218295694
 21
-1.379626453324789
  0
LINE
  8
0
  6
CONTINUOUS
 62
     7
 10
4.862735218295694
 20
-1.379626453324789
 11
4.886481964304995
 21
-1.278040232488981
  0
LINE
  8
0
  6
CONTINUOUS
 62
     7
 10
4.886481964304995
 20
-1.278040232488981
 11
4.905109186811391
 21
-1.173444540424284
  0
LINE
  8
0
  6
CONTINUOUS
 62
     7
 10
4.905109186811391
 20
-1.173444540424284
 11
4.918526389187577
 21
-1.065958172046605
  0
LINE
  8
0
  6
CONTINUOUS
 62
     7
 10
4.918526389187577
 20
-1.065958172046605
 11
4.926643074806503
 21
-0.955699922271902
  0
LINE
  8
0
  6
CONTINUOUS
 62
     7
 10
4.926643074806503
 20
-0.955699922271902
 11
4.929368747041085
 21
-0.8427885860162188
  0
ARC
  8
0
  6
CONTINUOUS
 62
     7
 10
-2.514954198475
 20
-0.7809536009069085
 40
0.4752428892171867
 50
122.9925225914139
 51
257.4624438772832
  0
LINE
  8
0
  6
CONTINUOUS
 62
     7
 10
-0.4848519109979244
 20
-0.7130869000162021
 11
-0.4848519109979244
 21
1.886281327654004
  0
LINE
  8
0
  6
CONTINUOUS
 62
     7
 10
-2.33699311211441
 20
-0.7130869000162021
 11
-0.4848519109979244
 21
-0.7130869000162021
  0
LINE
  8
0
  6
CONTINUOUS
 62
     7
 10
-0.4848519109979244
 20
1.886281327654005
 11
-2.33699311211441
 21
-0.7130869000162021
  0
LINE
  8
0
  6
CONTINUOUS
 62
     7
 10
-0.7960885470056078
 20
2.315447470983806
 11
-2.773738008377713
 21
-0.3823476014906124
  0
LINE
  8
0
  6
CONTINUOUS
 62
     7
 10
0.1052008790108083
 20
-2.282477302016195
 11
0.1052008790108083
 21
-1.244863813016195
  0
LINE
  8
0
  6
CONTINUOUS
 62
     7
 10
0.1052008790108083
 20
-0.7130869000162021
 11
0.1052008790108083
 21
2.270051880983809
  0
LINE
  8
0
  6
CONTINUOUS
 62
     7
 10
0.7147059590024152
 20
-0.7130869000162021
 11
0.1052008790108083
 21
-0.7130869000162021
  0
LINE
  8
0
  6
CONTINUOUS
 62
     7
 10
-0.4848519109979244
 20
-1.244863813016195
 11
-0.4848519109979244
 21
-2.288962386016197
  0
LINE
  8
0
  6
CONTINUOUS
 62
     7
 10
-2.618119691020909
 20
-1.244863813016195
 11
-0.4848519109978133
 21
-1.244863813016195
  0
LINE
  8
0
  6
CONTINUOUS
 62
     7
 10
0.1052008790108083
 20
-1.244863813016195
 11
0.7147059590024152
 21
-1.244863813016195
  0
ARC
  8
0
  6
CONTINUOUS
 62
     7
 10
-0.1497295418508016
 20
-2.296741434305499
 40
0.2553291697997562
 50
260.2276507403018
 51
3.20253378237362
  0
ARC
  8
0
  6
CONTINUOUS
 62
     7
 10
-0.2364596323305157
 20
-2.303369017142592
 40
0.2488097166952197
 50
176.6805914750927
 51
280.0436627360747
  0
ARC
  8
0
  6
CONTINUOUS
 62
     7
 10
0.7342583995963992
 20
-0.94123671500429
 40
0.2289861044086905
 50
352.1554028463516
 51
94.89828027271655
  0
ARC
  8
0
  6
CONTINUOUS
 62
     7
 10
0.721055228486589
 20
-1.002973012947189
 40
0.2419741151052923
 50
268.4964172624358
 51
7.23707663551204
  0
ARC
  8
0
  6
CONTINUOUS
 62
     7
 10
-0.3512867785425144
 20
2.176743162239397
 40
0.4659264947308728
 50
11.55244956826745
 51
162.6807467088614
  0
LINE
  8
0
  6
CONTINUOUS
 62
     7
 10
8.500000000000007
 20
24.24673610378153
 11
-6.534904812874609
 21
23.98430086408321
  0
ARC
  8
0
  6
CONTINUOUS
 62
     7
 10
-6.500000000000005
 20
21.9846054737704
 40
2.000000000000002
 50
90.9999999999995
 51
180.0
  0
ARC
  8
0
  6
CONTINUOUS
 62
     7
 10
88.9686967797533
 20
18.50000000000091
 40
3.694675541881687
 50
59.99999999993287
 51
179.9999999999861
  0
LINE
  8
0
  6
CONTINUOUS
 62
     7
 10
85.27402123787145
 20
18.50000000000171
 11
84.27417354271452
 21
18.50000000000199
  0
ARC
  8
0
  6
CONTINUOUS
 62
     7
 10
88.9686967797533
 20
18.50000000000091
 40
4.694523237038117
 50
59.99999999993315
 51
179.9999999999854
  0
LINE
  8
0
  6
CONTINUOUS
 62
     7
 10
90.81603455069806
 20
21.69968287800961
 11
91.31595839827708
 21
22.56557638192952
  0
LINE
  8
0
  6
CONTINUOUS
 62
     7
 10
90.41869677974348
 20
-18.75326389622409
 11
120.5186967797436
 21
-18.75326389624909
  0
ARC
  8
0
  6
CONTINUOUS
 62
     7
 10
120.5186967797442
 20
-18.05000000002888
 40
0.7032638962202742
 50
269.9999999999511
 51
359.9999999999853
  0
LINE
  8
0
  6
CONTINUOUS
 62
     7
 10
121.2219606759645
 20
-18.05000000002899
 11
121.2219606759729
 21
14.124925597186
  0
ARC
  8
0
  6
CONTINUOUS
 62
     7
 10
120.5186967797527
 20
14.12492559718609
 40
0.7032638962202742
 50
359.9999999999881
 51
90.0
  0
LINE
  8
0
  6
CONTINUOUS
 62
     7
 10
120.5186967797527
 20
14.8281894934065
 11
116.6024681037801
 21
14.8281894934065
  0
ARC
  8
0
  6
CONTINUOUS
 62
     7
 10
116.6024681037801
 20
17.32492559718621
 40
2.496736103779651
 50
209.9999999999659
 51
270.0
  0
LINE
  8
0
  6
CONTINUOUS
 62
     7
 10
114.4402312113603
 20
16.0765575452976
 11
113.6479662382801
 21
17.44880073173161
  0
ARC
  8
0
  6
CONTINUOUS
 62
     7
 10
115.8102031306998
 20
18.69716878362021
 40
2.496736103779762
 50
119.9999999999625
 51
209.9999999999656
  0
LINE
  8
0
  6
CONTINUOUS
 62
     7
 10
114.5618350788114
 20
20.85940567604
 11
119.0953287278667
 21
23.4768194546876
  0
ARC
  8
0
  6
CONTINUOUS
 62
     7
 10
121.9686967797534
 20
18.49999999996701
 40
5.746736103780125
 50
359.9999999999855
 51
119.9999999999618
  0
LINE
  8
0
  6
CONTINUOUS
 62
     7
 10
127.7154328835336
 20
18.4999999999656
 11
127.7154328835238
 21
-18.50000000003188
  0
ARC
  8
0
  6
CONTINUOUS
 62
     7
 10
120.9686967797441
 20
-18.50000000003022
 40
6.746736103782347
 50
269.9999999999525
 51
359.9999999999855
  0
LINE
  8
0
  6
CONTINUOUS
 62
     7
 10
120.9686967797384
 20
-25.24673610381259
 11
89.96869677973648
 21
-25.24673610378309
  0
ARC
  8
0
  6
CONTINUOUS
 62
     7
 10
89.96869677974203
 20
-18.50000000000349
 40
6.746736103783624
 50
179.9999999999857
 51
269.9999999999525
  0
LINE
  8
0
  6
CONTINUOUS
 62
     7
 10
83.22196067595836
 20
-18.50000000000179
 11
83.22196067597379
 21
18.50000000000229
  0
ARC
  8
0
  6
CONTINUOUS
 62
     7
 10
88.9686967797533
 20
18.50000000000091
 40
5.74673610378068
 50
59.99999999993268
 51
179.9999999999856
  0
LINE
  8
0
  6
CONTINUOUS
 62
     7
 10
91.84206483164938
 20
23.47681945471669
 11
96.37555848069992
 21
20.85940567605932
  0
ARC
  8
0
  6
CONTINUOUS
 62
     7
 10
95.1271904288076
 20
18.69716878364169
 40
2.496736103779595
 50
329.9999999999421
 51
59.99999999993327
  0
LINE
  8
0
  6
CONTINUOUS
 62
     7
 10
97.28942732122522
 20
17.4488007317497
 11
96.49716234812969
 21
16.07655754529411
  0
ARC
  8
0
  6
CONTINUOUS
 62
     7
 10
94.33492545571201
 20
17.32492559718621
 40
2.496736103779651
 50
270.0
 51
329.9999999999416
  0
LINE
  8
0
  6
CONTINUOUS
 62
     7
 10
94.33492545571201
 20
14.8281894934065
 11
90.41869677975176
 21
14.8281894934065
  0
ARC
  8
0
  6
CONTINUOUS
 62
     7
 10
90.41869677975176
 20
14.12492559718609
 40
0.7032638962203297
 50
90.0
 51
179.9999999999836
  0
LINE
  8
0
  6
CONTINUOUS
 62
     7
 10
89.71543288353148
 20
14.12492559718628
 11
89.71543288352382
 21
-18.05000000000359
  0
ARC
  8
0
  6
CONTINUOUS
 62
     7
 10
90.4186967797441
 20
-18.05000000000378
 40
0.7032638962203297
 50
179.9999999999853
 51
269.9999999999511
  0
ARC
  8
0
  6
CONTINUOUS
 62
     7
 10
121.9686967797534
 20
18.49999999996701
 40
4.694523237039117
 50
359.9999999999853
 51
119.9999999999617
  0
LINE
  8
0
  6
CONTINUOUS
 62
     7
 10
115.0879415121812
 20
19.9481626032533
 11
119.6214351612365
 21
22.56557638190093
  0
ARC
  8
0
  6
CONTINUOUS
 62
     7
 10
115.8102031306998
 20
18.69716878362021
 40
1.444523237038919
 50
119.9999999999624
 51
209.9999999999667
  0
LINE
  8
0
  6
CONTINUOUS
 62
     7
 10
115.3514742841469
 20
16.60266397866742
 11
114.5592093110668
 21
17.97490716510153
  0
ARC
  8
0
  6
CONTINUOUS
 62
     7
 10
116.6024681037801
 20
17.32492559718621
 40
1.444523237038919
 50
209.9999999999664
 51
269.9999999999984
  0
LINE
  8
0
  6
CONTINUOUS
 62
     7
 10
122.0186967797531
 20
15.8804023601472
 11
116.60246810378
 21
15.8804023601472
  0
ARC
  8
0
  6
CONTINUOUS
 62
     7
 10
122.0186967797531
 20
15.62492559718609
 40
0.2554767629610599
 50
359.999999999989
 51
90.0
  0
LINE
  8
0
  6
CONTINUOUS
 62
     7
 10
122.2741735427051
 20
-18.50000000002958
 11
122.274173542714
 21
15.62492559718609
  0
ARC
  8
0
  6
CONTINUOUS
 62
     7
 10
120.9686967797429
 20
-18.50000000002919
 40
1.305476762962166
 50
269.9999999999516
 51
359.9999999999849
  0
LINE
  8
0
  6
CONTINUOUS
 62
     7
 10
89.96869677974331
 20
-19.80547676296437
 11
120.9686967797418
 21
-19.8054767629903
  0
ARC
  8
0
  6
CONTINUOUS
 62
     7
 10
89.96869677974425
 20
-18.5000000000026
 40
1.305476762961832
 50
179.9999999999864
 51
269.999999999954
  0
LINE
  8
0
  6
CONTINUOUS
 62
     7
 10
88.66322001679114
 20
15.6249255971862
 11
88.66322001678287
 21
-18.50000000000238
  0
ARC
  8
0
  6
CONTINUOUS
 62
     7
 10
88.91869677975214
 20
15.62492559718609
 40
0.2554767629610599
 50
90.0
 51
179.9999999999766
  0
LINE
  8
0
  6
CONTINUOUS
 62
     7
 10
94.33492545571201
 20
15.8804023601472
 11
88.91869677975214
 21
15.8804023601472
  0
ARC
  8
0
  6
CONTINUOUS
 62
     7
 10
94.33492545571201
 20
17.32492559718621
 40
1.444523237038919
 50
270.0
 51
329.9999999999397
  0
LINE
  8
0
  6
CONTINUOUS
 62
     7
 10
96.3781842484395
 20
17.9749071651209
 11
95.5859192753439
 21
16.60266397866539
  0
ARC
  8
0
  6
CONTINUOUS
 62
     7
 10
95.1271904288076
 20
18.69716878364169
 40
1.444523237038919
 50
329.9999999999415
 51
59.99999999993355
  0
LINE
  8
0
  6
CONTINUOUS
 62
     7
 10
91.31595839827708
 20
22.56557638192952
 11
95.8494520473285
 21
19.94816260327348
  0
LINE
  8
0
  6
CONTINUOUS
 62
     7
 10
84.2741735427052
 20
-18.50000000000199
 11
84.27417354271452
 21
18.50000000000199
  0
ARC
  8
0
  6
CONTINUOUS
 62
     7
 10
89.96869677974203
 20
-18.50000000000349
 40
5.694523237036786
 50
179.9999999999857
 51
269.9999999999523
  0
LINE
  8
0
  6
CONTINUOUS
 62
     7
 10
120.9686967797393
 20
-24.19452323706822
 11
89.96869677973731
 21
-24.1945232370423
  0
ARC
  8
0
  6
CONTINUOUS
 62
     7
 10
120.9686967797441
 20
-18.50000000003022
 40
5.694523237037785
 50
269.9999999999527
 51
359.9999999999857
  0
LINE
  8
0
  6
CONTINUOUS
 62
     7
 10
126.6632200167925
 20
18.49999999996582
 11
126.6632200167832
 21
-18.50000000003169
  0
ARC
  8
0
  6
CONTINUOUS
 62
     7
 10
89.96869677974203
 20
-18.50000000000349
 40
4.694675541880411
 50
179.9999999999856
 51
269.9999999999524
  0
LINE
  8
0
  6
CONTINUOUS
 62
     7
 10
89.9686967797381
 20
-23.1946755418839
 11
89.96869677973714
 21
-24.1945232370423
  0
LINE
  8
0
  6
CONTINUOUS
 62
     7
 10
85.27402123786156
 20
-18.50000000000229
 11
84.2741735427052
 21
-18.50000000000199
  0
LINE
  8
0
  6
CONTINUOUS
 62
     7
 10
85.27402123787101
 20
18.50000000000171
 11
85.27402123786156
 21
-18.50000000000229
  0
LINE
  8
0
  6
CONTINUOUS
 62
     7
 10
95.34952819974926
 20
19.08226909935332
 11
90.81603455069789
 21
21.69968287800927
  0
LINE
  8
0
  6
CONTINUOUS
 62
     7
 10
95.34952819974926
 20
19.0822690993534
 11
95.8494520473285
 21
19.94816260327348
  0
ARC
  8
0
  6
CONTINUOUS
 62
     7
 10
88.91869677975214
 20
15.62492559718609
 40
1.255324458117435
 50
90.0
 51
179.9999999999839
  0
LINE
  8
0
  6
CONTINUOUS
 62
     7
 10
88.91869677975214
 20
16.88025005530361
 11
88.91869677975214
 21
15.8804023601472
  0
LINE
  8
0
  6
CONTINUOUS
 62
     7
 10
87.66337232163471
 20
15.62492559718648
 11
88.66322001679114
 21
15.6249255971862
  0
LINE
  8
0
  6
CONTINUOUS
 62
     7
 10
87.6633723216265
 20
-18.5000000000021
 11
87.66337232163477
 21
15.62492559718648
  0
LINE
  8
0
  6
CONTINUOUS
 62
     7
 10
87.66337232162621
 20
-18.5000000000021
 11
88.66322001678287
 21
-18.50000000000238
  0
LINE
  8
0
  6
CONTINUOUS
 62
     7
 10
89.96869677974331
 20
-19.80547676296437
 11
89.96869677974242
 21
-20.8053244581208
  0
ARC
  8
0
  6
CONTINUOUS
 62
     7
 10
89.96869677974425
 20
-18.5000000000026
 40
2.305324458118208
 50
179.9999999999864
 51
269.9999999999528
  0
LINE
  8
0
  6
CONTINUOUS
 62
     7
 10
88.91869677975214
 20
16.88025005530361
 11
94.33492545571201
 21
16.88025005530361
  0
LINE
  8
0
  6
CONTINUOUS
 62
     7
 10
94.33492545571201
 20
16.88025005530361
 11
94.33492545571201
 21
15.8804023601472
  0
LINE
  8
0
  6
CONTINUOUS
 62
     7
 10
120.9686967797418
 20
-19.8054767629903
 11
120.968696779741
 21
-20.80532445814667
  0
LINE
  8
0
  6
CONTINUOUS
 62
     7
 10
120.968696779741
 20
-20.80532445814667
 11
89.96869677974253
 21
-20.8053244581208
  0
LINE
  8
0
  6
CONTINUOUS
 62
     7
 10
89.9686967797381
 20
-23.19467554188601
 11
120.96869677974
 21
-23.1946755419116
  0
LINE
  8
0
  6
CONTINUOUS
 62
     7
 10
120.96869677974
 20
-23.19467554191182
 11
120.9686967797393
 21
-24.19452323706822
  0
ARC
  8
0
  6
CONTINUOUS
 62
     7
 10
94.33492545571201
 20
17.32492559718621
 40
0.4446755418825443
 50
270.0
 51
329.9999999999382
  0
LINE
  8
0
  6
CONTINUOUS
 62
     7
 10
94.72002577142372
 20
17.10258782624449
 11
95.5859192753439
 21
16.60266397866539
  0
LINE
  8
0
  6
CONTINUOUS
 62
     7
 10
94.72002577142372
 20
17.10258782624449
 11
95.5122907445193
 21
18.4748310127
  0
LINE
  8
0
  6
CONTINUOUS
 62
     7
 10
95.5122907445193
 20
18.4748310127
 11
96.3781842484395
 21
17.9749071651209
  0
ARC
  8
0
  6
CONTINUOUS
 62
     7
 10
95.1271904288076
 20
18.69716878364169
 40
0.4446755418825443
 50
329.999999999943
 51
59.99999999993418
  0
LINE
  8
0
  6
CONTINUOUS
 62
     7
 10
115.0879415121812
 20
19.9481626032533
 11
115.5878653597588
 21
19.0822690993323
  0
ARC
  8
0
  6
CONTINUOUS
 62
     7
 10
115.8102031306998
 20
18.69716878362021
 40
0.4446755418825443
 50
119.9999999999643
 51
209.9999999999667
  0
LINE
  8
0
  6
CONTINUOUS
 62
     7
 10
114.5592093110668
 20
17.97490716510153
 11
115.4251028149878
 21
18.4748310126791
  0
LINE
  8
0
  6
CONTINUOUS
 62
     7
 10
115.4251028149878
 20
18.4748310126791
 11
116.217367788068
 21
17.1025878262451
  0
LINE
  8
0
  6
CONTINUOUS
 62
     7
 10
115.3514742841469
 20
16.60266397866742
 11
116.217367788068
 21
17.1025878262451
  0
LINE
  8
0
  6
CONTINUOUS
 62
     7
 10
119.6214351612365
 20
22.56557638190093
 11
120.1213590088141
 21
21.6996828779798
  0
LINE
  8
0
  6
CONTINUOUS
 62
     7
 10
120.1213590088141
 20
21.6996828779798
 11
115.5878653597588
 21
19.0822690993323
  0
ARC
  8
0
  6
CONTINUOUS
 62
     7
 10
116.6024681037801
 20
17.32492559718621
 40
0.4446755418825443
 50
209.9999999999659
 51
269.9999999999976
  0
LINE
  8
0
  6
CONTINUOUS
 62
     7
 10
116.60246810378
 20
15.8804023601472
 11
116.6024681037801
 21
16.88025005530361
  0
LINE
  8
0
  6
CONTINUOUS
 62
     7
 10
126.6632200167925
 20
18.49999999996582
 11
125.6633723216361
 21
18.49999999996601
  0
ARC
  8
0
  6
CONTINUOUS
 62
     7
 10
121.9686967797534
 20
18.49999999996701
 40
3.694675541882741
 50
359.9999999999853
 51
119.9999999999618
  0
LINE
  8
0
  6
CONTINUOUS
 62
     7
 10
116.6024681037801
 20
16.88025005530361
 11
122.0186967797531
 21
16.88025005530361
  0
LINE
  8
0
  6
CONTINUOUS
 62
     7
 10
122.0186967797531
 20
15.8804023601472
 11
122.0186967797531
 21
16.88025005530361
  0
LINE
  8
0
  6
CONTINUOUS
 62
     7
 10
122.2741735427051
 20
-18.50000000002958
 11
123.2740212378614
 21
-18.5000000000298
  0
ARC
  8
0
  6
CONTINUOUS
 62
     7
 10
120.9686967797429
 20
-18.50000000002919
 40
2.305324458118541
 50
269.9999999999515
 51
359.9999999999847
  0
ARC
  8
0
  6
CONTINUOUS
 62
     7
 10
120.9686967797441
 20
-18.50000000003022
 40
4.69467554188141
 50
269.9999999999505
 51
359.9999999999855
  0
LINE
  8
0
  6
CONTINUOUS
 62
     7
 10
126.6632200167832
 20
-18.5000000000316
 11
125.6633723216268
 21
-18.50000000003141
  0
ARC
  8
0
  6
CONTINUOUS
 62
     7
 10
122.0186967797531
 20
15.62492559718609
 40
1.255324458117435
 50
359.9999999999863
 51
90.0
  0
LINE
  8
0
  6
CONTINUOUS
 62
     7
 10
122.274173542714
 20
15.62492559718609
 11
123.2740212378705
 21
15.62492559718581
  0
LINE
  8
0
  6
CONTINUOUS
 62
     7
 10
123.2740212378705
 20
15.62492559718581
 11
123.2740212378614
 21
-18.5000000000298
  0
LINE
  8
0
  6
CONTINUOUS
 62
     7
 10
125.6633723216268
 20
-18.50000000003141
 11
125.6633723216361
 21
18.49999999996601
  0
LINE
  8
0
  6
CONTINUOUS
 62
     7
 10
120.9686967797404
 20
-22.95000000002909
 11
89.96869677973837
 21
-22.95000000000341
  0
LINE
  8
0
  6
CONTINUOUS
 62
     7
 10
120.96869677974
 20
-23.1946755419116
 11
120.9686967797404
 21
-22.95000000002909
  0
LINE
  8
0
  6
CONTINUOUS
 62
     7
 10
89.9686967797381
 20
-23.19467554188601
 11
89.96869677973837
 21
-22.95000000000341
  0
ARC
  8
0
  6
CONTINUOUS
 62
     7
 10
88.9686967797533
 20
18.50000000000091
 40
3.449999999999176
 50
59.99999999993287
 51
179.9999999999859
  0
LINE
  8
0
  6
CONTINUOUS
 62
     7
 10
85.27402123787101
 20
18.50000000000171
 11
85.51869677975351
 21
18.50000000000171
  0
LINE
  8
0
  6
CONTINUOUS
 62
     7
 10
90.81603455069789
 20
21.69968287800927
 11
90.69369677975628
 21
21.48778764305437
  0
ARC
  8
0
  6
CONTINUOUS
 62
     7
 10
89.96869677974203
 20
-18.50000000000349
 40
4.449999999997845
 50
179.9999999999856
 51
269.9999999999524
  0
LINE
  8
0
  6
CONTINUOUS
 62
     7
 10
85.27402123786156
 20
-18.50000000000229
 11
85.51869677974419
 21
-18.50000000000229
  0
LINE
  8
0
  6
CONTINUOUS
 62
     7
 10
85.51869677974419
 20
-18.50000000000229
 11
85.51869677975351
 21
18.50000000000171
  0
LINE
  8
0
  6
CONTINUOUS
 62
     7
 10
87.41869677975214
 20
15.62492559718648
 11
87.41869677974398
 21
-18.50000000000199
  0
LINE
  8
0
  6
CONTINUOUS
 62
     7
 10
87.66337232163477
 20
15.62492559718648
 11
87.4186967797522
 21
15.62492559718648
  0
LINE
  8
0
  6
CONTINUOUS
 62
     7
 10
87.6633723216265
 20
-18.5000000000021
 11
87.41869677974398
 21
-18.50000000000199
  0
ARC
  8
0
  6
CONTINUOUS
 62
     7
 10
89.96869677974425
 20
-18.5000000000026
 40
2.550000000000718
 50
179.9999999999863
 51
269.9999999999528
  0
LINE
  8
0
  6
CONTINUOUS
 62
     7
 10
89.96869677974253
 20
-20.8053244581208
 11
89.9686967797422
 21
-21.0500000000034
  0
ARC
  8
0
  6
CONTINUOUS
 62
     7
 10
88.91869677975214
 20
15.62492559718609
 40
1.500000000000001
 50
90.0
 51
179.9999999999847
  0
LINE
  8
0
  6
CONTINUOUS
 62
     7
 10
88.91869677975214
 20
16.88025005530361
 11
88.91869677975214
 21
17.1249255971862
  0
LINE
  8
0
  6
CONTINUOUS
 62
     7
 10
94.33492545571201
 20
17.1249255971862
 11
88.91869677975214
 21
17.1249255971862
  0
LINE
  8
0
  6
CONTINUOUS
 62
     7
 10
94.33492545571201
 20
16.88025005530361
 11
94.33492545571201
 21
17.1249255971862
  0
LINE
  8
0
  6
CONTINUOUS
 62
     7
 10
89.9686967797422
 20
-21.0500000000034
 11
120.9686967797408
 21
-21.05000000002921
  0
LINE
  8
0
  6
CONTINUOUS
 62
     7
 10
120.968696779741
 20
-20.80532445814667
 11
120.9686967797408
 21
-21.05000000002921
  0
LINE
  8
0
  6
CONTINUOUS
 62
     7
 10
90.6936967797564
 20
21.48778764305437
 11
95.22719042880776
 21
18.87037386439849
  0
LINE
  8
0
  6
CONTINUOUS
 62
     7
 10
95.34952819974926
 20
19.08226909935332
 11
95.22719042880776
 21
18.87037386439849
  0
ARC
  8
0
  6
CONTINUOUS
 62
     7
 10
94.33492545571201
 20
17.32492559718621
 40
0.199999999999978
 50
270.0
 51
329.9999999999354
  0
LINE
  8
0
  6
CONTINUOUS
 62
     7
 10
94.72002577142372
 20
17.10258782624449
 11
94.50813053646881
 21
17.224925597186
  0
LINE
  8
0
  6
CONTINUOUS
 62
     7
 10
95.30039550956428
 20
18.59716878364151
 11
94.50813053646881
 21
17.224925597186
  0
LINE
  8
0
  6
CONTINUOUS
 62
     7
 10
95.5122907445193
 20
18.4748310127
 11
95.30039550956428
 21
18.59716878364151
  0
ARC
  8
0
  6
CONTINUOUS
 62
     7
 10
95.1271904288076
 20
18.69716878364169
 40
0.199999999999978
 50
329.9999999999478
 51
59.99999999993765
  0
ARC
  8
0
  6
CONTINUOUS
 62
     7
 10
120.9686967797441
 20
-18.50000000003022
 40
4.449999999998844
 50
269.9999999999524
 51
359.9999999999857
  0
LINE
  8
0
  6
CONTINUOUS
 62
     7
 10
125.6633723216268
 20
-18.50000000003141
 11
125.4186967797442
 21
-18.5000000000313
  0
LINE
  8
0
  6
CONTINUOUS
 62
     7
 10
115.7102031306999
 20
18.87037386437712
 11
120.2436967797552
 21
21.48778764302467
  0
LINE
  8
0
  6
CONTINUOUS
 62
     7
 10
115.5878653597588
 20
19.0822690993323
 11
115.7102031306999
 21
18.87037386437712
  0
LINE
  8
0
  6
CONTINUOUS
 62
     7
 10
120.1213590088141
 20
21.6996828779798
 11
120.2436967797552
 21
21.48778764302467
  0
ARC
  8
0
  6
CONTINUOUS
 62
     7
 10
116.6024681037801
 20
17.32492559718621
 40
0.199999999999978
 50
209.9999999999676
 51
269.9999999999945
  0
LINE
  8
0
  6
CONTINUOUS
 62
     7
 10
116.6024681037801
 20
16.88025005530361
 11
116.6024681037801
 21
17.1249255971862
  0
LINE
  8
0
  6
CONTINUOUS
 62
     7
 10
116.217367788068
 20
17.1025878262451
 11
116.4292630230231
 21
17.2249255971863
  0
ARC
  8
0
  6
CONTINUOUS
 62
     7
 10
115.8102031306998
 20
18.69716878362021
 40
0.199999999999978
 50
119.9999999999666
 51
209.9999999999691
  0
LINE
  8
0
  6
CONTINUOUS
 62
     7
 10
115.4251028149878
 20
18.4748310126791
 11
115.6369980499429
 21
18.5971687836203
  0
LINE
  8
0
  6
CONTINUOUS
 62
     7
 10
116.4292630230231
 20
17.2249255971863
 11
115.6369980499429
 21
18.5971687836203
  0
LINE
  8
0
  6
CONTINUOUS
 62
     7
 10
122.0186967797531
 20
17.1249255971862
 11
116.6024681037801
 21
17.1249255971862
  0
LINE
  8
0
  6
CONTINUOUS
 62
     7
 10
122.0186967797531
 20
16.88025005530361
 11
122.0186967797531
 21
17.1249255971862
  0
ARC
  8
0
  6
CONTINUOUS
 62
     7
 10
121.9686967797534
 20
18.49999999996701
 40
3.450000000000175
 50
359.9999999999859
 51
119.9999999999617
  0
LINE
  8
0
  6
CONTINUOUS
 62
     7
 10
125.6633723216361
 20
18.49999999996601
 11
125.4186967797535
 21
18.4999999999661
  0
ARC
  8
0
  6
CONTINUOUS
 62
     7
 10
122.0186967797531
 20
15.62492559718609
 40
1.500000000000001
 50
359.9999999999849
 51
90.0
  0
LINE
  8
0
  6
CONTINUOUS
 62
     7
 10
123.2740212378705
 20
15.62492559718581
 11
123.518696779753
 21
15.6249255971857
  0
ARC
  8
0
  6
CONTINUOUS
 62
     7
 10
120.9686967797429
 20
-18.50000000002919
 40
2.550000000001051
 50
269.9999999999516
 51
359.9999999999849
  0
LINE
  8
0
  6
CONTINUOUS
 62
     7
 10
123.2740212378614
 20
-18.5000000000298
 11
123.518696779744
 21
-18.50000000002991
  0
LINE
  8
0
  6
CONTINUOUS
 62
     7
 10
123.518696779744
 20
-18.50000000002991
 11
123.518696779753
 21
15.6249255971857
  0
LINE
  8
0
  6
CONTINUOUS
 62
     7
 10
125.4186967797535
 20
18.4999999999661
 11
125.4186967797442
 21
-18.5000000000313
  0
ENDSEC
  0
EOF
