  0
SECTION
  2
HEADER
  9
$ACADVER
  1
AC1004
  9
$INSBASE
 10
0.0
 20
0.0
  9
$EXTMIN
 10
-128.4018810284752
 20
-17.74673610381344
  9
$EXTMAX
 10
337.5712021014282
 20
241.6405734290716
  9
$LIMMIN
 10
0.0
 20
0.0
  9
$LIMMAX
 10
12.0
 20
9.0
  9
$ORTHOMODE
 70
     0
  9
$REGENMODE
 70
     1
  9
$FILLMODE
 70
     1
  9
$QTEXTMODE
 70
     0
  9
$DRAGMODE
 70
     2
  9
$LTSCALE
 40
1.0
  9
$OSMODE
 70
    37
  9
$ATTMODE
 70
     1
  9
$TEXTSIZE
 40
0.2
  9
$TRACEWID
 40
0.05
  9
$TEXTSTYLE
  7
STANDARD
  9
$CLAYER
  8
0
  9
$CELTYPE
  6
BYLAYER
  9
$CECOLOR
 62
   256
  9
$DIMSCALE
 40
1.0
  9
$DIMASZ
 40
2.5
  9
$DIMEXO
 40
0.0625
  9
$DIMDLI
 40
0.38
  9
$DIMRND
 40
0.0
  9
$DIMDLE
 40
0.0
  9
$DIMEXE
 40
1.25
  9
$DIMTP
 40
0.0
  9
$DIMTM
 40
0.0
  9
$DIMTXT
 40
4.0
  9
$DIMCEN
 40
0.09
  9
$DIMTSZ
 40
0.0
  9
$DIMTOL
 70
     0
  9
$DIMLIM
 70
     0
  9
$DIMTIH
 70
     1
  9
$DIMTOH
 70
     1
  9
$DIMSE1
 70
     0
  9
$DIMSE2
 70
     0
  9
$DIMTAD
 70
     1
  9
$DIMZIN
 70
     0
  9
$DIMBLK
  1

  9
$DIMASO
 70
     1
  9
$DIMSHO
 70
     1
  9
$DIMPOST
  1

  9
$DIMAPOST
  1

  9
$DIMALT
 70
     0
  9
$DIMALTD
 70
     2
  9
$DIMALTF
 40
25.4
  9
$DIMLFAC
 40
1.0
  9
$DIMTOFL
 70
     0
  9
$DIMTVP
 40
0.0
  9
$DIMTIX
 70
     0
  9
$DIMSOXD
 70
     0
  9
$DIMSAH
 70
     0
  9
$DIMBLK1
  1

  9
$DIMBLK2
  1

  9
$LUNITS
 70
     2
  9
$LUPREC
 70
     4
  9
$SKETCHINC
 40
0.1
  9
$FILLETRAD
 40
0.0
  9
$AUNITS
 70
     0
  9
$AUPREC
 70
     0
  9
$MENU
  1
.
  9
$ELEVATION
 40
0.0
  9
$THICKNESS
 40
0.0
  9
$LIMCHECK
 70
     0
  9
$CHAMFERA
 40
0.0
  9
$CHAMFERB
 40
0.0
  9
$SKPOLY
 70
     0
  9
$TDCREATE
 40
2460103.845969907
  9
$TDUPDATE
 40
2460103.845970104
  9
$TDINDWG
 40
0.0000000116
  9
$TDUSRTIMER
 40
0.0000000116
  9
$USRTIMER
 70
     1
  9
$ANGBASE
 50
0.0
  9
$ANGDIR
 70
     0
  9
$PDMODE
 70
     0
  9
$PDSIZE
 40
0.0
  9
$PLINEWID
 40
0.0
  9
$COORDS
 70
     1
  9
$SPLFRAME
 70
     0
  9
$SPLINETYPE
 70
     6
  9
$SPLINESEGS
 70
     8
  9
$ATTDIA
 70
     0
  9
$ATTREQ
 70
     1
  9
$SURFTAB1
 70
     6
  9
$SURFTAB2
 70
     6
  9
$SURFTYPE
 70
     6
  9
$SURFU
 70
     6
  9
$SURFV
 70
     6
  9
$UCSNAME
  2

  9
$UCSORG
 10
0.0
 20
0.0
 30
0.0
  9
$UCSXDIR
 10
1.0
 20
0.0
 30
0.0
  9
$UCSYDIR
 10
0.0
 20
1.0
 30
0.0
  9
$USERI1
 70
     0
  9
$USERI2
 70
     0
  9
$USERI3
 70
     0
  9
$USERI4
 70
     0
  9
$USERI5
 70
     0
  9
$USERR1
 40
0.0
  9
$USERR2
 40
0.0
  9
$USERR3
 40
0.0
  9
$USERR4
 40
0.0
  9
$USERR5
 40
0.0
  9
$WORLDVIEW
 70
     1
  0
ENDSEC
  0
SECTION
  2
TABLES
  0
TABLE
  2
LTYPE
 70
     1
  0
LTYPE
  2
CONTINUOUS
 70
     0
  3
Solid line
 72
    65
 73
     0
 40
0.0
  0
ENDTAB
  0
TABLE
  2
LAYER
 70
     1
  0
LAYER
  2
0
 70
     0
 62
     7
  6
CONTINUOUS
  0
ENDTAB
  0
TABLE
  2
STYLE
 70
     2
  0
STYLE
  2
STANDARD
 70
     0
 40
0.0
 41
1.0
 50
0.0
 71
     0
 42
0.2
  3
txt
  4

  0
STYLE
  2
HG丸ｺﾞｼｯｸM-PRO
 70
     0
 40
0.0
 41
1.0
 50
0.0
 71
     0
 42
0.2
  3
HGRSMP.TTF
  4

  0
ENDTAB
  0
TABLE
  2
VIEW
 70
     0
  0
ENDTAB
  0
ENDSEC
  0
SECTION
  2
BLOCKS
  0
ENDSEC
  0
SECTION
  2
ENTITIES
  0
ARC
  8
0
  6
CONTINUOUS
 62
     7
 10
-121.2051449246856
 20
-10.55000000002962
 40
0.9656991359185962
 50
180.0000000000267
 51
270.0000000000475
  0
LINE
  8
0
  6
CONTINUOUS
 62
     7
 10
-121.2051449246848
 20
-11.51569913594821
 11
-121.2051449246832
 21
-13.51539452626102
  0
ARC
  8
0
  6
CONTINUOUS
 62
     7
 10
-121.2051449246856
 20
-10.55000000002962
 40
2.965394526231402
 50
180.0000000000267
 51
270.0000000000473
  0
LINE
  8
0
  6
CONTINUOUS
 62
     7
 10
-122.1708440606042
 20
-10.55000000003004
 11
-124.170539450917
 21
-10.55000000003092
  0
LINE
  8
0
  6
CONTINUOUS
 62
     7
 10
-95.02137360065343
 20
9.590320123416761
 11
-91.10514492469353
 21
9.59032012341668
  0
LINE
  8
0
  6
CONTINUOUS
 62
     7
 10
-91.10514492469353
 20
9.59032012341668
 11
-91.10514492469353
 21
7.590624733103874
  0
LINE
  8
0
  6
CONTINUOUS
 62
     7
 10
-91.10514492469353
 20
7.590624733103985
 11
-95.02137360065343
 21
7.590624733103985
  0
LINE
  8
0
  6
CONTINUOUS
 62
     7
 10
-95.02137360065343
 20
9.590320123416761
 11
-95.02137360065343
 21
7.590624733103985
  0
LINE
  8
0
  6
CONTINUOUS
 62
     7
 10
-121.2051449246848
 20
-11.51569913594821
 11
-91.10514492468484
 21
-11.51569913592312
  0
LINE
  8
0
  6
CONTINUOUS
 62
     7
 10
-91.10514492468484
 20
-11.51569913592312
 11
-91.10514492468313
 21
-13.51539452623593
  0
LINE
  8
0
  6
CONTINUOUS
 62
     7
 10
-91.10514492468313
 20
-13.51539452623593
 11
-121.2051449246832
 21
-13.51539452626102
  0
ARC
  8
0
  6
CONTINUOUS
 62
     7
 10
-91.10514492469353
 20
6.624925597185388
 40
2.965394526231374
 50
0.0000000000260343
 51
90.0
  0
LINE
  8
0
  6
CONTINUOUS
 62
     7
 10
-88.13975039846224
 20
6.624925597186692
 11
-90.13944578877503
 21
6.624925597185777
  0
ARC
  8
0
  6
CONTINUOUS
 62
     7
 10
-91.10514492469353
 20
6.624925597185388
 40
0.9656991359185962
 50
0.000000000026554
 51
90.00000000000001
  0
ARC
  8
0
  6
CONTINUOUS
 62
     7
 10
-91.10514492468563
 20
-10.5500000000045
 40
0.9656991359185962
 50
270.0000000000475
 51
0.0000000000266027
  0
LINE
  8
0
  6
CONTINUOUS
 62
     7
 10
-90.13944578876703
 20
-10.55000000000411
 11
-88.13975039845424
 21
-10.55000000000322
  0
ARC
  8
0
  6
CONTINUOUS
 62
     7
 10
-91.10514492468563
 20
-10.5500000000045
 40
2.965394526231374
 50
270.0000000000483
 51
0.0000000000266596
  0
LINE
  8
0
  6
CONTINUOUS
 62
     7
 10
-88.13975039846224
 20
6.624925597186692
 11
-88.13975039845424
 21
-10.55000000000322
  0
LINE
  8
0
  6
CONTINUOUS
 62
     7
 10
-90.13944578876703
 20
-10.55000000000411
 11
-90.13944578877494
 21
6.624925597185777
  0
ARC
  8
0
  6
CONTINUOUS
 62
     7
 10
-122.6551449246951
 20
10.99999999996617
 40
5.484300864081831
 50
60.00000000003547
 51
180.0000000000256
  0
LINE
  8
0
  6
CONTINUOUS
 62
     7
 10
-119.9129944926571
 20
15.74954387025979
 11
-120.9128421878125
 21
14.01775686241749
  0
ARC
  8
0
  6
CONTINUOUS
 62
     7
 10
-122.6551449246951
 20
10.99999999996617
 40
3.48460547376904
 50
60.00000000003493
 51
180.0000000000255
  0
LINE
  8
0
  6
CONTINUOUS
 62
     7
 10
-128.1394457887768
 20
10.99999999996379
 11
-126.1397503984642
 21
10.9999999999647
  0
LINE
  8
0
  6
CONTINUOUS
 62
     7
 10
-121.6551449246818
 20
-15.48460547380231
 11
-90.65514492467953
 21
-15.48460547377281
  0
LINE
  8
0
  6
CONTINUOUS
 62
     7
 10
-90.65514492467953
 20
-15.48460547377281
 11
-90.65514492467784
 21
-17.48430086408561
  0
LINE
  8
0
  6
CONTINUOUS
 62
     7
 10
-90.65514492467784
 20
-17.48430086408561
 11
-121.6551449246801
 21
-17.48430086411512
  0
LINE
  8
0
  6
CONTINUOUS
 62
     7
 10
-121.6551449246818
 20
-15.48460547380231
 11
-121.6551449246801
 21
-17.48430086411512
  0
LINE
  8
0
  6
CONTINUOUS
 62
     7
 10
-119.9129944926572
 20
15.74954387025968
 11
-115.3795008436022
 21
13.13213009161218
  0
LINE
  8
0
  6
CONTINUOUS
 62
     7
 10
-115.3795008436022
 20
13.13213009161207
 11
-116.3793485387575
 21
11.40034308377
  0
LINE
  8
0
  6
CONTINUOUS
 62
     7
 10
-116.3793485387575
 20
11.40034308377
 11
-120.9128421878125
 21
14.01775686241749
  0
ARC
  8
0
  6
CONTINUOUS
 62
     7
 10
-90.65514492468324
 20
-11.0000000000042
 40
4.484605473773939
 50
270.0000000000479
 51
0.0000000000255227
  0
LINE
  8
0
  6
CONTINUOUS
 62
     7
 10
-86.17053945090933
 20
-11.00000000000212
 11
-84.17084406059652
 21
-11.00000000000131
  0
ARC
  8
0
  6
CONTINUOUS
 62
     7
 10
-90.65514492468324
 20
-11.0000000000042
 40
6.484300864086717
 50
270.0000000000477
 51
0.0000000000255227
  0
ARC
  8
0
  6
CONTINUOUS
 62
     7
 10
-116.4966512756417
 20
11.19716878361937
 40
2.234300864081412
 50
330.0000000000341
 51
60.00000000003615
  0
LINE
  8
0
  6
CONTINUOUS
 62
     7
 10
-114.561689967649
 20
10.08001835157979
 11
-116.2934769754911
 21
11.07986604673519
  0
ARC
  8
0
  6
CONTINUOUS
 62
     7
 10
-116.4966512756417
 20
11.19716878361937
 40
0.2346054737686482
 50
330.0000000000329
 51
60.00000000003901
  0
LINE
  8
0
  6
CONTINUOUS
 62
     7
 10
-86.17053945090933
 20
-11.00000000000212
 11
-86.17053945092673
 21
11.00000000000118
  0
LINE
  8
0
  6
CONTINUOUS
 62
     7
 10
-86.17053945092673
 20
11.00000000000118
 11
-84.17084406061403
 21
11.00000000000206
  0
LINE
  8
0
  6
CONTINUOUS
 62
     7
 10
-84.17084406061403
 20
11.00000000000206
 11
-84.17084406059652
 21
-11.00000000000131
  0
LINE
  8
0
  6
CONTINUOUS
 62
     7
 10
-114.561689967649
 20
10.08001835157979
 11
-115.3539549407293
 21
8.707775165145787
  0
LINE
  8
0
  6
CONTINUOUS
 62
     7
 10
-115.3539549407292
 20
8.707775165145787
 11
-117.0857419485714
 21
9.707622860301191
  0
LINE
  8
0
  6
CONTINUOUS
 62
     7
 10
-117.0857419485714
 20
9.707622860301191
 11
-116.2934769754911
 21
11.07986604673519
  0
ARC
  8
0
  6
CONTINUOUS
 62
     7
 10
-89.65514492469582
 20
10.99999999999968
 40
3.484605473769165
 50
0.0000000000254998
 51
120.0000000000718
  0
LINE
  8
0
  6
CONTINUOUS
 62
     7
 10
-91.39744766158414
 20
14.01775686244788
 11
-92.39729535674272
 21
15.74954387028807
  0
ARC
  8
0
  6
CONTINUOUS
 62
     7
 10
-89.65514492469582
 20
10.99999999999968
 40
5.4843008640819
 50
0.0000000000255795
 51
120.000000000072
  0
ARC
  8
0
  6
CONTINUOUS
 62
     7
 10
-117.2889162487219
 20
9.824925597185397
 40
2.234300864081371
 50
270.0000000000005
 51
330.0000000000339
  0
LINE
  8
0
  6
CONTINUOUS
 62
     7
 10
-117.2889162487219
 20
7.590624733103985
 11
-117.2889162487219
 21
9.59032012341668
  0
ARC
  8
0
  6
CONTINUOUS
 62
     7
 10
-117.2889162487219
 20
9.824925597185397
 40
0.2346054737686065
 50
270.0
 51
330.0000000000314
  0
LINE
  8
0
  6
CONTINUOUS
 62
     7
 10
-91.39744766158414
 20
14.01775686244788
 11
-95.93094131063394
 21
11.40034308379129
  0
LINE
  8
0
  6
CONTINUOUS
 62
     7
 10
-95.93094131063394
 20
11.40034308379129
 11
-96.93078900579253
 21
13.13213009163158
  0
LINE
  8
0
  6
CONTINUOUS
 62
     7
 10
-96.93078900579253
 20
13.13213009163158
 11
-92.39729535674272
 21
15.74954387028807
  0
LINE
  8
0
  6
CONTINUOUS
 62
     7
 10
-117.2889162487219
 20
7.590624733103985
 11
-121.2051449246936
 21
7.590624733103985
  0
LINE
  8
0
  6
CONTINUOUS
 62
     7
 10
-121.2051449246936
 20
7.590624733103874
 11
-121.2051449246936
 21
9.59032012341668
  0
LINE
  8
0
  6
CONTINUOUS
 62
     7
 10
-121.2051449246936
 20
9.59032012341668
 11
-117.2889162487219
 21
9.59032012341668
  0
ARC
  8
0
  6
CONTINUOUS
 62
     7
 10
-95.81363857374944
 20
11.19716878364088
 40
0.2346054737685926
 50
120.0000000000704
 51
210.0000000000688
  0
LINE
  8
0
  6
CONTINUOUS
 62
     7
 10
-96.01681287389974
 20
11.0798660467564
 11
-97.74859988174003
 21
10.08001835159789
  0
ARC
  8
0
  6
CONTINUOUS
 62
     7
 10
-95.81363857374944
 20
11.19716878364088
 40
2.234300864081356
 50
120.0000000000714
 51
210.0000000000686
  0
ARC
  8
0
  6
CONTINUOUS
 62
     7
 10
-121.2051449246936
 20
6.624925597185388
 40
0.9656991359185962
 50
90.0
 51
180.0000000000268
  0
LINE
  8
0
  6
CONTINUOUS
 62
     7
 10
-122.1708440606122
 20
6.624925597184888
 11
-124.170539450925
 21
6.624925597183973
  0
ARC
  8
0
  6
CONTINUOUS
 62
     7
 10
-121.2051449246936
 20
6.624925597185388
 40
2.965394526231374
 50
90.0
 51
180.0000000000271
  0
LINE
  8
0
  6
CONTINUOUS
 62
     7
 10
-96.01681287389974
 20
11.0798660467564
 11
-95.22454790080384
 21
9.707622860300773
  0
LINE
  8
0
  6
CONTINUOUS
 62
     7
 10
-95.22454790080384
 20
9.707622860300773
 11
-96.95633490864414
 21
8.707775165142289
  0
LINE
  8
0
  6
CONTINUOUS
 62
     7
 10
-96.95633490864414
 20
8.707775165142289
 11
-97.74859988174003
 21
10.08001835159789
  0
LINE
  8
0
  6
CONTINUOUS
 62
     7
 10
-122.1708440606122
 20
6.624925597184888
 11
-122.1708440606042
 21
-10.55000000003004
  0
LINE
  8
0
  6
CONTINUOUS
 62
     7
 10
-124.170539450917
 20
-10.55000000003092
 11
-124.170539450925
 21
6.624925597183973
  0
ARC
  8
0
  6
CONTINUOUS
 62
     7
 10
-95.02137360065343
 20
9.824925597185397
 40
0.2346054737685926
 50
210.0000000000695
 51
270.0
  0
ARC
  8
0
  6
CONTINUOUS
 62
     7
 10
-95.02137360065343
 20
9.824925597185397
 40
2.234300864081384
 50
210.0000000000698
 51
270.0
  0
ARC
  8
0
  6
CONTINUOUS
 62
     7
 10
-121.6551449246855
 20
-11.00000000003101
 40
4.48460547377133
 50
180.0000000000254
 51
270.0000000000473
  0
ARC
  8
0
  6
CONTINUOUS
 62
     7
 10
-121.6551449246855
 20
-11.00000000003101
 40
6.484300864084136
 50
180.0000000000255
 51
270.0000000000477
  0
LINE
  8
0
  6
CONTINUOUS
 62
     7
 10
-126.1397503984543
 20
-11.00000000003304
 11
-128.139445788767
 21
-11.0000000000339
  0
LINE
  8
0
  6
CONTINUOUS
 62
     7
 10
-126.1397503984642
 20
10.9999999999647
 11
-126.1397503984543
 21
-11.00000000003304
  0
LINE
  8
0
  6
CONTINUOUS
 62
     7
 10
-128.1394457887671
 20
-11.0000000000339
 11
-128.1394457887769
 21
10.99999999996378
  0
ARC
  8
0
  6
CONTINUOUS
 62
     7
 10
-91.10514492469353
 20
6.624925597185388
 40
0.7032638962203019
 50
0.000000000024329
 51
90.0
  0
LINE
  8
0
  6
CONTINUOUS
 62
     7
 10
-91.10514492469353
 20
7.32818949340569
 11
-91.10514492469353
 21
7.590624733103985
  0
LINE
  8
0
  6
CONTINUOUS
 62
     7
 10
-90.40188102847324
 20
6.624925597185693
 11
-90.13944578877494
 21
6.624925597185777
  0
LINE
  8
0
  6
CONTINUOUS
 62
     7
 10
-90.40188102847324
 20
6.624925597185693
 11
-90.40188102846534
 21
-10.55000000000422
  0
LINE
  8
0
  6
CONTINUOUS
 62
     7
 10
-90.40188102846534
 20
-10.55000000000422
 11
-90.13944578876703
 21
-10.55000000000411
  0
LINE
  8
0
  6
CONTINUOUS
 62
     7
 10
-121.9084088209059
 20
-10.55000000002992
 11
-121.9084088209139
 21
6.624925597185083
  0
LINE
  8
0
  6
CONTINUOUS
 62
     7
 10
-121.9084088209059
 20
-10.55000000002992
 11
-122.1708440606042
 21
-10.55000000003004
  0
LINE
  8
0
  6
CONTINUOUS
 62
     7
 10
-121.9084088209139
 20
6.624925597185083
 11
-122.1708440606122
 21
6.624925597184888
  0
LINE
  8
0
  6
CONTINUOUS
 62
     7
 10
-121.2051449246936
 20
7.32818949340569
 11
-117.2889162487219
 21
7.32818949340569
  0
LINE
  8
0
  6
CONTINUOUS
 62
     7
 10
-121.2051449246936
 20
7.32818949340569
 11
-121.2051449246936
 21
7.590624733103985
  0
LINE
  8
0
  6
CONTINUOUS
 62
     7
 10
-117.2889162487219
 20
7.32818949340569
 11
-117.2889162487219
 21
7.590624733103985
  0
ARC
  8
0
  6
CONTINUOUS
 62
     7
 10
-91.10514492468563
 20
-10.5500000000045
 40
0.7032638962203019
 50
270.0000000000488
 51
0.0000000000268301
  0
LINE
  8
0
  6
CONTINUOUS
 62
     7
 10
-91.10514492468504
 20
-11.2532638962248
 11
-91.10514492468484
 21
-11.51569913592312
  0
LINE
  8
0
  6
CONTINUOUS
 62
     7
 10
-91.10514492468504
 20
-11.2532638962248
 11
-121.2051449246851
 21
-11.25326389624992
  0
LINE
  8
0
  6
CONTINUOUS
 62
     7
 10
-121.2051449246851
 20
-11.25326389624992
 11
-121.2051449246848
 21
-11.51569913594821
  0
ARC
  8
0
  6
CONTINUOUS
 62
     7
 10
-121.2051449246856
 20
-10.55000000002962
 40
0.7032638962203019
 50
180.0000000000268
 51
270.0000000000448
  0
ARC
  8
0
  6
CONTINUOUS
 62
     7
 10
-121.2051449246936
 20
6.624925597185388
 40
0.7032638962203019
 50
90.0
 51
180.0000000000285
  0
LINE
  8
0
  6
CONTINUOUS
 62
     7
 10
-95.02137360065343
 20
7.32818949340569
 11
-91.10514492469353
 21
7.32818949340569
  0
LINE
  8
0
  6
CONTINUOUS
 62
     7
 10
-95.02137360065343
 20
7.32818949340569
 11
-95.02137360065343
 21
7.590624733103985
  0
ARC
  8
0
  6
CONTINUOUS
 62
     7
 10
-117.2889162487219
 20
9.824925597185397
 40
2.496736103779678
 50
270.0000000000005
 51
330.0000000000341
  0
LINE
  8
0
  6
CONTINUOUS
 62
     7
 10
-115.1266793563022
 20
8.576557545296792
 11
-115.3539549407293
 21
8.707775165145787
  0
LINE
  8
0
  6
CONTINUOUS
 62
     7
 10
-115.1266793563022
 20
8.576557545296792
 11
-114.3344143832219
 21
9.948800731730906
  0
LINE
  8
0
  6
CONTINUOUS
 62
     7
 10
-114.3344143832219
 20
9.948800731730906
 11
-114.561689967649
 21
10.08001835157979
  0
ARC
  8
0
  6
CONTINUOUS
 62
     7
 10
-116.4966512756417
 20
11.19716878361937
 40
2.49673610377972
 50
330.0000000000343
 51
60.00000000003581
  0
LINE
  8
0
  6
CONTINUOUS
 62
     7
 10
-115.2482832237532
 20
13.35940567603919
 11
-115.3795008436022
 21
13.13213009161218
  0
LINE
  8
0
  6
CONTINUOUS
 62
     7
 10
-115.2482832237532
 20
13.35940567603919
 11
-119.7817768728082
 21
15.97681945468668
  0
LINE
  8
0
  6
CONTINUOUS
 62
     7
 10
-119.7817768728082
 20
15.97681945468668
 11
-119.9129944926572
 21
15.74954387025968
  0
ARC
  8
0
  6
CONTINUOUS
 62
     7
 10
-122.6551449246951
 20
10.99999999996617
 40
5.746736103780112
 50
60.00000000003528
 51
180.0000000000254
  0
LINE
  8
0
  6
CONTINUOUS
 62
     7
 10
-128.4018810284752
 20
10.99999999996368
 11
-128.1394457887769
 21
10.99999999996379
  0
ARC
  8
0
  6
CONTINUOUS
 62
     7
 10
-89.65514492469582
 20
10.99999999999968
 40
5.746736103780223
 50
0.0000000000254243
 51
120.0000000000717
  0
LINE
  8
0
  6
CONTINUOUS
 62
     7
 10
-83.90840882091562
 20
11.00000000000226
 11
-84.17084406061403
 21
11.00000000000206
  0
LINE
  8
0
  6
CONTINUOUS
 62
     7
 10
-92.52851297659213
 20
15.97681945471499
 11
-92.39729535674272
 21
15.74954387028807
  0
LINE
  8
0
  6
CONTINUOUS
 62
     7
 10
-92.52851297659213
 20
15.97681945471499
 11
-97.06200662564194
 21
13.35940567605839
  0
LINE
  8
0
  6
CONTINUOUS
 62
     7
 10
-97.06200662564194
 20
13.35940567605839
 11
-96.93078900579253
 21
13.13213009163158
  0
ARC
  8
0
  6
CONTINUOUS
 62
     7
 10
-95.81363857374944
 20
11.19716878364088
 40
2.496736103779665
 50
120.0000000000719
 51
210.0000000000692
  0
LINE
  8
0
  6
CONTINUOUS
 62
     7
 10
-97.97587546616684
 20
9.948800731748475
 11
-97.74859988174003
 21
10.08001835159789
  0
LINE
  8
0
  6
CONTINUOUS
 62
     7
 10
-97.97587546616684
 20
9.948800731748475
 11
-97.18361049307094
 21
8.576557545292907
  0
LINE
  8
0
  6
CONTINUOUS
 62
     7
 10
-97.18361049307094
 20
8.576557545292907
 11
-96.95633490864414
 21
8.707775165142289
  0
ARC
  8
0
  6
CONTINUOUS
 62
     7
 10
-95.02137360065343
 20
9.824925597185397
 40
2.496736103779665
 50
210.0000000000692
 51
270.0
  0
LINE
  8
0
  6
CONTINUOUS
 62
     7
 10
-83.90840882089823
 20
-11.00000000000123
 11
-83.90840882091562
 21
11.00000000000226
  0
LINE
  8
0
  6
CONTINUOUS
 62
     7
 10
-83.90840882089823
 20
-11.00000000000123
 11
-84.17084406059652
 21
-11.00000000000131
  0
LINE
  8
0
  6
CONTINUOUS
 62
     7
 10
-128.4018810284752
 20
10.99999999996368
 11
-128.4018810284654
 21
-11.00000000003403
  0
LINE
  8
0
  6
CONTINUOUS
 62
     7
 10
-128.4018810284654
 20
-11.00000000003404
 11
-128.1394457887671
 21
-11.0000000000339
  0
ARC
  8
0
  6
CONTINUOUS
 62
     7
 10
-121.6551449246855
 20
-11.00000000003101
 40
6.74673610378243
 50
180.0000000000255
 51
270.0000000000476
  0
LINE
  8
0
  6
CONTINUOUS
 62
     7
 10
-121.6551449246799
 20
-17.74673610381342
 11
-121.6551449246801
 21
-17.48430086411512
  0
LINE
  8
0
  6
CONTINUOUS
 62
     7
 10
-121.6551449246799
 20
-17.74673610381342
 11
-90.65514492467764
 21
-17.74673610378391
  0
LINE
  8
0
  6
CONTINUOUS
 62
     7
 10
-90.65514492467764
 20
-17.74673610378391
 11
-90.65514492467784
 21
-17.48430086408561
  0
ARC
  8
0
  6
CONTINUOUS
 62
     7
 10
-90.65514492468324
 20
-11.0000000000042
 40
6.746736103785011
 50
270.0000000000475
 51
0.0000000000254659
  0
LINE
  8
0
  6
CONTINUOUS
 62
     7
 10
-128.2665121667081
 20
-2.606731518017019
 11
-128.2341425931525
 21
-2.606731518017019
  0
LINE
  8
0
  6
CONTINUOUS
 62
     7
 10
-128.2665121667081
 20
-2.606731518017019
 11
-128.2665121667081
 21
2.633216601982985
  0
LINE
  8
0
  6
CONTINUOUS
 62
     7
 10
-128.2665121667081
 20
2.633216601982985
 11
-128.2340294128356
 21
2.633216601982985
  0
LINE
  8
0
  6
CONTINUOUS
 62
     7
 10
-128.2340294128356
 20
2.633216601982985
 11
-128.2341425931525
 21
-2.606731518017019
  0
LINE
  8
0
  6
CONTINUOUS
 62
     7
 10
-128.3401925596405
 20
-2.619701679987513
 11
-128.3401925596405
 21
0.1234889749829882
  0
LINE
  8
0
  6
CONTINUOUS
 62
     7
 10
-128.3401925596405
 20
0.1234889749829882
 11
-128.2970708550226
 21
0.1234889749829882
  0
LINE
  8
0
  6
CONTINUOUS
 62
     7
 10
-128.2834163170963
 20
-2.07910610661563
 11
-128.3090679520978
 21
-2.619701686016829
  0
LINE
  8
0
  6
CONTINUOUS
 62
     7
 10
-128.3081623316739
 20
2.639701685959478
 11
-128.2843559175317
 21
2.067411558146076
  0
LINE
  8
0
  6
CONTINUOUS
 62
     7
 10
-128.3401925596405
 20
0.1234889749829882
 11
-128.3401925596405
 21
2.639701676980799
  0
LINE
  8
0
  6
CONTINUOUS
 62
     7
 10
-84.07727904189002
 20
-2.619701686016829
 11
-84.10795092811374
 21
-1.614513619017016
  0
LINE
  8
0
  6
CONTINUOUS
 62
     7
 10
-84.04581492854743
 20
-1.614513619017016
 11
-84.10795092811374
 21
-1.614513619017016
  0
LINE
  8
0
  6
CONTINUOUS
 62
     7
 10
-84.04581492854743
 20
-1.614513619017016
 11
-84.04581492854743
 21
-2.619701679987513
  0
LINE
  8
0
  6
CONTINUOUS
 62
     7
 10
-84.04581492854743
 20
-1.238378729016998
 11
-84.10432915764842
 21
-1.238378729016998
  0
LINE
  8
0
  6
CONTINUOUS
 62
     7
 10
-84.04581492854743
 20
-1.238378729016998
 11
-84.04581492854743
 21
-1.614513619017016
  0
LINE
  8
0
  6
CONTINUOUS
 62
     7
 10
-84.10795092811374
 20
-1.614513619017016
 11
-84.10432915764842
 21
-1.238378729016998
  0
LINE
  8
0
  6
CONTINUOUS
 62
     7
 10
-84.04581492854743
 20
2.639701676980799
 11
-84.04581492854743
 21
1.679909208982977
  0
LINE
  8
0
  6
CONTINUOUS
 62
     7
 10
-84.04581492854743
 20
1.679909208982977
 11
-84.10489505928392
 21
1.679909208982977
  0
LINE
  8
0
  6
CONTINUOUS
 62
     7
 10
-84.10489505928392
 20
1.679909208982977
 11
-84.07708863602123
 21
2.641125373194664
  0
LINE
  8
0
  6
CONTINUOUS
 62
     7
 10
-84.04581492854743
 20
1.32322957198297
 11
-84.10172601013763
 21
1.32322957198297
  0
LINE
  8
0
  6
CONTINUOUS
 62
     7
 10
-84.04581492854743
 20
1.679909208982977
 11
-84.04581492854743
 21
1.32322957198297
  0
LINE
  8
0
  6
CONTINUOUS
 62
     7
 10
-84.10172601013763
 20
1.32322957198297
 11
-84.10489505928392
 21
1.679909208982977
  0
LINE
  8
0
  6
CONTINUOUS
 62
     7
 10
-84.04581492854743
 20
-1.218923483859297
 11
-84.04581492854743
 21
-1.238378729016998
  0
LINE
  8
0
  6
CONTINUOUS
 62
     7
 10
-84.10432915764842
 20
-1.238378729016998
 11
-84.10206555562493
 21
-1.218923476017125
  0
LINE
  8
0
  6
CONTINUOUS
 62
     7
 10
-84.09912285590934
 20
1.29728923498329
 11
-84.10172601013763
 21
1.32322957198297
  0
LINE
  8
0
  6
CONTINUOUS
 62
     7
 10
-84.04581492854743
 20
1.32322957198297
 11
-84.04581492854743
 21
1.297289235152377
  0
LINE
  8
0
  6
CONTINUOUS
 62
     7
 10
-84.04581492854743
 20
-0.1849617650324376
 11
-84.04581492854743
 21
-1.21280268408383
  0
LINE
  8
0
  6
CONTINUOUS
 62
     7
 10
-84.05677764658296
 20
-1.230297237691219
 11
-84.07471618717962
 21
-0.1811861501595236
  0
LINE
  8
0
  6
CONTINUOUS
 62
     7
 10
-84.04581492854743
 20
1.29146617335979
 11
-84.04581492854743
 21
0.3957611137196672
  0
LINE
  8
0
  6
CONTINUOUS
 62
     7
 10
-84.07431101832802
 20
0.3938861457215004
 11
-84.05917056186712
 21
1.297289385529171
  0
LINE
  8
0
  6
CONTINUOUS
 62
     7
 10
-84.04581492854743
 20
0.3960754752357909
 11
-84.04581492854743
 21
-0.181522877369833
  0
LINE
  8
0
  6
CONTINUOUS
 62
     7
 10
-84.08474896106443
 20
-0.1813099870170143
 11
-84.08530490017773
 21
-0.1806185965196327
  0
LINE
  8
0
  6
CONTINUOUS
 62
     7
 10
-84.08530490017773
 20
-0.1806185965196327
 11
-84.08496626479354
 21
0.3960663124645825
  0
LINE
  8
0
  6
CONTINUOUS
 62
     7
 10
-83.97009728972313
 20
2.633216601982985
 11
-84.00224050261043
 21
2.633216601982985
  0
LINE
  8
0
  6
CONTINUOUS
 62
     7
 10
-83.97009728972313
 20
2.633216601982985
 11
-83.97009728972313
 21
-2.606731517017014
  0
LINE
  8
0
  6
CONTINUOUS
 62
     7
 10
-83.97009728972313
 20
-2.606731517017014
 11
-84.00235368294473
 21
-2.606731517017014
  0
LINE
  8
0
  6
CONTINUOUS
 62
     7
 10
-84.00235368294473
 20
-2.606731517017014
 11
-84.02392580106674
 21
-2.124203640441025
  0
LINE
  8
0
  6
CONTINUOUS
 62
     7
 10
-84.02392580106674
 20
-2.124203640441025
 11
-84.02517277342683
 21
-2.043060738412122
  0
LINE
  8
0
  6
CONTINUOUS
 62
     7
 10
-84.03466539122914
 20
-0.1815125438620335
 11
-84.03458915320522
 21
0.3414919568976993
  0
LINE
  8
0
  6
CONTINUOUS
 62
     7
 10
-84.03458915320522
 20
0.3414919568976993
 11
-84.03453564752172
 21
0.3960313155956796
  0
LINE
  8
0
  6
CONTINUOUS
 62
     7
 10
-84.02486408287474
 20
2.078670968636676
 11
-84.02416951064274
 21
2.123781310471806
  0
LINE
  8
0
  6
CONTINUOUS
 62
     7
 10
-84.02416951064274
 20
2.123781310471806
 11
-84.00224050261043
 21
2.633216601982985
  0
LINE
  8
0
  6
CONTINUOUS
 62
     7
 10
-100.8808153776844
 20
-11.33722956711231
 11
-100.8808153776844
 21
-11.42338135300191
  0
LINE
  8
0
  6
CONTINUOUS
 62
     7
 10
-100.8808153776844
 20
-11.33722956711231
 11
-99.30262575968443
 21
-11.33722956711231
  0
LINE
  8
0
  6
CONTINUOUS
 62
     7
 10
-99.30262575968443
 20
-11.33722956711231
 11
-99.30262575968443
 21
-11.40329349042951
  0
LINE
  8
0
  6
CONTINUOUS
 62
     7
 10
-99.30262575968443
 20
-11.40329349042951
 11
-100.8808153776844
 21
-11.42338135300191
  0
LINE
  8
0
  6
CONTINUOUS
 62
     7
 10
-102.5403569886844
 20
-11.33722956711222
 11
-102.5403569886844
 21
-11.42338135300191
  0
LINE
  8
0
  6
CONTINUOUS
 62
     7
 10
-102.5403569886844
 20
-11.33722956711222
 11
-100.8808153776844
 21
-11.33722956711231
  0
LINE
  8
0
  6
CONTINUOUS
 62
     7
 10
-100.8808153776844
 20
-11.42338135300191
 11
-102.5403569886844
 21
-11.42338135300191
  0
LINE
  8
0
  6
CONTINUOUS
 62
     7
 10
-99.30262575968443
 20
-11.33722956711231
 11
-99.17976056056443
 21
-11.33722956711231
  0
LINE
  8
0
  6
CONTINUOUS
 62
     7
 10
-99.17978522668444
 20
-11.38939297324751
 11
-99.30262575968443
 21
-11.40329349042951
  0
LINE
  8
0
  6
CONTINUOUS
 62
     7
 10
-103.4734176496844
 20
-11.33722956711222
 11
-103.4734176496844
 21
-11.42348620768882
  0
LINE
  8
0
  6
CONTINUOUS
 62
     7
 10
-102.5403569886844
 20
-11.38297969141472
 11
-103.4734176496844
 21
-11.42348620768882
  0
LINE
  8
0
  6
CONTINUOUS
 62
     7
 10
-103.4734176496844
 20
-11.33722956711222
 11
-102.5403569886844
 21
-11.33722956711222
  0
LINE
  8
0
  6
CONTINUOUS
 62
     7
 10
-104.8367675180409
 20
-11.33722956711222
 11
-104.8367675180409
 21
-11.42348620768882
  0
LINE
  8
0
  6
CONTINUOUS
 62
     7
 10
-103.4734176496844
 20
-11.42348620768882
 11
-104.8367675180409
 21
-11.42348620768882
  0
LINE
  8
0
  6
CONTINUOUS
 62
     7
 10
-104.8367675180409
 20
-11.33722956711222
 11
-103.4734176496844
 21
-11.33722956711222
  0
LINE
  8
0
  6
CONTINUOUS
 62
     7
 10
-104.8367675180409
 20
-11.42348620768882
 11
-105.7764631291466
 21
-11.38347642498352
  0
LINE
  8
0
  6
CONTINUOUS
 62
     7
 10
-105.7764631291466
 20
-11.33722956711222
 11
-104.8367675180409
 21
-11.33722956711222
  0
LINE
  8
0
  6
CONTINUOUS
 62
     7
 10
-107.0211193386844
 20
-11.33722956711222
 11
-107.0211193386844
 21
-11.42338135300191
  0
LINE
  8
0
  6
CONTINUOUS
 62
     7
 10
-107.0211193386844
 20
-11.33722956711222
 11
-105.7764631291466
 21
-11.33722956711222
  0
LINE
  8
0
  6
CONTINUOUS
 62
     7
 10
-105.7764631291466
 20
-11.33722956711222
 11
-105.7764631291466
 21
-11.4233813529909
  0
LINE
  8
0
  6
CONTINUOUS
 62
     7
 10
-105.7764631291466
 20
-11.4233813529909
 11
-107.0211193386844
 21
-11.42338135300191
  0
LINE
  8
0
  6
CONTINUOUS
 62
     7
 10
-107.9753557641466
 20
-11.33722956711222
 11
-107.0211193386844
 21
-11.33722956711222
  0
LINE
  8
0
  6
CONTINUOUS
 62
     7
 10
-107.0211193386844
 20
-11.42338135300191
 11
-107.975355764089
 21
-11.38252912496862
  0
LINE
  8
0
  6
CONTINUOUS
 62
     7
 10
-109.2200119736844
 20
-11.33722956711222
 11
-109.2200119736844
 21
-11.42338135300191
  0
LINE
  8
0
  6
CONTINUOUS
 62
     7
 10
-109.2200119736844
 20
-11.33722956711222
 11
-107.9753557641466
 21
-11.33722956711222
  0
LINE
  8
0
  6
CONTINUOUS
 62
     7
 10
-107.9753557640371
 20
-11.42338135300031
 11
-109.2200119736844
 21
-11.42338135300191
  0
LINE
  8
0
  6
CONTINUOUS
 62
     7
 10
-107.9753557641466
 20
-11.33722956711222
 11
-107.9753557640371
 21
-11.42338135300031
  0
LINE
  8
0
  6
CONTINUOUS
 62
     7
 10
-110.5891338026844
 20
-11.33722956711222
 11
-109.2200119736844
 21
-11.33722956711222
  0
LINE
  8
0
  6
CONTINUOUS
 62
     7
 10
-109.2200119736844
 20
-11.42338135300191
 11
-110.5891338026844
 21
-11.36476728663252
  0
LINE
  8
0
  6
CONTINUOUS
 62
     7
 10
-111.8337900106844
 20
-11.33722956711222
 11
-111.8337900106844
 21
-11.42338135300191
  0
LINE
  8
0
  6
CONTINUOUS
 62
     7
 10
-113.1199347578449
 20
-11.33722956711222
 11
-111.8337900106844
 21
-11.33722956711222
  0
LINE
  8
0
  6
CONTINUOUS
 62
     7
 10
-113.1199347578449
 20
-11.33722956711222
 11
-113.1199347578449
 21
-11.42338135300191
  0
LINE
  8
0
  6
CONTINUOUS
 62
     7
 10
-111.8337900106844
 20
-11.42338135300191
 11
-113.1199347578449
 21
-11.42338135300191
  0
LINE
  8
0
  6
CONTINUOUS
 62
     7
 10
-111.3774160677134
 20
-11.33722956711222
 11
-111.3774160677134
 21
-11.40383430913683
  0
LINE
  8
0
  6
CONTINUOUS
 62
     7
 10
-111.8337900106844
 20
-11.33722956711222
 11
-111.3774160677134
 21
-11.33722956711222
  0
LINE
  8
0
  6
CONTINUOUS
 62
     7
 10
-111.3774160677134
 20
-11.40383430913683
 11
-111.8337900106844
 21
-11.42338135300191
  0
LINE
  8
0
  6
CONTINUOUS
 62
     7
 10
-110.5891338026844
 20
-11.33722956711222
 11
-110.5891338026844
 21
-11.40383430913713
  0
LINE
  8
0
  6
CONTINUOUS
 62
     7
 10
-111.3774160677134
 20
-11.33722956711222
 11
-110.5891338026844
 21
-11.33722956711222
  0
LINE
  8
0
  6
CONTINUOUS
 62
     7
 10
-110.5891338026844
 20
-11.40383430913713
 11
-111.3774160677134
 21
-11.40383430913683
  0
LINE
  8
0
  6
CONTINUOUS
 62
     7
 10
-128.3401925596405
 20
-2.619701686017023
 11
-128.3090679521022
 21
-2.619701686017023
  0
LINE
  8
0
  6
CONTINUOUS
 62
     7
 10
-128.3081623316056
 20
2.639701685982987
 11
-128.3401925596405
 21
2.639701685982987
  0
LINE
  8
0
  6
CONTINUOUS
 62
     7
 10
-84.07727904189454
 20
-2.619701686017023
 11
-84.04581492854743
 21
-2.619701686017023
  0
LINE
  8
0
  6
CONTINUOUS
 62
     7
 10
-84.04581492854743
 20
2.639701685982987
 11
-84.07637342139792
 21
2.639701685982987
  0
LINE
  8
0
  6
CONTINUOUS
 62
     7
 10
-84.04581492854743
 20
-1.218923476017014
 11
-84.10206555562394
 21
-1.218923476017014
  0
LINE
  8
0
  6
CONTINUOUS
 62
     7
 10
-84.09912285591246
 20
1.297289234983068
 11
-84.04581492854743
 21
1.297289234983068
  0
LINE
  8
0
  6
CONTINUOUS
 62
     7
 10
-84.08493339915444
 20
-0.1815228775312316
 11
-84.04581492854743
 21
-0.1815228775312316
  0
LINE
  8
0
  6
CONTINUOUS
 62
     7
 10
-84.04581492854743
 20
0.3960754752808937
 11
-84.08493349729854
 21
0.3960754752808937
  0
LINE
  8
0
  6
CONTINUOUS
 62
     7
 10
-99.17976056050163
 20
-11.38958945213583
 11
-99.17976056050163
 21
-11.33722956711231
  0
LINE
  8
0
  6
CONTINUOUS
 62
     7
 10
89.60335917378498
 20
-11.2532638962248
 11
119.703359173785
 21
-11.25326389624992
  0
ARC
  8
0
  6
CONTINUOUS
 62
     7
 10
119.7033591737855
 20
-10.55000000002962
 40
0.7032638962202742
 50
269.9999999999552
 51
359.9999999999732
  0
LINE
  8
0
  6
CONTINUOUS
 62
     7
 10
120.4066230700058
 20
-10.55000000002992
 11
120.4066230700139
 21
6.624925597185083
  0
ARC
  8
0
  6
CONTINUOUS
 62
     7
 10
119.7033591737936
 20
6.624925597185388
 40
0.7032638962202742
 50
359.9999999999715
 51
90.0
  0
LINE
  8
0
  6
CONTINUOUS
 62
     7
 10
119.7033591737936
 20
7.32818949340569
 11
115.7871304978219
 21
7.32818949340569
  0
ARC
  8
0
  6
CONTINUOUS
 62
     7
 10
115.7871304978219
 20
9.824925597185397
 40
2.496736103779651
 50
209.9999999999659
 51
269.9999999999995
  0
LINE
  8
0
  6
CONTINUOUS
 62
     7
 10
113.6248936054021
 20
8.576557545296792
 11
112.8326286323219
 21
9.948800731730906
  0
ARC
  8
0
  6
CONTINUOUS
 62
     7
 10
114.9948655247417
 20
11.19716878361937
 40
2.496736103779706
 50
119.9999999999642
 51
209.9999999999657
  0
LINE
  8
0
  6
CONTINUOUS
 62
     7
 10
113.7464974728532
 20
13.35940567603919
 11
118.2799911219081
 21
15.97681945468668
  0
ARC
  8
0
  6
CONTINUOUS
 62
     7
 10
121.1533591737951
 20
10.99999999996617
 40
5.746736103780125
 50
359.9999999999746
 51
119.9999999999647
  0
LINE
  8
0
  6
CONTINUOUS
 62
     7
 10
126.9000952775752
 20
10.99999999996368
 11
126.9000952775653
 21
-11.00000000003403
  0
ARC
  8
0
  6
CONTINUOUS
 62
     7
 10
120.1533591737855
 20
-11.00000000003101
 40
6.746736103782403
 50
269.9999999999525
 51
359.9999999999745
  0
LINE
  8
0
  6
CONTINUOUS
 62
     7
 10
120.1533591737797
 20
-17.74673610381342
 11
89.15335917377764
 21
-17.74673610378391
  0
ARC
  8
0
  6
CONTINUOUS
 62
     7
 10
89.15335917378326
 20
-11.0000000000042
 40
6.746736103785011
 50
179.9999999999745
 51
269.9999999999525
  0
LINE
  8
0
  6
CONTINUOUS
 62
     7
 10
82.40662306999819
 20
-11.00000000000123
 11
82.40662307001556
 21
11.00000000000226
  0
ARC
  8
0
  6
CONTINUOUS
 62
     7
 10
88.15335917379579
 20
10.99999999999968
 40
5.746736103780236
 50
59.99999999992826
 51
179.9999999999745
  0
LINE
  8
0
  6
CONTINUOUS
 62
     7
 10
91.0267272256921
 20
15.97681945471499
 11
95.56022087474197
 21
13.35940567605839
  0
ARC
  8
0
  6
CONTINUOUS
 62
     7
 10
94.31185282284937
 20
11.19716878364088
 40
2.496736103779651
 50
329.9999999999308
 51
59.99999999992816
  0
LINE
  8
0
  6
CONTINUOUS
 62
     7
 10
96.47408971526689
 20
9.948800731748475
 11
95.6818247421709
 21
8.576557545292907
  0
ARC
  8
0
  6
CONTINUOUS
 62
     7
 10
93.51958784975339
 20
9.824925597185397
 40
2.496736103779706
 50
270.0
 51
329.9999999999308
  0
LINE
  8
0
  6
CONTINUOUS
 62
     7
 10
93.51958784975339
 20
7.32818949340569
 11
89.60335917379352
 21
7.32818949340569
  0
ARC
  8
0
  6
CONTINUOUS
 62
     7
 10
89.60335917379352
 20
6.624925597185388
 40
0.7032638962202742
 50
90.0
 51
179.9999999999757
  0
LINE
  8
0
  6
CONTINUOUS
 62
     7
 10
88.90009527757326
 20
6.624925597185693
 11
88.90009527756526
 21
-10.55000000000422
  0
ARC
  8
0
  6
CONTINUOUS
 62
     7
 10
89.60335917378553
 20
-10.5500000000045
 40
0.7032638962203297
 50
179.9999999999732
 51
269.9999999999511
  0
ARC
  8
0
  6
CONTINUOUS
 62
     7
 10
121.1533591737951
 20
10.99999999996617
 40
4.694523237039283
 50
359.9999999999744
 51
119.9999999999647
  0
LINE
  8
0
  6
CONTINUOUS
 62
     7
 10
114.272603906223
 20
12.44816260325249
 11
118.806097555278
 21
15.06557638190009
  0
ARC
  8
0
  6
CONTINUOUS
 62
     7
 10
114.9948655247417
 20
11.19716878361937
 40
1.444523237038975
 50
119.999999999965
 51
209.9999999999646
  0
LINE
  8
0
  6
CONTINUOUS
 62
     7
 10
114.5361366781888
 20
9.102663978666575
 11
113.7438717051086
 21
10.47490716510069
  0
ARC
  8
0
  6
CONTINUOUS
 62
     7
 10
115.7871304978219
 20
9.824925597185397
 40
1.444523237038919
 50
209.9999999999663
 51
269.9999999999992
  0
LINE
  8
0
  6
CONTINUOUS
 62
     7
 10
121.2033591737943
 20
8.380402360146366
 11
115.7871304978219
 21
8.380402360146366
  0
ARC
  8
0
  6
CONTINUOUS
 62
     7
 10
121.2033591737943
 20
8.12492559718539
 40
0.2554767629610599
 50
359.9999999999773
 51
90.0
  0
LINE
  8
0
  6
CONTINUOUS
 62
     7
 10
121.4588359367464
 20
-11.00000000003062
 11
121.4588359367553
 21
8.124925597185278
  0
ARC
  8
0
  6
CONTINUOUS
 62
     7
 10
120.1533591737846
 20
-11.00000000003001
 40
1.305476762961943
 50
269.9999999999516
 51
359.9999999999736
  0
LINE
  8
0
  6
CONTINUOUS
 62
     7
 10
89.15335917378425
 20
-12.30547676296534
 11
120.1533591737834
 21
-12.30547676299101
  0
ARC
  8
0
  6
CONTINUOUS
 62
     7
 10
89.15335917378536
 20
-11.00000000000362
 40
1.30547676296161
 50
179.9999999999733
 51
269.9999999999516
  0
LINE
  8
0
  6
CONTINUOUS
 62
     7
 10
87.8478824108332
 20
8.1249255971855
 11
87.84788241082425
 21
-11.00000000000301
  0
ARC
  8
0
  6
CONTINUOUS
 62
     7
 10
88.10335917379419
 20
8.12492559718539
 40
0.2554767629610599
 50
90.0
 51
179.9999999999774
  0
LINE
  8
0
  6
CONTINUOUS
 62
     7
 10
93.51958784975339
 20
8.380402360146366
 11
88.10335917379419
 21
8.380402360146366
  0
ARC
  8
0
  6
CONTINUOUS
 62
     7
 10
93.51958784975339
 20
9.824925597185397
 40
1.444523237038975
 50
270.0
 51
329.999999999932
  0
LINE
  8
0
  6
CONTINUOUS
 62
     7
 10
95.56284664248116
 20
10.47490716511998
 11
94.77058166938518
 21
9.102663978664383
  0
ARC
  8
0
  6
CONTINUOUS
 62
     7
 10
94.31185282284937
 20
11.19716878364088
 40
1.444523237038975
 50
329.9999999999316
 51
59.99999999992917
  0
LINE
  8
0
  6
CONTINUOUS
 62
     7
 10
90.50062079232046
 20
15.06557638192907
 11
95.03411444137043
 21
12.44816260327269
  0
ARC
  8
0
  6
CONTINUOUS
 62
     7
 10
88.15335917379579
 20
10.99999999999968
 40
4.694523237039283
 50
59.99999999992787
 51
179.999999999975
  0
LINE
  8
0
  6
CONTINUOUS
 62
     7
 10
83.45883593674708
 20
-11.00000000000162
 11
83.4588359367564
 21
11.00000000000179
  0
ARC
  8
0
  6
CONTINUOUS
 62
     7
 10
89.15335917378326
 20
-11.0000000000042
 40
5.694523237036175
 50
179.9999999999745
 51
269.9999999999523
  0
LINE
  8
0
  6
CONTINUOUS
 62
     7
 10
120.1533591737808
 20
-16.69452323706894
 11
89.15335917377843
 21
-16.69452323704312
  0
ARC
  8
0
  6
CONTINUOUS
 62
     7
 10
120.1533591737855
 20
-11.00000000003101
 40
5.694523237037785
 50
269.9999999999527
 51
359.9999999999745
  0
LINE
  8
0
  6
CONTINUOUS
 62
     7
 10
125.8478824108344
 20
10.99999999996407
 11
125.8478824108246
 21
-11.00000000003351
  0
ARC
  8
0
  6
CONTINUOUS
 62
     7
 10
88.15335917379579
 20
10.99999999999968
 40
3.694675541882908
 50
59.99999999992782
 51
179.9999999999752
  0
LINE
  8
0
  6
CONTINUOUS
 62
     7
 10
84.45868363191283
 20
11.00000000000129
 11
83.4588359367564
 21
11.00000000000179
  0
LINE
  8
0
  6
CONTINUOUS
 62
     7
 10
90.00069694474094
 20
14.19968287800866
 11
90.50062079232046
 21
15.06557638192907
  0
ARC
  8
0
  6
CONTINUOUS
 62
     7
 10
89.15335917378326
 20
-11.0000000000042
 40
4.6946755418798
 50
179.9999999999745
 51
269.9999999999524
  0
LINE
  8
0
  6
CONTINUOUS
 62
     7
 10
89.15335917377925
 20
-15.69467554188392
 11
89.15335917377843
 21
-16.69452323704312
  0
LINE
  8
0
  6
CONTINUOUS
 62
     7
 10
84.45868363190306
 20
-11.00000000000204
 11
83.45883593674708
 21
-11.00000000000162
  0
LINE
  8
0
  6
CONTINUOUS
 62
     7
 10
84.45868363191272
 20
11.00000000000129
 11
84.45868363190345
 21
-11.00000000000204
  0
ARC
  8
0
  6
CONTINUOUS
 62
     7
 10
88.10335917379419
 20
8.12492559718539
 40
1.255324458117435
 50
90.0
 51
179.9999999999726
  0
LINE
  8
0
  6
CONTINUOUS
 62
     7
 10
88.10335917379419
 20
9.380250055302769
 11
88.10335917379419
 21
8.380402360146366
  0
LINE
  8
0
  6
CONTINUOUS
 62
     7
 10
86.84803471567687
 20
8.124925597185973
 11
87.8478824108332
 21
8.1249255971855
  0
LINE
  8
0
  6
CONTINUOUS
 62
     7
 10
86.84803471566788
 20
-11.00000000000251
 11
86.84803471567676
 21
8.124925597185973
  0
LINE
  8
0
  6
CONTINUOUS
 62
     7
 10
86.84803471566727
 20
-11.00000000000251
 11
87.84788241082425
 21
-11.00000000000301
  0
LINE
  8
0
  6
CONTINUOUS
 62
     7
 10
89.15335917378425
 20
-12.30547676296534
 11
89.15335917378336
 21
-13.30532445812163
  0
ARC
  8
0
  6
CONTINUOUS
 62
     7
 10
89.15335917378536
 20
-11.00000000000362
 40
2.305324458117985
 50
179.9999999999734
 51
269.9999999999516
  0
LINE
  8
0
  6
CONTINUOUS
 62
     7
 10
88.10335917379419
 20
9.38025005530288
 11
93.51958784975328
 21
9.38025005530288
  0
LINE
  8
0
  6
CONTINUOUS
 62
     7
 10
93.51958784975339
 20
9.380250055302769
 11
93.51958784975339
 21
8.380402360146366
  0
LINE
  8
0
  6
CONTINUOUS
 62
     7
 10
94.53419059379114
 20
11.58226909935259
 11
90.00069694474116
 21
14.19968287800899
  0
LINE
  8
0
  6
CONTINUOUS
 62
     7
 10
94.53419059379114
 20
11.58226909935259
 11
95.03411444137033
 21
12.44816260327269
  0
LINE
  8
0
  6
CONTINUOUS
 62
     7
 10
120.1533591737834
 20
-12.30547676299101
 11
120.1533591737826
 21
-13.30532445814744
  0
LINE
  8
0
  6
CONTINUOUS
 62
     7
 10
120.1533591737826
 20
-13.30532445814744
 11
89.15335917378336
 21
-13.30532445812163
  0
LINE
  8
0
  6
CONTINUOUS
 62
     7
 10
89.15335917377925
 20
-15.69467554188672
 11
120.1533591737813
 21
-15.69467554191239
  0
LINE
  8
0
  6
CONTINUOUS
 62
     7
 10
120.1533591737813
 20
-15.69467554191253
 11
120.1533591737808
 21
-16.69452323706894
  0
ARC
  8
0
  6
CONTINUOUS
 62
     7
 10
94.31185282284937
 20
11.19716878364088
 40
0.4446755418825443
 50
329.9999999999299
 51
59.99999999992991
  0
LINE
  8
0
  6
CONTINUOUS
 62
     7
 10
94.69695313856097
 20
10.97483101269916
 11
95.56284664248116
 21
10.47490716511998
  0
ARC
  8
0
  6
CONTINUOUS
 62
     7
 10
93.51958784975339
 20
9.824925597185397
 40
0.4446755418825998
 50
270.0
 51
329.9999999999299
  0
LINE
  8
0
  6
CONTINUOUS
 62
     7
 10
93.9046881654651
 20
9.602587826243598
 11
94.77058166938518
 21
9.102663978664383
  0
LINE
  8
0
  6
CONTINUOUS
 62
     7
 10
93.9046881654651
 20
9.602587826243598
 11
94.69695313856107
 21
10.97483101269916
  0
LINE
  8
0
  6
CONTINUOUS
 62
     7
 10
114.272603906223
 20
12.44816260325249
 11
114.7725277538006
 21
11.58226909933138
  0
ARC
  8
0
  6
CONTINUOUS
 62
     7
 10
114.9948655247417
 20
11.19716878361937
 40
0.4446755418825443
 50
119.9999999999659
 51
209.9999999999648
  0
LINE
  8
0
  6
CONTINUOUS
 62
     7
 10
113.7438717051086
 20
10.47490716510069
 11
114.6097652090297
 21
10.97483101267838
  0
LINE
  8
0
  6
CONTINUOUS
 62
     7
 10
114.6097652090297
 20
10.97483101267829
 11
115.4020301821098
 21
9.602587826244264
  0
LINE
  8
0
  6
CONTINUOUS
 62
     7
 10
114.5361366781888
 20
9.102663978666575
 11
115.4020301821098
 21
9.602587826244264
  0
LINE
  8
0
  6
CONTINUOUS
 62
     7
 10
118.806097555278
 20
15.06557638190009
 11
119.3060214028556
 21
14.19968287797899
  0
LINE
  8
0
  6
CONTINUOUS
 62
     7
 10
119.3060214028556
 20
14.19968287797899
 11
114.7725277538006
 21
11.58226909933138
  0
ARC
  8
0
  6
CONTINUOUS
 62
     7
 10
115.7871304978219
 20
9.824925597185397
 40
0.4446755418825443
 50
209.999999999965
 51
269.9999999999972
  0
LINE
  8
0
  6
CONTINUOUS
 62
     7
 10
115.7871304978219
 20
8.380402360146366
 11
115.7871304978219
 21
9.380250055302769
  0
LINE
  8
0
  6
CONTINUOUS
 62
     7
 10
125.8478824108344
 20
10.99999999996407
 11
124.848034715678
 21
10.99999999996459
  0
ARC
  8
0
  6
CONTINUOUS
 62
     7
 10
121.1533591737951
 20
10.99999999996617
 40
3.694675541882853
 50
359.9999999999744
 51
119.9999999999647
  0
LINE
  8
0
  6
CONTINUOUS
 62
     7
 10
115.7871304978219
 20
9.38025005530288
 11
121.2033591737943
 21
9.38025005530288
  0
LINE
  8
0
  6
CONTINUOUS
 62
     7
 10
121.2033591737943
 20
8.380402360146366
 11
121.2033591737943
 21
9.380250055302769
  0
LINE
  8
0
  6
CONTINUOUS
 62
     7
 10
121.4588359367464
 20
-11.00000000003062
 11
122.4586836319028
 21
-11.00000000003101
  0
ARC
  8
0
  6
CONTINUOUS
 62
     7
 10
120.1533591737846
 20
-11.00000000003001
 40
2.305324458118319
 50
269.9999999999528
 51
359.9999999999734
  0
ARC
  8
0
  6
CONTINUOUS
 62
     7
 10
120.1533591737855
 20
-11.00000000003101
 40
4.69467554188141
 50
269.9999999999505
 51
359.9999999999746
  0
LINE
  8
0
  6
CONTINUOUS
 62
     7
 10
125.8478824108246
 20
-11.00000000003351
 11
124.8480347156681
 21
-11.00000000003312
  0
ARC
  8
0
  6
CONTINUOUS
 62
     7
 10
121.2033591737943
 20
8.12492559718539
 40
1.255324458117435
 50
359.9999999999726
 51
90.0
  0
LINE
  8
0
  6
CONTINUOUS
 62
     7
 10
121.4588359367553
 20
8.124925597185278
 11
122.4586836319116
 21
8.12492559718478
  0
LINE
  8
0
  6
CONTINUOUS
 62
     7
 10
122.4586836319118
 20
8.12492559718478
 11
122.4586836319028
 21
-11.00000000003101
  0
LINE
  8
0
  6
CONTINUOUS
 62
     7
 10
124.8480347156681
 20
-11.00000000003304
 11
124.8480347156778
 21
10.99999999996459
  0
LINE
  8
0
  6
CONTINUOUS
 62
     7
 10
120.1533591737817
 20
-15.4500000000298
 11
89.15335917377959
 21
-15.45000000000424
  0
LINE
  8
0
  6
CONTINUOUS
 62
     7
 10
120.1533591737813
 20
-15.69467554191239
 11
120.1533591737817
 21
-15.4500000000298
  0
LINE
  8
0
  6
CONTINUOUS
 62
     7
 10
89.15335917377925
 20
-15.69467554188672
 11
89.15335917377959
 21
-15.45000000000424
  0
ARC
  8
0
  6
CONTINUOUS
 62
     7
 10
88.15335917379579
 20
10.99999999999968
 40
3.450000000000342
 50
59.99999999992787
 51
179.999999999975
  0
LINE
  8
0
  6
CONTINUOUS
 62
     7
 10
84.45868363191272
 20
11.00000000000129
 11
84.70335917379535
 21
11.00000000000118
  0
LINE
  8
0
  6
CONTINUOUS
 62
     7
 10
90.00069694474116
 20
14.19968287800899
 11
89.87835917379965
 21
13.98778764305408
  0
LINE
  8
0
  6
CONTINUOUS
 62
     7
 10
84.70335917378596
 20
-11.00000000000212
 11
84.70335917379535
 21
11.00000000000118
  0
LINE
  8
0
  6
CONTINUOUS
 62
     7
 10
84.45868363190345
 20
-11.00000000000204
 11
84.70335917378596
 21
-11.00000000000212
  0
ARC
  8
0
  6
CONTINUOUS
 62
     7
 10
89.15335917378326
 20
-11.0000000000042
 40
4.449999999997234
 50
179.9999999999745
 51
269.9999999999524
  0
LINE
  8
0
  6
CONTINUOUS
 62
     7
 10
86.6033591737943
 20
8.124925597186083
 11
86.60335917378536
 21
-11.00000000000242
  0
LINE
  8
0
  6
CONTINUOUS
 62
     7
 10
86.84803471567687
 20
8.124925597185973
 11
86.6033591737943
 21
8.124925597186083
  0
LINE
  8
0
  6
CONTINUOUS
 62
     7
 10
86.84803471566788
 20
-11.00000000000251
 11
86.60335917378536
 21
-11.00000000000242
  0
ARC
  8
0
  6
CONTINUOUS
 62
     7
 10
89.15335917378536
 20
-11.00000000000362
 40
2.550000000000552
 50
179.9999999999733
 51
269.9999999999516
  0
LINE
  8
0
  6
CONTINUOUS
 62
     7
 10
89.15335917378336
 20
-13.30532445812163
 11
89.15335917378326
 21
-13.55000000000422
  0
ARC
  8
0
  6
CONTINUOUS
 62
     7
 10
88.10335917379419
 20
8.12492559718539
 40
1.500000000000001
 50
90.0
 51
179.9999999999734
  0
LINE
  8
0
  6
CONTINUOUS
 62
     7
 10
88.10335917379419
 20
9.38025005530288
 11
88.10335917379419
 21
9.624925597185364
  0
LINE
  8
0
  6
CONTINUOUS
 62
     7
 10
93.51958784975339
 20
9.624925597185364
 11
88.10335917379419
 21
9.624925597185364
  0
LINE
  8
0
  6
CONTINUOUS
 62
     7
 10
93.51958784975339
 20
9.38025005530288
 11
93.51958784975339
 21
9.624925597185364
  0
LINE
  8
0
  6
CONTINUOUS
 62
     7
 10
89.15335917378326
 20
-13.55000000000422
 11
120.1533591737825
 21
-13.55000000003004
  0
LINE
  8
0
  6
CONTINUOUS
 62
     7
 10
120.1533591737826
 20
-13.30532445814744
 11
120.1533591737825
 21
-13.55000000003004
  0
LINE
  8
0
  6
CONTINUOUS
 62
     7
 10
89.87835917379965
 20
13.98778764305408
 11
94.41185282284958
 21
11.37037386439768
  0
LINE
  8
0
  6
CONTINUOUS
 62
     7
 10
94.53419059379114
 20
11.58226909935259
 11
94.41185282284958
 21
11.37037386439768
  0
ARC
  8
0
  6
CONTINUOUS
 62
     7
 10
93.51958784975339
 20
9.824925597185397
 40
0.2000000000000335
 50
270.0
 51
329.9999999999311
  0
LINE
  8
0
  6
CONTINUOUS
 62
     7
 10
93.9046881654651
 20
9.602587826243598
 11
93.6927929305102
 21
9.724925597185157
  0
ARC
  8
0
  6
CONTINUOUS
 62
     7
 10
94.31185282284937
 20
11.19716878364088
 40
0.2000000000000335
 50
329.999999999932
 51
59.99999999993803
  0
LINE
  8
0
  6
CONTINUOUS
 62
     7
 10
94.69695313856107
 20
10.97483101269916
 11
94.48505790360618
 21
11.09716878364078
  0
LINE
  8
0
  6
CONTINUOUS
 62
     7
 10
94.48505790360618
 20
11.09716878364078
 11
93.6927929305102
 21
9.724925597185157
  0
ARC
  8
0
  6
CONTINUOUS
 62
     7
 10
120.1533591737855
 20
-11.00000000003101
 40
4.449999999998788
 50
269.9999999999524
 51
359.9999999999745
  0
LINE
  8
0
  6
CONTINUOUS
 62
     7
 10
124.8480347156681
 20
-11.00000000003304
 11
124.6033591737856
 21
-11.00000000003304
  0
ARC
  8
0
  6
CONTINUOUS
 62
     7
 10
114.9948655247417
 20
11.19716878361937
 40
0.199999999999978
 50
119.999999999966
 51
209.9999999999643
  0
LINE
  8
0
  6
CONTINUOUS
 62
     7
 10
114.6097652090297
 20
10.97483101267829
 11
114.8216604439846
 21
11.09716878361946
  0
LINE
  8
0
  6
CONTINUOUS
 62
     7
 10
114.7725277538006
 20
11.58226909933138
 11
114.8948655247418
 21
11.37037386437628
  0
LINE
  8
0
  6
CONTINUOUS
 62
     7
 10
114.8948655247418
 20
11.37037386437628
 11
119.4283591737968
 21
13.98778764302389
  0
LINE
  8
0
  6
CONTINUOUS
 62
     7
 10
119.3060214028556
 20
14.19968287797899
 11
119.4283591737968
 21
13.98778764302389
  0
ARC
  8
0
  6
CONTINUOUS
 62
     7
 10
115.7871304978219
 20
9.824925597185397
 40
0.199999999999978
 50
209.9999999999655
 51
269.9999999999941
  0
LINE
  8
0
  6
CONTINUOUS
 62
     7
 10
115.7871304978219
 20
9.38025005530288
 11
115.7871304978219
 21
9.624925597185364
  0
LINE
  8
0
  6
CONTINUOUS
 62
     7
 10
115.4020301821098
 20
9.602587826244264
 11
115.6139254170649
 21
9.724925597185491
  0
LINE
  8
0
  6
CONTINUOUS
 62
     7
 10
121.2033591737943
 20
9.624925597185364
 11
115.7871304978219
 21
9.624925597185364
  0
LINE
  8
0
  6
CONTINUOUS
 62
     7
 10
121.2033591737943
 20
9.38025005530288
 11
121.2033591737943
 21
9.624925597185364
  0
LINE
  8
0
  6
CONTINUOUS
 62
     7
 10
115.6139254170649
 20
9.724925597185491
 11
114.8216604439846
 21
11.09716878361946
  0
ARC
  8
0
  6
CONTINUOUS
 62
     7
 10
121.1533591737951
 20
10.99999999996617
 40
3.450000000000342
 50
359.9999999999741
 51
119.9999999999649
  0
LINE
  8
0
  6
CONTINUOUS
 62
     7
 10
124.8480347156778
 20
10.99999999996459
 11
124.6033591737954
 21
10.9999999999647
  0
ARC
  8
0
  6
CONTINUOUS
 62
     7
 10
121.2033591737943
 20
8.12492559718539
 40
1.500000000000001
 50
359.9999999999732
 51
90.0
  0
LINE
  8
0
  6
CONTINUOUS
 62
     7
 10
122.4586836319118
 20
8.12492559718478
 11
122.7033591737943
 21
8.124925597184696
  0
ARC
  8
0
  6
CONTINUOUS
 62
     7
 10
120.1533591737846
 20
-11.00000000003001
 40
2.550000000000885
 50
269.9999999999528
 51
359.9999999999734
  0
LINE
  8
0
  6
CONTINUOUS
 62
     7
 10
122.4586836319028
 20
-11.00000000003101
 11
122.7033591737854
 21
-11.00000000003112
  0
LINE
  8
0
  6
CONTINUOUS
 62
     7
 10
122.7033591737854
 20
-11.00000000003112
 11
122.7033591737943
 21
8.124925597184696
  0
LINE
  8
0
  6
CONTINUOUS
 62
     7
 10
124.6033591737954
 20
10.9999999999647
 11
124.6033591737856
 21
-11.00000000003304
  0
LINE
  8
0
  6
CONTINUOUS
 62
     7
 10
8.500000000000062
 20
-17.74673610378921
 11
8.500000000000062
 21
-11.00000000000123
  0
LINE
  8
0
  6
CONTINUOUS
 62
     7
 10
8.500000000000062
 20
-17.74673610378391
 11
-6.534904812874526
 21
-17.48430086408561
  0
LINE
  8
0
  6
CONTINUOUS
 62
     7
 10
-6.534904812874526
 20
-11.00000000000131
 11
-6.534904812874526
 21
-17.48430086409094
  0
LINE
  8
0
  6
CONTINUOUS
 62
     7
 10
8.500000000000062
 20
-11.00000000000123
 11
-6.534904812874526
 21
-11.00000000000131
  0
LINE
  8
0
  6
CONTINUOUS
 62
     7
 10
8.500000000000062
 20
-11.00000000000123
 11
8.500000000000062
 21
11.00000000000217
  0
LINE
  8
0
  6
CONTINUOUS
 62
     7
 10
-6.534904812874526
 20
11.00000000000206
 11
-6.534904812874526
 21
-11.00000000000123
  0
LINE
  8
0
  6
CONTINUOUS
 62
     7
 10
8.500000000000062
 20
11.00000000000226
 11
-6.534904812874526
 21
11.00000000000206
  0
LINE
  8
0
  6
CONTINUOUS
 62
     7
 10
-6.534904812874526
 20
16.48430086408156
 11
-6.534904812874526
 21
11.00000000000206
  0
LINE
  8
0
  6
CONTINUOUS
 62
     7
 10
8.500000000000062
 20
11.00000000000226
 11
8.500000000000062
 21
16.74673610377988
  0
LINE
  8
0
  6
CONTINUOUS
 62
     7
 10
-8.500000000000036
 20
-11.00000000000212
 11
-8.500000000000036
 21
11.00000000000118
  0
LINE
  8
0
  6
CONTINUOUS
 62
     7
 10
-8.500000000000036
 20
11.00000000000118
 11
-6.534904812874526
 21
11.00000000000118
  0
LINE
  8
0
  6
CONTINUOUS
 62
     7
 10
-8.500000000000036
 20
-11.00000000000212
 11
-6.534904812874526
 21
-11.00000000000212
  0
LINE
  8
0
  6
CONTINUOUS
 62
     7
 10
-8.500000000000036
 20
-15.48460547377811
 11
-8.500000000000036
 21
-11.00000000000212
  0
ARC
  8
0
  6
CONTINUOUS
 62
     7
 10
-6.500000000000034
 20
-15.48460547377281
 40
2.000000000000002
 50
180.0
 51
269.0000000000005
  0
LINE
  8
0
  6
CONTINUOUS
 62
     7
 10
-8.500000000000036
 20
11.00000000000118
 11
-8.500000000000036
 21
14.48460547376879
  0
LINE
  8
0
  6
CONTINUOUS
 62
     7
 10
-1.629294960011324
 20
-0.1813099870170143
 11
-1.272669647008451
 21
-0.1748249030170401
  0
LINE
  8
0
  6
CONTINUOUS
 62
     7
 10
-1.279153744002726
 20
0.3828923479830548
 11
-1.629294960011324
 21
0.3958625159830031
  0
ARC
  8
0
  6
CONTINUOUS
 62
     7
 10
-2.560133775993956
 20
1.569040652947384
 40
0.249335706357906
 50
153.5986840098583
 51
260.3547207210293
  0
ARC
  8
0
  6
CONTINUOUS
 62
     7
 10
-2.641165953914642
 20
-1.528850380063201
 40
0.3105590004802983
 50
23.10313626663934
 51
110.7203002759469
  0
ARC
  8
0
  6
CONTINUOUS
 62
     7
 10
-1.583513547340321
 20
0.1072762644829806
 40
0.2921950757644176
 50
99.01430097745548
 51
260.9856990225445
  0
ARC
  8
0
  6
CONTINUOUS
 62
     7
 10
-2.720690703875345
 20
-1.500420291892707
 40
0.2637936376967132
 50
96.60727625648205
 51
205.6269425868839
  0
ARC
  8
0
  6
CONTINUOUS
 62
     7
 10
-2.476626180234143
 20
1.60183290473509
 40
0.3054762097252917
 50
245.7873457077911
 51
332.2113348883585
  0
ARC
  8
0
  6
CONTINUOUS
 62
     7
 10
-0.5636569157827509
 20
-1.047182550199227
 40
1.171722926420871
 50
353.8098364728297
 51
87.57259697538615
  0
LINE
  8
0
  6
CONTINUOUS
 62
     7
 10
-1.272669647008451
 20
-0.1748249030170401
 11
-1.202082216373218
 21
-0.1750128757679326
  0
LINE
  8
0
  6
CONTINUOUS
 62
     7
 10
-1.202082216373218
 20
-0.1750128757679326
 11
-1.133078448366437
 21
-0.1767719745281171
  0
LINE
  8
0
  6
CONTINUOUS
 62
     7
 10
-1.133078448366437
 20
-0.1767719745281171
 11
-1.065956929019424
 21
-0.1803748971441199
  0
LINE
  8
0
  6
CONTINUOUS
 62
     7
 10
-1.065956929019424
 20
-0.1803748971441199
 11
-1.000736562181248
 21
-0.1858138584929225
  0
LINE
  8
0
  6
CONTINUOUS
 62
     7
 10
-1.000736562181248
 20
-0.1858138584929225
 11
-0.9374362517000356
 21
-0.1930810734512289
  0
LINE
  8
0
  6
CONTINUOUS
 62
     7
 10
-0.9374362517000356
 20
-0.1930810734512289
 11
-0.8760749014246338
 21
-0.2021687568961039
  0
LINE
  8
0
  6
CONTINUOUS
 62
     7
 10
-0.8760749014246338
 20
-0.2021687568961039
 11
-0.8166714152034182
 21
-0.213069123704418
  0
LINE
  8
0
  6
CONTINUOUS
 62
     7
 10
-0.8166714152034182
 20
-0.213069123704418
 11
-0.759244696885153
 21
-0.2257743887530417
  0
LINE
  8
0
  6
CONTINUOUS
 62
     7
 10
-0.759244696885153
 20
-0.2257743887530417
 11
-0.7038136503180192
 21
-0.2402767669188177
  0
LINE
  8
0
  6
CONTINUOUS
 62
     7
 10
-0.7038136503180192
 20
-0.2402767669188177
 11
-0.6503971793509478
 21
-0.2565684730788109
  0
LINE
  8
0
  6
CONTINUOUS
 62
     7
 10
-0.6503971793509478
 20
-0.2565684730788109
 11
-0.5990141878321475
 21
-0.2746417221098085
  0
LINE
  8
0
  6
CONTINUOUS
 62
     7
 10
-0.5990141878321475
 20
-0.2746417221098085
 11
-0.5496835796104382
 21
-0.2944887288888198
  0
LINE
  8
0
  6
CONTINUOUS
 62
     7
 10
-0.5496835796104382
 20
-0.2944887288888198
 11
-0.5024242585341399
 21
-0.3161017082926321
  0
LINE
  8
0
  6
CONTINUOUS
 62
     7
 10
-0.5024242585341399
 20
-0.3161017082926321
 11
-0.4572551284520443
 21
-0.33947287519831
  0
LINE
  8
0
  6
CONTINUOUS
 62
     7
 10
-0.4572551284520443
 20
-0.33947287519831
 11
-0.4141950932125271
 21
-0.36459444448253
  0
LINE
  8
0
  6
CONTINUOUS
 62
     7
 10
-0.4141950932125271
 20
-0.36459444448253
 11
-0.3732630566641304
 21
-0.3914586310224122
  0
LINE
  8
0
  6
CONTINUOUS
 62
     7
 10
-0.3732630566641304
 20
-0.3914586310224122
 11
-0.3344779226555072
 21
-0.4200576496948272
  0
LINE
  8
0
  6
CONTINUOUS
 62
     7
 10
-0.3344779226555072
 20
-0.4200576496948272
 11
-0.2978585950351165
 21
-0.4503837153765344
  0
LINE
  8
0
  6
CONTINUOUS
 62
     7
 10
-0.2978585950351165
 20
-0.4503837153765344
 11
-0.2634239776514447
 21
-0.4824290429445988
  0
LINE
  8
0
  6
CONTINUOUS
 62
     7
 10
-0.2634239776514447
 20
-0.4824290429445988
 11
-0.2311929743532559
 21
-0.5161858472759184
  0
LINE
  8
0
  6
CONTINUOUS
 62
     7
 10
-0.2311929743532559
 20
-0.5161858472759184
 11
-0.2011844889888148
 21
-0.5516463432473084
  0
LINE
  8
0
  6
CONTINUOUS
 62
     7
 10
-0.2011844889888148
 20
-0.5516463432473084
 11
-0.1734174254070242
 21
-0.5888027457358336
  0
LINE
  8
0
  6
CONTINUOUS
 62
     7
 10
-0.1734174254070242
 20
-0.5888027457358336
 11
-0.1479106874561209
 21
-0.6276472696182256
  0
LINE
  8
0
  6
CONTINUOUS
 62
     7
 10
-0.1479106874561209
 20
-0.6276472696182256
 11
-0.1246831789847302
 21
-0.6681721297714383
  0
LINE
  8
0
  6
CONTINUOUS
 62
     7
 10
-0.1246831789847302
 20
-0.6681721297714383
 11
-0.1037538038414221
 21
-0.7103695410724253
  0
LINE
  8
0
  6
CONTINUOUS
 62
     7
 10
-0.1037538038414221
 20
-0.7103695410724253
 11
-0.0851414658748217
 21
-0.7542317183980296
  0
LINE
  8
0
  6
CONTINUOUS
 62
     7
 10
-0.0851414658748217
 20
-0.7542317183980296
 11
-0.0688650689333326
 21
-0.7997508766252048
  0
LINE
  8
0
  6
CONTINUOUS
 62
     7
 10
-0.0688650689333326
 20
-0.7997508766252048
 11
-0.0549435168656354
 21
-0.8469192306309048
  0
LINE
  8
0
  6
CONTINUOUS
 62
     7
 10
-0.0549435168656354
 20
-0.8469192306309048
 11
-0.0433957135201335
 21
-0.8957289952919167
  0
LINE
  8
0
  6
CONTINUOUS
 62
     7
 10
-0.0433957135201335
 20
-0.8957289952919167
 11
-0.0342405627454245
 21
-0.9461723854853055
  0
LINE
  8
0
  6
CONTINUOUS
 62
     7
 10
-0.0342405627454245
 20
-0.9461723854853055
 11
-0.0274969683901338
 21
-0.9982416160878305
  0
LINE
  8
0
  6
CONTINUOUS
 62
     7
 10
-0.0274969683901338
 20
-0.9982416160878305
 11
-0.023183834302748
 21
-1.051928901976529
  0
LINE
  8
0
  6
CONTINUOUS
 62
     7
 10
-0.023183834302748
 20
-1.051928901976529
 11
-0.0213200643318368
 21
-1.107226458028215
  0
LINE
  8
0
  6
CONTINUOUS
 62
     7
 10
-0.0213200643318368
 20
-1.107226458028215
 11
-0.0220399462529386
 21
-1.163296203512132
  0
LINE
  8
0
  6
CONTINUOUS
 62
     7
 10
-0.0220399462529386
 20
-1.163296203512132
 11
-0.0256128443614501
 21
-1.218049685814404
  0
LINE
  8
0
  6
CONTINUOUS
 62
     7
 10
-0.0256128443614501
 20
-1.218049685814404
 11
-0.0319981493013544
 21
-1.271364171940209
  0
LINE
  8
0
  6
CONTINUOUS
 62
     7
 10
-0.0319981493013544
 20
-1.271364171940209
 11
-0.0411407649323348
 21
-1.323215170985798
  0
LINE
  8
0
  6
CONTINUOUS
 62
     7
 10
-0.0411407649323348
 20
-1.323215170985798
 11
-0.0529855951143521
 21
-1.373578192048197
  0
LINE
  8
0
  6
CONTINUOUS
 62
     7
 10
-0.0529855951143521
 20
-1.373578192048197
 11
-0.0674775437069508
 21
-1.422428744224019
  0
LINE
  8
0
  6
CONTINUOUS
 62
     7
 10
-0.0674775437069508
 20
-1.422428744224019
 11
-0.084561514569842
 21
-1.46974233660993
  0
LINE
  8
0
  6
CONTINUOUS
 62
     7
 10
-0.084561514569842
 20
-1.46974233660993
 11
-0.1041824115629308
 21
-1.515494478302598
  0
LINE
  8
0
  6
CONTINUOUS
 62
     7
 10
-0.1041824115629308
 20
-1.515494478302598
 11
-0.1262851385457342
 21
-1.559660678398633
  0
LINE
  8
0
  6
CONTINUOUS
 62
     7
 10
-0.1262851385457342
 20
-1.559660678398633
 11
-0.1508145993781296
 21
-1.602216445994842
  0
LINE
  8
0
  6
CONTINUOUS
 62
     7
 10
-0.1508145993781296
 20
-1.602216445994842
 11
-0.177715697919939
 21
-1.643137290187918
  0
LINE
  8
0
  6
CONTINUOUS
 62
     7
 10
-0.177715697919939
 20
-1.643137290187918
 11
-0.2069333380307348
 21
-1.682398720074502
  0
LINE
  8
0
  6
CONTINUOUS
 62
     7
 10
-0.2069333380307348
 20
-1.682398720074502
 11
-0.2384124235702278
 21
-1.719976244751426
  0
LINE
  8
0
  6
CONTINUOUS
 62
     7
 10
-0.2384124235702278
 20
-1.719976244751426
 11
-0.2720978583982125
 21
-1.755845373315024
  0
LINE
  8
0
  6
CONTINUOUS
 62
     7
 10
-0.2720978583982125
 20
-1.755845373315024
 11
-0.3079345463745387
 21
-1.789981614862324
  0
LINE
  8
0
  6
CONTINUOUS
 62
     7
 10
-0.3079345463745387
 20
-1.789981614862324
 11
-0.3458673913587229
 21
-1.822360478489909
  0
LINE
  8
0
  6
CONTINUOUS
 62
     7
 10
-0.3458673913587229
 20
-1.822360478489909
 11
-0.3858412972106151
 21
-1.85295747329442
  0
LINE
  8
0
  6
CONTINUOUS
 62
     7
 10
-0.3858412972106151
 20
-1.85295747329442
 11
-0.427801167789954
 21
-1.881748108372633
  0
LINE
  8
0
  6
CONTINUOUS
 62
     7
 10
-0.427801167789954
 20
-1.881748108372633
 11
-0.4716919069564507
 21
-1.908707892821215
  0
LINE
  8
0
  6
CONTINUOUS
 62
     7
 10
-0.4716919069564507
 20
-1.908707892821215
 11
-0.5174584185699271
 21
-1.933812335736723
  0
LINE
  8
0
  6
CONTINUOUS
 62
     7
 10
-0.5174584185699271
 20
-1.933812335736723
 11
-0.5650456064898446
 21
-1.957036946216018
  0
LINE
  8
0
  6
CONTINUOUS
 62
     7
 10
-0.5650456064898446
 20
-1.957036946216018
 11
-0.6143983745762194
 21
-1.978357233355627
  0
LINE
  8
0
  6
CONTINUOUS
 62
     7
 10
-0.6143983745762194
 20
-1.978357233355627
 11
-0.6654616266887348
 21
-1.997748706252439
  0
LINE
  8
0
  6
CONTINUOUS
 62
     7
 10
-0.6654616266887348
 20
-1.997748706252439
 11
-0.7181802666870463
 21
-2.015186874002928
  0
LINE
  8
0
  6
CONTINUOUS
 62
     7
 10
-0.7181802666870463
 20
-2.015186874002928
 11
-0.7724991984309204
 21
-2.030647245703898
  0
LINE
  8
0
  6
CONTINUOUS
 62
     7
 10
-0.7724991984309204
 20
-2.030647245703898
 11
-0.8283633257801237
 21
-2.044105330452128
  0
LINE
  8
0
  6
CONTINUOUS
 62
     7
 10
-0.8283633257801237
 20
-2.044105330452128
 11
-0.8857175525942285
 21
-2.055536637344118
  0
LINE
  8
0
  6
CONTINUOUS
 62
     7
 10
-0.8857175525942285
 20
-2.055536637344118
 11
-0.9445067827331399
 21
-2.064916675476619
  0
LINE
  8
0
  6
CONTINUOUS
 62
     7
 10
-0.9445067827331399
 20
-2.064916675476619
 11
-1.004675920056625
 21
-2.072220953946407
  0
LINE
  8
0
  6
CONTINUOUS
 62
     7
 10
-1.004675920056625
 20
-2.072220953946407
 11
-1.066169868424227
 21
-2.077424981850012
  0
LINE
  8
0
  6
CONTINUOUS
 62
     7
 10
-1.066169868424227
 20
-2.077424981850012
 11
-1.128933531695825
 21
-2.080504268284294
  0
LINE
  8
0
  6
CONTINUOUS
 62
     7
 10
-1.128933531695825
 20
-2.080504268284294
 11
-1.192903768592712
 21
-2.08143580696063
  0
LINE
  8
0
  6
CONTINUOUS
 62
     7
 10
-1.192903768592712
 20
-2.08143580696063
 11
-1.256201403646851
 21
-2.080542783584605
  0
LINE
  8
0
  6
CONTINUOUS
 62
     7
 10
-1.256201403646851
 20
-2.080542783584605
 11
-1.317440896517724
 21
-2.078095852141415
  0
LINE
  8
0
  6
CONTINUOUS
 62
     7
 10
-1.317440896517724
 20
-2.078095852141415
 11
-1.376657268215425
 21
-2.074111877167328
  0
LINE
  8
0
  6
CONTINUOUS
 62
     7
 10
-1.376657268215425
 20
-2.074111877167328
 11
-1.433885539749435
 21
-2.068607723198224
  0
LINE
  8
0
  6
CONTINUOUS
 62
     7
 10
-1.433885539749435
 20
-2.068607723198224
 11
-1.489160732129624
 21
-2.06160025477034
  0
LINE
  8
0
  6
CONTINUOUS
 62
     7
 10
-1.489160732129624
 20
-2.06160025477034
 11
-1.542517866365833
 21
-2.053106336420002
  0
LINE
  8
0
  6
CONTINUOUS
 62
     7
 10
-1.542517866365833
 20
-2.053106336420002
 11
-1.593991963467739
 21
-2.043142832683198
  0
LINE
  8
0
  6
CONTINUOUS
 62
     7
 10
-1.593991963467739
 20
-2.043142832683198
 11
-1.643618044445155
 21
-2.031726608096224
  0
LINE
  8
0
  6
CONTINUOUS
 62
     7
 10
-1.643618044445155
 20
-2.031726608096224
 11
-1.691431130307841
 21
-2.01887452719493
  0
LINE
  8
0
  6
CONTINUOUS
 62
     7
 10
-1.691431130307841
 20
-2.01887452719493
 11
-1.737466242065527
 21
-2.004603454515613
  0
LINE
  8
0
  6
CONTINUOUS
 62
     7
 10
-1.737466242065527
 20
-2.004603454515613
 11
-1.781758400727917
 21
-1.988930254594401
  0
LINE
  8
0
  6
CONTINUOUS
 62
     7
 10
-1.781758400727917
 20
-1.988930254594401
 11
-1.82434262730502
 21
-1.971871791967311
  0
LINE
  8
0
  6
CONTINUOUS
 62
     7
 10
-1.82434262730502
 20
-1.971871791967311
 11
-1.865253942806427
 21
-1.953444931170834
  0
LINE
  8
0
  6
CONTINUOUS
 62
     7
 10
-1.865253942806427
 20
-1.953444931170834
 11
-1.904527368241815
 21
-1.933666536740625
  0
LINE
  8
0
  6
CONTINUOUS
 62
     7
 10
-1.904527368241815
 20
-1.933666536740625
 11
-1.94219792462122
 21
-1.91255347321323
  0
LINE
  8
0
  6
CONTINUOUS
 62
     7
 10
-1.94219792462122
 20
-1.91255347321323
 11
-1.97830063295415
 21
-1.8901226051245
  0
LINE
  8
0
  6
CONTINUOUS
 62
     7
 10
-1.97830063295415
 20
-1.8901226051245
 11
-2.012870514250447
 21
-1.86639079701062
  0
LINE
  8
0
  6
CONTINUOUS
 62
     7
 10
-2.012870514250447
 20
-1.86639079701062
 11
-2.045942589519928
 21
-1.841374913407801
  0
LINE
  8
0
  6
CONTINUOUS
 62
     7
 10
-2.045942589519928
 20
-1.841374913407801
 11
-2.077551879772238
 21
-1.815091818852227
  0
LINE
  8
0
  6
CONTINUOUS
 62
     7
 10
-2.077551879772238
 20
-1.815091818852227
 11
-2.107733406017331
 21
-1.787558377879916
  0
LINE
  8
0
  6
CONTINUOUS
 62
     7
 10
-2.107733406017331
 20
-1.787558377879916
 11
-2.136522189264828
 21
-1.758791455027026
  0
LINE
  8
0
  6
CONTINUOUS
 62
     7
 10
-2.136522189264828
 20
-1.758791455027026
 11
-2.163953250524514
 21
-1.728807914829711
  0
LINE
  8
0
  6
CONTINUOUS
 62
     7
 10
-2.163953250524514
 20
-1.728807914829711
 11
-2.190061610806232
 21
-1.697624621824101
  0
LINE
  8
0
  6
CONTINUOUS
 62
     7
 10
-2.190061610806232
 20
-1.697624621824101
 11
-2.214882291119741
 21
-1.665258440546408
  0
LINE
  8
0
  6
CONTINUOUS
 62
     7
 10
-2.214882291119741
 20
-1.665258440546408
 11
-2.238450312474632
 21
-1.631726235532621
  0
LINE
  8
0
  6
CONTINUOUS
 62
     7
 10
-2.238450312474632
 20
-1.631726235532621
 11
-2.260800695880943
 21
-1.597044871318898
  0
LINE
  8
0
  6
CONTINUOUS
 62
     7
 10
-2.260800695880943
 20
-1.597044871318898
 11
-2.281968462348127
 21
-1.561231212441533
  0
LINE
  8
0
  6
CONTINUOUS
 62
     7
 10
-2.281968462348127
 20
-1.561231212441533
 11
-2.301988632886331
 21
-1.524302123436516
  0
LINE
  8
0
  6
CONTINUOUS
 62
     7
 10
-2.301988632886331
 20
-1.524302123436516
 11
-2.320896228504926
 21
-1.486274468839921
  0
LINE
  8
0
  6
CONTINUOUS
 62
     7
 10
-2.320896228504926
 20
-1.486274468839921
 11
-2.338726270214031
 21
-1.447165113188098
  0
LINE
  8
0
  6
CONTINUOUS
 62
     7
 10
-2.338726270214031
 20
-1.447165113188098
 11
-2.355513779023127
 21
-1.40699092101701
  0
LINE
  8
0
  6
CONTINUOUS
 62
     7
 10
-2.206379557013721
 20
1.459416341982989
 11
-2.18988990678215
 21
1.501424913504579
  0
LINE
  8
0
  6
CONTINUOUS
 62
     7
 10
-2.18988990678215
 20
1.501424913504579
 11
-2.172364349554534
 21
1.542186575721777
  0
LINE
  8
0
  6
CONTINUOUS
 62
     7
 10
-2.172364349554534
 20
1.542186575721777
 11
-2.153770104623753
 21
1.581685716396081
  0
LINE
  8
0
  6
CONTINUOUS
 62
     7
 10
-2.153770104623753
 20
1.581685716396081
 11
-2.134074391282631
 21
1.619906723289183
  0
LINE
  8
0
  6
CONTINUOUS
 62
     7
 10
-2.134074391282631
 20
1.619906723289183
 11
-2.113244428823851
 21
1.656833984162775
  0
LINE
  8
0
  6
CONTINUOUS
 62
     7
 10
-2.113244428823851
 20
1.656833984162775
 11
-2.091247436540128
 21
1.692451886778606
  0
LINE
  8
0
  6
CONTINUOUS
 62
     7
 10
-2.091247436540128
 20
1.692451886778606
 11
-2.068050633724228
 21
1.726744818898202
  0
LINE
  8
0
  6
CONTINUOUS
 62
     7
 10
-2.068050633724228
 20
1.726744818898202
 11
-2.043621239668947
 21
1.759697168283281
  0
LINE
  8
0
  6
CONTINUOUS
 62
     7
 10
-2.043621239668947
 20
1.759697168283281
 11
-2.017926473667025
 21
1.791293322695481
  0
LINE
  8
0
  6
CONTINUOUS
 62
     7
 10
-2.017926473667025
 20
1.791293322695481
 11
-1.990933555011121
 21
1.821517669896577
  0
LINE
  8
0
  6
CONTINUOUS
 62
     7
 10
-1.990933555011121
 20
1.821517669896577
 11
-1.962609702993917
 21
1.850354597648179
  0
LINE
  8
0
  6
CONTINUOUS
 62
     7
 10
-1.962609702993917
 20
1.850354597648179
 11
-1.932922136908544
 21
1.877788493711785
  0
LINE
  8
0
  6
CONTINUOUS
 62
     7
 10
-1.932922136908544
 20
1.877788493711785
 11
-1.901838076047241
 21
1.903803745849392
  0
LINE
  8
0
  6
CONTINUOUS
 62
     7
 10
-1.901838076047241
 20
1.903803745849392
 11
-1.869324739703027
 21
1.928384741822303
  0
LINE
  8
0
  6
CONTINUOUS
 62
     7
 10
-1.869324739703027
 20
1.928384741822303
 11
-1.835349347168641
 21
1.951515869392378
  0
LINE
  8
0
  6
CONTINUOUS
 62
     7
 10
-1.835349347168641
 20
1.951515869392378
 11
-1.799879117736741
 21
1.973181516321282
  0
LINE
  8
0
  6
CONTINUOUS
 62
     7
 10
-1.799879117736741
 20
1.973181516321282
 11
-1.762881270700123
 21
1.993366070370678
  0
LINE
  8
0
  6
CONTINUOUS
 62
     7
 10
-1.762881270700123
 20
1.993366070370678
 11
-1.724323025351443
 21
2.012053919302176
  0
LINE
  8
0
  6
CONTINUOUS
 62
     7
 10
-1.724323025351443
 20
2.012053919302176
 11
-1.684171600983636
 21
2.029229450877495
  0
LINE
  8
0
  6
CONTINUOUS
 62
     7
 10
-1.684171600983636
 20
2.029229450877495
 11
-1.642394216889331
 21
2.044877052858274
  0
LINE
  8
0
  6
CONTINUOUS
 62
     7
 10
-1.642394216889331
 20
2.044877052858274
 11
-1.598958092361213
 21
2.058981113006092
  0
LINE
  8
0
  6
CONTINUOUS
 62
     7
 10
-1.598958092361213
 20
2.058981113006092
 11
-1.553830446692217
 21
2.071526019082781
  0
LINE
  8
0
  6
CONTINUOUS
 62
     7
 10
-1.553830446692217
 20
2.071526019082781
 11
-1.506978499174944
 21
2.082496158849894
  0
LINE
  8
0
  6
CONTINUOUS
 62
     7
 10
-1.506978499174944
 20
2.082496158849894
 11
-1.458369469102133
 21
2.091875920069097
  0
LINE
  8
0
  6
CONTINUOUS
 62
     7
 10
-1.458369469102133
 20
2.091875920069097
 11
-1.407970575766526
 21
2.099649690502081
  0
LINE
  8
0
  6
CONTINUOUS
 62
     7
 10
-1.407970575766526
 20
2.099649690502081
 11
-1.355749038460918
 21
2.105801857910483
  0
LINE
  8
0
  6
CONTINUOUS
 62
     7
 10
-1.355749038460918
 20
2.105801857910483
 11
-1.301672076478022
 21
2.110316810055995
  0
LINE
  8
0
  6
CONTINUOUS
 62
     7
 10
-1.301672076478022
 20
2.110316810055995
 11
-1.245706909110633
 21
2.113178934700283
  0
LINE
  8
0
  6
CONTINUOUS
 62
     7
 10
-1.245706909110633
 20
2.113178934700283
 11
-1.187820755651436
 21
2.114372619604981
  0
LINE
  8
0
  6
CONTINUOUS
 62
     7
 10
-1.187820755651436
 20
2.114372619604981
 11
-1.129037629808649
 21
2.11383666100487
  0
LINE
  8
0
  6
CONTINUOUS
 62
     7
 10
-1.129037629808649
 20
2.11383666100487
 11
-1.071614550569755
 21
2.11147573888007
  0
LINE
  8
0
  6
CONTINUOUS
 62
     7
 10
-1.071614550569755
 20
2.11147573888007
 11
-1.015655725320225
 21
2.10730379845428
  0
LINE
  8
0
  6
CONTINUOUS
 62
     7
 10
-1.015655725320225
 20
2.10730379845428
 11
-0.9611910055901118
 21
2.101338255772383
  0
LINE
  8
0
  6
CONTINUOUS
 62
     7
 10
-0.9611910055901118
 20
2.101338255772383
 11
-0.9082502429097472
 21
2.093596526879182
  0
LINE
  8
0
  6
CONTINUOUS
 62
     7
 10
-0.9082502429097472
 20
2.093596526879182
 11
-0.8568632888093508
 21
2.084096027819587
  0
LINE
  8
0
  6
CONTINUOUS
 62
     7
 10
-0.8568632888093508
 20
2.084096027819587
 11
-0.8070599948189483
 21
2.072854174638261
  0
LINE
  8
0
  6
CONTINUOUS
 62
     7
 10
-0.8070599948189483
 20
2.072854174638261
 11
-0.7588702124688429
 21
2.059888383380171
  0
LINE
  8
0
  6
CONTINUOUS
 62
     7
 10
-0.7588702124688429
 20
2.059888383380171
 11
-0.7123237932892268
 21
2.045216070090172
  0
LINE
  8
0
  6
CONTINUOUS
 62
     7
 10
-0.7123237932892268
 20
2.045216070090172
 11
-0.6674505888103199
 21
2.028854650812955
  0
LINE
  8
0
  6
CONTINUOUS
 62
     7
 10
-0.6674505888103199
 20
2.028854650812955
 11
-0.6242804505623145
 21
2.010821541593599
  0
LINE
  8
0
  6
CONTINUOUS
 62
     7
 10
-0.6242804505623145
 20
2.010821541593599
 11
-0.5828432300754305
 21
1.991134158476682
  0
LINE
  8
0
  6
CONTINUOUS
 62
     7
 10
-0.5828432300754305
 20
1.991134158476682
 11
-0.543168778879749
 21
1.96980991750717
  0
LINE
  8
0
  6
CONTINUOUS
 62
     7
 10
-0.543168778879749
 20
1.96980991750717
 11
-0.5052869485054345
 21
1.946866234729894
  0
LINE
  8
0
  6
CONTINUOUS
 62
     7
 10
-0.5052869485054345
 20
1.946866234729894
 11
-0.4692275904829291
 21
1.92232052618968
  0
LINE
  8
0
  6
CONTINUOUS
 62
     7
 10
-0.4692275904829291
 20
1.92232052618968
 11
-0.4350205563422305
 21
1.896190207931386
  0
LINE
  8
0
  6
CONTINUOUS
 62
     7
 10
-0.4350205563422305
 20
1.896190207931386
 11
-0.4026956976136142
 21
1.868492695999785
  0
LINE
  8
0
  6
CONTINUOUS
 62
     7
 10
-0.4026956976136142
 20
1.868492695999785
 11
-0.3722828658272448
 21
1.839245406439788
  0
LINE
  8
0
  6
CONTINUOUS
 62
     7
 10
-0.3722828658272448
 20
1.839245406439788
 11
-0.3438119125133421
 21
1.808465755296196
  0
LINE
  8
0
  6
CONTINUOUS
 62
     7
 10
-0.3438119125133421
 20
1.808465755296196
 11
-0.3173126892020428
 21
1.776171158613782
  0
LINE
  8
0
  6
CONTINUOUS
 62
     7
 10
-0.3173126892020428
 20
1.776171158613782
 11
-0.2928150474235391
 21
1.742379032437569
  0
LINE
  8
0
  6
CONTINUOUS
 62
     7
 10
-0.2928150474235391
 20
1.742379032437569
 11
-0.2703488387081343
 21
1.707106792812191
  0
LINE
  8
0
  6
CONTINUOUS
 62
     7
 10
-0.2703488387081343
 20
1.707106792812191
 11
-0.2499439145859372
 21
1.67037185578256
  0
LINE
  8
0
  6
CONTINUOUS
 62
     7
 10
-0.2499439145859372
 20
1.67037185578256
 11
-0.2316301265871401
 21
1.632191637393476
  0
LINE
  8
0
  6
CONTINUOUS
 62
     7
 10
-0.2316301265871401
 20
1.632191637393476
 11
-0.2154373262419351
 21
1.592583553689991
  0
LINE
  8
0
  6
CONTINUOUS
 62
     7
 10
-0.2154373262419351
 20
1.592583553689991
 11
-0.2013953650806255
 21
1.5515650207166
  0
LINE
  8
0
  6
CONTINUOUS
 62
     7
 10
-0.2013953650806255
 20
1.5515650207166
 11
-0.1895340946332369
 21
1.50915345451838
  0
LINE
  8
0
  6
CONTINUOUS
 62
     7
 10
-0.1895340946332369
 20
1.50915345451838
 11
-0.179883366430128
 21
1.465366271140078
  0
LINE
  8
0
  6
CONTINUOUS
 62
     7
 10
-0.179883366430128
 20
1.465366271140078
 11
-0.1724730320014356
 21
1.420220886626578
  0
LINE
  8
0
  6
CONTINUOUS
 62
     7
 10
-0.1724730320014356
 20
1.420220886626578
 11
-0.167332942877324
 21
1.373734717022568
  0
LINE
  8
0
  6
CONTINUOUS
 62
     7
 10
-0.167332942877324
 20
1.373734717022568
 11
-0.16449295058793
 21
1.325925178373183
  0
LINE
  8
0
  6
CONTINUOUS
 62
     7
 10
-0.16449295058793
 20
1.325925178373183
 11
-0.1639721978617115
 21
1.276906101012804
  0
LINE
  8
0
  6
CONTINUOUS
 62
     7
 10
-0.1639721978617115
 20
1.276906101012804
 11
-0.1655968522701334
 21
1.228395687163986
  0
LINE
  8
0
  6
CONTINUOUS
 62
     7
 10
-0.1655968522701334
 20
1.228395687163986
 11
-0.1692781302014557
 21
1.181035664427899
  0
LINE
  8
0
  6
CONTINUOUS
 62
     7
 10
-0.1692781302014557
 20
1.181035664427899
 11
-0.1749918543686169
 21
1.134844410341396
  0
LINE
  8
0
  6
CONTINUOUS
 62
     7
 10
-0.1749918543686169
 20
1.134844410341396
 11
-0.1827138474851386
 21
1.089840302441469
  0
LINE
  8
0
  6
CONTINUOUS
 62
     7
 10
-0.1827138474851386
 20
1.089840302441469
 11
-0.1924199322640152
 21
1.046041718264695
  0
LINE
  8
0
  6
CONTINUOUS
 62
     7
 10
-0.1924199322640152
 20
1.046041718264695
 11
-0.2040859314185184
 21
1.003467035348177
  0
LINE
  8
0
  6
CONTINUOUS
 62
     7
 10
-0.2040859314185184
 20
1.003467035348177
 11
-0.2176876676618367
 21
0.9621346312286005
  0
LINE
  8
0
  6
CONTINUOUS
 62
     7
 10
-0.2176876676618367
 20
0.9621346312286005
 11
-0.2332009637073529
 21
0.9220628834427647
  0
LINE
  8
0
  6
CONTINUOUS
 62
     7
 10
-0.2332009637073529
 20
0.9220628834427647
 11
-0.2506016422679225
 21
0.8832701695278833
  0
LINE
  8
0
  6
CONTINUOUS
 62
     7
 10
-0.2506016422679225
 20
0.8832701695278833
 11
-0.2698655260569283
 21
0.8457748670204768
  0
LINE
  8
0
  6
CONTINUOUS
 62
     7
 10
-0.2698655260569283
 20
0.8457748670204768
 11
-0.290968437787642
 21
0.8095953534575651
  0
LINE
  8
0
  6
CONTINUOUS
 62
     7
 10
-0.290968437787642
 20
0.8095953534575651
 11
-0.3138862001732245
 21
0.7747500063758628
  0
LINE
  8
0
  6
CONTINUOUS
 62
     7
 10
-0.3138862001732245
 20
0.7747500063758628
 11
-0.3385946359267256
 21
0.7412572033125009
  0
LINE
  8
0
  6
CONTINUOUS
 62
     7
 10
-0.3385946359267256
 20
0.7412572033125009
 11
-0.3650695677616389
 21
0.7091353218038887
  0
LINE
  8
0
  6
CONTINUOUS
 62
     7
 10
-0.3650695677616389
 20
0.7091353218038887
 11
-0.3932868183910421
 21
0.6784027393872682
  0
LINE
  8
0
  6
CONTINUOUS
 62
     7
 10
-0.3932868183910421
 20
0.6784027393872682
 11
-0.4232222105279293
 21
0.6490778335992708
  0
LINE
  8
0
  6
CONTINUOUS
 62
     7
 10
-0.4232222105279293
 20
0.6490778335992708
 11
-0.4548515668858222
 21
0.621178981976972
  0
LINE
  8
0
  6
CONTINUOUS
 62
     7
 10
-0.4548515668858222
 20
0.621178981976972
 11
-0.488150710177826
 21
0.594724562057003
  0
LINE
  8
0
  6
CONTINUOUS
 62
     7
 10
-0.488150710177826
 20
0.594724562057003
 11
-0.5230954631169349
 21
0.5697329513763005
  0
LINE
  8
0
  6
CONTINUOUS
 62
     7
 10
-0.5230954631169349
 20
0.5697329513763005
 11
-0.5596616484166428
 21
0.5462225274718013
  0
LINE
  8
0
  6
CONTINUOUS
 62
     7
 10
-0.5596616484166428
 20
0.5462225274718013
 11
-0.5978250887900272
 21
0.5242116678801922
  0
LINE
  8
0
  6
CONTINUOUS
 62
     7
 10
-0.5978250887900272
 20
0.5242116678801922
 11
-0.637561606950221
 21
0.5037187501384932
  0
LINE
  8
0
  6
CONTINUOUS
 62
     7
 10
-0.637561606950221
 20
0.5037187501384932
 11
-0.6788470256106349
 21
0.4847621517834744
  0
LINE
  8
0
  6
CONTINUOUS
 62
     7
 10
-0.6788470256106349
 20
0.4847621517834744
 11
-0.7216571674842076
 21
0.4673602503519891
  0
LINE
  8
0
  6
CONTINUOUS
 62
     7
 10
-0.7216571674842076
 20
0.4673602503519891
 11
-0.7659678552843219
 21
0.4515314233808909
  0
LINE
  8
0
  6
CONTINUOUS
 62
     7
 10
-0.7659678552843219
 20
0.4515314233808909
 11
-0.8117549117242218
 21
0.4372940484070886
  0
LINE
  8
0
  6
CONTINUOUS
 62
     7
 10
-0.8117549117242218
 20
0.4372940484070886
 11
-0.8589941595170125
 21
0.4246665029673802
  0
LINE
  8
0
  6
CONTINUOUS
 62
     7
 10
-0.8589941595170125
 20
0.4246665029673802
 11
-0.9076614213758272
 21
0.4136671645986745
  0
LINE
  8
0
  6
CONTINUOUS
 62
     7
 10
-0.9076614213758272
 20
0.4136671645986745
 11
-0.9577325200139375
 21
0.4043144108378804
  0
LINE
  8
0
  6
CONTINUOUS
 62
     7
 10
-0.9577325200139375
 20
0.4043144108378804
 11
-1.009183278144643
 21
0.3966266192215739
  0
LINE
  8
0
  6
CONTINUOUS
 62
     7
 10
-1.009183278144643
 20
0.3966266192215739
 11
-1.061989518481049
 21
0.3906221672869692
  0
LINE
  8
0
  6
CONTINUOUS
 62
     7
 10
-1.061989518481049
 20
0.3906221672869692
 11
-1.116127063736316
 21
0.3863194325706698
  0
LINE
  8
0
  6
CONTINUOUS
 62
     7
 10
-1.116127063736316
 20
0.3863194325706698
 11
-1.171571736623855
 21
0.3837367926095847
  0
LINE
  8
0
  6
CONTINUOUS
 62
     7
 10
-1.171571736623855
 20
0.3837367926095847
 11
-1.228299126852628
 21
0.3828923479830548
  0
LINE
  8
0
  6
CONTINUOUS
 62
     7
 10
-1.228299126852628
 20
0.3828923479830548
 11
-1.279153744002726
 21
0.3828923479830548
  0
LINE
  8
0
  6
CONTINUOUS
 62
     7
 10
-0.5140303460071383
 20
0.1234889749829882
 11
-0.4219074098897324
 21
0.1482610124675932
  0
LINE
  8
0
  6
CONTINUOUS
 62
     7
 10
-0.4219074098897324
 20
0.1482610124675932
 11
-0.3344602095731175
 21
0.1767549209278907
  0
LINE
  8
0
  6
CONTINUOUS
 62
     7
 10
-0.3344602095731175
 20
0.1767549209278907
 11
-0.251684153509818
 21
0.2089477391368777
  0
LINE
  8
0
  6
CONTINUOUS
 62
     7
 10
-0.251684153509818
 20
0.2089477391368777
 11
-0.1735746501525248
 21
0.2448165058676621
  0
LINE
  8
0
  6
CONTINUOUS
 62
     7
 10
-0.1735746501525248
 20
0.2448165058676621
 11
-0.100127107954151
 21
0.2843382598930744
  0
LINE
  8
0
  6
CONTINUOUS
 62
     7
 10
-0.100127107954151
 20
0.2843382598930744
 11
-0.0313369353668325
 21
0.3274900399863889
  0
LINE
  8
0
  6
CONTINUOUS
 62
     7
 10
-0.0313369353668325
 20
0.3274900399863889
 11
0.0328004591563791
 21
0.3742488849201586
  0
LINE
  8
0
  6
CONTINUOUS
 62
     7
 10
0.0328004591563791
 20
0.3742488849201586
 11
0.0922896671628759
 21
0.424591833467769
  0
LINE
  8
0
  6
CONTINUOUS
 62
     7
 10
0.0922896671628759
 20
0.424591833467769
 11
0.147135280200078
 21
0.4784959244020781
  0
LINE
  8
0
  6
CONTINUOUS
 62
     7
 10
0.147135280200078
 20
0.4784959244020781
 11
0.1973418898152668
 21
0.5359381964958887
  0
LINE
  8
0
  6
CONTINUOUS
 62
     7
 10
0.1973418898152668
 20
0.5359381964958887
 11
0.2429140875557789
 21
0.5968956885223642
  0
LINE
  8
0
  6
CONTINUOUS
 62
     7
 10
0.2429140875557789
 20
0.5968956885223642
 11
0.28385646496909
 21
0.661345439254557
  0
LINE
  8
0
  6
CONTINUOUS
 62
     7
 10
0.28385646496909
 20
0.661345439254557
 11
0.3201736136023703
 21
0.7292644874653809
  0
LINE
  8
0
  6
CONTINUOUS
 62
     7
 10
0.3201736136023703
 20
0.7292644874653809
 11
0.3518701250029843
 21
0.8006298719277771
  0
LINE
  8
0
  6
CONTINUOUS
 62
     7
 10
0.3518701250029843
 20
0.8006298719277771
 11
0.3789505907183521
 21
0.8754186314147705
  0
LINE
  8
0
  6
CONTINUOUS
 62
     7
 10
0.3789505907183521
 20
0.8754186314147705
 11
0.401419602295866
 21
0.9536078046993579
  0
LINE
  8
0
  6
CONTINUOUS
 62
     7
 10
0.401419602295866
 20
0.9536078046993579
 11
0.4192817512826685
 21
1.035174430554564
  0
LINE
  8
0
  6
CONTINUOUS
 62
     7
 10
0.4192817512826685
 20
1.035174430554564
 11
0.4325416292262629
 21
1.120095547753303
  0
LINE
  8
0
  6
CONTINUOUS
 62
     7
 10
0.4325416292262629
 20
1.120095547753303
 11
0.4412038276740693
 21
1.208348195068598
  0
LINE
  8
0
  6
CONTINUOUS
 62
     7
 10
0.4412038276740693
 20
1.208348195068598
 11
0.4452729381731746
 21
1.299909411273364
  0
LINE
  8
0
  6
CONTINUOUS
 62
     7
 10
0.4452729381731746
 20
1.299909411273364
 11
0.4444731713298677
 21
1.39363897748529
  0
LINE
  8
0
  6
CONTINUOUS
 62
     7
 10
0.4444731713298677
 20
1.39363897748529
 11
0.4377623503453443
 21
1.485106079871595
  0
LINE
  8
0
  6
CONTINUOUS
 62
     7
 10
0.4377623503453443
 20
1.485106079871595
 11
0.4251511168038569
 21
1.573779776873979
  0
LINE
  8
0
  6
CONTINUOUS
 62
     7
 10
0.4251511168038569
 20
1.573779776873979
 11
0.4067645989116742
 21
1.659571729245302
  0
LINE
  8
0
  6
CONTINUOUS
 62
     7
 10
0.4067645989116742
 20
1.659571729245302
 11
0.3827279248750648
 21
1.742393597738284
  0
LINE
  8
0
  6
CONTINUOUS
 62
     7
 10
0.3827279248750648
 20
1.742393597738284
 11
0.3531662229001586
 21
1.822157043105677
  0
LINE
  8
0
  6
CONTINUOUS
 62
     7
 10
0.3531662229001586
 20
1.822157043105677
 11
0.3182046211933909
 21
1.898773726100256
  0
LINE
  8
0
  6
CONTINUOUS
 62
     7
 10
0.3182046211933909
 20
1.898773726100256
 11
0.2779682479608636
 21
1.972155307474799
  0
LINE
  8
0
  6
CONTINUOUS
 62
     7
 10
0.2779682479608636
 20
1.972155307474799
 11
0.2325822314087622
 21
2.042213447982
  0
LINE
  8
0
  6
CONTINUOUS
 62
     7
 10
0.2325822314087622
 20
2.042213447982
 11
0.1821716997434664
 21
2.108859808374774
  0
LINE
  8
0
  6
CONTINUOUS
 62
     7
 10
0.1821716997434664
 20
2.108859808374774
 11
0.1268617811711892
 21
2.172006049405678
  0
LINE
  8
0
  6
CONTINUOUS
 62
     7
 10
0.1268617811711892
 20
2.172006049405678
 11
0.0667776038981716
 21
2.231563831827599
  0
LINE
  8
0
  6
CONTINUOUS
 62
     7
 10
0.0667776038981716
 20
2.231563831827599
 11
0.0020442961306544
 21
2.287444816393397
  0
LINE
  8
0
  6
CONTINUOUS
 62
     7
 10
0.0020442961306544
 20
2.287444816393397
 11
-0.0672130139251215
 21
2.339560663855683
  0
LINE
  8
0
  6
CONTINUOUS
 62
     7
 10
-0.0672130139251215
 20
2.339560663855683
 11
-0.1408691980629151
 21
2.387823034967179
  0
LINE
  8
0
  6
CONTINUOUS
 62
     7
 10
-0.1408691980629151
 20
2.387823034967179
 11
-0.2187991280764301
 21
2.432143590480884
  0
LINE
  8
0
  6
CONTINUOUS
 62
     7
 10
-0.2187991280764301
 20
2.432143590480884
 11
-0.3008776757594256
 21
2.47243399114927
  0
LINE
  8
0
  6
CONTINUOUS
 62
     7
 10
-0.3008776757594256
 20
2.47243399114927
 11
-0.3869797129058272
 21
2.50860589772528
  0
LINE
  8
0
  6
CONTINUOUS
 62
     7
 10
-0.3869797129058272
 20
2.50860589772528
 11
-0.4769801113091443
 21
2.540570970961664
  0
LINE
  8
0
  6
CONTINUOUS
 62
     7
 10
-0.4769801113091443
 20
2.540570970961664
 11
-0.570753742763247
 21
2.568240871611172
  0
LINE
  8
0
  6
CONTINUOUS
 62
     7
 10
-0.570753742763247
 20
2.568240871611172
 11
-0.6681754790618388
 21
2.591527260426579
  0
LINE
  8
0
  6
CONTINUOUS
 62
     7
 10
-0.6681754790618388
 20
2.591527260426579
 11
-0.7691201919987345
 21
2.610341798160581
  0
LINE
  8
0
  6
CONTINUOUS
 62
     7
 10
-0.7691201919987345
 20
2.610341798160581
 11
-0.8734627533676376
 21
2.624596145565983
  0
LINE
  8
0
  6
CONTINUOUS
 62
     7
 10
-0.8734627533676376
 20
2.624596145565983
 11
-0.9810780349623349
 21
2.634201963395588
  0
LINE
  8
0
  6
CONTINUOUS
 62
     7
 10
-0.9810780349623349
 20
2.634201963395588
 11
-1.091840908576613
 21
2.639070912402064
  0
LINE
  8
0
  6
CONTINUOUS
 62
     7
 10
-1.091840908576613
 20
2.639070912402064
 11
-1.204688906486145
 21
2.639218148424466
  0
LINE
  8
0
  6
CONTINUOUS
 62
     7
 10
-1.204688906486145
 20
2.639218148424466
 11
-1.31373378962063
 21
2.635288842657374
  0
LINE
  8
0
  6
CONTINUOUS
 62
     7
 10
-1.31373378962063
 20
2.635288842657374
 11
-1.418058961711655
 21
2.6275332310986
  0
LINE
  8
0
  6
CONTINUOUS
 62
     7
 10
-1.418058961711655
 20
2.6275332310986
 11
-1.517771159057157
 21
2.616099930053267
  0
LINE
  8
0
  6
CONTINUOUS
 62
     7
 10
-1.517771159057157
 20
2.616099930053267
 11
-1.612977117955217
 21
2.601137555826083
  0
LINE
  8
0
  6
CONTINUOUS
 62
     7
 10
-1.612977117955217
 20
2.601137555826083
 11
-1.703783574704437
 21
2.58279472472206
  0
LINE
  8
0
  6
CONTINUOUS
 62
     7
 10
-1.703783574704437
 20
2.58279472472206
 11
-1.790297265602619
 21
2.561220053046098
  0
LINE
  8
0
  6
CONTINUOUS
 62
     7
 10
-1.790297265602619
 20
2.561220053046098
 11
-1.872624926947952
 21
2.536562157103184
  0
LINE
  8
0
  6
CONTINUOUS
 62
     7
 10
-1.872624926947952
 20
2.536562157103184
 11
-1.950873295038652
 21
2.508969653197995
  0
LINE
  8
0
  6
CONTINUOUS
 62
     7
 10
-1.950873295038652
 20
2.508969653197995
 11
-2.025149106172824
 21
2.478591157635684
  0
LINE
  8
0
  6
CONTINUOUS
 62
     7
 10
-2.025149106172824
 20
2.478591157635684
 11
-2.09555909664863
 21
2.445575286721096
  0
LINE
  8
0
  6
CONTINUOUS
 62
     7
 10
-2.09555909664863
 20
2.445575286721096
 11
-2.162210002764231
 21
2.410070656759078
  0
LINE
  8
0
  6
CONTINUOUS
 62
     7
 10
-2.162210002764231
 20
2.410070656759078
 11
-2.225208560817843
 21
2.372225884054696
  0
LINE
  8
0
  6
CONTINUOUS
 62
     7
 10
-2.225208560817843
 20
2.372225884054696
 11
-2.284661507107433
 21
2.332189584912575
  0
LINE
  8
0
  6
CONTINUOUS
 62
     7
 10
-2.284661507107433
 20
2.332189584912575
 11
-2.340675577931356
 21
2.290110375637977
  0
LINE
  8
0
  6
CONTINUOUS
 62
     7
 10
-2.340675577931356
 20
2.290110375637977
 11
-2.393357509587635
 21
2.246136872535609
  0
LINE
  8
0
  6
CONTINUOUS
 62
     7
 10
-2.393357509587635
 20
2.246136872535609
 11
-2.44281403837443
 21
2.200417691910261
  0
LINE
  8
0
  6
CONTINUOUS
 62
     7
 10
-2.44281403837443
 20
2.200417691910261
 11
-2.489151900590042
 21
2.153101450067196
  0
LINE
  8
0
  6
CONTINUOUS
 62
     7
 10
-2.489151900590042
 20
2.153101450067196
 11
-2.532477832532326
 21
2.104336763310982
  0
LINE
  8
0
  6
CONTINUOUS
 62
     7
 10
-2.532477832532326
 20
2.104336763310982
 11
-2.572898570499721
 21
2.054272247946687
  0
LINE
  8
0
  6
CONTINUOUS
 62
     7
 10
-2.572898570499721
 20
2.054272247946687
 11
-2.610520850790332
 21
2.003056520279267
  0
LINE
  8
0
  6
CONTINUOUS
 62
     7
 10
-2.610520850790332
 20
2.003056520279267
 11
-2.645451409702154
 21
1.950838196613569
  0
LINE
  8
0
  6
CONTINUOUS
 62
     7
 10
-2.645451409702154
 20
1.950838196613569
 11
-2.677796983533431
 21
1.897765893254466
  0
LINE
  8
0
  6
CONTINUOUS
 62
     7
 10
-2.677796983533431
 20
1.897765893254466
 11
-2.707664308582325
 21
1.843988226507082
  0
LINE
  8
0
  6
CONTINUOUS
 62
     7
 10
-2.707664308582325
 20
1.843988226507082
 11
-2.735160121147051
 21
1.789653812675984
  0
LINE
  8
0
  6
CONTINUOUS
 62
     7
 10
-2.735160121147051
 20
1.789653812675984
 11
-2.760391157525632
 21
1.73491126806638
  0
LINE
  8
0
  6
CONTINUOUS
 62
     7
 10
-2.760391157525632
 20
1.73491126806638
 11
-2.783464154016229
 21
1.679909208982977
  0
LINE
  8
0
  6
CONTINUOUS
 62
     7
 10
-2.958534762020431
 20
-1.614513619017016
 11
-2.925245684332528
 21
-1.692821737156819
  0
LINE
  8
0
  6
CONTINUOUS
 62
     7
 10
-2.925245684332528
 20
-1.692821737156819
 11
-2.888135289657534
 21
-1.768887732208541
  0
LINE
  8
0
  6
CONTINUOUS
 62
     7
 10
-2.888135289657534
 20
-1.768887732208541
 11
-2.847136935714145
 21
-1.842581807329519
  0
LINE
  8
0
  6
CONTINUOUS
 62
     7
 10
-2.847136935714145
 20
-1.842581807329519
 11
-2.802183980221029
 21
-1.913774165677534
  0
LINE
  8
0
  6
CONTINUOUS
 62
     7
 10
-2.802183980221029
 20
-1.913774165677534
 11
-2.753209780896937
 21
-1.98233501041023
  0
LINE
  8
0
  6
CONTINUOUS
 62
     7
 10
-2.753209780896937
 20
-1.98233501041023
 11
-2.700147695460731
 21
-2.048134544685221
  0
LINE
  8
0
  6
CONTINUOUS
 62
     7
 10
-2.700147695460731
 20
-2.048134544685221
 11
-2.642931081631022
 21
-2.111042971660232
  0
LINE
  8
0
  6
CONTINUOUS
 62
     7
 10
-2.642931081631022
 20
-2.111042971660232
 11
-2.581493297126536
 21
-2.170930494492934
  0
LINE
  8
0
  6
CONTINUOUS
 62
     7
 10
-2.581493297126536
 20
-2.170930494492934
 11
-2.515767699665938
 21
-2.227667316340831
  0
LINE
  8
0
  6
CONTINUOUS
 62
     7
 10
-2.515767699665938
 20
-2.227667316340831
 11
-2.44568764696812
 21
-2.281123640361732
  0
LINE
  8
0
  6
CONTINUOUS
 62
     7
 10
-2.44568764696812
 20
-2.281123640361732
 11
-2.371186496751748
 21
-2.331169669713223
  0
LINE
  8
0
  6
CONTINUOUS
 62
     7
 10
-2.371186496751748
 20
-2.331169669713223
 11
-2.292197606735435
 21
-2.37767560755292
  0
LINE
  8
0
  6
CONTINUOUS
 62
     7
 10
-2.292197606735435
 20
-2.37767560755292
 11
-2.208654334638127
 21
-2.420511657038632
  0
LINE
  8
0
  6
CONTINUOUS
 62
     7
 10
-2.208654334638127
 20
-2.420511657038632
 11
-2.120490038178352
 21
-2.459548021327806
  0
LINE
  8
0
  6
CONTINUOUS
 62
     7
 10
-2.120490038178352
 20
-2.459548021327806
 11
-2.027638075074834
 21
-2.494654903578336
  0
LINE
  8
0
  6
CONTINUOUS
 62
     7
 10
-2.027638075074834
 20
-2.494654903578336
 11
-1.930031803046434
 21
-2.525702506947641
  0
LINE
  8
0
  6
CONTINUOUS
 62
     7
 10
-1.930031803046434
 20
-2.525702506947641
 11
-1.827604579811848
 21
-2.552561034593503
  0
LINE
  8
0
  6
CONTINUOUS
 62
     7
 10
-1.827604579811848
 20
-2.552561034593503
 11
-1.720289763089633
 21
-2.57510068967362
  0
LINE
  8
0
  6
CONTINUOUS
 62
     7
 10
-1.720289763089633
 20
-2.57510068967362
 11
-1.608020710598734
 21
-2.593191675345524
  0
LINE
  8
0
  6
CONTINUOUS
 62
     7
 10
-1.608020710598734
 20
-2.593191675345524
 11
-1.490730780057736
 21
-2.606704194766912
  0
LINE
  8
0
  6
CONTINUOUS
 62
     7
 10
-1.490730780057736
 20
-2.606704194766912
 11
-1.368353329185445
 21
-2.61550845109551
  0
LINE
  8
0
  6
CONTINUOUS
 62
     7
 10
-1.368353329185445
 20
-2.61550845109551
 11
-1.240821715700641
 21
-2.619474647488906
  0
LINE
  8
0
  6
CONTINUOUS
 62
     7
 10
-1.240821715700641
 20
-2.619474647488906
 11
-1.11036175543483
 21
-2.618400373043617
  0
LINE
  8
0
  6
CONTINUOUS
 62
     7
 10
-1.11036175543483
 20
-2.618400373043617
 11
-0.9836548303788217
 21
-2.61206180925802
  0
LINE
  8
0
  6
CONTINUOUS
 62
     7
 10
-0.9836548303788217
 20
-2.61206180925802
 11
-0.8612039585965403
 21
-2.600556352660016
  0
LINE
  8
0
  6
CONTINUOUS
 62
     7
 10
-0.8612039585965403
 20
-2.600556352660016
 11
-0.7430870797055511
 21
-2.583998637793822
  0
LINE
  8
0
  6
CONTINUOUS
 62
     7
 10
-0.7430870797055511
 20
-2.583998637793822
 11
-0.629382133323031
 21
-2.562503299203323
  0
LINE
  8
0
  6
CONTINUOUS
 62
     7
 10
-0.629382133323031
 20
-2.562503299203323
 11
-0.5201670590663232
 21
-2.536184971432709
  0
LINE
  8
0
  6
CONTINUOUS
 62
     7
 10
-0.5201670590663232
 20
-2.536184971432709
 11
-0.4155197965526325
 21
-2.505158289025894
  0
LINE
  8
0
  6
CONTINUOUS
 62
     7
 10
-0.4155197965526325
 20
-2.505158289025894
 11
-0.3155182853993299
 21
-2.469537886527012
  0
LINE
  8
0
  6
CONTINUOUS
 62
     7
 10
-0.3155182853993299
 20
-2.469537886527012
 11
-0.2202404652237311
 21
-2.429438398480227
  0
LINE
  8
0
  6
CONTINUOUS
 62
     7
 10
-0.2202404652237311
 20
-2.429438398480227
 11
-0.1297642756431239
 21
-2.384974459429312
  0
LINE
  8
0
  6
CONTINUOUS
 62
     7
 10
-0.1297642756431239
 20
-2.384974459429312
 11
-0.0441676562747129
 21
-2.336260703918541
  0
LINE
  8
0
  6
CONTINUOUS
 62
     7
 10
-0.0441676562747129
 20
-2.336260703918541
 11
0.0364714532640753
 21
-2.283411766491827
  0
LINE
  8
0
  6
CONTINUOUS
 62
     7
 10
0.0364714532640753
 20
-2.283411766491827
 11
0.1120751133559805
 21
-2.226542281693222
  0
LINE
  8
0
  6
CONTINUOUS
 62
     7
 10
0.1120751133559805
 20
-2.226542281693222
 11
0.1825653843836594
 21
-2.165766884066944
  0
LINE
  8
0
  6
CONTINUOUS
 62
     7
 10
0.1825653843836594
 20
-2.165766884066944
 11
0.2478643267299629
 21
-2.101200208156822
  0
LINE
  8
0
  6
CONTINUOUS
 62
     7
 10
0.2478643267299629
 20
-2.101200208156822
 11
0.3078940007774644
 21
-2.032956888507103
  0
LINE
  8
0
  6
CONTINUOUS
 62
     7
 10
0.3078940007774644
 20
-2.032956888507103
 11
0.362576466908876
 21
-1.961151559661617
  0
LINE
  8
0
  6
CONTINUOUS
 62
     7
 10
0.362576466908876
 20
-1.961151559661617
 11
0.4118337855069654
 21
-1.885898856164608
  0
LINE
  8
0
  6
CONTINUOUS
 62
     7
 10
0.4118337855069654
 20
-1.885898856164608
 11
0.4555880169542503
 21
-1.807313412560019
  0
LINE
  8
0
  6
CONTINUOUS
 62
     7
 10
0.4555880169542503
 20
-1.807313412560019
 11
0.4937612216336928
 21
-1.725509863392011
  0
LINE
  8
0
  6
CONTINUOUS
 62
     7
 10
0.4937612216336928
 20
-1.725509863392011
 11
0.5262754599278663
 21
-1.640602843204497
  0
LINE
  8
0
  6
CONTINUOUS
 62
     7
 10
0.5262754599278663
 20
-1.640602843204497
 11
0.5530527922194828
 21
-1.552706986541613
  0
LINE
  8
0
  6
CONTINUOUS
 62
     7
 10
0.5530527922194828
 20
-1.552706986541613
 11
0.5740152788911712
 21
-1.461936927947299
  0
LINE
  8
0
  6
CONTINUOUS
 62
     7
 10
0.5740152788911712
 20
-1.461936927947299
 11
0.5890849803256715
 21
-1.368407301965718
  0
LINE
  8
0
  6
CONTINUOUS
 62
     7
 10
0.5890849803256715
 20
-1.368407301965718
 11
0.598183956905779
 21
-1.272232743140922
  0
LINE
  8
0
  6
CONTINUOUS
 62
     7
 10
0.598183956905779
 20
-1.272232743140922
 11
0.6012342690140671
 21
-1.173527886017017
  0
LINE
  8
0
  6
CONTINUOUS
 62
     7
 10
3.102847181089774
 20
2.075499351982979
 11
3.002551268491471
 21
2.071902920590174
  0
LINE
  8
0
  6
CONTINUOUS
 62
     7
 10
3.002551268491471
 20
2.071902920590174
 11
2.90640643956716
 21
2.061117406224971
  0
LINE
  8
0
  6
CONTINUOUS
 62
     7
 10
2.90640643956716
 20
2.061117406224971
 11
2.814424032027862
 21
2.043148478607565
  0
LINE
  8
0
  6
CONTINUOUS
 62
     7
 10
2.814424032027862
 20
2.043148478607565
 11
2.726615383583958
 21
2.018001807457675
  0
LINE
  8
0
  6
CONTINUOUS
 62
     7
 10
2.726615383583958
 20
2.018001807457675
 11
2.642991831946273
 21
1.985683062495497
  0
LINE
  8
0
  6
CONTINUOUS
 62
     7
 10
2.642991831946273
 20
1.985683062495497
 11
2.563564714825467
 21
1.946197913440889
  0
LINE
  8
0
  6
CONTINUOUS
 62
     7
 10
2.563564714825467
 20
1.946197913440889
 11
2.488345369932171
 21
1.899552030013768
  0
LINE
  8
0
  6
CONTINUOUS
 62
     7
 10
2.488345369932171
 20
1.899552030013768
 11
2.417345134977267
 21
1.845751081934466
  0
LINE
  8
0
  6
CONTINUOUS
 62
     7
 10
2.417345134977267
 20
1.845751081934466
 11
2.350575347671163
 21
1.784800738922676
  0
LINE
  8
0
  6
CONTINUOUS
 62
     7
 10
2.350575347671163
 20
1.784800738922676
 11
2.288047345724853
 21
1.716706670698481
  0
LINE
  8
0
  6
CONTINUOUS
 62
     7
 10
2.288047345724853
 20
1.716706670698481
 11
2.22977246684869
 21
1.64147454698188
  0
LINE
  8
0
  6
CONTINUOUS
 62
     7
 10
2.22977246684869
 20
1.64147454698188
 11
2.175762048753554
 21
1.559110037492789
  0
LINE
  8
0
  6
CONTINUOUS
 62
     7
 10
2.175762048753554
 20
1.559110037492789
 11
2.126027429150246
 21
1.469618811951373
  0
LINE
  8
0
  6
CONTINUOUS
 62
     7
 10
2.126027429150246
 20
1.469618811951373
 11
2.080579945749061
 21
1.373006540077382
  0
LINE
  8
0
  6
CONTINUOUS
 62
     7
 10
2.080579945749061
 20
1.373006540077382
 11
2.039430936261077
 21
1.269278891590869
  0
LINE
  8
0
  6
CONTINUOUS
 62
     7
 10
2.039430936261077
 20
1.269278891590869
 11
2.002591738396869
 21
1.158441536212085
  0
LINE
  8
0
  6
CONTINUOUS
 62
     7
 10
2.002591738396869
 20
1.158441536212085
 11
1.970073689867041
 21
1.040500143660694
  0
LINE
  8
0
  6
CONTINUOUS
 62
     7
 10
1.970073689867041
 20
1.040500143660694
 11
1.94188812838228
 21
0.9154603836567798
  0
LINE
  8
0
  6
CONTINUOUS
 62
     7
 10
1.94188812838228
 20
0.9154603836567798
 11
1.918046391653355
 21
0.7833279259203962
  0
LINE
  8
0
  6
CONTINUOUS
 62
     7
 10
1.918046391653355
 20
0.7833279259203962
 11
1.898559817390871
 21
0.6441084401714869
  0
LINE
  8
0
  6
CONTINUOUS
 62
     7
 10
1.898559817390871
 20
0.6441084401714869
 11
1.883439743305654
 21
0.4978075961300787
  0
LINE
  8
0
  6
CONTINUOUS
 62
     7
 10
1.883439743305654
 20
0.4978075961300787
 11
1.872697507108168
 21
0.3444310635160874
  0
LINE
  8
0
  6
CONTINUOUS
 62
     7
 10
1.872697507108168
 20
0.3444310635160874
 11
1.866344446509266
 21
0.1839845120495953
  0
LINE
  8
0
  6
CONTINUOUS
 62
     7
 10
1.866344446509266
 20
0.1839845120495953
 11
1.864391612713567
 21
0.0164962253771661
  0
LINE
  8
0
  6
CONTINUOUS
 62
     7
 10
1.864391612713567
 20
0.0164962253771661
 11
1.866751113221071
 21
-0.150318870268229
  0
LINE
  8
0
  6
CONTINUOUS
 62
     7
 10
1.866751113221071
 20
-0.150318870268229
 11
1.873348612848186
 21
-0.3102555026300302
  0
LINE
  8
0
  6
CONTINUOUS
 62
     7
 10
1.873348612848186
 20
-0.3102555026300302
 11
1.884186905913743
 21
-0.4632941084982967
  0
LINE
  8
0
  6
CONTINUOUS
 62
     7
 10
1.884186905913743
 20
-0.4632941084982967
 11
1.899268786737546
 21
-0.6094151246631152
  0
LINE
  8
0
  6
CONTINUOUS
 62
     7
 10
1.899268786737546
 20
-0.6094151246631152
 11
1.918597049638454
 21
-0.7485989879146282
  0
LINE
  8
0
  6
CONTINUOUS
 62
     7
 10
1.918597049638454
 20
-0.7485989879146282
 11
1.942174488936077
 21
-0.8808261350429225
  0
LINE
  8
0
  6
CONTINUOUS
 62
     7
 10
1.942174488936077
 20
-0.8808261350429225
 11
1.970003898949468
 21
-1.006077002838113
  0
LINE
  8
0
  6
CONTINUOUS
 62
     7
 10
1.970003898949468
 20
-1.006077002838113
 11
2.002088073998043
 21
-1.124332028090341
  0
LINE
  8
0
  6
CONTINUOUS
 62
     7
 10
2.002088073998043
 20
-1.124332028090341
 11
2.038429808401077
 21
-1.235571647589723
  0
LINE
  8
0
  6
CONTINUOUS
 62
     7
 10
2.038429808401077
 20
-1.235571647589723
 11
2.079031896477873
 21
-1.339776298126316
  0
LINE
  8
0
  6
CONTINUOUS
 62
     7
 10
2.079031896477873
 20
-1.339776298126316
 11
2.123897132547681
 21
-1.436926416490431
  0
LINE
  8
0
  6
CONTINUOUS
 62
     7
 10
2.123897132547681
 20
-1.436926416490431
 11
2.173028310929748
 21
-1.527002439471931
  0
LINE
  8
0
  6
CONTINUOUS
 62
     7
 10
2.173028310929748
 20
-1.527002439471931
 11
2.226428225943378
 21
-1.609984803861014
  0
LINE
  8
0
  6
CONTINUOUS
 62
     7
 10
2.226428225943378
 20
-1.609984803861014
 11
2.284099671907958
 21
-1.685853946447824
  0
LINE
  8
0
  6
CONTINUOUS
 62
     7
 10
2.284099671907958
 20
-1.685853946447824
 11
2.34604544314268
 21
-1.754590304022613
  0
LINE
  8
0
  6
CONTINUOUS
 62
     7
 10
2.34604544314268
 20
-1.754590304022613
 11
2.412268333966849
 21
-1.816174313375218
  0
LINE
  8
0
  6
CONTINUOUS
 62
     7
 10
2.412268333966849
 20
-1.816174313375218
 11
2.482771138699769
 21
-1.870586411295921
  0
LINE
  8
0
  6
CONTINUOUS
 62
     7
 10
2.482771138699769
 20
-1.870586411295921
 11
2.557556651660769
 21
-1.91780703457492
  0
LINE
  8
0
  6
CONTINUOUS
 62
     7
 10
2.557556651660769
 20
-1.91780703457492
 11
2.636627667169072
 21
-1.957816620002134
  0
LINE
  8
0
  6
CONTINUOUS
 62
     7
 10
2.636627667169072
 20
-1.957816620002134
 11
2.719986979543981
 21
-1.990595604367845
  0
LINE
  8
0
  6
CONTINUOUS
 62
     7
 10
2.719986979543981
 20
-1.990595604367845
 11
2.807637383104883
 21
-2.016124424462029
  0
LINE
  8
0
  6
CONTINUOUS
 62
     7
 10
2.807637383104883
 20
-2.016124424462029
 11
2.899581672170859
 21
-2.034383517074828
  0
LINE
  8
0
  6
CONTINUOUS
 62
     7
 10
2.899581672170859
 20
-2.034383517074828
 11
2.99582264106138
 21
-2.045353318996412
  0
LINE
  8
0
  6
CONTINUOUS
 62
     7
 10
2.99582264106138
 20
-2.045353318996412
 11
3.096363084095555
 21
-2.049014267017007
  0
LINE
  8
0
  6
CONTINUOUS
 62
     7
 10
4.939094892032564
 20
0.0197276259829848
 11
4.93566053473446
 21
0.2339737199645864
  0
LINE
  8
0
  6
CONTINUOUS
 62
     7
 10
4.93566053473446
 20
0.2339737199645864
 11
4.925398738918091
 21
0.438976317043871
  0
LINE
  8
0
  6
CONTINUOUS
 62
     7
 10
4.925398738918091
 20
0.438976317043871
 11
4.90837141870068
 21
0.6347466760474874
  0
LINE
  8
0
  6
CONTINUOUS
 62
     7
 10
4.90837141870068
 20
0.6347466760474874
 11
4.884640488199365
 21
0.8212960558024729
  0
LINE
  8
0
  6
CONTINUOUS
 62
     7
 10
4.884640488199365
 20
0.8212960558024729
 11
4.854267861531453
 21
0.9986357151355596
  0
LINE
  8
0
  6
CONTINUOUS
 62
     7
 10
4.854267861531453
 20
0.9986357151355596
 11
4.81731545281408
 21
1.166776912873702
  0
LINE
  8
0
  6
CONTINUOUS
 62
     7
 10
4.81731545281408
 20
1.166776912873702
 11
4.773845176164359
 21
1.325730907843464
  0
LINE
  8
0
  6
CONTINUOUS
 62
     7
 10
4.773845176164359
 20
1.325730907843464
 11
4.723918945699651
 21
1.475508958871885
  0
LINE
  8
0
  6
CONTINUOUS
 62
     7
 10
4.723918945699651
 20
1.475508958871885
 11
4.667598675536954
 21
1.616122324785779
  0
LINE
  8
0
  6
CONTINUOUS
 62
     7
 10
4.667598675536954
 20
1.616122324785779
 11
4.604946279793576
 21
1.747582264411879
  0
LINE
  8
0
  6
CONTINUOUS
 62
     7
 10
4.604946279793576
 20
1.747582264411879
 11
4.536023672586542
 21
1.869900036576971
  0
LINE
  8
0
  6
CONTINUOUS
 62
     7
 10
4.536023672586542
 20
1.869900036576971
 11
4.46089276803327
 21
1.983086900108066
  0
LINE
  8
0
  6
CONTINUOUS
 62
     7
 10
4.46089276803327
 20
1.983086900108066
 11
4.37961548025087
 21
2.087154113831785
  0
LINE
  8
0
  6
CONTINUOUS
 62
     7
 10
4.37961548025087
 20
2.087154113831785
 11
4.292253723356342
 21
2.182112936575081
  0
LINE
  8
0
  6
CONTINUOUS
 62
     7
 10
4.292253723356342
 20
2.182112936575081
 11
4.19886941146716
 21
2.267974627164659
  0
LINE
  8
0
  6
CONTINUOUS
 62
     7
 10
4.19886941146716
 20
2.267974627164659
 11
4.099524458700376
 21
2.344750444427473
  0
LINE
  8
0
  6
CONTINUOUS
 62
     7
 10
4.099524458700376
 20
2.344750444427473
 11
3.994280779173048
 21
2.412451647190283
  0
LINE
  8
0
  6
CONTINUOUS
 62
     7
 10
3.994280779173048
 20
2.412451647190283
 11
3.883200287002564
 21
2.471089494279877
  0
LINE
  8
0
  6
CONTINUOUS
 62
     7
 10
3.883200287002564
 20
2.471089494279877
 11
3.766344896306062
 21
2.520675244523179
  0
LINE
  8
0
  6
CONTINUOUS
 62
     7
 10
3.766344896306062
 20
2.520675244523179
 11
3.643776521200653
 21
2.561220156746868
  0
LINE
  8
0
  6
CONTINUOUS
 62
     7
 10
3.643776521200653
 20
2.561220156746868
 11
3.51555707580356
 21
2.592735489777981
  0
LINE
  8
0
  6
CONTINUOUS
 62
     7
 10
3.51555707580356
 20
2.592735489777981
 11
3.381748474231977
 21
2.615232502443082
  0
LINE
  8
0
  6
CONTINUOUS
 62
     7
 10
3.381748474231977
 20
2.615232502443082
 11
3.24241263060307
 21
2.628722453569182
  0
LINE
  8
0
  6
CONTINUOUS
 62
     7
 10
3.24241263060307
 20
2.628722453569182
 11
3.097611459034061
 21
2.633216601982985
  0
LINE
  8
0
  6
CONTINUOUS
 62
     7
 10
3.096363084095555
 20
-2.049014267017007
 11
3.196170077343075
 21
-2.045405285229534
  0
LINE
  8
0
  6
CONTINUOUS
 62
     7
 10
3.196170077343075
 20
-2.045405285229534
 11
3.291677835375872
 21
-2.034591105178424
  0
LINE
  8
0
  6
CONTINUOUS
 62
     7
 10
3.291677835375872
 20
-2.034591105178424
 11
3.38289456321586
 21
-2.01659087483072
  0
LINE
  8
0
  6
CONTINUOUS
 62
     7
 10
3.38289456321586
 20
-2.01659087483072
 11
3.469828465885283
 21
-1.991423742153609
  0
LINE
  8
0
  6
CONTINUOUS
 62
     7
 10
3.469828465885283
 20
-1.991423742153609
 11
3.552487748406052
 21
-1.959108855113939
  0
LINE
  8
0
  6
CONTINUOUS
 62
     7
 10
3.552487748406052
 20
-1.959108855113939
 11
3.630880615800164
 21
-1.919665361678924
  0
LINE
  8
0
  6
CONTINUOUS
 62
     7
 10
3.630880615800164
 20
-1.919665361678924
 11
3.705015273089751
 21
-1.873112409815525
  0
LINE
  8
0
  6
CONTINUOUS
 62
     7
 10
3.705015273089751
 20
-1.873112409815525
 11
3.774899925296865
 21
-1.819469147490899
  0
LINE
  8
0
  6
CONTINUOUS
 62
     7
 10
3.774899925296865
 20
-1.819469147490899
 11
3.840542777443362
 21
-1.758754722672035
  0
LINE
  8
0
  6
CONTINUOUS
 62
     7
 10
3.840542777443362
 20
-1.758754722672035
 11
3.901952034551459
 21
-1.690988283326034
  0
LINE
  8
0
  6
CONTINUOUS
 62
     7
 10
3.901952034551459
 20
-1.690988283326034
 11
3.959135901643179
 21
-1.61618897741983
  0
LINE
  8
0
  6
CONTINUOUS
 62
     7
 10
3.959135901643179
 20
-1.61618897741983
 11
4.012102583740462
 21
-1.534375952920525
  0
LINE
  8
0
  6
CONTINUOUS
 62
     7
 10
4.012102583740462
 20
-1.534375952920525
 11
4.06086028586547
 21
-1.445568357795302
  0
LINE
  8
0
  6
CONTINUOUS
 62
     7
 10
4.06086028586547
 20
-1.445568357795302
 11
4.105417213040085
 21
-1.349785340011012
  0
LINE
  8
0
  6
CONTINUOUS
 62
     7
 10
4.105417213040085
 20
-1.349785340011012
 11
4.145781570286472
 21
-1.247046047534922
  0
LINE
  8
0
  6
CONTINUOUS
 62
     7
 10
4.145781570286472
 20
-1.247046047534922
 11
4.181961562626568
 21
-1.137369628333995
  0
LINE
  8
0
  6
CONTINUOUS
 62
     7
 10
4.181961562626568
 20
-1.137369628333995
 11
4.21396539508248
 21
-1.02077523037522
  0
LINE
  8
0
  6
CONTINUOUS
 62
     7
 10
4.21396539508248
 20
-1.02077523037522
 11
4.241801272676176
 21
-0.8972820016257266
  0
LINE
  8
0
  6
CONTINUOUS
 62
     7
 10
4.241801272676176
 20
-0.8972820016257266
 11
4.265477400429762
 21
-0.7669090900525033
  0
LINE
  8
0
  6
CONTINUOUS
 62
     7
 10
4.265477400429762
 20
-0.7669090900525033
 11
4.285001983365261
 21
-0.6296756436226236
  0
LINE
  8
0
  6
CONTINUOUS
 62
     7
 10
4.285001983365261
 20
-0.6296756436226236
 11
4.300383226504667
 21
-0.4856008103032439
  0
LINE
  8
0
  6
CONTINUOUS
 62
     7
 10
4.300383226504667
 20
-0.4856008103032439
 11
4.311629334870171
 21
-0.334703738061215
  0
LINE
  8
0
  6
CONTINUOUS
 62
     7
 10
4.311629334870171
 20
-0.334703738061215
 11
4.318748513483572
 21
-0.1770035748639154
  0
LINE
  8
0
  6
CONTINUOUS
 62
     7
 10
4.318748513483572
 20
-0.1770035748639154
 11
4.32174896736695
 21
-0.0125194686780295
  0
LINE
  8
0
  6
CONTINUOUS
 62
     7
 10
4.32174896736695
 20
-0.0125194686780294
 11
4.320610033718363
 21
0.1547201970532874
  0
LINE
  8
0
  6
CONTINUOUS
 62
     7
 10
4.320610033718363
 20
0.1547201970532874
 11
4.315262206430581
 21
0.3155428303142915
  0
LINE
  8
0
  6
CONTINUOUS
 62
     7
 10
4.315262206430581
 20
0.3155428303142915
 11
4.305688635816568
 21
0.4695603120732916
  0
LINE
  8
0
  6
CONTINUOUS
 62
     7
 10
4.305688635816568
 20
0.4695603120732916
 11
4.291874838667053
 21
0.6167407744137876
  0
LINE
  8
0
  6
CONTINUOUS
 62
     7
 10
4.291874838667053
 20
0.6167407744137876
 11
4.273806331772989
 21
0.7570523494193904
  0
LINE
  8
0
  6
CONTINUOUS
 62
     7
 10
4.273806331772989
 20
0.7570523494193904
 11
4.251468631924965
 21
0.890463169173572
  0
LINE
  8
0
  6
CONTINUOUS
 62
     7
 10
4.251468631924965
 20
0.890463169173572
 11
4.224847255913877
 21
1.016941365759888
  0
LINE
  8
0
  6
CONTINUOUS
 62
     7
 10
4.224847255913877
 20
1.016941365759888
 11
4.193927720530649
 21
1.136455071261783
  0
LINE
  8
0
  6
CONTINUOUS
 62
     7
 10
4.193927720530649
 20
1.136455071261783
 11
4.158695542566066
 21
1.248972417762895
  0
LINE
  8
0
  6
CONTINUOUS
 62
     7
 10
4.158695542566066
 20
1.248972417762895
 11
4.119136238810883
 21
1.354461537346585
  0
LINE
  8
0
  6
CONTINUOUS
 62
     7
 10
4.119136238810883
 20
1.354461537346585
 11
4.07523532605597
 21
1.452890562096687
  0
LINE
  8
0
  6
CONTINUOUS
 62
     7
 10
4.07523532605597
 20
1.452890562096687
 11
4.026978321092167
 21
1.544227624096478
  0
LINE
  8
0
  6
CONTINUOUS
 62
     7
 10
4.026978321092167
 20
1.544227624096478
 11
3.974350740710258
 21
1.628440855429569
  0
LINE
  8
0
  6
CONTINUOUS
 62
     7
 10
3.974350740710258
 20
1.628440855429569
 11
3.917338101701167
 21
1.705498388179683
  0
LINE
  8
0
  6
CONTINUOUS
 62
     7
 10
3.917338101701167
 20
1.705498388179683
 11
3.855925920855457
 21
1.775368354429901
  0
LINE
  8
0
  6
CONTINUOUS
 62
     7
 10
3.855925920855457
 20
1.775368354429901
 11
3.790099714964162
 21
1.838018886264198
  0
LINE
  8
0
  6
CONTINUOUS
 62
     7
 10
3.790099714964162
 20
1.838018886264198
 11
3.719845000818067
 21
1.893418115765877
  0
LINE
  8
0
  6
CONTINUOUS
 62
     7
 10
3.719845000818067
 20
1.893418115765877
 11
3.645147295208067
 21
1.941534175018689
  0
LINE
  8
0
  6
CONTINUOUS
 62
     7
 10
3.645147295208067
 20
1.941534175018689
 11
3.565992114924754
 21
1.9823351961058
  0
LINE
  8
0
  6
CONTINUOUS
 62
     7
 10
3.565992114924754
 20
1.9823351961058
 11
3.482364976759189
 21
2.01578931111096
  0
LINE
  8
0
  6
CONTINUOUS
 62
     7
 10
3.482364976759189
 20
2.01578931111096
 11
3.394251397502074
 21
2.041864652117781
  0
LINE
  8
0
  6
CONTINUOUS
 62
     7
 10
3.394251397502074
 20
2.041864652117781
 11
3.301636893944276
 21
2.060529351209789
  0
LINE
  8
0
  6
CONTINUOUS
 62
     7
 10
3.301636893944276
 20
2.060529351209789
 11
3.204506982876581
 21
2.071751540470262
  0
LINE
  8
0
  6
CONTINUOUS
 62
     7
 10
3.204506982876581
 20
2.071751540470262
 11
3.102847181089774
 21
2.075499351982979
  0
LINE
  8
0
  6
CONTINUOUS
 62
     7
 10
3.097611459034061
 20
2.633216601982985
 11
2.94779046969057
 21
2.628369497390981
  0
LINE
  8
0
  6
CONTINUOUS
 62
     7
 10
2.94779046969057
 20
2.628369497390981
 11
2.803912480892345
 21
2.613865290201161
  0
LINE
  8
0
  6
CONTINUOUS
 62
     7
 10
2.803912480892345
 20
2.613865290201161
 11
2.666024356978963
 21
2.589759640293177
  0
LINE
  8
0
  6
CONTINUOUS
 62
     7
 10
2.666024356978963
 20
2.589759640293177
 11
2.534172962289666
 21
2.556108207546592
  0
LINE
  8
0
  6
CONTINUOUS
 62
     7
 10
2.534172962289666
 20
2.556108207546592
 11
2.408405161163779
 21
2.512966651841003
  0
LINE
  8
0
  6
CONTINUOUS
 62
     7
 10
2.408405161163779
 20
2.512966651841003
 11
2.288767817940768
 21
2.46039063305567
  0
LINE
  8
0
  6
CONTINUOUS
 62
     7
 10
2.288767817940768
 20
2.46039063305567
 11
2.175307796959874
 21
2.398435811070493
  0
LINE
  8
0
  6
CONTINUOUS
 62
     7
 10
2.175307796959874
 20
2.398435811070493
 11
2.068071962560369
 21
2.327157845764677
  0
LINE
  8
0
  6
CONTINUOUS
 62
     7
 10
2.068071962560369
 20
2.327157845764677
 11
1.967107179081773
 21
2.246612397018205
  0
LINE
  8
0
  6
CONTINUOUS
 62
     7
 10
1.967107179081773
 20
2.246612397018205
 11
1.872460310863355
 21
2.156855124710172
  0
LINE
  8
0
  6
CONTINUOUS
 62
     7
 10
1.872460310863355
 20
2.156855124710172
 11
1.784178222244442
 21
2.057941688720283
  0
LINE
  8
0
  6
CONTINUOUS
 62
     7
 10
1.784178222244442
 20
2.057941688720283
 11
1.702307777564388
 21
1.949927748928187
  0
LINE
  8
0
  6
CONTINUOUS
 62
     7
 10
1.702307777564388
 20
1.949927748928187
 11
1.626895841162462
 21
1.832868965213369
  0
LINE
  8
0
  6
CONTINUOUS
 62
     7
 10
1.626895841162462
 20
1.832868965213369
 11
1.557989277378158
 21
1.706820997455283
  0
LINE
  8
0
  6
CONTINUOUS
 62
     7
 10
1.557989277378158
 20
1.706820997455283
 11
1.495634950550745
 21
1.571839505533579
  0
LINE
  8
0
  6
CONTINUOUS
 62
     7
 10
1.495634950550745
 20
1.571839505533579
 11
1.43987972501966
 21
1.427980149327795
  0
LINE
  8
0
  6
CONTINUOUS
 62
     7
 10
1.43987972501966
 20
1.427980149327795
 11
1.390770465124064
 21
1.275298588717472
  0
LINE
  8
0
  6
CONTINUOUS
 62
     7
 10
1.390770465124064
 20
1.275298588717472
 11
1.348354035203447
 21
1.113850483582174
  0
LINE
  8
0
  6
CONTINUOUS
 62
     7
 10
1.348354035203447
 20
1.113850483582174
 11
1.312677299597081
 21
0.9436914938012742
  0
LINE
  8
0
  6
CONTINUOUS
 62
     7
 10
1.312677299597081
 20
0.9436914938012742
 11
1.283787122644375
 21
0.7648772792545888
  0
LINE
  8
0
  6
CONTINUOUS
 62
     7
 10
1.283787122644375
 20
0.7648772792545888
 11
1.261730368684683
 21
0.5774634998214623
  0
LINE
  8
0
  6
CONTINUOUS
 62
     7
 10
1.261730368684683
 20
0.5774634998214623
 11
1.246553902057274
 21
0.381505815381461
  0
LINE
  8
0
  6
CONTINUOUS
 62
     7
 10
1.246553902057274
 20
0.381505815381461
 11
1.238304587101474
 21
0.1770598858141792
  0
LINE
  8
0
  6
CONTINUOUS
 62
     7
 10
1.238304587101474
 20
0.1770598858141792
 11
1.236997479861279
 21
-0.0349674043660098
  0
LINE
  8
0
  6
CONTINUOUS
 62
     7
 10
1.236997479861279
 20
-0.0349674043660098
 11
1.242209892053453
 21
-0.2424305430372975
  0
LINE
  8
0
  6
CONTINUOUS
 62
     7
 10
1.242209892053453
 20
-0.2424305430372975
 11
1.253786112767385
 21
-0.4413698246427122
  0
LINE
  8
0
  6
CONTINUOUS
 62
     7
 10
1.253786112767385
 20
-0.4413698246427122
 11
1.271712614748954
 21
-0.6317581905531944
  0
LINE
  8
0
  6
CONTINUOUS
 62
     7
 10
1.271712614748954
 20
-0.6317581905531944
 11
1.295975870743954
 21
-0.8135685821397121
  0
LINE
  8
0
  6
CONTINUOUS
 62
     7
 10
1.295975870743954
 20
-0.8135685821397121
 11
1.326562353498179
 21
-0.9867739407730391
  0
LINE
  8
0
  6
CONTINUOUS
 62
     7
 10
1.326562353498179
 20
-0.9867739407730391
 11
1.363458535757589
 21
-1.151347207824116
  0
LINE
  8
0
  6
CONTINUOUS
 62
     7
 10
1.363458535757589
 20
-1.151347207824116
 11
1.406650890267758
 21
-1.307261324663939
  0
LINE
  8
0
  6
CONTINUOUS
 62
     7
 10
1.406650890267758
 20
-1.307261324663939
 11
1.456125889774673
 21
-1.454489232663336
  0
LINE
  8
0
  6
CONTINUOUS
 62
     7
 10
1.456125889774673
 20
-1.454489232663336
 11
1.511870007024074
 21
-1.593003873193305
  0
LINE
  8
0
  6
CONTINUOUS
 62
     7
 10
1.511870007024074
 20
-1.593003873193305
 11
1.573869714761866
 21
-1.722778187624507
  0
LINE
  8
0
  6
CONTINUOUS
 62
     7
 10
1.573869714761866
 20
-1.722778187624507
 11
1.64211148573376
 21
-1.843785117328217
  0
LINE
  8
0
  6
CONTINUOUS
 62
     7
 10
1.64211148573376
 20
-1.843785117328217
 11
1.716581792685662
 21
-1.955997603675014
  0
LINE
  8
0
  6
CONTINUOUS
 62
     7
 10
1.716581792685662
 20
-1.955997603675014
 11
1.797267108363365
 21
-2.059388588035921
  0
LINE
  8
0
  6
CONTINUOUS
 62
     7
 10
1.797267108363365
 20
-2.059388588035921
 11
1.884153905512581
 21
-2.153931011781907
  0
LINE
  8
0
  6
CONTINUOUS
 62
     7
 10
1.884153905512581
 20
-2.153931011781907
 11
1.977228656879271
 21
-2.2395978162838
  0
LINE
  8
0
  6
CONTINUOUS
 62
     7
 10
1.977228656879271
 20
-2.2395978162838
 11
2.076477835209173
 21
-2.316361942912515
  0
LINE
  8
0
  6
CONTINUOUS
 62
     7
 10
2.076477835209173
 20
-2.316361942912515
 11
2.181887913248082
 21
-2.384196333039018
  0
LINE
  8
0
  6
CONTINUOUS
 62
     7
 10
2.181887913248082
 20
-2.384196333039018
 11
2.293445363741875
 21
-2.443073928034139
  0
LINE
  8
0
  6
CONTINUOUS
 62
     7
 10
2.293445363741875
 20
-2.443073928034139
 11
2.411136659436458
 21
-2.492967669268736
  0
LINE
  8
0
  6
CONTINUOUS
 62
     7
 10
2.411136659436458
 20
-2.492967669268736
 11
2.534948273077375
 21
-2.533850498113832
  0
LINE
  8
0
  6
CONTINUOUS
 62
     7
 10
2.534948273077375
 20
-2.533850498113832
 11
2.664866677410671
 21
-2.565695355940312
  0
LINE
  8
0
  6
CONTINUOUS
 62
     7
 10
2.664866677410671
 20
-2.565695355940312
 11
2.800878345181973
 21
-2.588475184119004
  0
LINE
  8
0
  6
CONTINUOUS
 62
     7
 10
2.800878345181973
 20
-2.588475184119004
 11
2.942969749137353
 21
-2.602162924020934
  0
LINE
  8
0
  6
CONTINUOUS
 62
     7
 10
2.942969749137353
 20
-2.602162924020934
 11
3.091127362022466
 21
-2.606731517017014
  0
LINE
  8
0
  6
CONTINUOUS
 62
     7
 10
3.091127362022466
 20
-2.606731517017014
 11
3.237450120011947
 21
-2.602009846481623
  0
LINE
  8
0
  6
CONTINUOUS
 62
     7
 10
3.237450120011947
 20
-2.602009846481623
 11
3.378116179143048
 21
-2.587872981942324
  0
LINE
  8
0
  6
CONTINUOUS
 62
     7
 10
3.378116179143048
 20
-2.587872981942324
 11
3.513074882411177
 21
-2.564363143999409
  0
LINE
  8
0
  6
CONTINUOUS
 62
     7
 10
3.513074882411177
 20
-2.564363143999409
 11
3.64227557281227
 21
-2.531522553253007
  0
LINE
  8
0
  6
CONTINUOUS
 62
     7
 10
3.64227557281227
 20
-2.531522553253007
 11
3.765667593341654
 21
-2.489393430303604
  0
LINE
  8
0
  6
CONTINUOUS
 62
     7
 10
3.765667593341654
 20
-2.489393430303604
 11
3.883200286995181
 21
-2.438017995751329
  0
LINE
  8
0
  6
CONTINUOUS
 62
     7
 10
3.883200286995181
 20
-2.438017995751329
 11
3.994822996768593
 21
-2.377438470196419
  0
LINE
  8
0
  6
CONTINUOUS
 62
     7
 10
3.994822996768593
 20
-2.377438470196419
 11
4.100485065657244
 21
-2.307697074239195
  0
LINE
  8
0
  6
CONTINUOUS
 62
     7
 10
4.100485065657244
 20
-2.307697074239195
 11
4.20013583665707
 21
-2.228836028479813
  0
LINE
  8
0
  6
CONTINUOUS
 62
     7
 10
4.20013583665707
 20
-2.228836028479813
 11
4.293724652763648
 21
-2.140897553518733
  0
LINE
  8
0
  6
CONTINUOUS
 62
     7
 10
4.293724652763648
 20
-2.140897553518733
 11
4.381200856972661
 21
-2.043923869956027
  0
LINE
  8
0
  6
CONTINUOUS
 62
     7
 10
4.381200856972661
 20
-2.043923869956027
 11
4.46251379227966
 21
-1.937957198392015
  0
LINE
  8
0
  6
CONTINUOUS
 62
     7
 10
4.46251379227966
 20
-1.937957198392015
 11
4.537612801680357
 21
-1.823039759426909
  0
LINE
  8
0
  6
CONTINUOUS
 62
     7
 10
4.537612801680357
 20
-1.823039759426909
 11
4.606447228170551
 21
-1.699213773661112
  0
LINE
  8
0
  6
CONTINUOUS
 62
     7
 10
4.606447228170551
 20
-1.699213773661112
 11
4.668966414745762
 21
-1.566521461694614
  0
LINE
  8
0
  6
CONTINUOUS
 62
     7
 10
4.668966414745762
 20
-1.566521461694614
 11
4.725119704401648
 21
-1.425005044128014
  0
LINE
  8
0
  6
CONTINUOUS
 62
     7
 10
4.725119704401648
 20
-1.425005044128014
 11
4.774856440133868
 21
-1.274706741561521
  0
LINE
  8
0
  6
CONTINUOUS
 62
     7
 10
4.774856440133868
 20
-1.274706741561521
 11
4.818125964938052
 21
-1.115668774595124
  0
LINE
  8
0
  6
CONTINUOUS
 62
     7
 10
4.818125964938052
 20
-1.115668774595124
 11
4.854877621809972
 21
-0.9479333638293397
  0
LINE
  8
0
  6
CONTINUOUS
 62
     7
 10
4.854877621809972
 20
-0.9479333638293397
 11
4.885060753745146
 21
-0.7715427298642386
  0
LINE
  8
0
  6
CONTINUOUS
 62
     7
 10
4.885060753745146
 20
-0.7715427298642386
 11
4.908624703739456
 21
-0.5865390933002257
  0
LINE
  8
0
  6
CONTINUOUS
 62
     7
 10
4.908624703739456
 20
-0.5865390933002257
 11
4.925518814788282
 21
-0.3929646747375393
  0
LINE
  8
0
  6
CONTINUOUS
 62
     7
 10
4.925518814788282
 20
-0.3929646747375393
 11
4.93569242988745
 21
-0.1908616947763342
  0
LINE
  8
0
  6
CONTINUOUS
 62
     7
 10
4.93569242988745
 20
-0.1908616947763342
 11
4.939094892032564
 21
0.0197276259829849
  0
LINE
  8
0
  6
CONTINUOUS
 62
     7
 10
8.500000000000062
 20
16.74673610377988
 11
-6.534904812874528
 21
16.48430086408156
  0
ARC
  8
0
  6
CONTINUOUS
 62
     7
 10
-6.500000000000034
 20
14.48460547376879
 40
2.000000000000002
 50
90.9999999999995
 51
180.0
  0
POINT
  8
0
 62
     7
 10
0.0
 20
0.0
 30
0.0
  0
ENDSEC
  0
EOF
