  0
SECTION
  2
HEADER
  9
$ACADVER
  1
AC1004
  9
$INSBASE
 10
0.0
 20
0.0
  9
$EXTMIN
 10
-128.1576606591557
 20
-12.24673610377983
  9
$EXTMAX
 10
337.365128906536
 20
234.2777638476387
  9
$LIMMIN
 10
0.0
 20
0.0
  9
$LIMMAX
 10
12.0
 20
9.0
  9
$ORTHOMODE
 70
     0
  9
$REGENMODE
 70
     1
  9
$FILLMODE
 70
     1
  9
$QTEXTMODE
 70
     0
  9
$DRAGMODE
 70
     2
  9
$LTSCALE
 40
1.0
  9
$OSMODE
 70
    37
  9
$ATTMODE
 70
     1
  9
$TEXTSIZE
 40
0.2
  9
$TRACEWID
 40
0.05
  9
$TEXTSTYLE
  7
STANDARD
  9
$CLAYER
  8
0
  9
$CELTYPE
  6
BYLAYER
  9
$CECOLOR
 62
   256
  9
$DIMSCALE
 40
1.0
  9
$DIMASZ
 40
2.5
  9
$DIMEXO
 40
0.0625
  9
$DIMDLI
 40
0.38
  9
$DIMRND
 40
0.0
  9
$DIMDLE
 40
0.0
  9
$DIMEXE
 40
1.25
  9
$DIMTP
 40
0.0
  9
$DIMTM
 40
0.0
  9
$DIMTXT
 40
4.0
  9
$DIMCEN
 40
0.09
  9
$DIMTSZ
 40
0.0
  9
$DIMTOL
 70
     0
  9
$DIMLIM
 70
     0
  9
$DIMTIH
 70
     1
  9
$DIMTOH
 70
     1
  9
$DIMSE1
 70
     0
  9
$DIMSE2
 70
     0
  9
$DIMTAD
 70
     1
  9
$DIMZIN
 70
     0
  9
$DIMBLK
  1

  9
$DIMASO
 70
     1
  9
$DIMSHO
 70
     1
  9
$DIMPOST
  1

  9
$DIMAPOST
  1

  9
$DIMALT
 70
     0
  9
$DIMALTD
 70
     2
  9
$DIMALTF
 40
25.4
  9
$DIMLFAC
 40
1.0
  9
$DIMTOFL
 70
     0
  9
$DIMTVP
 40
0.0
  9
$DIMTIX
 70
     0
  9
$DIMSOXD
 70
     0
  9
$DIMSAH
 70
     0
  9
$DIMBLK1
  1

  9
$DIMBLK2
  1

  9
$LUNITS
 70
     2
  9
$LUPREC
 70
     4
  9
$SKETCHINC
 40
0.1
  9
$FILLETRAD
 40
0.0
  9
$AUNITS
 70
     0
  9
$AUPREC
 70
     0
  9
$MENU
  1
.
  9
$ELEVATION
 40
0.0
  9
$THICKNESS
 40
0.0
  9
$LIMCHECK
 70
     0
  9
$CHAMFERA
 40
0.0
  9
$CHAMFERB
 40
0.0
  9
$SKPOLY
 70
     0
  9
$TDCREATE
 40
2460103.828977593
  9
$TDUPDATE
 40
2460103.828977766
  9
$TDINDWG
 40
0.0000000116
  9
$TDUSRTIMER
 40
0.0000000116
  9
$USRTIMER
 70
     1
  9
$ANGBASE
 50
0.0
  9
$ANGDIR
 70
     0
  9
$PDMODE
 70
     0
  9
$PDSIZE
 40
0.0
  9
$PLINEWID
 40
0.0
  9
$COORDS
 70
     1
  9
$SPLFRAME
 70
     0
  9
$SPLINETYPE
 70
     6
  9
$SPLINESEGS
 70
     8
  9
$ATTDIA
 70
     0
  9
$ATTREQ
 70
     1
  9
$SURFTAB1
 70
     6
  9
$SURFTAB2
 70
     6
  9
$SURFTYPE
 70
     6
  9
$SURFU
 70
     6
  9
$SURFV
 70
     6
  9
$UCSNAME
  2

  9
$UCSORG
 10
0.0
 20
0.0
 30
0.0
  9
$UCSXDIR
 10
1.0
 20
0.0
 30
0.0
  9
$UCSYDIR
 10
0.0
 20
1.0
 30
0.0
  9
$USERI1
 70
     0
  9
$USERI2
 70
     0
  9
$USERI3
 70
     0
  9
$USERI4
 70
     0
  9
$USERI5
 70
     0
  9
$USERR1
 40
0.0
  9
$USERR2
 40
0.0
  9
$USERR3
 40
0.0
  9
$USERR4
 40
0.0
  9
$USERR5
 40
0.0
  9
$WORLDVIEW
 70
     1
  0
ENDSEC
  0
SECTION
  2
TABLES
  0
TABLE
  2
LTYPE
 70
     1
  0
LTYPE
  2
CONTINUOUS
 70
     0
  3
Solid line
 72
    65
 73
     0
 40
0.0
  0
ENDTAB
  0
TABLE
  2
LAYER
 70
     1
  0
LAYER
  2
0
 70
     0
 62
     7
  6
CONTINUOUS
  0
ENDTAB
  0
TABLE
  2
STYLE
 70
     2
  0
STYLE
  2
STANDARD
 70
     0
 40
0.0
 41
1.0
 50
0.0
 71
     0
 42
0.2
  3
txt
  4

  0
STYLE
  2
HG丸ｺﾞｼｯｸM-PRO
 70
     0
 40
0.0
 41
1.0
 50
0.0
 71
     0
 42
0.2
  3
HGRSMP.TTF
  4

  0
ENDTAB
  0
TABLE
  2
VIEW
 70
     0
  0
ENDTAB
  0
ENDSEC
  0
SECTION
  2
BLOCKS
  0
ENDSEC
  0
SECTION
  2
ENTITIES
  0
POINT
  8
0
 62
     7
 10
0.0
 20
0.0
 30
0.0
  0
LINE
  8
0
  6
CONTINUOUS
 62
     7
 10
-95.660924555376
 20
5.015394526231259
 11
-90.860924555376
 21
5.015394526231259
  0
LINE
  8
0
  6
CONTINUOUS
 62
     7
 10
-90.860924555376
 20
5.015394526231259
 11
-90.860924555376
 21
3.015699135918565
  0
LINE
  8
0
  6
CONTINUOUS
 62
     7
 10
-90.860924555376
 20
3.015699135918565
 11
-95.660924555376
 21
3.015699135918565
  0
LINE
  8
0
  6
CONTINUOUS
 62
     7
 10
-95.660924555376
 20
5.015394526231259
 11
-95.660924555376
 21
3.015699135918565
  0
LINE
  8
0
  6
CONTINUOUS
 62
     7
 10
-120.960924555376
 20
-6.015699135918623
 11
-90.860924555376
 21
-6.015699135918623
  0
LINE
  8
0
  6
CONTINUOUS
 62
     7
 10
-90.860924555376
 20
-6.015699135918623
 11
-90.860924555376
 21
-8.015394526231317
  0
LINE
  8
0
  6
CONTINUOUS
 62
     7
 10
-90.860924555376
 20
-8.015394526231317
 11
-120.960924555376
 21
-8.015394526231429
  0
LINE
  8
0
  6
CONTINUOUS
 62
     7
 10
-120.960924555376
 20
-6.015699135918623
 11
-120.960924555376
 21
-8.015394526231429
  0
ARC
  8
0
  6
CONTINUOUS
 62
     7
 10
-90.860924555376
 20
2.049999999999996
 40
2.965394526231374
 50
0.0
 51
90.0
  0
LINE
  8
0
  6
CONTINUOUS
 62
     7
 10
-87.8955300291446
 20
2.049999999999996
 11
-89.89522541945729
 21
2.049999999999996
  0
ARC
  8
0
  6
CONTINUOUS
 62
     7
 10
-90.860924555376
 20
2.049999999999996
 40
0.9656991359185962
 50
0.0
 51
90.0
  0
ARC
  8
0
  6
CONTINUOUS
 62
     7
 10
-90.860924555376
 20
-5.050000000000026
 40
0.9656991359185962
 50
270.0
 51
0.0
  0
LINE
  8
0
  6
CONTINUOUS
 62
     7
 10
-89.89522541945729
 20
-5.050000000000026
 11
-87.8955300291446
 21
-5.050000000000026
  0
ARC
  8
0
  6
CONTINUOUS
 62
     7
 10
-90.860924555376
 20
-5.050000000000026
 40
2.965394526231374
 50
270.0
 51
0.0
  0
LINE
  8
0
  6
CONTINUOUS
 62
     7
 10
-87.8955300291446
 20
2.049999999999996
 11
-87.8955300291446
 21
-5.050000000000026
  0
LINE
  8
0
  6
CONTINUOUS
 62
     7
 10
-89.89522541945729
 20
-5.050000000000026
 11
-89.89522541945729
 21
2.049999999999995
  0
ARC
  8
0
  6
CONTINUOUS
 62
     7
 10
-122.410924555376
 20
-6.500000000000005
 40
3.484605473768609
 50
180.0
 51
270.0
  0
LINE
  8
0
  6
CONTINUOUS
 62
     7
 10
-122.410924555376
 20
-9.984605473768616
 11
-122.410924555376
 21
-11.98430086408142
  0
ARC
  8
0
  6
CONTINUOUS
 62
     7
 10
-122.410924555376
 20
-6.500000000000005
 40
5.484300864081387
 50
180.0
 51
270.0
  0
LINE
  8
0
  6
CONTINUOUS
 62
     7
 10
-125.8955300291446
 20
-6.500000000000005
 11
-127.8952254194573
 21
-6.500000000000005
  0
ARC
  8
0
  6
CONTINUOUS
 62
     7
 10
-122.410924555376
 20
6.499999999999978
 40
5.484300864081387
 50
90.0
 51
180.0
  0
LINE
  8
0
  6
CONTINUOUS
 62
     7
 10
-122.410924555376
 20
11.98430086408139
 11
-122.410924555376
 21
9.984605473768587
  0
ARC
  8
0
  6
CONTINUOUS
 62
     7
 10
-122.410924555376
 20
6.499999999999978
 40
3.484605473768609
 50
90.0
 51
180.0
  0
LINE
  8
0
  6
CONTINUOUS
 62
     7
 10
-127.8952254194573
 20
6.499999999999978
 11
-125.8955300291445
 21
6.499999999999978
  0
LINE
  8
0
  6
CONTINUOUS
 62
     7
 10
-122.410924555376
 20
-9.984605473768616
 11
-89.410924555376
 21
-9.984605473768616
  0
LINE
  8
0
  6
CONTINUOUS
 62
     7
 10
-89.410924555376
 20
-9.984605473768616
 11
-89.410924555376
 21
-11.98430086408142
  0
LINE
  8
0
  6
CONTINUOUS
 62
     7
 10
-89.410924555376
 20
-11.98430086408142
 11
-122.410924555376
 21
-11.98430086408142
  0
LINE
  8
0
  6
CONTINUOUS
 62
     7
 10
-122.410924555376
 20
11.98430086408139
 11
-119.410924555376
 21
11.98430086408139
  0
LINE
  8
0
  6
CONTINUOUS
 62
     7
 10
-119.410924555376
 20
11.98430086408139
 11
-119.410924555376
 21
9.984605473768587
  0
LINE
  8
0
  6
CONTINUOUS
 62
     7
 10
-119.410924555376
 20
9.984605473768587
 11
-122.410924555376
 21
9.984605473768587
  0
ARC
  8
0
  6
CONTINUOUS
 62
     7
 10
-89.410924555376
 20
-6.500000000000005
 40
3.48460547376872
 50
270.0
 51
0.0
  0
LINE
  8
0
  6
CONTINUOUS
 62
     7
 10
-85.9263190816073
 20
-6.500000000000005
 11
-83.92662369129461
 21
-6.500000000000005
  0
ARC
  8
0
  6
CONTINUOUS
 62
     7
 10
-89.410924555376
 20
-6.500000000000005
 40
5.484300864081471
 50
270.0
 51
0.0
  0
ARC
  8
0
  6
CONTINUOUS
 62
     7
 10
-119.410924555376
 20
6.499999999999978
 40
5.484300864081387
 50
0.0
 51
90.0
  0
LINE
  8
0
  6
CONTINUOUS
 62
     7
 10
-113.9266236912945
 20
6.499999999999978
 11
-115.9263190816073
 21
6.499999999999978
  0
ARC
  8
0
  6
CONTINUOUS
 62
     7
 10
-119.410924555376
 20
6.499999999999978
 40
3.484605473768637
 50
0.0
 51
90.0
  0
LINE
  8
0
  6
CONTINUOUS
 62
     7
 10
-85.9263190816073
 20
-6.500000000000005
 11
-85.9263190816073
 21
6.499999999999978
  0
LINE
  8
0
  6
CONTINUOUS
 62
     7
 10
-85.9263190816073
 20
6.499999999999978
 11
-83.9266236912945
 21
6.499999999999978
  0
LINE
  8
0
  6
CONTINUOUS
 62
     7
 10
-83.9266236912945
 20
6.499999999999978
 11
-83.9266236912945
 21
-6.500000000000005
  0
LINE
  8
0
  6
CONTINUOUS
 62
     7
 10
-113.9266236912945
 20
6.499999999999978
 11
-113.9266236912945
 21
5.249999999999977
  0
LINE
  8
0
  6
CONTINUOUS
 62
     7
 10
-113.9266236912945
 20
5.249999999999977
 11
-115.9263190816073
 21
5.249999999999977
  0
LINE
  8
0
  6
CONTINUOUS
 62
     7
 10
-115.9263190816073
 20
5.249999999999977
 11
-115.9263190816073
 21
6.499999999999978
  0
ARC
  8
0
  6
CONTINUOUS
 62
     7
 10
-89.410924555376
 20
6.499999999999978
 40
3.48460547376847
 50
0.0
 51
90.0
  0
LINE
  8
0
  6
CONTINUOUS
 62
     7
 10
-89.410924555376
 20
9.984605473768504
 11
-89.410924555376
 21
11.98430086408128
  0
ARC
  8
0
  6
CONTINUOUS
 62
     7
 10
-89.410924555376
 20
6.499999999999978
 40
5.484300864081276
 50
0.0
 51
90.0
  0
ARC
  8
0
  6
CONTINUOUS
 62
     7
 10
-116.160924555376
 20
5.249999999999977
 40
2.234300864081412
 50
270.0
 51
0.0
  0
LINE
  8
0
  6
CONTINUOUS
 62
     7
 10
-116.160924555376
 20
3.015699135918565
 11
-116.160924555376
 21
5.015394526231259
  0
ARC
  8
0
  6
CONTINUOUS
 62
     7
 10
-116.160924555376
 20
5.249999999999977
 40
0.2346054737686065
 50
270.0
 51
0.0
  0
LINE
  8
0
  6
CONTINUOUS
 62
     7
 10
-89.410924555376
 20
9.984605473768504
 11
-92.410924555376
 21
9.984605473768587
  0
LINE
  8
0
  6
CONTINUOUS
 62
     7
 10
-92.410924555376
 20
9.984605473768587
 11
-92.410924555376
 21
11.98430086408139
  0
LINE
  8
0
  6
CONTINUOUS
 62
     7
 10
-92.410924555376
 20
11.98430086408139
 11
-89.410924555376
 21
11.98430086408128
  0
LINE
  8
0
  6
CONTINUOUS
 62
     7
 10
-116.160924555376
 20
3.015699135918565
 11
-120.960924555376
 21
3.015699135918565
  0
LINE
  8
0
  6
CONTINUOUS
 62
     7
 10
-120.960924555376
 20
3.015699135918565
 11
-120.960924555376
 21
5.015394526231259
  0
LINE
  8
0
  6
CONTINUOUS
 62
     7
 10
-120.960924555376
 20
5.015394526231259
 11
-116.160924555376
 21
5.015394526231259
  0
ARC
  8
0
  6
CONTINUOUS
 62
     7
 10
-92.410924555376
 20
6.499999999999978
 40
3.484605473768554
 50
90.0
 51
180.0
  0
LINE
  8
0
  6
CONTINUOUS
 62
     7
 10
-95.89553002914461
 20
6.499999999999978
 11
-97.8952254194574
 21
6.499999999999978
  0
ARC
  8
0
  6
CONTINUOUS
 62
     7
 10
-92.410924555376
 20
6.499999999999978
 40
5.48430086408136
 50
90.0
 51
180.0
  0
ARC
  8
0
  6
CONTINUOUS
 62
     7
 10
-120.960924555376
 20
2.049999999999996
 40
0.9656991359185962
 50
90.0
 51
180.0
  0
LINE
  8
0
  6
CONTINUOUS
 62
     7
 10
-121.9266236912945
 20
2.049999999999996
 11
-123.9263190816073
 21
2.049999999999996
  0
ARC
  8
0
  6
CONTINUOUS
 62
     7
 10
-120.960924555376
 20
2.049999999999996
 40
2.965394526231374
 50
90.0
 51
180.0
  0
LINE
  8
0
  6
CONTINUOUS
 62
     7
 10
-95.89553002914461
 20
6.499999999999978
 11
-95.89553002914461
 21
5.249999999999977
  0
LINE
  8
0
  6
CONTINUOUS
 62
     7
 10
-95.89553002914461
 20
5.249999999999977
 11
-97.8952254194573
 21
5.249999999999977
  0
LINE
  8
0
  6
CONTINUOUS
 62
     7
 10
-97.8952254194573
 20
5.249999999999977
 11
-97.8952254194574
 21
6.499999999999978
  0
LINE
  8
0
  6
CONTINUOUS
 62
     7
 10
-121.9266236912946
 20
2.049999999999996
 11
-121.9266236912946
 21
-5.050000000000026
  0
LINE
  8
0
  6
CONTINUOUS
 62
     7
 10
-121.9266236912945
 20
-5.050000000000026
 11
-123.9263190816073
 21
-5.050000000000026
  0
LINE
  8
0
  6
CONTINUOUS
 62
     7
 10
-123.9263190816073
 20
-5.050000000000026
 11
-123.9263190816073
 21
2.049999999999995
  0
ARC
  8
0
  6
CONTINUOUS
 62
     7
 10
-95.660924555376
 20
5.249999999999977
 40
0.2346054737686343
 50
180.0
 51
270.0
  0
ARC
  8
0
  6
CONTINUOUS
 62
     7
 10
-95.660924555376
 20
5.249999999999977
 40
2.234300864081412
 50
180.0
 51
270.0
  0
ARC
  8
0
  6
CONTINUOUS
 62
     7
 10
-120.960924555376
 20
-5.050000000000026
 40
0.9656991359185962
 50
180.0
 51
270.0
  0
ARC
  8
0
  6
CONTINUOUS
 62
     7
 10
-120.960924555376
 20
-5.050000000000026
 40
2.965394526231402
 50
180.0
 51
270.0
  0
LINE
  8
0
  6
CONTINUOUS
 62
     7
 10
-125.8955300291446
 20
6.499999999999978
 11
-125.8955300291446
 21
-6.500000000000005
  0
LINE
  8
0
  6
CONTINUOUS
 62
     7
 10
-127.8952254194574
 20
-6.500000000000005
 11
-127.8952254194574
 21
6.499999999999978
  0
ARC
  8
0
  6
CONTINUOUS
 62
     7
 10
-90.860924555376
 20
2.049999999999996
 40
0.7032638962203019
 50
0.0
 51
90.0
  0
LINE
  8
0
  6
CONTINUOUS
 62
     7
 10
-90.860924555376
 20
2.75326389622027
 11
-90.860924555376
 21
3.015699135918565
  0
LINE
  8
0
  6
CONTINUOUS
 62
     7
 10
-90.1576606591557
 20
2.049999999999996
 11
-89.89522541945729
 21
2.049999999999996
  0
LINE
  8
0
  6
CONTINUOUS
 62
     7
 10
-90.1576606591557
 20
2.049999999999996
 11
-90.1576606591557
 21
-5.050000000000026
  0
LINE
  8
0
  6
CONTINUOUS
 62
     7
 10
-90.1576606591557
 20
-5.050000000000026
 11
-89.89522541945729
 21
-5.050000000000026
  0
ARC
  8
0
  6
CONTINUOUS
 62
     7
 10
-120.960924555376
 20
2.049999999999996
 40
0.7032638962203019
 50
90.0
 51
180.0
  0
LINE
  8
0
  6
CONTINUOUS
 62
     7
 10
-121.6641884515962
 20
2.049999999999996
 11
-121.9266236912946
 21
2.049999999999996
  0
LINE
  8
0
  6
CONTINUOUS
 62
     7
 10
-120.960924555376
 20
2.75326389622027
 11
-120.960924555376
 21
3.015699135918565
  0
LINE
  8
0
  6
CONTINUOUS
 62
     7
 10
-120.960924555376
 20
2.75326389622027
 11
-116.160924555376
 21
2.75326389622027
  0
LINE
  8
0
  6
CONTINUOUS
 62
     7
 10
-116.160924555376
 20
2.75326389622027
 11
-116.160924555376
 21
3.015699135918565
  0
ARC
  8
0
  6
CONTINUOUS
 62
     7
 10
-116.160924555376
 20
5.249999999999977
 40
2.496736103779706
 50
270.0
 51
0.0
  0
LINE
  8
0
  6
CONTINUOUS
 62
     7
 10
-113.6641884515962
 20
5.249999999999977
 11
-113.9266236912945
 21
5.249999999999977
  0
LINE
  8
0
  6
CONTINUOUS
 62
     7
 10
-113.6641884515962
 20
5.249999999999977
 11
-113.6641884515962
 21
6.499999999999978
  0
LINE
  8
0
  6
CONTINUOUS
 62
     7
 10
-113.6641884515962
 20
6.499999999999978
 11
-113.9266236912945
 21
6.499999999999978
  0
ARC
  8
0
  6
CONTINUOUS
 62
     7
 10
-119.410924555376
 20
6.499999999999978
 40
5.74673610377971
 50
0.0
 51
90.0
  0
LINE
  8
0
  6
CONTINUOUS
 62
     7
 10
-119.410924555376
 20
12.24673610377969
 11
-119.410924555376
 21
11.98430086408139
  0
LINE
  8
0
  6
CONTINUOUS
 62
     7
 10
-119.410924555376
 20
12.24673610377969
 11
-122.410924555376
 21
12.24673610377969
  0
LINE
  8
0
  6
CONTINUOUS
 62
     7
 10
-122.410924555376
 20
12.24673610377969
 11
-122.410924555376
 21
11.98430086408139
  0
ARC
  8
0
  6
CONTINUOUS
 62
     7
 10
-122.410924555376
 20
6.499999999999978
 40
5.746736103779681
 50
90.0
 51
180.0
  0
LINE
  8
0
  6
CONTINUOUS
 62
     7
 10
-128.1576606591556
 20
6.499999999999978
 11
-127.8952254194573
 21
6.499999999999978
  0
LINE
  8
0
  6
CONTINUOUS
 62
     7
 10
-128.1576606591556
 20
6.499999999999978
 11
-128.1576606591556
 21
-6.500000000000005
  0
LINE
  8
0
  6
CONTINUOUS
 62
     7
 10
-128.1576606591556
 20
-6.500000000000005
 11
-127.8952254194573
 21
-6.500000000000005
  0
ARC
  8
0
  6
CONTINUOUS
 62
     7
 10
-122.410924555376
 20
-6.500000000000005
 40
5.746736103779681
 50
180.0
 51
270.0
  0
LINE
  8
0
  6
CONTINUOUS
 62
     7
 10
-122.410924555376
 20
-12.24673610377971
 11
-122.410924555376
 21
-11.98430086408142
  0
LINE
  8
0
  6
CONTINUOUS
 62
     7
 10
-122.410924555376
 20
-12.24673610377971
 11
-89.410924555376
 21
-12.24673610377971
  0
LINE
  8
0
  6
CONTINUOUS
 62
     7
 10
-89.410924555376
 20
-12.24673610377971
 11
-89.410924555376
 21
-11.98430086408142
  0
ARC
  8
0
  6
CONTINUOUS
 62
     7
 10
-89.410924555376
 20
-6.500000000000005
 40
5.746736103779792
 50
270.0
 51
0.0
  0
LINE
  8
0
  6
CONTINUOUS
 62
     7
 10
-83.66418845159629
 20
-6.500000000000005
 11
-83.9266236912945
 21
-6.500000000000005
  0
LINE
  8
0
  6
CONTINUOUS
 62
     7
 10
-83.66418845159629
 20
-6.500000000000005
 11
-83.66418845159629
 21
6.499999999999978
  0
LINE
  8
0
  6
CONTINUOUS
 62
     7
 10
-83.66418845159629
 20
6.499999999999978
 11
-83.9266236912945
 21
6.499999999999978
  0
ARC
  8
0
  6
CONTINUOUS
 62
     7
 10
-89.410924555376
 20
6.499999999999978
 40
5.74673610377957
 50
0.0
 51
90.0
  0
LINE
  8
0
  6
CONTINUOUS
 62
     7
 10
-89.410924555376
 20
12.24673610377958
 11
-89.410924555376
 21
11.98430086408128
  0
LINE
  8
0
  6
CONTINUOUS
 62
     7
 10
-89.410924555376
 20
12.24673610377958
 11
-92.410924555376
 21
12.24673610377969
  0
LINE
  8
0
  6
CONTINUOUS
 62
     7
 10
-92.410924555376
 20
12.24673610377969
 11
-92.410924555376
 21
11.98430086408139
  0
ARC
  8
0
  6
CONTINUOUS
 62
     7
 10
-92.410924555376
 20
6.499999999999978
 40
5.746736103779626
 50
90.0
 51
180.0
  0
LINE
  8
0
  6
CONTINUOUS
 62
     7
 10
-98.15766065915571
 20
6.499999999999978
 11
-97.8952254194574
 21
6.499999999999978
  0
LINE
  8
0
  6
CONTINUOUS
 62
     7
 10
-98.15766065915571
 20
6.499999999999978
 11
-98.15766065915561
 21
5.249999999999977
  0
LINE
  8
0
  6
CONTINUOUS
 62
     7
 10
-98.15766065915561
 20
5.249999999999977
 11
-97.8952254194573
 21
5.249999999999977
  0
ARC
  8
0
  6
CONTINUOUS
 62
     7
 10
-95.660924555376
 20
5.249999999999977
 40
2.496736103779706
 50
180.0
 51
270.0
  0
LINE
  8
0
  6
CONTINUOUS
 62
     7
 10
-95.660924555376
 20
2.75326389622027
 11
-95.660924555376
 21
3.015699135918565
  0
LINE
  8
0
  6
CONTINUOUS
 62
     7
 10
-95.660924555376
 20
2.75326389622027
 11
-90.860924555376
 21
2.75326389622027
  0
LINE
  8
0
  6
CONTINUOUS
 62
     7
 10
-90.860924555376
 20
-5.753263896220301
 11
-120.960924555376
 21
-5.753263896220301
  0
LINE
  8
0
  6
CONTINUOUS
 62
     7
 10
-90.860924555376
 20
-5.753263896220301
 11
-90.860924555376
 21
-6.015699135918623
  0
LINE
  8
0
  6
CONTINUOUS
 62
     7
 10
-120.960924555376
 20
-5.753263896220301
 11
-120.960924555376
 21
-6.015699135918623
  0
ARC
  8
0
  6
CONTINUOUS
 62
     7
 10
-90.860924555376
 20
-5.050000000000026
 40
0.7032638962203019
 50
270.0
 51
0.0
  0
LINE
  8
0
  6
CONTINUOUS
 62
     7
 10
-121.6641884515962
 20
-5.050000000000026
 11
-121.6641884515962
 21
2.049999999999995
  0
LINE
  8
0
  6
CONTINUOUS
 62
     7
 10
-121.6641884515962
 20
-5.050000000000026
 11
-121.9266236912946
 21
-5.050000000000026
  0
ARC
  8
0
  6
CONTINUOUS
 62
     7
 10
-120.960924555376
 20
-5.050000000000026
 40
0.7032638962203019
 50
180.0
 51
270.0
  0
LINE
  8
0
  6
CONTINUOUS
 62
     7
 10
-128.0229142891923
 20
-2.60997406000002
 11
-127.9905447156544
 21
-2.60997406000002
  0
LINE
  8
0
  6
CONTINUOUS
 62
     7
 10
-128.0229142891923
 20
-2.60997406000002
 11
-128.0229142891923
 21
2.629974059999984
  0
LINE
  8
0
  6
CONTINUOUS
 62
     7
 10
-128.0229142891923
 20
2.629974059999984
 11
-127.99043153532
 21
2.629974059999984
  0
LINE
  8
0
  6
CONTINUOUS
 62
     7
 10
-127.99043153532
 20
2.629974059999984
 11
-127.9905447156543
 21
-2.60997406000002
  0
LINE
  8
0
  6
CONTINUOUS
 62
     7
 10
-128.0629796984152
 20
2.629974059894985
 11
-128.0389980756548
 21
2.065026002930681
  0
LINE
  8
0
  6
CONTINUOUS
 62
     7
 10
-128.0953496985369
 20
-0.2234630350594347
 11
-128.0538125184911
 21
-0.2234630350594347
  0
LINE
  8
0
  6
CONTINUOUS
 62
     7
 10
-128.0953496985369
 20
-0.2234630350000377
 11
-128.0953496985369
 21
2.629974049127487
  0
LINE
  8
0
  6
CONTINUOUS
 62
     7
 10
-128.0953496985369
 20
-2.512697795000018
 11
-128.0370618300869
 21
-2.512697795000018
  0
LINE
  8
0
  6
CONTINUOUS
 62
     7
 10
-128.0953496985369
 20
-2.512697795000018
 11
-128.0953496985369
 21
-1.948495460000033
  0
LINE
  8
0
  6
CONTINUOUS
 62
     7
 10
-128.0953496985369
 20
-1.948495460000033
 11
-128.0370618300869
 21
-1.948495460000033
  0
LINE
  8
0
  6
CONTINUOUS
 62
     7
 10
-128.0370618300868
 20
-1.948495460000033
 11
-128.0336324968251
 21
-2.051439687056011
  0
LINE
  8
0
  6
CONTINUOUS
 62
     7
 10
-128.0336324968251
 20
-2.051439687056011
 11
-128.0370618300868
 21
-2.512697795000018
  0
LINE
  8
0
  6
CONTINUOUS
 62
     7
 10
-128.0953496985368
 20
-0.4828664070000155
 11
-128.0612824200735
 21
-0.4828664070000155
  0
LINE
  8
0
  6
CONTINUOUS
 62
     7
 10
-128.0953496985368
 20
-0.4828664070000155
 11
-128.0953496985369
 21
-0.2234630350594347
  0
LINE
  8
0
  6
CONTINUOUS
 62
     7
 10
-128.0538125184911
 20
-0.2234630350594347
 11
-128.0612824200735
 21
-0.4828664070000155
  0
LINE
  8
0
  6
CONTINUOUS
 62
     7
 10
-128.0953496985369
 20
-1.948495460000033
 11
-128.0953496985369
 21
-0.4828664070000155
  0
LINE
  8
0
  6
CONTINUOUS
 62
     7
 10
-128.0612824200735
 20
-0.4828664070000155
 11
-128.0838053051703
 21
-1.948495460000033
  0
LINE
  8
0
  6
CONTINUOUS
 62
     7
 10
-83.80108524776838
 20
-1.384293125999997
 11
-83.85925993590129
 21
-1.384293125999997
  0
LINE
  8
0
  6
CONTINUOUS
 62
     7
 10
-83.80108524776838
 20
-1.384293125999997
 11
-83.80108524776838
 21
-2.512697795000018
  0
LINE
  8
0
  6
CONTINUOUS
 62
     7
 10
-83.8010852477683
 20
-2.512697795000018
 11
-83.8567699687075
 21
-2.512697795000018
  0
LINE
  8
0
  6
CONTINUOUS
 62
     7
 10
-83.8567699687075
 20
-2.512697795000018
 11
-83.85925993590129
 21
-1.384293125999997
  0
LINE
  8
0
  6
CONTINUOUS
 62
     7
 10
-83.80108524776838
 20
1.371867703999996
 11
-83.86197626374612
 21
1.371867703999996
  0
LINE
  8
0
  6
CONTINUOUS
 62
     7
 10
-83.80108524776838
 20
1.008702982999987
 11
-83.8579017719789
 21
1.008702982999987
  0
LINE
  8
0
  6
CONTINUOUS
 62
     7
 10
-83.80108524776838
 20
1.371867703999996
 11
-83.80108524776838
 21
1.008702982999987
  0
LINE
  8
0
  6
CONTINUOUS
 62
     7
 10
-83.85790177197899
 20
1.008702982999987
 11
-83.86197626374612
 21
1.371867703999996
  0
LINE
  8
0
  6
CONTINUOUS
 62
     7
 10
-83.80108524776838
 20
2.163047989999972
 11
-83.85450636216422
 21
2.163047989999972
  0
LINE
  8
0
  6
CONTINUOUS
 62
     7
 10
-83.80108524776838
 20
2.163047989999972
 11
-83.80108524776838
 21
1.371867703999996
  0
LINE
  8
0
  6
CONTINUOUS
 62
     7
 10
-83.86197626374612
 20
1.371867703999996
 11
-83.85450636216429
 21
2.163047989999972
  0
LINE
  8
0
  6
CONTINUOUS
 62
     7
 10
-83.80108524776838
 20
-0.1391569388691227
 11
-83.83775567374349
 21
-0.1391569388691227
  0
LINE
  8
0
  6
CONTINUOUS
 62
     7
 10
-83.80108524776838
 20
-0.139156939000018
 11
-83.80108524776838
 21
-1.384293125999997
  0
LINE
  8
0
  6
CONTINUOUS
 62
     7
 10
-83.85925993590129
 20
-1.384293125999997
 11
-83.83775567374349
 21
-0.1391569388691227
  0
LINE
  8
0
  6
CONTINUOUS
 62
     7
 10
-83.85620410901839
 20
1.002217898999958
 11
-83.8579017719789
 21
1.008702982999987
  0
LINE
  8
0
  6
CONTINUOUS
 62
     7
 10
-83.80108524776838
 20
1.008702982999987
 11
-83.80108524776838
 21
1.002217899315289
  0
LINE
  8
0
  6
CONTINUOUS
 62
     7
 10
-83.80108524776838
 20
2.629974049127487
 11
-83.80108524776838
 21
2.163047989999972
  0
LINE
  8
0
  6
CONTINUOUS
 62
     7
 10
-83.85450636216429
 20
2.163047989999972
 11
-83.83164013397271
 21
2.631834717888581
  0
LINE
  8
0
  6
CONTINUOUS
 62
     7
 10
-83.80108524776838
 20
0.9942090590365771
 11
-83.80108524776838
 21
0.1526718549999806
  0
LINE
  8
0
  6
CONTINUOUS
 62
     7
 10
-83.8010852477683
 20
0.1526718549999806
 11
-83.8299462311752
 21
0.1526718549999806
  0
LINE
  8
0
  6
CONTINUOUS
 62
     7
 10
-83.8299462311752
 20
0.1526718549999806
 11
-83.8149009174462
 21
1.001988165663187
  0
LINE
  8
0
  6
CONTINUOUS
 62
     7
 10
-83.8010852477683
 20
0.1526718549999806
 11
-83.80108524776838
 21
-0.1391569388691227
  0
LINE
  8
0
  6
CONTINUOUS
 62
     7
 10
-83.83775567374349
 20
-0.1391569388691227
 11
-83.8299462311752
 21
0.1526718549999806
  0
LINE
  8
0
  6
CONTINUOUS
 62
     7
 10
-83.7264994122151
 20
2.629974059999984
 11
-83.75864262512009
 21
2.629974059999984
  0
LINE
  8
0
  6
CONTINUOUS
 62
     7
 10
-83.7264994122151
 20
2.629974059999984
 11
-83.7264994122151
 21
-2.60997406000002
  0
LINE
  8
0
  6
CONTINUOUS
 62
     7
 10
-83.7264994122151
 20
-2.60997406000002
 11
-83.758755805437
 21
-2.60997406000002
  0
LINE
  8
0
  6
CONTINUOUS
 62
     7
 10
-83.758755805437
 20
-2.60997406000002
 11
-83.76986101784581
 21
-2.511935167366808
  0
LINE
  8
0
  6
CONTINUOUS
 62
     7
 10
-83.76986101784581
 20
-2.511935167366808
 11
-83.7880134423924
 21
-1.337221028202634
  0
LINE
  8
0
  6
CONTINUOUS
 62
     7
 10
-83.7880134423924
 20
-1.337221028202634
 11
-83.79108691632361
 21
-0.1458420661786251
  0
LINE
  8
0
  6
CONTINUOUS
 62
     7
 10
-83.79108691632361
 20
-0.1458420661786253
 11
-83.79110687139018
 21
-0.0927571397658367
  0
LINE
  8
0
  6
CONTINUOUS
 62
     7
 10
-83.79110687139018
 20
-0.0927571397658367
 11
-83.79110679122401
 21
0.1464671155615715
  0
LINE
  8
0
  6
CONTINUOUS
 62
     7
 10
-83.79110679122401
 20
0.1464671155615715
 11
-83.7910857492167
 21
0.1994965398310899
  0
LINE
  8
0
  6
CONTINUOUS
 62
     7
 10
-83.78100664569149
 20
2.092680889982184
 11
-83.7799787851633
 21
2.156496601984886
  0
LINE
  8
0
  6
CONTINUOUS
 62
     7
 10
-83.7799787851633
 20
2.156496601984886
 11
-83.75864262512009
 21
2.629974059999984
  0
LINE
  8
0
  6
CONTINUOUS
 62
     7
 10
-100.6365950083759
 20
-5.837229567082519
 11
-100.6365950083759
 21
-5.923381352972212
  0
LINE
  8
0
  6
CONTINUOUS
 62
     7
 10
-100.6365950083759
 20
-5.837229567082519
 11
-99.05840539037591
 21
-5.837229567082519
  0
LINE
  8
0
  6
CONTINUOUS
 62
     7
 10
-99.05840539037591
 20
-5.837229567082519
 11
-99.05840539037591
 21
-5.903293490399808
  0
LINE
  8
0
  6
CONTINUOUS
 62
     7
 10
-99.05840539037591
 20
-5.903293490399808
 11
-100.6365950083759
 21
-5.923381352972212
  0
LINE
  8
0
  6
CONTINUOUS
 62
     7
 10
-102.296136619376
 20
-5.837229567082519
 11
-102.296136619376
 21
-5.923381352972212
  0
LINE
  8
0
  6
CONTINUOUS
 62
     7
 10
-102.296136619376
 20
-5.837229567082519
 11
-100.6365950083759
 21
-5.837229567082519
  0
LINE
  8
0
  6
CONTINUOUS
 62
     7
 10
-100.6365950083759
 20
-5.923381352972212
 11
-102.296136619376
 21
-5.923381352972212
  0
LINE
  8
0
  6
CONTINUOUS
 62
     7
 10
-99.05840539037591
 20
-5.837229567082519
 11
-98.9355401912559
 21
-5.837229567082519
  0
LINE
  8
0
  6
CONTINUOUS
 62
     7
 10
-98.93556485737591
 20
-5.889392973217833
 11
-99.05840539037591
 21
-5.903293490399808
  0
LINE
  8
0
  6
CONTINUOUS
 62
     7
 10
-104.5925471493759
 20
-5.837229567082519
 11
-104.5925471493759
 21
-5.923486207659034
  0
LINE
  8
0
  6
CONTINUOUS
 62
     7
 10
-104.5925471493759
 20
-5.923486207659034
 11
-105.5322427598382
 21
-5.883476424956291
  0
LINE
  8
0
  6
CONTINUOUS
 62
     7
 10
-105.5322427598382
 20
-5.837229567082519
 11
-104.5925471493759
 21
-5.837229567082519
  0
LINE
  8
0
  6
CONTINUOUS
 62
     7
 10
-103.229197280376
 20
-5.837229567082519
 11
-103.229197280376
 21
-5.923486207659034
  0
LINE
  8
0
  6
CONTINUOUS
 62
     7
 10
-103.229197280376
 20
-5.923486207659034
 11
-104.5925471493759
 21
-5.923486207659034
  0
LINE
  8
0
  6
CONTINUOUS
 62
     7
 10
-104.5925471493759
 20
-5.837229567082519
 11
-103.229197280376
 21
-5.837229567082519
  0
LINE
  8
0
  6
CONTINUOUS
 62
     7
 10
-102.296136619376
 20
-5.882979691385015
 11
-103.229197280376
 21
-5.923486207659034
  0
LINE
  8
0
  6
CONTINUOUS
 62
     7
 10
-103.229197280376
 20
-5.837229567082519
 11
-102.296136619376
 21
-5.837229567082519
  0
LINE
  8
0
  6
CONTINUOUS
 62
     7
 10
-106.7768989693759
 20
-5.837229567082519
 11
-106.7768989693759
 21
-5.923381352972212
  0
LINE
  8
0
  6
CONTINUOUS
 62
     7
 10
-106.7768989693759
 20
-5.837229567082519
 11
-105.5322427598382
 21
-5.837229567082519
  0
LINE
  8
0
  6
CONTINUOUS
 62
     7
 10
-105.5322427598382
 20
-5.837229567082519
 11
-105.5322427598382
 21
-5.923381352972212
  0
LINE
  8
0
  6
CONTINUOUS
 62
     7
 10
-105.5322427598382
 20
-5.923381352972212
 11
-106.7768989693759
 21
-5.923381352972212
  0
LINE
  8
0
  6
CONTINUOUS
 62
     7
 10
-106.7768989693759
 20
-5.923381352972212
 11
-107.7311353948382
 21
-5.882529124934199
  0
LINE
  8
0
  6
CONTINUOUS
 62
     7
 10
-107.7311353948382
 20
-5.837229567082519
 11
-106.7768989693759
 21
-5.837229567082519
  0
LINE
  8
0
  6
CONTINUOUS
 62
     7
 10
-110.3449134333759
 20
-5.837229567082519
 11
-108.9757916043759
 21
-5.837229567082519
  0
LINE
  8
0
  6
CONTINUOUS
 62
     7
 10
-108.9757916043759
 20
-5.837229567082519
 11
-108.9757916043759
 21
-5.923381352972212
  0
LINE
  8
0
  6
CONTINUOUS
 62
     7
 10
-108.9757916043759
 20
-5.923381352972212
 11
-110.3449134333759
 21
-5.864767286610229
  0
LINE
  8
0
  6
CONTINUOUS
 62
     7
 10
-107.7311353948382
 20
-5.837229567082519
 11
-107.7311353948382
 21
-5.923381352961221
  0
LINE
  8
0
  6
CONTINUOUS
 62
     7
 10
-107.7311353948382
 20
-5.923381352961221
 11
-108.9757916043759
 21
-5.923381352972212
  0
LINE
  8
0
  6
CONTINUOUS
 62
     7
 10
-108.9757916043759
 20
-5.837229567082519
 11
-107.7311353948382
 21
-5.837229567082519
  0
LINE
  8
0
  6
CONTINUOUS
 62
     7
 10
-111.589569641376
 20
-5.837229567082519
 11
-111.589569641376
 21
-5.923381352972212
  0
LINE
  8
0
  6
CONTINUOUS
 62
     7
 10
-111.589569641376
 20
-5.923381352972212
 11
-112.8757143885303
 21
-5.923381352985202
  0
LINE
  8
0
  6
CONTINUOUS
 62
     7
 10
-112.8757143885303
 20
-5.837229567082519
 11
-112.8757143885303
 21
-5.923381352985202
  0
LINE
  8
0
  6
CONTINUOUS
 62
     7
 10
-112.8757143885303
 20
-5.837229567082519
 11
-111.589569641376
 21
-5.837229567082519
  0
LINE
  8
0
  6
CONTINUOUS
 62
     7
 10
-111.1331956984049
 20
-5.837229567082519
 11
-111.1331956984049
 21
-5.90383430910732
  0
LINE
  8
0
  6
CONTINUOUS
 62
     7
 10
-111.1331956984049
 20
-5.90383430910732
 11
-111.589569641376
 21
-5.923381352972212
  0
LINE
  8
0
  6
CONTINUOUS
 62
     7
 10
-111.589569641376
 20
-5.837229567082519
 11
-111.1331956984049
 21
-5.837229567082519
  0
LINE
  8
0
  6
CONTINUOUS
 62
     7
 10
-110.3449134333759
 20
-5.837229567082519
 11
-110.3449134333759
 21
-5.90383430910732
  0
LINE
  8
0
  6
CONTINUOUS
 62
     7
 10
-110.3449134333759
 20
-5.90383430910732
 11
-111.1331956984049
 21
-5.90383430910732
  0
LINE
  8
0
  6
CONTINUOUS
 62
     7
 10
-111.1331956984049
 20
-5.837229567082519
 11
-110.3449134333759
 21
-5.837229567082519
  0
LINE
  8
0
  6
CONTINUOUS
 62
     7
 10
-128.0629796982029
 20
2.629974059999984
 11
-128.0953496985369
 21
2.629974059999984
  0
LINE
  8
0
  6
CONTINUOUS
 62
     7
 10
-83.85620410901839
 20
1.002217898999958
 11
-83.8010852477685
 21
1.002217898999958
  0
LINE
  8
0
  6
CONTINUOUS
 62
     7
 10
-83.80108524776838
 20
2.629974059999984
 11
-83.831190788003
 21
2.629974059999984
  0
LINE
  8
0
  6
CONTINUOUS
 62
     7
 10
-98.9355401911932
 20
-5.889589452106103
 11
-98.9355401911932
 21
-5.837229567082519
  0
LINE
  8
0
  6
CONTINUOUS
 62
     7
 10
8.500000000000007
 20
-12.24673610377971
 11
-6.534904812874607
 21
-11.98430086408142
  0
LINE
  8
0
  6
CONTINUOUS
 62
     7
 10
-6.534904812874609
 20
-6.500000000000005
 11
-6.534904812874609
 21
-11.9843008640815
  0
LINE
  8
0
  6
CONTINUOUS
 62
     7
 10
8.500000000000007
 20
-6.500000000000005
 11
-6.534904812874609
 21
-6.500000000000005
  0
LINE
  8
0
  6
CONTINUOUS
 62
     7
 10
8.500000000000007
 20
-12.24673610377983
 11
8.500000000000007
 21
-6.500000000000005
  0
LINE
  8
0
  6
CONTINUOUS
 62
     7
 10
-6.534904812874609
 20
6.499999999999978
 11
-6.534904812874609
 21
-6.500000000000005
  0
LINE
  8
0
  6
CONTINUOUS
 62
     7
 10
8.500000000000007
 20
6.499999999999978
 11
-6.534904812874609
 21
6.499999999999978
  0
LINE
  8
0
  6
CONTINUOUS
 62
     7
 10
8.500000000000007
 20
-6.500000000000005
 11
8.500000000000007
 21
6.499999999999978
  0
LINE
  8
0
  6
CONTINUOUS
 62
     7
 10
-6.534904812874609
 20
11.98430086408128
 11
-6.534904812874609
 21
6.499999999999978
  0
LINE
  8
0
  6
CONTINUOUS
 62
     7
 10
8.500000000000007
 20
12.24673610377958
 11
-6.534904812874607
 21
11.98430086408128
  0
LINE
  8
0
  6
CONTINUOUS
 62
     7
 10
8.500000000000007
 20
6.499999999999978
 11
8.500000000000007
 21
12.24673610377958
  0
LINE
  8
0
  6
CONTINUOUS
 62
     7
 10
-8.500000000000007
 20
-6.500000000000005
 11
-8.500000000000007
 21
6.499999999999978
  0
LINE
  8
0
  6
CONTINUOUS
 62
     7
 10
-8.500000000000007
 20
6.499999999999978
 11
-6.534904812874526
 21
6.499999999999978
  0
LINE
  8
0
  6
CONTINUOUS
 62
     7
 10
-8.500000000000007
 20
-6.500000000000005
 11
-6.534904812874526
 21
-6.500000000000005
  0
LINE
  8
0
  6
CONTINUOUS
 62
     7
 10
-8.500000000000007
 20
6.499999999999978
 11
-8.500000000000007
 21
9.984605473768504
  0
ARC
  8
0
  6
CONTINUOUS
 62
     7
 10
-6.500000000000005
 20
9.984605473768504
 40
2.000000000000029
 50
90.9999999999995
 51
180.0
  0
LINE
  8
0
  6
CONTINUOUS
 62
     7
 10
-8.500000000000007
 20
-9.984605473768726
 11
-8.500000000000007
 21
-6.500000000000005
  0
ARC
  8
0
  6
CONTINUOUS
 62
     7
 10
-6.500000000000005
 20
-9.984605473768616
 40
2.000000000000029
 50
180.0
 51
269.0000000000005
  0
LINE
  8
0
  6
CONTINUOUS
 62
     7
 10
-1.023031927999518
 20
0.1526718549999806
 11
-1.470434593095787
 21
-0.1391569388691227
  0
ARC
  8
0
  6
CONTINUOUS
 62
     7
 10
-2.553512591032425
 20
1.34231623173886
 40
0.3411037349877466
 50
257.9705059900775
 51
335.9409038378158
  0
ARC
  8
0
  6
CONTINUOUS
 62
     7
 10
-2.591176413396318
 20
1.2867899299982
 40
0.2800888063894946
 50
162.3168517204001
 51
263.1456615459613
  0
LINE
  8
0
  6
CONTINUOUS
 62
     7
 10
-0.9970955420046113
 20
-0.4828664070000155
 11
-0.5691451669707915
 21
-0.2234630350672062
  0
LINE
  8
0
  6
CONTINUOUS
 62
     7
 10
0.3905011300057992
 20
-1.948495460000033
 11
-2.287430765012698
 21
-1.948495460000033
  0
LINE
  8
0
  6
CONTINUOUS
 62
     7
 10
-2.559762822019307
 20
-2.512697795000018
 11
0.3905011300057992
 21
-2.512697795000018
  0
ARC
  8
0
  6
CONTINUOUS
 62
     7
 10
-1.230917647077612
 20
1.003089558319181
 40
1.6683812653073
 50
135.9520761454927
 51
167.2299053709495
  0
ARC
  8
0
  6
CONTINUOUS
 62
     7
 10
0.3914582097356012
 20
-2.189498458465305
 40
0.241004898852426
 50
352.5208393254534
 51
90.22753385332555
  0
ARC
  8
0
  6
CONTINUOUS
 62
     7
 10
0.3747199528423839
 20
-2.255194447930597
 40
0.2579864711658164
 50
273.5070044039201
 51
7.645953660992745
  0
ARC
  8
0
  6
CONTINUOUS
 62
     7
 10
0.2431611676625978
 20
-3.066692350132821
 40
3.392178358287368
 50
120.3420316580492
 51
150.2666452484388
  0
LINE
  8
0
  6
CONTINUOUS
 62
     7
 10
-2.70241294701698
 20
-1.384293125999997
 11
-2.716523894945005
 21
-1.410274212848422
  0
LINE
  8
0
  6
CONTINUOUS
 62
     7
 10
-2.716523894945005
 20
-1.410274212848422
 11
-2.731003139977289
 21
-1.437759177798925
  0
LINE
  8
0
  6
CONTINUOUS
 62
     7
 10
-2.731003139977289
 20
-1.437759177798925
 11
-2.745753761824593
 21
-1.466623390070226
  0
LINE
  8
0
  6
CONTINUOUS
 62
     7
 10
-2.745753761824593
 20
-1.466623390070226
 11
-2.760678840197706
 21
-1.49674221888052
  0
LINE
  8
0
  6
CONTINUOUS
 62
     7
 10
-2.760678840197706
 20
-1.49674221888052
 11
-2.775681454807388
 21
-1.527991033448195
  0
LINE
  8
0
  6
CONTINUOUS
 62
     7
 10
-2.775681454807388
 20
-1.527991033448195
 11
-2.790664685364291
 21
-1.560245202992028
  0
LINE
  8
0
  6
CONTINUOUS
 62
     7
 10
-2.790664685364291
 20
-1.560245202992028
 11
-2.80553161157912
 21
-1.593380096729907
  0
LINE
  8
0
  6
CONTINUOUS
 62
     7
 10
-2.80553161157912
 20
-1.593380096729907
 11
-2.820185313162721
 21
-1.627271083880694
  0
LINE
  8
0
  6
CONTINUOUS
 62
     7
 10
-2.820185313162721
 20
-1.627271083880694
 11
-2.834528869825714
 21
-1.661793533662609
  0
LINE
  8
0
  6
CONTINUOUS
 62
     7
 10
-2.834528869825714
 20
-1.661793533662609
 11
-2.84846536127889
 21
-1.696822815294124
  0
LINE
  8
0
  6
CONTINUOUS
 62
     7
 10
-2.84846536127889
 20
-1.696822815294124
 11
-2.86189786723301
 21
-1.732234297993518
  0
LINE
  8
0
  6
CONTINUOUS
 62
     7
 10
-2.86189786723301
 20
-1.732234297993518
 11
-2.874729467398585
 21
-1.767903350979316
  0
LINE
  8
0
  6
CONTINUOUS
 62
     7
 10
-2.874729467398585
 20
-1.767903350979316
 11
-2.886863241486709
 21
-1.803705343469825
  0
LINE
  8
0
  6
CONTINUOUS
 62
     7
 10
-2.886863241486709
 20
-1.803705343469825
 11
-2.898202269207895
 21
-1.839515644683598
  0
LINE
  8
0
  6
CONTINUOUS
 62
     7
 10
-2.898202269207895
 20
-1.839515644683598
 11
-2.908649630272791
 21
-1.875209623838942
  0
LINE
  8
0
  6
CONTINUOUS
 62
     7
 10
-2.908649630272791
 20
-1.875209623838942
 11
-2.9181084043923
 21
-1.91066265015441
  0
LINE
  8
0
  6
CONTINUOUS
 62
     7
 10
-2.9181084043923
 20
-1.91066265015441
 11
-2.926481671277126
 21
-1.945750092848197
  0
LINE
  8
0
  6
CONTINUOUS
 62
     7
 10
-2.926481671277126
 20
-1.945750092848197
 11
-2.933672510637891
 21
-1.980347321138998
  0
LINE
  8
0
  6
CONTINUOUS
 62
     7
 10
-2.933672510637891
 20
-1.980347321138998
 11
-2.939584002185386
 21
-2.014329704244894
  0
LINE
  8
0
  6
CONTINUOUS
 62
     7
 10
-2.939584002185386
 20
-2.014329704244894
 11
-2.944119225630398
 21
-2.047572611384607
  0
LINE
  8
0
  6
CONTINUOUS
 62
     7
 10
-2.944119225630398
 20
-2.047572611384607
 11
-2.947181260683607
 21
-2.079951411776415
  0
LINE
  8
0
  6
CONTINUOUS
 62
     7
 10
-2.947181260683607
 20
-2.079951411776415
 11
-2.948673187055689
 21
-2.111341474638623
  0
LINE
  8
0
  6
CONTINUOUS
 62
     7
 10
-2.948673187055689
 20
-2.111341474638623
 11
-2.948574037773599
 21
-2.141618293829139
  0
LINE
  8
0
  6
CONTINUOUS
 62
     7
 10
-2.948574037773599
 20
-2.141618293829139
 11
-2.947146434130215
 21
-2.170710926720914
  0
LINE
  8
0
  6
CONTINUOUS
 62
     7
 10
-2.947146434130215
 20
-2.170710926720914
 11
-2.944435090961789
 21
-2.198616105208939
  0
LINE
  8
0
  6
CONTINUOUS
 62
     7
 10
-2.944435090961789
 20
-2.198616105208939
 11
-2.940453921630587
 21
-2.225333829293324
  0
LINE
  8
0
  6
CONTINUOUS
 62
     7
 10
-2.940453921630587
 20
-2.225333829293324
 11
-2.9352168394986
 21
-2.25086409897382
  0
LINE
  8
0
  6
CONTINUOUS
 62
     7
 10
-2.9352168394986
 20
-2.25086409897382
 11
-2.928737757927902
 21
-2.275206914250594
  0
LINE
  8
0
  6
CONTINUOUS
 62
     7
 10
-2.928737757927902
 20
-2.275206914250594
 11
-2.921030590280787
 21
-2.298362275123811
  0
LINE
  8
0
  6
CONTINUOUS
 62
     7
 10
-2.921030590280787
 20
-2.298362275123811
 11
-2.912109249918998
 21
-2.320330181593
  0
LINE
  8
0
  6
CONTINUOUS
 62
     7
 10
-2.912109249918998
 20
-2.320330181593
 11
-2.901987650204912
 21
-2.341110633658605
  0
LINE
  8
0
  6
CONTINUOUS
 62
     7
 10
-2.901987650204912
 20
-2.341110633658605
 11
-2.890679704500521
 21
-2.360703631320432
  0
LINE
  8
0
  6
CONTINUOUS
 62
     7
 10
-2.890679704500521
 20
-2.360703631320432
 11
-2.878199326167896
 21
-2.379109174578398
  0
LINE
  8
0
  6
CONTINUOUS
 62
     7
 10
-2.878199326167896
 20
-2.379109174578398
 11
-2.864560428569279
 21
-2.396327263432807
  0
LINE
  8
0
  6
CONTINUOUS
 62
     7
 10
-2.864560428569279
 20
-2.396327263432807
 11
-2.849776925066605
 21
-2.41235789788341
  0
LINE
  8
0
  6
CONTINUOUS
 62
     7
 10
-2.849776925066605
 20
-2.41235789788341
 11
-2.833862729022002
 21
-2.427201077930208
  0
LINE
  8
0
  6
CONTINUOUS
 62
     7
 10
-2.833862729022002
 20
-2.427201077930208
 11
-2.816831753797516
 21
-2.44085680357331
  0
LINE
  8
0
  6
CONTINUOUS
 62
     7
 10
-2.816831753797516
 20
-2.44085680357331
 11
-2.798697912755415
 21
-2.453325074812718
  0
LINE
  8
0
  6
CONTINUOUS
 62
     7
 10
-2.798697912755415
 20
-2.453325074812718
 11
-2.779475119257607
 21
-2.464605891648236
  0
LINE
  8
0
  6
CONTINUOUS
 62
     7
 10
-2.779475119257607
 20
-2.464605891648236
 11
-2.759177286666303
 21
-2.474699254080115
  0
LINE
  8
0
  6
CONTINUOUS
 62
     7
 10
-2.759177286666303
 20
-2.474699254080115
 11
-2.737818328343494
 21
-2.483605162108216
  0
LINE
  8
0
  6
CONTINUOUS
 62
     7
 10
-2.737818328343494
 20
-2.483605162108216
 11
-2.715412157651309
 21
-2.491323615732538
  0
LINE
  8
0
  6
CONTINUOUS
 62
     7
 10
-2.715412157651309
 20
-2.491323615732538
 11
-2.691972687951905
 21
-2.49785461495311
  0
LINE
  8
0
  6
CONTINUOUS
 62
     7
 10
-2.691972687951905
 20
-2.49785461495311
 11
-2.667513832607299
 21
-2.503198159770015
  0
LINE
  8
0
  6
CONTINUOUS
 62
     7
 10
-2.667513832607299
 20
-2.503198159770015
 11
-2.642049504979704
 21
-2.507354250183141
  0
LINE
  8
0
  6
CONTINUOUS
 62
     7
 10
-2.642049504979704
 20
-2.507354250183141
 11
-2.615593618431083
 21
-2.510322886192518
  0
LINE
  8
0
  6
CONTINUOUS
 62
     7
 10
-2.615593618431083
 20
-2.510322886192518
 11
-2.588160086323593
 21
-2.512104067798115
  0
LINE
  8
0
  6
CONTINUOUS
 62
     7
 10
-2.588160086323593
 20
-2.512104067798115
 11
-2.559762822019307
 21
-2.512697795000018
  0
LINE
  8
0
  6
CONTINUOUS
 62
     7
 10
-2.242042088017704
 20
1.203255511999984
 11
-2.228747407887116
 21
1.252876131373482
  0
LINE
  8
0
  6
CONTINUOUS
 62
     7
 10
-2.228747407887116
 20
1.252876131373482
 11
-2.214352058829083
 21
1.302219998827403
  0
LINE
  8
0
  6
CONTINUOUS
 62
     7
 10
-2.214352058829083
 20
1.302219998827403
 11
-2.198740567271484
 21
1.351165943306976
  0
LINE
  8
0
  6
CONTINUOUS
 62
     7
 10
-2.198740567271484
 20
1.351165943306976
 11
-2.181797459642421
 21
1.399592793757565
  0
LINE
  8
0
  6
CONTINUOUS
 62
     7
 10
-2.181797459642421
 20
1.399592793757565
 11
-2.163407262369826
 21
1.447379379124591
  0
LINE
  8
0
  6
CONTINUOUS
 62
     7
 10
-2.163407262369826
 20
1.447379379124591
 11
-2.143454501881775
 21
1.494404528353199
  0
LINE
  8
0
  6
CONTINUOUS
 62
     7
 10
-2.143454501881775
 20
1.494404528353199
 11
-2.121823704606507
 21
1.54054707038867
  0
LINE
  8
0
  6
CONTINUOUS
 62
     7
 10
-2.121823704606507
 20
1.54054707038867
 11
-2.0983993969719
 21
1.58568583417637
  0
LINE
  8
0
  6
CONTINUOUS
 62
     7
 10
-2.0983993969719
 20
1.58568583417637
 11
-2.073066105405696
 21
1.629699648661886
  0
LINE
  8
0
  6
CONTINUOUS
 62
     7
 10
-2.073066105405696
 20
1.629699648661886
 11
-2.045708356336495
 21
1.672467342790085
  0
LINE
  8
0
  6
CONTINUOUS
 62
     7
 10
-2.045708356336495
 20
1.672467342790085
 11
-2.016210676191788
 21
1.713867745506664
  0
LINE
  8
0
  6
CONTINUOUS
 62
     7
 10
-2.016210676191788
 20
1.713867745506664
 11
-1.984457591400118
 21
1.753779685756685
  0
LINE
  8
0
  6
CONTINUOUS
 62
     7
 10
-1.984457591400118
 20
1.753779685756685
 11
-1.950333628389089
 21
1.792081992485595
  0
LINE
  8
0
  6
CONTINUOUS
 62
     7
 10
-1.950333628389089
 20
1.792081992485595
 11
-1.913723313587024
 21
1.828653494638566
  0
LINE
  8
0
  6
CONTINUOUS
 62
     7
 10
-1.913723313587024
 20
1.828653494638566
 11
-1.874511173421689
 21
1.863373021161185
  0
LINE
  8
0
  6
CONTINUOUS
 62
     7
 10
-1.874511173421689
 20
1.863373021161185
 11
-1.832581734321381
 21
1.896119400998486
  0
LINE
  8
0
  6
CONTINUOUS
 62
     7
 10
-1.832581734321381
 20
1.896119400998486
 11
-1.787819522714007
 21
1.926771463095972
  0
LINE
  8
0
  6
CONTINUOUS
 62
     7
 10
-1.787819522714007
 20
1.926771463095972
 11
-1.740109065027501
 21
1.955208036398787
  0
LINE
  8
0
  6
CONTINUOUS
 62
     7
 10
-1.740109065027501
 20
1.955208036398787
 11
-1.689334887690186
 21
1.981307949852379
  0
LINE
  8
0
  6
CONTINUOUS
 62
     7
 10
-1.689334887690186
 20
1.981307949852379
 11
-1.635381517129803
 21
2.004950032402086
  0
LINE
  8
0
  6
CONTINUOUS
 62
     7
 10
-1.635381517129803
 20
2.004950032402086
 11
-1.578133479774479
 21
2.02601311299308
  0
LINE
  8
0
  6
CONTINUOUS
 62
     7
 10
-1.578133479774479
 20
2.02601311299308
 11
-1.517475302052401
 21
2.044376020570782
  0
LINE
  8
0
  6
CONTINUOUS
 62
     7
 10
-1.517475302052401
 20
2.044376020570782
 11
-1.453291510391419
 21
2.059917584080473
  0
LINE
  8
0
  6
CONTINUOUS
 62
     7
 10
-1.453291510391419
 20
2.059917584080473
 11
-1.385466631219523
 21
2.072516632467575
  0
LINE
  8
0
  6
CONTINUOUS
 62
     7
 10
-1.385466631219523
 20
2.072516632467575
 11
-1.313885190964897
 21
2.082051994677175
  0
LINE
  8
0
  6
CONTINUOUS
 62
     7
 10
-1.313885190964897
 20
2.082051994677175
 11
-1.238431716055505
 21
2.088402499654779
  0
LINE
  8
0
  6
CONTINUOUS
 62
     7
 10
-1.238431716055505
 20
2.088402499654779
 11
-1.158990732919501
 21
2.091446976345695
  0
LINE
  8
0
  6
CONTINUOUS
 62
     7
 10
-1.158990732919501
 20
2.091446976345695
 11
-1.0766990623505
 21
2.09103032734248
  0
LINE
  8
0
  6
CONTINUOUS
 62
     7
 10
-1.0766990623505
 20
2.09103032734248
 11
-0.9965319472180212
 21
2.086976681984487
  0
LINE
  8
0
  6
CONTINUOUS
 62
     7
 10
-0.9965319472180212
 20
2.086976681984487
 11
-0.9191115769289215
 21
2.07933293616358
  0
LINE
  8
0
  6
CONTINUOUS
 62
     7
 10
-0.9191115769289215
 20
2.07933293616358
 11
-0.8445474600420055
 21
2.068164805023892
  0
LINE
  8
0
  6
CONTINUOUS
 62
     7
 10
-0.8445474600420055
 20
2.068164805023892
 11
-0.7729491051155224
 21
2.053538003709665
  0
LINE
  8
0
  6
CONTINUOUS
 62
     7
 10
-0.7729491051155224
 20
2.053538003709665
 11
-0.7044260207079989
 21
2.035518247364781
  0
LINE
  8
0
  6
CONTINUOUS
 62
     7
 10
-0.7044260207079989
 20
2.035518247364781
 11
-0.6390877153781005
 21
2.014171251133373
  0
LINE
  8
0
  6
CONTINUOUS
 62
     7
 10
-0.6390877153781005
 20
2.014171251133373
 11
-0.5770436976839932
 21
1.989562730159683
  0
LINE
  8
0
  6
CONTINUOUS
 62
     7
 10
-0.5770436976839932
 20
1.989562730159683
 11
-0.5184034761847034
 21
1.961758399587593
  0
LINE
  8
0
  6
CONTINUOUS
 62
     7
 10
-0.5184034761847034
 20
1.961758399587593
 11
-0.4632765594382859
 21
1.930823974561263
  0
LINE
  8
0
  6
CONTINUOUS
 62
     7
 10
-0.4632765594382859
 20
1.930823974561263
 11
-0.4117724560034064
 21
1.89682517022477
  0
LINE
  8
0
  6
CONTINUOUS
 62
     7
 10
-0.4117724560034064
 20
1.89682517022477
 11
-0.3640006744386193
 21
1.859827701722189
  0
LINE
  8
0
  6
CONTINUOUS
 62
     7
 10
-0.3640006744386193
 20
1.859827701722189
 11
-0.3200707233023126
 21
1.81989728419768
  0
LINE
  8
0
  6
CONTINUOUS
 62
     7
 10
-0.3200707233023126
 20
1.81989728419768
 11
-0.2800921111532073
 21
1.777099632795182
  0
LINE
  8
0
  6
CONTINUOUS
 62
     7
 10
-0.2800921111532073
 20
1.777099632795182
 11
-0.2441743465496082
 21
1.731500462658769
  0
LINE
  8
0
  6
CONTINUOUS
 62
     7
 10
-0.2441743465496082
 20
1.731500462658769
 11
-0.2124269380500143
 21
1.683165488932686
  0
LINE
  8
0
  6
CONTINUOUS
 62
     7
 10
-0.2124269380500143
 20
1.683165488932686
 11
-0.1849593942129801
 21
1.63216042676087
  0
LINE
  8
0
  6
CONTINUOUS
 62
     7
 10
-0.1849593942129801
 20
1.63216042676087
 11
-0.1618812235971157
 21
1.578550991287592
  0
LINE
  8
0
  6
CONTINUOUS
 62
     7
 10
-0.1618812235971157
 20
1.578550991287592
 11
-0.1433019347608089
 21
1.522402897656788
  0
LINE
  8
0
  6
CONTINUOUS
 62
     7
 10
-0.1433019347608089
 20
1.522402897656788
 11
-0.1293310362626143
 21
1.463781861012481
  0
LINE
  8
0
  6
CONTINUOUS
 62
     7
 10
-0.1293310362626143
 20
1.463781861012481
 11
-0.1200780366611143
 21
1.402753596498774
  0
LINE
  8
0
  6
CONTINUOUS
 62
     7
 10
-0.1200780366611143
 20
1.402753596498774
 11
-0.1156524445145024
 21
1.339383819259882
  0
LINE
  8
0
  6
CONTINUOUS
 62
     7
 10
-0.1156524445145024
 20
1.339383819259882
 11
-0.1158390204590021
 21
1.274645480496384
  0
LINE
  8
0
  6
CONTINUOUS
 62
     7
 10
-0.1158390204590021
 20
1.274645480496384
 11
-0.1193933844579886
 21
1.212194720813603
  0
LINE
  8
0
  6
CONTINUOUS
 62
     7
 10
-0.1193933844579886
 20
1.212194720813603
 11
-0.1262219815781895
 21
1.152227613071183
  0
LINE
  8
0
  6
CONTINUOUS
 62
     7
 10
-0.1262219815781895
 20
1.152227613071183
 11
-0.1363719865263013
 21
1.094535208885583
  0
LINE
  8
0
  6
CONTINUOUS
 62
     7
 10
-0.1363719865263013
 20
1.094535208885583
 11
-0.1498905740093814
 21
1.038908559873181
  0
LINE
  8
0
  6
CONTINUOUS
 62
     7
 10
-0.1498905740093814
 20
1.038908559873181
 11
-0.1668249187341819
 21
0.9851387176504078
  0
LINE
  8
0
  6
CONTINUOUS
 62
     7
 10
-0.1668249187341819
 20
0.9851387176504078
 11
-0.187222195407788
 21
0.9330167338337803
  0
LINE
  8
0
  6
CONTINUOUS
 62
     7
 10
-0.187222195407788
 20
0.9330167338337803
 11
-0.2111295787367018
 21
0.8823336600396747
  0
LINE
  8
0
  6
CONTINUOUS
 62
     7
 10
-0.2111295787367018
 20
0.8823336600396747
 11
-0.2385942434282029
 21
0.8328805478844958
  0
LINE
  8
0
  6
CONTINUOUS
 62
     7
 10
-0.2385942434282029
 20
0.8328805478844958
 11
-0.2696633641887103
 21
0.7844484489846759
  0
LINE
  8
0
  6
CONTINUOUS
 62
     7
 10
-0.2696633641887103
 20
0.7844484489846759
 11
-0.3043841157254201
 21
0.736828414956564
  0
LINE
  8
0
  6
CONTINUOUS
 62
     7
 10
-0.3043841157254201
 20
0.736828414956564
 11
-0.3428036727451123
 21
0.6898114974167868
  0
LINE
  8
0
  6
CONTINUOUS
 62
     7
 10
-0.3428036727451123
 20
0.6898114974167868
 11
-0.3849692099545943
 21
0.6431887479815823
  0
LINE
  8
0
  6
CONTINUOUS
 62
     7
 10
-0.3849692099545943
 20
0.6431887479815823
 11
-0.4309279020607848
 21
0.5967512182675772
  0
LINE
  8
0
  6
CONTINUOUS
 62
     7
 10
-0.4309279020607848
 20
0.5967512182675772
 11
-0.4807269237704914
 21
0.5502899598909816
  0
LINE
  8
0
  6
CONTINUOUS
 62
     7
 10
-0.4807269237704914
 20
0.5502899598909816
 11
-0.534413449790605
 21
0.5035960244683946
  0
LINE
  8
0
  6
CONTINUOUS
 62
     7
 10
-0.534413449790605
 20
0.5035960244683946
 11
-0.5920346548280164
 21
0.4564604636160818
  0
LINE
  8
0
  6
CONTINUOUS
 62
     7
 10
-0.5920346548280164
 20
0.4564604636160818
 11
-0.6536377135895055
 21
0.4086743289505868
  0
LINE
  8
0
  6
CONTINUOUS
 62
     7
 10
-0.6536377135895055
 20
0.4086743289505868
 11
-0.7192698007819909
 21
0.3600286720882862
  0
LINE
  8
0
  6
CONTINUOUS
 62
     7
 10
-0.7192698007819909
 20
0.3600286720882862
 11
-0.7889780911125022
 21
0.3103145446456956
  0
LINE
  8
0
  6
CONTINUOUS
 62
     7
 10
-0.7889780911125022
 20
0.3103145446456956
 11
-0.8628097592876249
 21
0.259322998239192
  0
LINE
  8
0
  6
CONTINUOUS
 62
     7
 10
-0.8628097592876249
 20
0.259322998239192
 11
-0.9408119800143055
 21
0.2068450844851799
  0
LINE
  8
0
  6
CONTINUOUS
 62
     7
 10
-0.9408119800143055
 20
0.2068450844851799
 11
-1.023031927999518
 21
0.1526718549999806
  0
ARC
  8
0
  6
CONTINUOUS
 62
     7
 10
0.1389247827185969
 20
-2.783833207915337
 40
2.566123612980975
 50
116.2762143585171
 51
161.0026065461142
  0
LINE
  8
0
  6
CONTINUOUS
 62
     7
 10
-0.5691451670115089
 20
-0.2234630350000377
 11
-0.5028739128263016
 21
-0.1817216821181356
  0
LINE
  8
0
  6
CONTINUOUS
 62
     7
 10
-0.5028739128263016
 20
-0.1817216821181356
 11
-0.4375065013485779
 21
-0.1399472500823173
  0
LINE
  8
0
  6
CONTINUOUS
 62
     7
 10
-0.4375065013485779
 20
-0.1399472500823173
 11
-0.3731739358253938
 21
-0.0979962372897047
  0
LINE
  8
0
  6
CONTINUOUS
 62
     7
 10
-0.3731739358253938
 20
-0.0979962372897047
 11
-0.3100072195037218
 21
-0.0557251421374194
  0
LINE
  8
0
  6
CONTINUOUS
 62
     7
 10
-0.3100072195037218
 20
-0.0557251421374194
 11
-0.2481373556305899
 21
-0.0129904630224165
  0
LINE
  8
0
  6
CONTINUOUS
 62
     7
 10
-0.2481373556305899
 20
-0.0129904630224165
 11
-0.1876953474533039
 21
0.0303513016580714
  0
LINE
  8
0
  6
CONTINUOUS
 62
     7
 10
-0.1876953474533039
 20
0.0303513016580714
 11
-0.1288121982186141
 21
0.0744436535071724
  0
LINE
  8
0
  6
CONTINUOUS
 62
     7
 10
-0.1288121982186141
 20
0.0744436535071724
 11
-0.0716189111736043
 21
0.1194300941276816
  0
LINE
  8
0
  6
CONTINUOUS
 62
     7
 10
-0.0716189111736043
 20
0.1194300941276816
 11
-0.0162464895654968
 21
0.1654541251225883
  0
LINE
  8
0
  6
CONTINUOUS
 62
     7
 10
-0.0162464895654968
 20
0.1654541251225883
 11
0.0371740633588191
 21
0.2126592480948819
  0
LINE
  8
0
  6
CONTINUOUS
 62
     7
 10
0.0371740633588191
 20
0.2126592480948819
 11
0.0885117443522043
 21
0.2611889646472743
  0
LINE
  8
0
  6
CONTINUOUS
 62
     7
 10
0.0885117443522043
 20
0.2611889646472743
 11
0.1376355501674087
 21
0.3111867763828657
  0
LINE
  8
0
  6
CONTINUOUS
 62
     7
 10
0.1376355501674087
 20
0.3111867763828657
 11
0.1844144775577095
 21
0.3627961849045902
  0
LINE
  8
0
  6
CONTINUOUS
 62
     7
 10
0.1844144775577095
 20
0.3627961849045902
 11
0.2287175232758842
 21
0.4161606918152705
  0
LINE
  8
0
  6
CONTINUOUS
 62
     7
 10
0.2287175232758842
 20
0.4161606918152705
 11
0.2704136840747939
 21
0.4714237987179792
  0
LINE
  8
0
  6
CONTINUOUS
 62
     7
 10
0.2704136840747939
 20
0.4714237987179792
 11
0.3093719567077158
 21
0.528729007215567
  0
LINE
  8
0
  6
CONTINUOUS
 62
     7
 10
0.3093719567077158
 20
0.528729007215567
 11
0.3454613379271221
 21
0.5882198189109955
  0
LINE
  8
0
  6
CONTINUOUS
 62
     7
 10
0.3454613379271221
 20
0.5882198189109955
 11
0.3785508244862901
 21
0.6500397354070597
  0
LINE
  8
0
  6
CONTINUOUS
 62
     7
 10
0.3785508244862901
 20
0.6500397354070597
 11
0.4085094131381084
 21
0.7143322583068878
  0
LINE
  8
0
  6
CONTINUOUS
 62
     7
 10
0.4085094131381084
 20
0.7143322583068878
 11
0.4352061006353825
 21
0.7812408892133027
  0
LINE
  8
0
  6
CONTINUOUS
 62
     7
 10
0.4352061006353825
 20
0.7812408892133027
 11
0.4585098837311952
 21
0.8509091297291826
  0
LINE
  8
0
  6
CONTINUOUS
 62
     7
 10
0.4585098837311952
 20
0.8509091297291826
 11
0.4782897591786017
 21
0.9234804814576558
  0
LINE
  8
0
  6
CONTINUOUS
 62
     7
 10
0.4782897591786017
 20
0.9234804814576558
 11
0.4944147237301855
 21
0.9990984460013785
  0
LINE
  8
0
  6
CONTINUOUS
 62
     7
 10
0.4944147237301855
 20
0.9990984460013785
 11
0.5067537741391959
 21
1.077906524963479
  0
LINE
  8
0
  6
CONTINUOUS
 62
     7
 10
0.5067537741391959
 20
1.077906524963479
 11
0.5151759071584938
 21
1.160048219946891
  0
LINE
  8
0
  6
CONTINUOUS
 62
     7
 10
0.5151759071584938
 20
1.160048219946891
 11
0.5195501195408847
 21
1.245667032554382
  0
LINE
  8
0
  6
CONTINUOUS
 62
     7
 10
0.5195501195408847
 20
1.245667032554382
 11
0.519677841780003
 21
1.334273613908393
  0
LINE
  8
0
  6
CONTINUOUS
 62
     7
 10
0.519677841780003
 20
1.334273613908393
 11
0.5150083988266219
 21
1.421323424531579
  0
LINE
  8
0
  6
CONTINUOUS
 62
     7
 10
0.5150083988266219
 20
1.421323424531579
 11
0.5055100830562986
 21
1.50584463281378
  0
LINE
  8
0
  6
CONTINUOUS
 62
     7
 10
0.5055100830562986
 20
1.50584463281378
 11
0.4912603155328155
 21
1.587780085931301
  0
LINE
  8
0
  6
CONTINUOUS
 62
     7
 10
0.4912603155328155
 20
1.587780085931301
 11
0.4723365173197047
 21
1.667072631059974
  0
LINE
  8
0
  6
CONTINUOUS
 62
     7
 10
0.4723365173197047
 20
1.667072631059974
 11
0.4488161094811094
 21
1.74366511537638
  0
LINE
  8
0
  6
CONTINUOUS
 62
     7
 10
0.4488161094811094
 20
1.74366511537638
 11
0.4207765130803953
 21
1.817500386056492
  0
LINE
  8
0
  6
CONTINUOUS
 62
     7
 10
0.4207765130803953
 20
1.817500386056492
 11
0.3882951491814002
 21
1.888521290276279
  0
LINE
  8
0
  6
CONTINUOUS
 62
     7
 10
0.3882951491814002
 20
1.888521290276279
 11
0.3514494388479894
 21
1.956670675212102
  0
LINE
  8
0
  6
CONTINUOUS
 62
     7
 10
0.3514494388479894
 20
1.956670675212102
 11
0.3103168031437231
 21
2.021891388039959
  0
LINE
  8
0
  6
CONTINUOUS
 62
     7
 10
0.3103168031437231
 20
2.021891388039959
 11
0.2649746631323835
 21
2.084126275936182
  0
LINE
  8
0
  6
CONTINUOUS
 62
     7
 10
0.2649746631323835
 20
2.084126275936182
 11
0.2155004398777804
 21
2.143318186076798
  0
LINE
  8
0
  6
CONTINUOUS
 62
     7
 10
0.2155004398777804
 20
2.143318186076798
 11
0.1619715544437239
 21
2.199409965638
  0
LINE
  8
0
  6
CONTINUOUS
 62
     7
 10
0.1619715544437239
 20
2.199409965638
 11
0.1044654278935797
 21
2.252344461795786
  0
LINE
  8
0
  6
CONTINUOUS
 62
     7
 10
0.1044654278935797
 20
2.252344461795786
 11
0.0430594812914076
 21
2.302064521726488
  0
LINE
  8
0
  6
CONTINUOUS
 62
     7
 10
0.0430594812914076
 20
2.302064521726488
 11
-0.0221688642991213
 21
2.348512992606272
  0
LINE
  8
0
  6
CONTINUOUS
 62
     7
 10
-0.0221688642991213
 20
2.348512992606272
 11
-0.0911421878143082
 21
2.391632721611081
  0
LINE
  8
0
  6
CONTINUOUS
 62
     7
 10
-0.0911421878143082
 20
2.391632721611081
 11
-0.1637830681903985
 21
2.431366555917275
  0
LINE
  8
0
  6
CONTINUOUS
 62
     7
 10
-0.1637830681903985
 20
2.431366555917275
 11
-0.2400140843636933
 21
2.467657342700963
  0
LINE
  8
0
  6
CONTINUOUS
 62
     7
 10
-0.2400140843636933
 20
2.467657342700963
 11
-0.3197578152704106
 21
2.5004479291382
  0
LINE
  8
0
  6
CONTINUOUS
 62
     7
 10
-0.3197578152704106
 20
2.5004479291382
 11
-0.4029368398467958
 21
2.529681162405206
  0
LINE
  8
0
  6
CONTINUOUS
 62
     7
 10
-0.4029368398467958
 20
2.529681162405206
 11
-0.4894737370292057
 21
2.555299889678092
  0
LINE
  8
0
  6
CONTINUOUS
 62
     7
 10
-0.4894737370292057
 20
2.555299889678092
 11
-0.5792910857539135
 21
2.577246958132995
  0
LINE
  8
0
  6
CONTINUOUS
 62
     7
 10
-0.5792910857539135
 20
2.577246958132995
 11
-0.6723114649569983
 21
2.59546521494608
  0
LINE
  8
0
  6
CONTINUOUS
 62
     7
 10
-0.6723114649569983
 20
2.59546521494608
 11
-0.7684574535749
 21
2.609897507293568
  0
LINE
  8
0
  6
CONTINUOUS
 62
     7
 10
-0.7684574535749
 20
2.609897507293568
 11
-0.8676516305439197
 21
2.620486682351597
  0
LINE
  8
0
  6
CONTINUOUS
 62
     7
 10
-0.8676516305439197
 20
2.620486682351597
 11
-0.9698165748001919
 21
2.627175587296082
  0
LINE
  8
0
  6
CONTINUOUS
 62
     7
 10
-0.9698165748001919
 20
2.627175587296082
 11
-1.074874865280018
 21
2.629907069303494
  0
LINE
  8
0
  6
CONTINUOUS
 62
     7
 10
-1.074874865280018
 20
2.629907069303494
 11
-1.180397452431675
 21
2.62883487599877
  0
LINE
  8
0
  6
CONTINUOUS
 62
     7
 10
-1.180397452431675
 20
2.62883487599877
 11
-1.281844739972393
 21
2.624388540689471
  0
LINE
  8
0
  6
CONTINUOUS
 62
     7
 10
-1.281844739972393
 20
2.624388540689471
 11
-1.379215335099798
 21
2.616660350650779
  0
LINE
  8
0
  6
CONTINUOUS
 62
     7
 10
-1.379215335099798
 20
2.616660350650779
 11
-1.472626163868784
 21
2.605732854496861
  0
LINE
  8
0
  6
CONTINUOUS
 62
     7
 10
-1.472626163868784
 20
2.605732854496861
 11
-1.562194152335106
 21
2.591688600841302
  0
LINE
  8
0
  6
CONTINUOUS
 62
     7
 10
-1.562194152335106
 20
2.591688600841302
 11
-1.648036226553906
 21
2.574610138298294
  0
LINE
  8
0
  6
CONTINUOUS
 62
     7
 10
-1.648036226553906
 20
2.574610138298294
 11
-1.730269312580412
 21
2.554580015481394
  0
LINE
  8
0
  6
CONTINUOUS
 62
     7
 10
-1.730269312580412
 20
2.554580015481394
 11
-1.809010336470018
 21
2.531680781004602
  0
LINE
  8
0
  6
CONTINUOUS
 62
     7
 10
-1.809010336470018
 20
2.531680781004602
 11
-1.884376224278089
 21
2.50599498348189
  0
LINE
  8
0
  6
CONTINUOUS
 62
     7
 10
-1.884376224278089
 20
2.50599498348189
 11
-1.956483902059991
 21
2.477605171527092
  0
LINE
  8
0
  6
CONTINUOUS
 62
     7
 10
-1.956483902059991
 20
2.477605171527092
 11
-2.025450295871006
 21
2.446593893754095
  0
LINE
  8
0
  6
CONTINUOUS
 62
     7
 10
-2.025450295871006
 20
2.446593893754095
 11
-2.091392331766389
 21
2.413043698776762
  0
LINE
  8
0
  6
CONTINUOUS
 62
     7
 10
-2.091392331766389
 20
2.413043698776762
 11
-2.154426935801617
 21
2.377037135208981
  0
LINE
  8
0
  6
CONTINUOUS
 62
     7
 10
-2.154426935801617
 20
2.377037135208981
 11
-2.214671034031779
 21
2.338656751664808
  0
LINE
  8
0
  6
CONTINUOUS
 62
     7
 10
-2.214671034031779
 20
2.338656751664808
 11
-2.272241552512488
 21
2.297985096757882
  0
LINE
  8
0
  6
CONTINUOUS
 62
     7
 10
-2.272241552512488
 20
2.297985096757882
 11
-2.327255417299001
 21
2.255104719102063
  0
LINE
  8
0
  6
CONTINUOUS
 62
     7
 10
-2.327255417299001
 20
2.255104719102063
 11
-2.379829554446405
 21
2.210098167311575
  0
LINE
  8
0
  6
CONTINUOUS
 62
     7
 10
-2.379829554446405
 20
2.210098167311575
 11
-2.4300808900104
 21
2.163047989999972
  0
LINE
  8
0
  6
CONTINUOUS
 62
     7
 10
3.067184649086202
 20
2.072256809
 11
2.966888736602974
 21
2.068660377612275
  0
LINE
  8
0
  6
CONTINUOUS
 62
     7
 10
2.966888736602974
 20
2.068660377612275
 11
2.870743907774281
 21
2.057874863261782
  0
LINE
  8
0
  6
CONTINUOUS
 62
     7
 10
2.870743907774281
 20
2.057874863261782
 11
2.778761500312504
 21
2.039905935667663
  0
LINE
  8
0
  6
CONTINUOUS
 62
     7
 10
2.778761500312504
 20
2.039905935667663
 11
2.69095285192919
 21
2.014759264548998
  0
LINE
  8
0
  6
CONTINUOUS
 62
     7
 10
2.69095285192919
 20
2.014759264548998
 11
2.607329300336692
 21
1.982440519624956
  0
LINE
  8
0
  6
CONTINUOUS
 62
     7
 10
2.607329300336692
 20
1.982440519624956
 11
2.527902183246722
 21
1.942955370614785
  0
LINE
  8
0
  6
CONTINUOUS
 62
     7
 10
2.527902183246722
 20
1.942955370614785
 11
2.452682838371301
 21
1.896309487237263
  0
LINE
  8
0
  6
CONTINUOUS
 62
     7
 10
2.452682838371301
 20
1.896309487237263
 11
2.381682603422613
 21
1.842508539211779
  0
LINE
  8
0
  6
CONTINUOUS
 62
     7
 10
2.381682603422613
 20
1.842508539211779
 11
2.314912816112291
 21
1.781558196257388
  0
LINE
  8
0
  6
CONTINUOUS
 62
     7
 10
2.314912816112291
 20
1.781558196257388
 11
2.252384814152602
 21
1.71346412809309
  0
LINE
  8
0
  6
CONTINUOUS
 62
     7
 10
2.252384814152602
 20
1.71346412809309
 11
2.1941099352554
 21
1.638232004438189
  0
LINE
  8
0
  6
CONTINUOUS
 62
     7
 10
2.1941099352554
 20
1.638232004438189
 11
2.140099517132787
 21
1.555867495011576
  0
LINE
  8
0
  6
CONTINUOUS
 62
     7
 10
2.140099517132787
 20
1.555867495011576
 11
2.090364897496588
 21
1.466376269532582
  0
LINE
  8
0
  6
CONTINUOUS
 62
     7
 10
2.090364897496588
 20
1.466376269532582
 11
2.044917414058878
 21
1.369763997720208
  0
LINE
  8
0
  6
CONTINUOUS
 62
     7
 10
2.044917414058878
 20
1.369763997720208
 11
2.003768404531592
 21
1.266036349293592
  0
LINE
  8
0
  6
CONTINUOUS
 62
     7
 10
2.003768404531592
 20
1.266036349293592
 11
1.966929206626777
 21
1.155198993971901
  0
LINE
  8
0
  6
CONTINUOUS
 62
     7
 10
1.966929206626777
 20
1.155198993971901
 11
1.934411158056398
 21
1.03725760147419
  0
LINE
  8
0
  6
CONTINUOUS
 62
     7
 10
1.934411158056398
 20
1.03725760147419
 11
1.906225596532418
 21
0.9122178415194859
  0
LINE
  8
0
  6
CONTINUOUS
 62
     7
 10
1.906225596532418
 20
0.9122178415194859
 11
1.882383859766801
 21
0.7800853838270949
  0
LINE
  8
0
  6
CONTINUOUS
 62
     7
 10
1.882383859766801
 20
0.7800853838270949
 11
1.862897285471482
 21
0.6408658981159887
  0
LINE
  8
0
  6
CONTINUOUS
 62
     7
 10
1.862897285471482
 20
0.6408658981159887
 11
1.847777211358509
 21
0.4945650541054725
  0
LINE
  8
0
  6
CONTINUOUS
 62
     7
 10
1.847777211358509
 20
0.4945650541054725
 11
1.837034975139901
 21
0.3411885215143795
  0
LINE
  8
0
  6
CONTINUOUS
 62
     7
 10
1.837034975139901
 20
0.3411885215143795
 11
1.830681914527593
 21
0.1807419700619872
  0
LINE
  8
0
  6
CONTINUOUS
 62
     7
 10
1.830681914527593
 20
0.1807419700619872
 11
1.828729080727398
 21
0.0132536833941654
  0
LINE
  8
0
  6
CONTINUOUS
 62
     7
 10
1.828729080727398
 20
0.0132536833941654
 11
1.831088581240509
 21
-0.1535614122513129
  0
LINE
  8
0
  6
CONTINUOUS
 62
     7
 10
1.831088581240509
 20
-0.1535614122513129
 11
1.837686080882306
 21
-0.3134980446131419
  0
LINE
  8
0
  6
CONTINUOUS
 62
     7
 10
1.837686080882306
 20
-0.3134980446131419
 11
1.848524373971205
 21
-0.4665366504812973
  0
LINE
  8
0
  6
CONTINUOUS
 62
     7
 10
1.848524373971205
 20
-0.4665366504812973
 11
1.863606254825789
 21
-0.6126576666461159
  0
LINE
  8
0
  6
CONTINUOUS
 62
     7
 10
1.863606254825789
 20
-0.6126576666461159
 11
1.882934517764279
 21
-0.7518415298976289
  0
LINE
  8
0
  6
CONTINUOUS
 62
     7
 10
1.882934517764279
 20
-0.7518415298976289
 11
1.906511957105422
 21
-0.8840686770259232
  0
LINE
  8
0
  6
CONTINUOUS
 62
     7
 10
1.906511957105422
 20
-0.8840686770259232
 11
1.934341367167414
 21
-1.009319544821113
  0
LINE
  8
0
  6
CONTINUOUS
 62
     7
 10
1.934341367167414
 20
-1.009319544821113
 11
1.966425542268696
 21
-1.127574570073314
  0
LINE
  8
0
  6
CONTINUOUS
 62
     7
 10
1.966425542268696
 20
-1.127574570073314
 11
2.002767276727824
 21
-1.238814189572723
  0
LINE
  8
0
  6
CONTINUOUS
 62
     7
 10
2.002767276727824
 20
-1.238814189572723
 11
2.043369364863212
 21
-1.343018840109317
  0
LINE
  8
0
  6
CONTINUOUS
 62
     7
 10
2.043369364863212
 20
-1.343018840109317
 11
2.088234600993305
 21
-1.440168958473431
  0
LINE
  8
0
  6
CONTINUOUS
 62
     7
 10
2.088234600993305
 20
-1.440168958473431
 11
2.137365779436406
 21
-1.530244981454904
  0
LINE
  8
0
  6
CONTINUOUS
 62
     7
 10
2.137365779436406
 20
-1.530244981454904
 11
2.190765694511182
 21
-1.613227345844015
  0
LINE
  8
0
  6
CONTINUOUS
 62
     7
 10
2.190765694511182
 20
-1.613227345844015
 11
2.248437140535991
 21
-1.689096488430825
  0
LINE
  8
0
  6
CONTINUOUS
 62
     7
 10
2.248437140535991
 20
-1.689096488430825
 11
2.310382911829223
 21
-1.757832846005641
  0
LINE
  8
0
  6
CONTINUOUS
 62
     7
 10
2.310382911829223
 20
-1.757832846005641
 11
2.376605802709292
 21
-1.819416855358219
  0
LINE
  8
0
  6
CONTINUOUS
 62
     7
 10
2.376605802709292
 20
-1.819416855358219
 11
2.44710860749478
 21
-1.873828953279033
  0
LINE
  8
0
  6
CONTINUOUS
 62
     7
 10
2.44710860749478
 20
-1.873828953279033
 11
2.521894120503992
 21
-1.921049576557921
  0
LINE
  8
0
  6
CONTINUOUS
 62
     7
 10
2.521894120503992
 20
-1.921049576557921
 11
2.600965136055483
 21
-1.961059161985135
  0
LINE
  8
0
  6
CONTINUOUS
 62
     7
 10
2.600965136055483
 20
-1.961059161985135
 11
2.684324448467612
 21
-1.993838146350818
  0
LINE
  8
0
  6
CONTINUOUS
 62
     7
 10
2.684324448467612
 20
-1.993838146350818
 11
2.771974852058906
 21
-2.01936696644503
  0
LINE
  8
0
  6
CONTINUOUS
 62
     7
 10
2.771974852058906
 20
-2.01936696644503
 11
2.863919141147697
 21
-2.037626059057912
  0
LINE
  8
0
  6
CONTINUOUS
 62
     7
 10
2.863919141147697
 20
-2.037626059057912
 11
2.960160110052512
 21
-2.048595860979524
  0
LINE
  8
0
  6
CONTINUOUS
 62
     7
 10
2.960160110052512
 20
-2.048595860979524
 11
3.060700553091683
 21
-2.052256809000008
  0
LINE
  8
0
  6
CONTINUOUS
 62
     7
 10
4.903432361046178
 20
0.0164850839999842
 11
4.899998003747796
 21
0.2307311779815857
  0
LINE
  8
0
  6
CONTINUOUS
 62
     7
 10
4.899998003747796
 20
0.2307311779815857
 11
4.889736207930706
 21
0.435733775060787
  0
LINE
  8
0
  6
CONTINUOUS
 62
     7
 10
4.889736207930706
 20
0.435733775060787
 11
4.872708887711491
 21
0.6315041340644867
  0
LINE
  8
0
  6
CONTINUOUS
 62
     7
 10
4.872708887711491
 20
0.6315041340644867
 11
4.848977957206984
 21
0.8180535138195
  0
LINE
  8
0
  6
CONTINUOUS
 62
     7
 10
4.848977957206984
 20
0.8180535138195
 11
4.818605330533993
 21
0.9953931731525867
  0
LINE
  8
0
  6
CONTINUOUS
 62
     7
 10
4.818605330533993
 20
0.9953931731525867
 11
4.781652921809293
 21
1.16353437089059
  0
LINE
  8
0
  6
CONTINUOUS
 62
     7
 10
4.781652921809293
 20
1.16353437089059
 11
4.738182645149608
 21
1.322488365860464
  0
LINE
  8
0
  6
CONTINUOUS
 62
     7
 10
4.738182645149608
 20
1.322488365860464
 11
4.688256414671605
 21
1.472266416888884
  0
LINE
  8
0
  6
CONTINUOUS
 62
     7
 10
4.688256414671605
 20
1.472266416888884
 11
4.63193614449231
 21
1.612879782802779
  0
LINE
  8
0
  6
CONTINUOUS
 62
     7
 10
4.63193614449231
 20
1.612879782802779
 11
4.569283748728309
 21
1.744339722428795
  0
LINE
  8
0
  6
CONTINUOUS
 62
     7
 10
4.569283748728309
 20
1.744339722428795
 11
4.500361141496295
 21
1.866657494593971
  0
LINE
  8
0
  6
CONTINUOUS
 62
     7
 10
4.500361141496295
 20
1.866657494593971
 11
4.425230236913186
 21
1.979844358124982
  0
LINE
  8
0
  6
CONTINUOUS
 62
     7
 10
4.425230236913186
 20
1.979844358124982
 11
4.343952949095703
 21
2.083911571848673
  0
LINE
  8
0
  6
CONTINUOUS
 62
     7
 10
4.343952949095703
 20
2.083911571848673
 11
4.256591192160597
 21
2.17887039459197
  0
LINE
  8
0
  6
CONTINUOUS
 62
     7
 10
4.256591192160597
 20
2.17887039459197
 11
4.163206880224812
 21
2.264732085181687
  0
LINE
  8
0
  6
CONTINUOUS
 62
     7
 10
4.163206880224812
 20
2.264732085181687
 11
4.063861927404794
 21
2.341507902444362
  0
LINE
  8
0
  6
CONTINUOUS
 62
     7
 10
4.063861927404794
 20
2.341507902444362
 11
3.958618247817375
 21
2.409209105207283
  0
LINE
  8
0
  6
CONTINUOUS
 62
     7
 10
3.958618247817375
 20
2.409209105207283
 11
3.847537755579611
 21
2.467846952296793
  0
LINE
  8
0
  6
CONTINUOUS
 62
     7
 10
3.847537755579611
 20
2.467846952296793
 11
3.730682364808113
 21
2.517432702540095
  0
LINE
  8
0
  6
CONTINUOUS
 62
     7
 10
3.730682364808113
 20
2.517432702540095
 11
3.608113989619493
 21
2.557977614763868
  0
LINE
  8
0
  6
CONTINUOUS
 62
     7
 10
3.608113989619493
 20
2.557977614763868
 11
3.479894544130696
 21
2.589492947794869
  0
LINE
  8
0
  6
CONTINUOUS
 62
     7
 10
3.479894544130696
 20
2.589492947794869
 11
3.346085942458388
 21
2.611989960460082
  0
LINE
  8
0
  6
CONTINUOUS
 62
     7
 10
3.346085942458388
 20
2.611989960460082
 11
3.206750098719402
 21
2.625479911586182
  0
LINE
  8
0
  6
CONTINUOUS
 62
     7
 10
3.206750098719402
 20
2.625479911586182
 11
3.061948927030516
 21
2.629974059999984
  0
LINE
  8
0
  6
CONTINUOUS
 62
     7
 10
3.060700553091683
 20
-2.052256809000008
 11
3.160507546220603
 21
-2.048647827212535
  0
LINE
  8
0
  6
CONTINUOUS
 62
     7
 10
3.160507546220603
 20
-2.048647827212535
 11
3.256015304144599
 21
-2.037833647161396
  0
LINE
  8
0
  6
CONTINUOUS
 62
     7
 10
3.256015304144599
 20
-2.037833647161396
 11
3.3472320318855
 21
-2.019833416813721
  0
LINE
  8
0
  6
CONTINUOUS
 62
     7
 10
3.3472320318855
 20
-2.019833416813721
 11
3.434165934464689
 21
-1.994666284136609
  0
LINE
  8
0
  6
CONTINUOUS
 62
     7
 10
3.434165934464689
 20
-1.994666284136609
 11
3.516825216904107
 21
-1.96235139709694
  0
LINE
  8
0
  6
CONTINUOUS
 62
     7
 10
3.516825216904107
 20
-1.96235139709694
 11
3.595218084224999
 21
-1.922907903661925
  0
LINE
  8
0
  6
CONTINUOUS
 62
     7
 10
3.595218084224999
 20
-1.922907903661925
 11
3.669352741449194
 21
-1.876354951798609
  0
LINE
  8
0
  6
CONTINUOUS
 62
     7
 10
3.669352741449194
 20
-1.876354951798609
 11
3.739237393598105
 21
-1.822711689473899
  0
LINE
  8
0
  6
CONTINUOUS
 62
     7
 10
3.739237393598105
 20
-1.822711689473899
 11
3.804880245693476
 21
-1.761997264655035
  0
LINE
  8
0
  6
CONTINUOUS
 62
     7
 10
3.804880245693476
 20
-1.761997264655035
 11
3.866289502756775
 21
-1.694230825309034
  0
LINE
  8
0
  6
CONTINUOUS
 62
     7
 10
3.866289502756775
 20
-1.694230825309034
 11
3.923473369809777
 21
-1.619431519402831
  0
LINE
  8
0
  6
CONTINUOUS
 62
     7
 10
3.923473369809777
 20
-1.619431519402831
 11
3.976440051874003
 21
-1.537618494903525
  0
LINE
  8
0
  6
CONTINUOUS
 62
     7
 10
3.976440051874003
 20
-1.537618494903525
 11
4.025197753970977
 21
-1.448810899778302
  0
LINE
  8
0
  6
CONTINUOUS
 62
     7
 10
4.025197753970977
 20
-1.448810899778302
 11
4.0697546811225
 21
-1.353027881994012
  0
LINE
  8
0
  6
CONTINUOUS
 62
     7
 10
4.0697546811225
 20
-1.353027881994012
 11
4.110119038349902
 21
-1.250288589517923
  0
LINE
  8
0
  6
CONTINUOUS
 62
     7
 10
4.110119038349902
 20
-1.250288589517923
 11
4.146299030674899
 21
-1.140612170317024
  0
LINE
  8
0
  6
CONTINUOUS
 62
     7
 10
4.146299030674899
 20
-1.140612170317024
 11
4.178302863119098
 21
-1.024017772358221
  0
LINE
  8
0
  6
CONTINUOUS
 62
     7
 10
4.178302863119098
 20
-1.024017772358221
 11
4.206138740704218
 21
-0.9005245436087272
  0
LINE
  8
0
  6
CONTINUOUS
 62
     7
 10
4.206138740704218
 20
-0.9005245436087272
 11
4.229814868451615
 21
-0.770151632035504
  0
LINE
  8
0
  6
CONTINUOUS
 62
     7
 10
4.229814868451615
 20
-0.770151632035504
 11
4.249339451383005
 21
-0.6329181856057076
  0
LINE
  8
0
  6
CONTINUOUS
 62
     7
 10
4.249339451383005
 20
-0.6329181856057076
 11
4.264720694520108
 21
-0.4888433522863
  0
LINE
  8
0
  6
CONTINUOUS
 62
     7
 10
4.264720694520108
 20
-0.4888433522863
 11
4.275966802884279
 21
-0.3379462800442989
  0
LINE
  8
0
  6
CONTINUOUS
 62
     7
 10
4.275966802884279
 20
-0.3379462800442989
 11
4.283085981497403
 21
-0.180246116846916
  0
LINE
  8
0
  6
CONTINUOUS
 62
     7
 10
4.283085981497403
 20
-0.180246116846916
 11
4.286086435380809
 21
-0.0157620106611134
  0
LINE
  8
0
  6
CONTINUOUS
 62
     7
 10
4.286086435380809
 20
-0.0157620106611134
 11
4.284947501735192
 21
0.1514776550671781
  0
LINE
  8
0
  6
CONTINUOUS
 62
     7
 10
4.284947501735192
 20
0.1514776550671781
 11
4.279599674459594
 21
0.3123002883154702
  0
LINE
  8
0
  6
CONTINUOUS
 62
     7
 10
4.279599674459594
 20
0.3123002883154702
 11
4.270026103865704
 21
0.4663177700526822
  0
LINE
  8
0
  6
CONTINUOUS
 62
     7
 10
4.270026103865704
 20
0.4663177700526822
 11
4.256212306743223
 21
0.6134982323633964
  0
LINE
  8
0
  6
CONTINUOUS
 62
     7
 10
4.256212306743223
 20
0.6134982323633964
 11
4.238143799881494
 21
0.7538098073316679
  0
LINE
  8
0
  6
CONTINUOUS
 62
     7
 10
4.238143799881494
 20
0.7538098073316679
 11
4.215806100069996
 21
0.8872206270423844
  0
LINE
  8
0
  6
CONTINUOUS
 62
     7
 10
4.215806100069996
 20
0.8872206270423844
 11
4.189184724098293
 21
1.013698823579656
  0
LINE
  8
0
  6
CONTINUOUS
 62
     7
 10
4.189184724098293
 20
1.013698823579656
 11
4.158265188755922
 21
1.13321252902801
  0
LINE
  8
0
  6
CONTINUOUS
 62
     7
 10
4.158265188755922
 20
1.13321252902801
 11
4.123033010832194
 21
1.24572987547189
  0
LINE
  8
0
  6
CONTINUOUS
 62
     7
 10
4.123033010832194
 20
1.24572987547189
 11
4.083473707116814
 21
1.351218994995684
  0
LINE
  8
0
  6
CONTINUOUS
 62
     7
 10
4.083473707116814
 20
1.351218994995684
 11
4.039572794399121
 21
1.44964801968378
  0
LINE
  8
0
  6
CONTINUOUS
 62
     7
 10
4.039572794399121
 20
1.44964801968378
 11
3.991315789468597
 21
1.540985081620677
  0
LINE
  8
0
  6
CONTINUOUS
 62
     7
 10
3.991315789468597
 20
1.540985081620677
 11
3.938688209114999
 21
1.625198312890874
  0
LINE
  8
0
  6
CONTINUOUS
 62
     7
 10
3.938688209114999
 20
1.625198312890874
 11
3.881675570127585
 21
1.702255845578676
  0
LINE
  8
0
  6
CONTINUOUS
 62
     7
 10
3.881675570127585
 20
1.702255845578676
 11
3.820263389295891
 21
1.772125811768388
  0
LINE
  8
0
  6
CONTINUOUS
 62
     7
 10
3.820263389295891
 20
1.772125811768388
 11
3.754437183409398
 21
1.834776343544786
  0
LINE
  8
0
  6
CONTINUOUS
 62
     7
 10
3.754437183409398
 20
1.834776343544786
 11
3.684182469257696
 21
1.890175572991981
  0
LINE
  8
0
  6
CONTINUOUS
 62
     7
 10
3.684182469257696
 20
1.890175572991981
 11
3.609484763630294
 21
1.938291632194583
  0
LINE
  8
0
  6
CONTINUOUS
 62
     7
 10
3.609484763630294
 20
1.938291632194583
 11
3.530329583316505
 21
1.979092653236897
  0
LINE
  8
0
  6
CONTINUOUS
 62
     7
 10
3.530329583316505
 20
1.979092653236897
 11
3.446702445105976
 21
2.012546768203394
  0
LINE
  8
0
  6
CONTINUOUS
 62
     7
 10
3.446702445105976
 20
2.012546768203394
 11
3.358588865788187
 21
2.038622109178573
  0
LINE
  8
0
  6
CONTINUOUS
 62
     7
 10
3.358588865788187
 20
2.038622109178573
 11
3.265974362152702
 21
2.057286808246794
  0
LINE
  8
0
  6
CONTINUOUS
 62
     7
 10
3.265974362152702
 20
2.057286808246794
 11
3.168844450988778
 21
2.068508997492363
  0
LINE
  8
0
  6
CONTINUOUS
 62
     7
 10
3.168844450988778
 20
2.068508997492363
 11
3.067184649086202
 21
2.072256809
  0
LINE
  8
0
  6
CONTINUOUS
 62
     7
 10
3.061948927030516
 20
2.629974059999984
 11
2.912127937692188
 21
2.625126955407869
  0
LINE
  8
0
  6
CONTINUOUS
 62
     7
 10
2.912127937692188
 20
2.625126955407869
 11
2.768249948908979
 21
2.610622748218161
  0
LINE
  8
0
  6
CONTINUOUS
 62
     7
 10
2.768249948908979
 20
2.610622748218161
 11
2.630361825019412
 21
2.586517098310176
  0
LINE
  8
0
  6
CONTINUOUS
 62
     7
 10
2.630361825019412
 20
2.586517098310176
 11
2.498510430362005
 21
2.552865665563564
  0
LINE
  8
0
  6
CONTINUOUS
 62
     7
 10
2.498510430362005
 20
2.552865665563564
 11
2.372742629275115
 21
2.509724109857892
  0
LINE
  8
0
  6
CONTINUOUS
 62
     7
 10
2.372742629275115
 20
2.509724109857892
 11
2.253105286097207
 21
2.45714809107267
  0
LINE
  8
0
  6
CONTINUOUS
 62
     7
 10
2.253105286097207
 20
2.45714809107267
 11
2.139645265166606
 21
2.395193269087381
  0
LINE
  8
0
  6
CONTINUOUS
 62
     7
 10
2.139645265166606
 20
2.395193269087381
 11
2.032409430822002
 21
2.323915303781676
  0
LINE
  8
0
  6
CONTINUOUS
 62
     7
 10
2.032409430822002
 20
2.323915303781676
 11
1.931444647401609
 21
2.243369855035093
  0
LINE
  8
0
  6
CONTINUOUS
 62
     7
 10
1.931444647401609
 20
2.243369855035093
 11
1.836797779244004
 21
2.153612582727088
  0
LINE
  8
0
  6
CONTINUOUS
 62
     7
 10
1.836797779244004
 20
2.153612582727088
 11
1.748515690687513
 21
2.054699146737282
  0
LINE
  8
0
  6
CONTINUOUS
 62
     7
 10
1.748515690687513
 20
2.054699146737282
 11
1.666645246070686
 21
1.946685206945187
  0
LINE
  8
0
  6
CONTINUOUS
 62
     7
 10
1.666645246070686
 20
1.946685206945187
 11
1.591233309731904
 21
1.829626423230285
  0
LINE
  8
0
  6
CONTINUOUS
 62
     7
 10
1.591233309731904
 20
1.829626423230285
 11
1.522326746009578
 21
1.703578455472282
  0
LINE
  8
0
  6
CONTINUOUS
 62
     7
 10
1.522326746009578
 20
1.703578455472282
 11
1.459972419242284
 21
1.568596963550578
  0
LINE
  8
0
  6
CONTINUOUS
 62
     7
 10
1.459972419242284
 20
1.568596963550578
 11
1.404217193768403
 21
1.424737607344795
  0
LINE
  8
0
  6
CONTINUOUS
 62
     7
 10
1.404217193768403
 20
1.424737607344795
 11
1.355107933926292
 21
1.272056046734471
  0
LINE
  8
0
  6
CONTINUOUS
 62
     7
 10
1.355107933926292
 20
1.272056046734471
 11
1.312691504054497
 21
1.11060794159909
  0
LINE
  8
0
  6
CONTINUOUS
 62
     7
 10
1.312691504054497
 20
1.11060794159909
 11
1.277014768491402
 21
0.9404489518182735
  0
LINE
  8
0
  6
CONTINUOUS
 62
     7
 10
1.277014768491402
 20
0.9404489518182735
 11
1.2481245915755
 21
0.7616347372714771
  0
LINE
  8
0
  6
CONTINUOUS
 62
     7
 10
1.2481245915755
 20
0.7616347372714771
 11
1.226067837645201
 21
0.5742209578384616
  0
LINE
  8
0
  6
CONTINUOUS
 62
     7
 10
1.226067837645201
 20
0.5742209578384616
 11
1.210891371038886
 21
0.3782632733984603
  0
LINE
  8
0
  6
CONTINUOUS
 62
     7
 10
1.210891371038886
 20
0.3782632733984603
 11
1.202642056095105
 21
0.1738173438311785
  0
LINE
  8
0
  6
CONTINUOUS
 62
     7
 10
1.202642056095105
 20
0.1738173438311785
 11
1.201334948857408
 21
-0.03820994634951
  0
LINE
  8
0
  6
CONTINUOUS
 62
     7
 10
1.201334948857408
 20
-0.03820994634951
 11
1.206547361049581
 21
-0.2456730850288191
  0
LINE
  8
0
  6
CONTINUOUS
 62
     7
 10
1.206547361049581
 20
-0.2456730850288191
 11
1.218123581763514
 21
-0.4446123666513313
  0
LINE
  8
0
  6
CONTINUOUS
 62
     7
 10
1.218123581763514
 20
-0.4446123666513313
 11
1.236050083745083
 21
-0.6350007325870155
  0
LINE
  8
0
  6
CONTINUOUS
 62
     7
 10
1.236050083745083
 20
-0.6350007325870155
 11
1.260313339739999
 21
-0.8168111242061182
  0
LINE
  8
0
  6
CONTINUOUS
 62
     7
 10
1.260313339739999
 20
-0.8168111242061182
 11
1.290899822494279
 21
-0.9900164828786084
  0
LINE
  8
0
  6
CONTINUOUS
 62
     7
 10
1.290899822494279
 20
-0.9900164828786084
 11
1.327796004753717
 21
-1.154589749974511
  0
LINE
  8
0
  6
CONTINUOUS
 62
     7
 10
1.327796004753717
 20
-1.154589749974511
 11
1.370988359263886
 21
-1.310503866864127
  0
LINE
  8
0
  6
CONTINUOUS
 62
     7
 10
1.370988359263886
 20
-1.310503866864127
 11
1.420463358770802
 21
-1.457731774917315
  0
LINE
  8
0
  6
CONTINUOUS
 62
     7
 10
1.420463358770802
 20
-1.457731774917315
 11
1.476207476020203
 21
-1.59624641550421
  0
LINE
  8
0
  6
CONTINUOUS
 62
     7
 10
1.476207476020203
 20
-1.59624641550421
 11
1.538207183757884
 21
-1.72602072999492
  0
LINE
  8
0
  6
CONTINUOUS
 62
     7
 10
1.538207183757884
 20
-1.72602072999492
 11
1.606448954729889
 21
-1.847027659759415
  0
LINE
  8
0
  6
CONTINUOUS
 62
     7
 10
1.606448954729889
 20
-1.847027659759415
 11
1.680919261681707
 21
-1.959240146167801
  0
LINE
  8
0
  6
CONTINUOUS
 62
     7
 10
1.680919261681707
 20
-1.959240146167801
 11
1.761604577359493
 21
-2.062631130590103
  0
LINE
  8
0
  6
CONTINUOUS
 62
     7
 10
1.761604577359493
 20
-2.062631130590103
 11
1.848491374508682
 21
-2.157173554396735
  0
LINE
  8
0
  6
CONTINUOUS
 62
     7
 10
1.848491374508682
 20
-2.157173554396735
 11
1.941566125875288
 21
-2.242840358957304
  0
LINE
  8
0
  6
CONTINUOUS
 62
     7
 10
1.941566125875288
 20
-2.242840358957304
 11
2.040815304205301
 21
-2.319604485642113
  0
LINE
  8
0
  6
CONTINUOUS
 62
     7
 10
2.040815304205301
 20
-2.319604485642113
 11
2.146225382244182
 21
-2.387438875821102
  0
LINE
  8
0
  6
CONTINUOUS
 62
     7
 10
2.146225382244182
 20
-2.387438875821102
 11
2.257782832738003
 21
-2.446316470864518
  0
LINE
  8
0
  6
CONTINUOUS
 62
     7
 10
2.257782832738003
 20
-2.446316470864518
 11
2.375474128432503
 21
-2.49621021214233
  0
LINE
  8
0
  6
CONTINUOUS
 62
     7
 10
2.375474128432503
 20
-2.49621021214233
 11
2.499285742073392
 21
-2.537093041024618
  0
LINE
  8
0
  6
CONTINUOUS
 62
     7
 10
2.499285742073392
 20
-2.537093041024618
 11
2.629204146406799
 21
-2.568937898881407
  0
LINE
  8
0
  6
CONTINUOUS
 62
     7
 10
2.629204146406799
 20
-2.568937898881407
 11
2.765215814178101
 21
-2.591717727082915
  0
LINE
  8
0
  6
CONTINUOUS
 62
     7
 10
2.765215814178101
 20
-2.591717727082915
 11
2.907307218133398
 21
-2.605405466999111
  0
LINE
  8
0
  6
CONTINUOUS
 62
     7
 10
2.907307218133398
 20
-2.605405466999111
 11
3.055464831018512
 21
-2.60997406000002
  0
LINE
  8
0
  6
CONTINUOUS
 62
     7
 10
3.055464831018512
 20
-2.60997406000002
 11
3.201787588893418
 21
-2.605252389459606
  0
LINE
  8
0
  6
CONTINUOUS
 62
     7
 10
3.201787588893418
 20
-2.605252389459606
 11
3.342453647929483
 21
-2.591115524905707
  0
LINE
  8
0
  6
CONTINUOUS
 62
     7
 10
3.342453647929483
 20
-2.591115524905707
 11
3.477412351121117
 21
-2.567605686939506
  0
LINE
  8
0
  6
CONTINUOUS
 62
     7
 10
3.477412351121117
 20
-2.567605686939506
 11
3.606613041462508
 21
-2.534765096162017
  0
LINE
  8
0
  6
CONTINUOUS
 62
     7
 10
3.606613041462508
 20
-2.534765096162017
 11
3.730005061948122
 21
-2.492635973174506
  0
LINE
  8
0
  6
CONTINUOUS
 62
     7
 10
3.730005061948122
 20
-2.492635973174506
 11
3.847537755572283
 21
-2.441260538578099
  0
LINE
  8
0
  6
CONTINUOUS
 62
     7
 10
3.847537755572283
 20
-2.441260538578099
 11
3.959160465329403
 21
-2.380681012973923
  0
LINE
  8
0
  6
CONTINUOUS
 62
     7
 10
3.959160465329403
 20
-2.380681012973923
 11
4.064822534213502
 21
-2.31093961696302
  0
LINE
  8
0
  6
CONTINUOUS
 62
     7
 10
4.064822534213502
 20
-2.31093961696302
 11
4.16447330521938
 21
-2.232078571146517
  0
LINE
  8
0
  6
CONTINUOUS
 62
     7
 10
4.16447330521938
 20
-2.232078571146517
 11
4.258062121341083
 21
-2.144140096125541
  0
LINE
  8
0
  6
CONTINUOUS
 62
     7
 10
4.258062121341083
 20
-2.144140096125541
 11
4.345538325572995
 21
-2.047166412501439
  0
LINE
  8
0
  6
CONTINUOUS
 62
     7
 10
4.345538325572995
 20
-2.047166412501439
 11
4.426851260909581
 21
-1.941199740875005
  0
LINE
  8
0
  6
CONTINUOUS
 62
     7
 10
4.426851260909581
 20
-1.941199740875005
 11
4.501950270345112
 21
-1.826282301847643
  0
LINE
  8
0
  6
CONTINUOUS
 62
     7
 10
4.501950270345112
 20
-1.826282301847643
 11
4.570784696873803
 21
-1.702456316020312
  0
LINE
  8
0
  6
CONTINUOUS
 62
     7
 10
4.570784696873803
 20
-1.702456316020312
 11
4.633303883490175
 21
-1.569764003994112
  0
LINE
  8
0
  6
CONTINUOUS
 62
     7
 10
4.633303883490175
 20
-1.569764003994112
 11
4.689457173188499
 21
-1.428247586370418
  0
LINE
  8
0
  6
CONTINUOUS
 62
     7
 10
4.689457173188499
 20
-1.428247586370418
 11
4.739193908963101
 21
-1.277949283750135
  0
LINE
  8
0
  6
CONTINUOUS
 62
     7
 10
4.739193908963101
 20
-1.277949283750135
 11
4.782463433808282
 21
-1.118911316734417
  0
LINE
  8
0
  6
CONTINUOUS
 62
     7
 10
4.782463433808282
 20
-1.118911316734417
 11
4.819215090718504
 21
-0.9511759059244174
  0
LINE
  8
0
  6
CONTINUOUS
 62
     7
 10
4.819215090718504
 20
-0.9511759059244174
 11
4.849398222688123
 21
-0.7747852719213189
  0
LINE
  8
0
  6
CONTINUOUS
 62
     7
 10
4.849398222688123
 20
-0.7747852719213189
 11
4.872962172711187
 21
-0.5897816353261087
  0
LINE
  8
0
  6
CONTINUOUS
 62
     7
 10
4.872962172711187
 20
-0.5897816353261087
 11
4.889856283782384
 21
-0.3962072167402186
  0
LINE
  8
0
  6
CONTINUOUS
 62
     7
 10
4.889856283782384
 20
-0.3962072167402186
 11
4.900029898896014
 21
-0.1941042367644141
  0
LINE
  8
0
  6
CONTINUOUS
 62
     7
 10
4.900029898896014
 20
-0.1941042367644141
 11
4.903432361046178
 21
0.0164850839999842
  0
LINE
  8
0
  6
CONTINUOUS
 62
     7
 10
89.31719073885522
 20
-5.753263896220301
 11
119.4171907388552
 21
-5.753263896220301
  0
ARC
  8
0
  6
CONTINUOUS
 62
     7
 10
119.4171907388552
 20
-5.050000000000026
 40
0.7032638962202742
 50
270.0
 51
0.0
  0
LINE
  8
0
  6
CONTINUOUS
 62
     7
 10
120.1204546350755
 20
-5.050000000000026
 11
120.1204546350755
 21
2.049999999999995
  0
ARC
  8
0
  6
CONTINUOUS
 62
     7
 10
119.4171907388552
 20
2.049999999999996
 40
0.7032638962202742
 50
0.0
 51
90.0
  0
LINE
  8
0
  6
CONTINUOUS
 62
     7
 10
119.4171907388552
 20
2.75326389622027
 11
114.6171907388552
 21
2.75326389622027
  0
ARC
  8
0
  6
CONTINUOUS
 62
     7
 10
114.6171907388552
 20
5.249999999999977
 40
2.496736103779706
 50
180.0
 51
270.0
  0
LINE
  8
0
  6
CONTINUOUS
 62
     7
 10
112.1204546350755
 20
5.249999999999977
 11
112.1204546350755
 21
6.499999999999978
  0
ARC
  8
0
  6
CONTINUOUS
 62
     7
 10
117.8671907388552
 20
6.499999999999978
 40
5.746736103779681
 50
90.0
 51
180.0
  0
LINE
  8
0
  6
CONTINUOUS
 62
     7
 10
117.8671907388552
 20
12.24673610377969
 11
120.8671907388552
 21
12.24673610377969
  0
ARC
  8
0
  6
CONTINUOUS
 62
     7
 10
120.8671907388552
 20
6.499999999999978
 40
5.746736103779681
 50
0.0
 51
90.0
  0
LINE
  8
0
  6
CONTINUOUS
 62
     7
 10
126.6139268426348
 20
6.499999999999978
 11
126.6139268426348
 21
-6.500000000000005
  0
ARC
  8
0
  6
CONTINUOUS
 62
     7
 10
120.8671907388552
 20
-6.500000000000005
 40
5.746736103779681
 50
270.0
 51
0.0
  0
LINE
  8
0
  6
CONTINUOUS
 62
     7
 10
120.8671907388552
 20
-12.24673610377971
 11
87.86719073885521
 21
-12.24673610377971
  0
ARC
  8
0
  6
CONTINUOUS
 62
     7
 10
87.86719073885521
 20
-6.500000000000005
 40
5.746736103779792
 50
180.0
 51
270.0
  0
LINE
  8
0
  6
CONTINUOUS
 62
     7
 10
82.12045463507542
 20
-6.500000000000005
 11
82.12045463507542
 21
6.499999999999978
  0
ARC
  8
0
  6
CONTINUOUS
 62
     7
 10
87.86719073885521
 20
6.499999999999978
 40
5.74673610377957
 50
90.0
 51
180.0
  0
LINE
  8
0
  6
CONTINUOUS
 62
     7
 10
87.86719073885521
 20
12.24673610377958
 11
90.86719073885521
 21
12.24673610377969
  0
ARC
  8
0
  6
CONTINUOUS
 62
     7
 10
90.86719073885521
 20
6.499999999999978
 40
5.746736103779626
 50
0.0
 51
90.0
  0
LINE
  8
0
  6
CONTINUOUS
 62
     7
 10
96.6139268426349
 20
6.499999999999978
 11
96.61392684263484
 21
5.249999999999977
  0
ARC
  8
0
  6
CONTINUOUS
 62
     7
 10
94.11719073885524
 20
5.249999999999977
 40
2.496736103779706
 50
270.0
 51
0.0
  0
LINE
  8
0
  6
CONTINUOUS
 62
     7
 10
94.11719073885524
 20
2.75326389622027
 11
89.31719073885522
 21
2.75326389622027
  0
ARC
  8
0
  6
CONTINUOUS
 62
     7
 10
89.31719073885522
 20
2.049999999999996
 40
0.7032638962203297
 50
90.0
 51
180.0
  0
LINE
  8
0
  6
CONTINUOUS
 62
     7
 10
88.61392684263488
 20
2.049999999999996
 11
88.61392684263488
 21
-5.050000000000026
  0
ARC
  8
0
  6
CONTINUOUS
 62
     7
 10
89.31719073885522
 20
-5.050000000000026
 40
0.7032638962203297
 50
180.0
 51
270.0
  0
ARC
  8
0
  6
CONTINUOUS
 62
     7
 10
120.8671907388552
 20
6.499999999999978
 40
4.69452323703895
 50
0.0
 51
90.0
  0
LINE
  8
0
  6
CONTINUOUS
 62
     7
 10
117.8671907388552
 20
11.19452323703898
 11
120.8671907388552
 21
11.19452323703898
  0
ARC
  8
0
  6
CONTINUOUS
 62
     7
 10
117.8671907388552
 20
6.499999999999978
 40
4.69452323703895
 50
90.0
 51
180.0
  0
LINE
  8
0
  6
CONTINUOUS
 62
     7
 10
113.1726675018162
 20
5.249999999999977
 11
113.1726675018162
 21
6.499999999999978
  0
ARC
  8
0
  6
CONTINUOUS
 62
     7
 10
114.6171907388552
 20
5.249999999999977
 40
1.444523237038919
 50
180.0
 51
270.0
  0
LINE
  8
0
  6
CONTINUOUS
 62
     7
 10
120.9171907388552
 20
3.805476762961002
 11
114.6171907388552
 21
3.805476762961002
  0
ARC
  8
0
  6
CONTINUOUS
 62
     7
 10
120.9171907388552
 20
3.549999999999998
 40
0.2554767629610599
 50
0.0
 51
90.0
  0
LINE
  8
0
  6
CONTINUOUS
 62
     7
 10
121.1726675018161
 20
-6.500000000000005
 11
121.1726675018162
 21
3.549999999999998
  0
ARC
  8
0
  6
CONTINUOUS
 62
     7
 10
120.8671907388552
 20
-6.500000000000005
 40
0.3054767629609989
 50
270.0
 51
0.0
  0
LINE
  8
0
  6
CONTINUOUS
 62
     7
 10
87.86719073885521
 20
-6.80547676296131
 11
120.8671907388552
 21
-6.805476762961033
  0
ARC
  8
0
  6
CONTINUOUS
 62
     7
 10
87.86719073885521
 20
-6.500000000000005
 40
0.3054767629612765
 50
180.0
 51
270.0
  0
LINE
  8
0
  6
CONTINUOUS
 62
     7
 10
87.5617139758941
 20
3.549999999999998
 11
87.5617139758941
 21
-6.500000000000005
  0
ARC
  8
0
  6
CONTINUOUS
 62
     7
 10
87.81719073885522
 20
3.549999999999998
 40
0.2554767629610599
 50
90.0
 51
180.0
  0
LINE
  8
0
  6
CONTINUOUS
 62
     7
 10
94.11719073885524
 20
3.805476762961002
 11
87.81719073885522
 21
3.805476762961002
  0
ARC
  8
0
  6
CONTINUOUS
 62
     7
 10
94.11719073885524
 20
5.249999999999977
 40
1.444523237038975
 50
270.0
 51
0.0
  0
LINE
  8
0
  6
CONTINUOUS
 62
     7
 10
95.56171397589422
 20
6.499999999999978
 11
95.56171397589411
 21
5.249999999999977
  0
ARC
  8
0
  6
CONTINUOUS
 62
     7
 10
90.86719073885521
 20
6.499999999999978
 40
4.694523237038895
 50
0.0
 51
90.0
  0
LINE
  8
0
  6
CONTINUOUS
 62
     7
 10
87.86719073885521
 20
11.19452323703918
 11
90.86719073885521
 21
11.19452323703898
  0
ARC
  8
0
  6
CONTINUOUS
 62
     7
 10
87.86719073885521
 20
6.499999999999978
 40
4.694523237039172
 50
90.0
 51
180.0
  0
LINE
  8
0
  6
CONTINUOUS
 62
     7
 10
83.17266750181626
 20
-6.500000000000005
 11
83.1726675018162
 21
6.499999999999978
  0
ARC
  8
0
  6
CONTINUOUS
 62
     7
 10
87.86719073885521
 20
-6.500000000000005
 40
4.69452323703895
 50
180.0
 51
270.0
  0
LINE
  8
0
  6
CONTINUOUS
 62
     7
 10
120.8671907388552
 20
-11.19452323703893
 11
87.86719073885521
 21
-11.19452323703893
  0
ARC
  8
0
  6
CONTINUOUS
 62
     7
 10
120.8671907388552
 20
-6.500000000000005
 40
4.69452323703895
 50
270.0
 51
0.0
  0
LINE
  8
0
  6
CONTINUOUS
 62
     7
 10
125.5617139758941
 20
6.499999999999978
 11
125.5617139758941
 21
-6.500000000000005
  0
LINE
  8
0
  6
CONTINUOUS
 62
     7
 10
84.17251519697253
 20
6.499999999999978
 11
84.17251519697258
 21
-6.500000000000005
  0
LINE
  8
0
  6
CONTINUOUS
 62
     7
 10
84.17251519697253
 20
-6.500000000000005
 11
83.17266750181626
 21
-6.500000000000005
  0
LINE
  8
0
  6
CONTINUOUS
 62
     7
 10
84.17251519697241
 20
6.499999999999978
 11
83.1726675018162
 21
6.499999999999978
  0
ARC
  8
0
  6
CONTINUOUS
 62
     7
 10
87.86719073885521
 20
6.499999999999978
 40
3.694675541882797
 50
90.0
 51
180.0
  0
LINE
  8
0
  6
CONTINUOUS
 62
     7
 10
87.86719073885521
 20
10.19467554188258
 11
87.86719073885521
 21
11.19452323703918
  0
ARC
  8
0
  6
CONTINUOUS
 62
     7
 10
87.86719073885521
 20
-6.500000000000005
 40
3.694675541882575
 50
180.0
 51
270.0
  0
LINE
  8
0
  6
CONTINUOUS
 62
     7
 10
87.86719073885521
 20
-10.19467554188252
 11
87.86719073885521
 21
-11.19452323703893
  0
LINE
  8
0
  6
CONTINUOUS
 62
     7
 10
87.86719073885521
 20
-6.80547676296131
 11
87.86719073885521
 21
-7.805324458117712
  0
ARC
  8
0
  6
CONTINUOUS
 62
     7
 10
87.86719073885521
 20
-6.500000000000005
 40
1.305324458117652
 50
180.0
 51
270.0
  0
LINE
  8
0
  6
CONTINUOUS
 62
     7
 10
86.56186628073756
 20
-6.500000000000005
 11
87.5617139758941
 21
-6.500000000000005
  0
ARC
  8
0
  6
CONTINUOUS
 62
     7
 10
87.81719073885522
 20
3.549999999999998
 40
1.255324458117435
 50
90.0
 51
180.0
  0
LINE
  8
0
  6
CONTINUOUS
 62
     7
 10
87.81719073885522
 20
4.805324458117405
 11
87.81719073885522
 21
3.805476762961002
  0
LINE
  8
0
  6
CONTINUOUS
 62
     7
 10
86.56186628073768
 20
3.549999999999998
 11
87.561713975894
 21
3.549999999999998
  0
LINE
  8
0
  6
CONTINUOUS
 62
     7
 10
86.56186628073768
 20
-6.500000000000005
 11
86.56186628073768
 21
3.549999999999998
  0
LINE
  8
0
  6
CONTINUOUS
 62
     7
 10
87.81719073885522
 20
4.805324458117405
 11
94.11719073885513
 21
4.805324458117405
  0
LINE
  8
0
  6
CONTINUOUS
 62
     7
 10
94.11719073885524
 20
4.805324458117405
 11
94.11719073885524
 21
3.805476762961002
  0
LINE
  8
0
  6
CONTINUOUS
 62
     7
 10
120.8671907388552
 20
-6.805476762961033
 11
120.8671907388552
 21
-7.805324458117435
  0
LINE
  8
0
  6
CONTINUOUS
 62
     7
 10
120.8671907388552
 20
-7.805324458117435
 11
87.86719073885521
 21
-7.805324458117712
  0
LINE
  8
0
  6
CONTINUOUS
 62
     7
 10
90.86719073885521
 20
10.1946755418825
 11
87.86719073885521
 21
10.19467554188278
  0
LINE
  8
0
  6
CONTINUOUS
 62
     7
 10
90.86719073885521
 20
10.19467554188258
 11
90.86719073885521
 21
11.19452323703898
  0
LINE
  8
0
  6
CONTINUOUS
 62
     7
 10
87.86719073885521
 20
-10.19467554188261
 11
120.8671907388552
 21
-10.19467554188261
  0
LINE
  8
0
  6
CONTINUOUS
 62
     7
 10
120.8671907388552
 20
-10.19467554188261
 11
120.8671907388552
 21
-11.19452323703893
  0
ARC
  8
0
  6
CONTINUOUS
 62
     7
 10
90.86719073885521
 20
6.499999999999978
 40
3.694675541882519
 50
0.0
 51
90.0
  0
LINE
  8
0
  6
CONTINUOUS
 62
     7
 10
94.56186628073768
 20
6.499999999999978
 11
95.56171397589411
 21
6.499999999999978
  0
ARC
  8
0
  6
CONTINUOUS
 62
     7
 10
94.11719073885524
 20
5.249999999999977
 40
0.4446755418825443
 50
270.0
 51
0.0
  0
LINE
  8
0
  6
CONTINUOUS
 62
     7
 10
94.56186628073768
 20
5.249999999999977
 11
95.561713975894
 21
5.249999999999977
  0
LINE
  8
0
  6
CONTINUOUS
 62
     7
 10
94.56186628073768
 20
5.249999999999977
 11
94.56186628073779
 21
6.499999999999978
  0
LINE
  8
0
  6
CONTINUOUS
 62
     7
 10
113.1726675018162
 20
6.499999999999978
 11
114.1725151969726
 21
6.499999999999978
  0
LINE
  8
0
  6
CONTINUOUS
 62
     7
 10
114.1725151969726
 20
6.499999999999978
 11
114.1725151969726
 21
5.249999999999977
  0
LINE
  8
0
  6
CONTINUOUS
 62
     7
 10
113.1726675018162
 20
5.249999999999977
 11
114.1725151969726
 21
5.249999999999977
  0
ARC
  8
0
  6
CONTINUOUS
 62
     7
 10
114.6171907388552
 20
5.249999999999977
 40
0.4446755418825443
 50
180.0
 51
270.0
  0
LINE
  8
0
  6
CONTINUOUS
 62
     7
 10
114.6171907388552
 20
3.805476762961002
 11
114.6171907388552
 21
4.805324458117405
  0
LINE
  8
0
  6
CONTINUOUS
 62
     7
 10
117.8671907388552
 20
11.19452323703898
 11
117.8671907388552
 21
10.19467554188258
  0
ARC
  8
0
  6
CONTINUOUS
 62
     7
 10
117.8671907388552
 20
6.499999999999978
 40
3.694675541882575
 50
90.0
 51
180.0
  0
LINE
  8
0
  6
CONTINUOUS
 62
     7
 10
114.6171907388552
 20
4.805324458117405
 11
120.9171907388552
 21
4.805324458117405
  0
LINE
  8
0
  6
CONTINUOUS
 62
     7
 10
120.9171907388552
 20
3.805476762961002
 11
120.9171907388552
 21
4.805324458117405
  0
LINE
  8
0
  6
CONTINUOUS
 62
     7
 10
120.8671907388552
 20
11.19452323703898
 11
120.8671907388552
 21
10.19467554188258
  0
LINE
  8
0
  6
CONTINUOUS
 62
     7
 10
120.8671907388552
 20
10.1946755418825
 11
117.8671907388552
 21
10.1946755418825
  0
LINE
  8
0
  6
CONTINUOUS
 62
     7
 10
121.1726675018161
 20
-6.500000000000005
 11
122.1725151969725
 21
-6.500000000000005
  0
ARC
  8
0
  6
CONTINUOUS
 62
     7
 10
120.8671907388552
 20
-6.500000000000005
 40
1.305324458117374
 50
270.0
 51
0.0
  0
LINE
  8
0
  6
CONTINUOUS
 62
     7
 10
125.5617139758941
 20
6.499999999999978
 11
124.5618662807377
 21
6.499999999999978
  0
ARC
  8
0
  6
CONTINUOUS
 62
     7
 10
120.8671907388552
 20
6.499999999999978
 40
3.694675541882575
 50
0.0
 51
90.0
  0
ARC
  8
0
  6
CONTINUOUS
 62
     7
 10
120.8671907388552
 20
-6.500000000000005
 40
3.694675541882575
 50
270.0
 51
0.0
  0
LINE
  8
0
  6
CONTINUOUS
 62
     7
 10
125.5617139758941
 20
-6.500000000000005
 11
124.5618662807377
 21
-6.500000000000005
  0
ARC
  8
0
  6
CONTINUOUS
 62
     7
 10
120.9171907388552
 20
3.549999999999998
 40
1.255324458117435
 50
0.0
 51
90.0
  0
LINE
  8
0
  6
CONTINUOUS
 62
     7
 10
121.1726675018162
 20
3.549999999999998
 11
122.1725151969726
 21
3.549999999999998
  0
LINE
  8
0
  6
CONTINUOUS
 62
     7
 10
122.1725151969726
 20
3.549999999999998
 11
122.1725151969725
 21
-6.500000000000005
  0
LINE
  8
0
  6
CONTINUOUS
 62
     7
 10
124.5618662807377
 20
-6.500000000000005
 11
124.5618662807377
 21
6.499999999999978
  0
LINE
  8
0
  6
CONTINUOUS
 62
     7
 10
84.41719073885514
 20
-6.500000000000005
 11
84.41719073885514
 21
6.499999999999978
  0
LINE
  8
0
  6
CONTINUOUS
 62
     7
 10
84.17251519697258
 20
-6.500000000000005
 11
84.41719073885514
 21
-6.500000000000005
  0
LINE
  8
0
  6
CONTINUOUS
 62
     7
 10
84.17251519697253
 20
6.499999999999978
 11
84.41719073885514
 21
6.499999999999978
  0
ARC
  8
0
  6
CONTINUOUS
 62
     7
 10
87.86719073885521
 20
6.499999999999978
 40
3.450000000000231
 50
90.0
 51
180.0
  0
LINE
  8
0
  6
CONTINUOUS
 62
     7
 10
87.86719073885521
 20
10.19467554188278
 11
87.86719073885521
 21
9.949999999999958
  0
ARC
  8
0
  6
CONTINUOUS
 62
     7
 10
87.86719073885521
 20
-6.500000000000005
 40
3.450000000000009
 50
180.0
 51
270.0
  0
LINE
  8
0
  6
CONTINUOUS
 62
     7
 10
87.86719073885521
 20
-10.19467554188261
 11
87.86719073885521
 21
-9.950000000000014
  0
ARC
  8
0
  6
CONTINUOUS
 62
     7
 10
87.86719073885521
 20
-6.500000000000005
 40
1.550000000000218
 50
180.0
 51
270.0
  0
LINE
  8
0
  6
CONTINUOUS
 62
     7
 10
86.56186628073768
 20
-6.500000000000005
 11
86.31719073885522
 21
-6.500000000000005
  0
LINE
  8
0
  6
CONTINUOUS
 62
     7
 10
87.86719073885521
 20
-7.805324458117712
 11
87.86719073885521
 21
-8.050000000000223
  0
LINE
  8
0
  6
CONTINUOUS
 62
     7
 10
86.31719073885522
 20
3.549999999999998
 11
86.31719073885522
 21
-6.500000000000005
  0
LINE
  8
0
  6
CONTINUOUS
 62
     7
 10
86.56186628073768
 20
3.549999999999998
 11
86.31719073885522
 21
3.549999999999998
  0
ARC
  8
0
  6
CONTINUOUS
 62
     7
 10
87.81719073885522
 20
3.549999999999998
 40
1.500000000000001
 50
90.0
 51
180.0
  0
LINE
  8
0
  6
CONTINUOUS
 62
     7
 10
87.81719073885522
 20
4.805324458117405
 11
87.81719073885522
 21
5.049999999999999
  0
LINE
  8
0
  6
CONTINUOUS
 62
     7
 10
87.86719073885521
 20
9.949999999999958
 11
90.86719073885521
 21
9.949999999999958
  0
LINE
  8
0
  6
CONTINUOUS
 62
     7
 10
90.86719073885521
 20
10.1946755418825
 11
90.86719073885521
 21
9.949999999999958
  0
LINE
  8
0
  6
CONTINUOUS
 62
     7
 10
120.8671907388552
 20
-9.950000000000014
 11
87.86719073885521
 21
-9.950000000000014
  0
LINE
  8
0
  6
CONTINUOUS
 62
     7
 10
120.8671907388552
 20
-10.19467554188261
 11
120.8671907388552
 21
-9.950000000000014
  0
LINE
  8
0
  6
CONTINUOUS
 62
     7
 10
94.11719073885524
 20
5.049999999999999
 11
87.81719073885522
 21
5.049999999999999
  0
LINE
  8
0
  6
CONTINUOUS
 62
     7
 10
94.11719073885524
 20
4.805324458117405
 11
94.11719073885524
 21
5.049999999999999
  0
LINE
  8
0
  6
CONTINUOUS
 62
     7
 10
87.86719073885521
 20
-8.050000000000223
 11
120.8671907388552
 21
-8.05000000000003
  0
LINE
  8
0
  6
CONTINUOUS
 62
     7
 10
120.8671907388552
 20
-7.805324458117435
 11
120.8671907388552
 21
-8.05000000000003
  0
ARC
  8
0
  6
CONTINUOUS
 62
     7
 10
90.86719073885521
 20
6.499999999999978
 40
3.449999999999898
 50
0.0
 51
90.0
  0
LINE
  8
0
  6
CONTINUOUS
 62
     7
 10
94.56186628073779
 20
6.499999999999978
 11
94.31719073885522
 21
6.499999999999978
  0
ARC
  8
0
  6
CONTINUOUS
 62
     7
 10
94.11719073885524
 20
5.249999999999977
 40
0.199999999999978
 50
270.0
 51
0.0
  0
LINE
  8
0
  6
CONTINUOUS
 62
     7
 10
94.56186628073768
 20
5.249999999999977
 11
94.31719073885522
 21
5.249999999999977
  0
LINE
  8
0
  6
CONTINUOUS
 62
     7
 10
94.31719073885522
 20
6.499999999999978
 11
94.31719073885522
 21
5.249999999999977
  0
ARC
  8
0
  6
CONTINUOUS
 62
     7
 10
114.6171907388552
 20
5.249999999999977
 40
0.199999999999978
 50
180.0
 51
270.0
  0
LINE
  8
0
  6
CONTINUOUS
 62
     7
 10
114.6171907388552
 20
4.805324458117405
 11
114.6171907388552
 21
5.049999999999999
  0
LINE
  8
0
  6
CONTINUOUS
 62
     7
 10
114.1725151969726
 20
5.249999999999977
 11
114.4171907388552
 21
5.249999999999977
  0
LINE
  8
0
  6
CONTINUOUS
 62
     7
 10
120.9171907388552
 20
5.049999999999999
 11
114.6171907388552
 21
5.049999999999999
  0
LINE
  8
0
  6
CONTINUOUS
 62
     7
 10
120.9171907388552
 20
4.805324458117405
 11
120.9171907388552
 21
5.049999999999999
  0
LINE
  8
0
  6
CONTINUOUS
 62
     7
 10
114.4171907388552
 20
5.249999999999977
 11
114.4171907388552
 21
6.499999999999978
  0
LINE
  8
0
  6
CONTINUOUS
 62
     7
 10
114.1725151969726
 20
6.499999999999978
 11
114.4171907388552
 21
6.499999999999978
  0
ARC
  8
0
  6
CONTINUOUS
 62
     7
 10
117.8671907388552
 20
6.499999999999978
 40
3.450000000000009
 50
90.0
 51
180.0
  0
LINE
  8
0
  6
CONTINUOUS
 62
     7
 10
117.8671907388552
 20
10.1946755418825
 11
117.8671907388552
 21
9.949999999999958
  0
LINE
  8
0
  6
CONTINUOUS
 62
     7
 10
117.8671907388552
 20
9.949999999999958
 11
120.8671907388551
 21
9.949999999999958
  0
LINE
  8
0
  6
CONTINUOUS
 62
     7
 10
120.8671907388552
 20
10.1946755418825
 11
120.8671907388552
 21
9.949999999999958
  0
ARC
  8
0
  6
CONTINUOUS
 62
     7
 10
120.9171907388552
 20
3.549999999999998
 40
1.500000000000001
 50
0.0
 51
90.0
  0
LINE
  8
0
  6
CONTINUOUS
 62
     7
 10
122.1725151969726
 20
3.549999999999998
 11
122.4171907388552
 21
3.549999999999998
  0
ARC
  8
0
  6
CONTINUOUS
 62
     7
 10
120.8671907388552
 20
6.499999999999978
 40
3.450000000000009
 50
0.0
 51
90.0
  0
LINE
  8
0
  6
CONTINUOUS
 62
     7
 10
124.5618662807377
 20
6.499999999999978
 11
124.3171907388552
 21
6.499999999999978
  0
ARC
  8
0
  6
CONTINUOUS
 62
     7
 10
120.8671907388552
 20
-6.500000000000005
 40
3.450000000000009
 50
270.0
 51
0.0
  0
LINE
  8
0
  6
CONTINUOUS
 62
     7
 10
124.5618662807377
 20
-6.500000000000005
 11
124.3171907388552
 21
-6.500000000000005
  0
ARC
  8
0
  6
CONTINUOUS
 62
     7
 10
120.8671907388552
 20
-6.500000000000005
 40
1.54999999999994
 50
270.0
 51
0.0
  0
LINE
  8
0
  6
CONTINUOUS
 62
     7
 10
122.1725151969725
 20
-6.500000000000005
 11
122.4171907388552
 21
-6.500000000000005
  0
LINE
  8
0
  6
CONTINUOUS
 62
     7
 10
122.4171907388552
 20
-6.500000000000005
 11
122.4171907388552
 21
3.549999999999998
  0
LINE
  8
0
  6
CONTINUOUS
 62
     7
 10
124.3171907388552
 20
6.499999999999978
 11
124.3171907388552
 21
-6.500000000000005
  0
ENDSEC
  0
EOF
