  0
SECTION
  2
HEADER
  9
$ACADVER
  1
AC1004
  9
$INSBASE
 10
0.0
 20
0.0
  9
$EXTMIN
 10
-129.1389868500715
 20
-9.396736103779778
  9
$EXTMAX
 10
126.9472538015298
 20
10.19673610377975
  9
$LIMMIN
 10
0.0
 20
0.0
  9
$LIMMAX
 10
12.0
 20
9.0
  9
$ORTHOMODE
 70
     0
  9
$REGENMODE
 70
     1
  9
$FILLMODE
 70
     1
  9
$QTEXTMODE
 70
     0
  9
$DRAGMODE
 70
     2
  9
$LTSCALE
 40
1.0
  9
$OSMODE
 70
    37
  9
$ATTMODE
 70
     1
  9
$TEXTSIZE
 40
0.2
  9
$TRACEWID
 40
0.05
  9
$TEXTSTYLE
  7
STANDARD
  9
$CLAYER
  8
0
  9
$CELTYPE
  6
BYLAYER
  9
$CECOLOR
 62
   256
  9
$DIMSCALE
 40
1.0
  9
$DIMASZ
 40
2.5
  9
$DIMEXO
 40
0.0625
  9
$DIMDLI
 40
0.38
  9
$DIMRND
 40
0.0
  9
$DIMDLE
 40
0.0
  9
$DIMEXE
 40
1.25
  9
$DIMTP
 40
0.0
  9
$DIMTM
 40
0.0
  9
$DIMTXT
 40
4.0
  9
$DIMCEN
 40
0.09
  9
$DIMTSZ
 40
0.0
  9
$DIMTOL
 70
     0
  9
$DIMLIM
 70
     0
  9
$DIMTIH
 70
     1
  9
$DIMTOH
 70
     1
  9
$DIMSE1
 70
     0
  9
$DIMSE2
 70
     0
  9
$DIMTAD
 70
     1
  9
$DIMZIN
 70
     0
  9
$DIMBLK
  1

  9
$DIMASO
 70
     1
  9
$DIMSHO
 70
     1
  9
$DIMPOST
  1

  9
$DIMAPOST
  1

  9
$DIMALT
 70
     0
  9
$DIMALTD
 70
     2
  9
$DIMALTF
 40
25.4
  9
$DIMLFAC
 40
1.0
  9
$DIMTOFL
 70
     0
  9
$DIMTVP
 40
0.0
  9
$DIMTIX
 70
     0
  9
$DIMSOXD
 70
     0
  9
$DIMSAH
 70
     0
  9
$DIMBLK1
  1

  9
$DIMBLK2
  1

  9
$LUNITS
 70
     2
  9
$LUPREC
 70
     4
  9
$SKETCHINC
 40
0.1
  9
$FILLETRAD
 40
0.0
  9
$AUNITS
 70
     0
  9
$AUPREC
 70
     0
  9
$MENU
  1
.
  9
$ELEVATION
 40
0.0
  9
$THICKNESS
 40
0.0
  9
$LIMCHECK
 70
     0
  9
$CHAMFERA
 40
0.0
  9
$CHAMFERB
 40
0.0
  9
$SKPOLY
 70
     0
  9
$TDCREATE
 40
2460103.823842049
  9
$TDUPDATE
 40
2460103.823842049
  9
$TDINDWG
 40
0.0000000116
  9
$TDUSRTIMER
 40
0.0000000116
  9
$USRTIMER
 70
     1
  9
$ANGBASE
 50
0.0
  9
$ANGDIR
 70
     0
  9
$PDMODE
 70
     0
  9
$PDSIZE
 40
0.0
  9
$PLINEWID
 40
0.0
  9
$COORDS
 70
     1
  9
$SPLFRAME
 70
     0
  9
$SPLINETYPE
 70
     6
  9
$SPLINESEGS
 70
     8
  9
$ATTDIA
 70
     0
  9
$ATTREQ
 70
     1
  9
$SURFTAB1
 70
     6
  9
$SURFTAB2
 70
     6
  9
$SURFTYPE
 70
     6
  9
$SURFU
 70
     6
  9
$SURFV
 70
     6
  9
$UCSNAME
  2

  9
$UCSORG
 10
0.0
 20
0.0
 30
0.0
  9
$UCSXDIR
 10
1.0
 20
0.0
 30
0.0
  9
$UCSYDIR
 10
0.0
 20
1.0
 30
0.0
  9
$USERI1
 70
     0
  9
$USERI2
 70
     0
  9
$USERI3
 70
     0
  9
$USERI4
 70
     0
  9
$USERI5
 70
     0
  9
$USERR1
 40
0.0
  9
$USERR2
 40
0.0
  9
$USERR3
 40
0.0
  9
$USERR4
 40
0.0
  9
$USERR5
 40
0.0
  9
$WORLDVIEW
 70
     1
  0
ENDSEC
  0
SECTION
  2
TABLES
  0
TABLE
  2
LTYPE
 70
     1
  0
LTYPE
  2
CONTINUOUS
 70
     0
  3
Solid line
 72
    65
 73
     0
 40
0.0
  0
ENDTAB
  0
TABLE
  2
LAYER
 70
     1
  0
LAYER
  2
0
 70
     0
 62
     7
  6
CONTINUOUS
  0
ENDTAB
  0
TABLE
  2
STYLE
 70
     2
  0
STYLE
  2
STANDARD
 70
     0
 40
0.0
 41
1.0
 50
0.0
 71
     0
 42
0.2
  3
txt
  4

  0
STYLE
  2
HG丸ｺﾞｼｯｸM-PRO
 70
     0
 40
0.0
 41
1.0
 50
0.0
 71
     0
 42
0.2
  3
HGRSMP.TTF
  4

  0
ENDTAB
  0
TABLE
  2
VIEW
 70
     0
  0
ENDTAB
  0
ENDSEC
  0
SECTION
  2
BLOCKS
  0
ENDSEC
  0
SECTION
  2
ENTITIES
  0
LINE
  8
0
  6
CONTINUOUS
 62
     7
 10
-0.893349996007986
 20
-1.82611154299997
 11
-0.8933499960077917
 21
2.369738003000026
  0
LINE
  8
0
  6
CONTINUOUS
 62
     7
 10
1.868875154007188
 20
1.098661479000007
 11
1.992072988894589
 21
2.304887160013036
  0
LINE
  8
0
  6
CONTINUOUS
 62
     7
 10
-0.8933499960079028
 20
2.369738003000027
 11
-0.8935181064032849
 21
2.400202371412419
  0
LINE
  8
0
  6
CONTINUOUS
 62
     7
 10
-0.8935181064032849
 20
2.400202371412419
 11
-0.894030476968205
 21
2.429737018871697
  0
LINE
  8
0
  6
CONTINUOUS
 62
     7
 10
-0.894030476968205
 20
2.429737018871697
 11
-0.8948991667702133
 21
2.458353604252506
  0
LINE
  8
0
  6
CONTINUOUS
 62
     7
 10
-0.8948991667702133
 20
2.458353604252506
 11
-0.8961362348769986
 21
2.48606378642921
  0
LINE
  8
0
  6
CONTINUOUS
 62
     7
 10
-0.8961362348769986
 20
2.48606378642921
 11
-0.8977537403565827
 21
2.512879224276204
  0
LINE
  8
0
  6
CONTINUOUS
 62
     7
 10
-0.8977537403565827
 20
2.512879224276204
 11
-0.8997637422765992
 21
2.538811576668132
  0
LINE
  8
0
  6
CONTINUOUS
 62
     7
 10
-0.8997637422765992
 20
2.538811576668132
 11
-0.9021782997046257
 21
2.563872502479303
  0
LINE
  8
0
  6
CONTINUOUS
 62
     7
 10
-0.9021782997046257
 20
2.563872502479303
 11
-0.9050094717086843
 21
2.588073660584223
  0
LINE
  8
0
  6
CONTINUOUS
 62
     7
 10
-0.9050094717086843
 20
2.588073660584223
 11
-0.9082693173562972
 21
2.611426709857423
  0
LINE
  8
0
  6
CONTINUOUS
 62
     7
 10
-0.9082693173562972
 20
2.611426709857423
 11
-0.91196989571532
 21
2.633943309173326
  0
LINE
  8
0
  6
CONTINUOUS
 62
     7
 10
-0.91196989571532
 20
2.633943309173326
 11
-0.9161232658536078
 21
2.655635117406296
  0
LINE
  8
0
  6
CONTINUOUS
 62
     7
 10
-0.9161232658536078
 20
2.655635117406296
 11
-0.9207414868385999
 21
2.676513793431007
  0
LINE
  8
0
  6
CONTINUOUS
 62
     7
 10
-0.9207414868385999
 20
2.676513793431007
 11
-0.9258366177382904
 21
2.696590996121795
  0
LINE
  8
0
  6
CONTINUOUS
 62
     7
 10
-0.9258366177382904
 20
2.696590996121795
 11
-0.9314207176203959
 21
2.715878384353221
  0
LINE
  8
0
  6
CONTINUOUS
 62
     7
 10
-0.9314207176203959
 20
2.715878384353221
 11
-0.9375058455524943
 21
2.734387616999595
  0
LINE
  8
0
  6
CONTINUOUS
 62
     7
 10
-0.9375058455524943
 20
2.734387616999595
 11
-0.9441040606027185
 21
2.752130352935505
  0
LINE
  8
0
  6
CONTINUOUS
 62
     7
 10
-0.9441040606027185
 20
2.752130352935505
 11
-0.9512274218382855
 21
2.769118251035402
  0
LINE
  8
0
  6
CONTINUOUS
 62
     7
 10
-0.9512274218382855
 20
2.769118251035402
 11
-0.9588879883275225
 21
2.785362970173733
  0
LINE
  8
0
  6
CONTINUOUS
 62
     7
 10
-0.9588879883275225
 20
2.785362970173733
 11
-0.9670978191377022
 21
2.800876169224809
  0
LINE
  8
0
  6
CONTINUOUS
 62
     7
 10
-0.9670978191377022
 20
2.800876169224809
 11
-0.9758689733368187
 21
2.815669507063412
  0
LINE
  8
0
  6
CONTINUOUS
 62
     7
 10
-0.9758689733368187
 20
2.815669507063412
 11
-0.9852135099923942
 21
2.829754642563798
  0
LINE
  8
0
  6
CONTINUOUS
 62
     7
 10
-0.9852135099923942
 20
2.829754642563798
 11
-0.9951434881725063
 21
2.843143234600498
  0
LINE
  8
0
  6
CONTINUOUS
 62
     7
 10
-0.9951434881725063
 20
2.843143234600498
 11
-1.005670966944788
 21
2.855846942048018
  0
LINE
  8
0
  6
CONTINUOUS
 62
     7
 10
-1.005670966944788
 20
2.855846942048018
 11
-1.016808005376818
 21
2.867877423780585
  0
LINE
  8
0
  6
CONTINUOUS
 62
     7
 10
-1.016808005376818
 20
2.867877423780585
 11
-1.028566662536479
 21
2.879246338673008
  0
LINE
  8
0
  6
CONTINUOUS
 62
     7
 10
-1.028566662536479
 20
2.879246338673008
 11
-1.040958997491598
 21
2.889965345599599
  0
LINE
  8
0
  6
CONTINUOUS
 62
     7
 10
-1.040958997491598
 20
2.889965345599599
 11
-1.053997069309809
 21
2.900046103434722
  0
LINE
  8
0
  6
CONTINUOUS
 62
     7
 10
-1.053997069309809
 20
2.900046103434722
 11
-1.06769293705869
 21
2.909500271052995
  0
LINE
  8
0
  6
CONTINUOUS
 62
     7
 10
-1.06769293705869
 20
2.909500271052995
 11
-1.082058659806401
 21
2.918339507328921
  0
LINE
  8
0
  6
CONTINUOUS
 62
     7
 10
-1.082058659806401
 20
2.918339507328921
 11
-1.097106296620409
 21
2.9265754711367
  0
LINE
  8
0
  6
CONTINUOUS
 62
     7
 10
-1.097106296620409
 20
2.9265754711367
 11
-1.112847906568487
 21
2.934219821351114
  0
LINE
  8
0
  6
CONTINUOUS
 62
     7
 10
-1.112847906568487
 20
2.934219821351114
 11
-1.129295548718406
 21
2.94128421684639
  0
LINE
  8
0
  6
CONTINUOUS
 62
     7
 10
-1.129295548718406
 20
2.94128421684639
 11
-1.146461282137995
 21
2.947780316497117
  0
LINE
  8
0
  6
CONTINUOUS
 62
     7
 10
-1.146461282137995
 20
2.947780316497117
 11
-1.164357165894886
 21
2.953719779177799
  0
LINE
  8
0
  6
CONTINUOUS
 62
     7
 10
-1.164357165894886
 20
2.953719779177799
 11
-1.182995259056879
 21
2.959114263762802
  0
LINE
  8
0
  6
CONTINUOUS
 62
     7
 10
-1.182995259056879
 20
2.959114263762802
 11
-1.202387620691692
 21
2.963975429126631
  0
LINE
  8
0
  6
CONTINUOUS
 62
     7
 10
-1.202387620691692
 20
2.963975429126631
 11
-1.222546309867206
 21
2.968314934143706
  0
LINE
  8
0
  6
CONTINUOUS
 62
     7
 10
-1.222546309867206
 20
2.968314934143706
 11
-1.243483385651029
 21
2.972144437688617
  0
LINE
  8
0
  6
CONTINUOUS
 62
     7
 10
-1.243483385651029
 20
2.972144437688617
 11
-1.265210907110903
 21
2.975475598635729
  0
LINE
  8
0
  6
CONTINUOUS
 62
     7
 10
-1.265210907110903
 20
2.975475598635729
 11
-1.287740933314602
 21
2.97832007585952
  0
LINE
  8
0
  6
CONTINUOUS
 62
     7
 10
-1.287740933314602
 20
2.97832007585952
 11
-1.311085523329897
 21
2.98068952823452
  0
LINE
  8
0
  6
CONTINUOUS
 62
     7
 10
-1.311085523329897
 20
2.98068952823452
 11
-1.335256736224477
 21
2.982595614635014
  0
LINE
  8
0
  6
CONTINUOUS
 62
     7
 10
-1.335256736224477
 20
2.982595614635014
 11
-1.360266631066309
 21
2.9840499939357
  0
LINE
  8
0
  6
CONTINUOUS
 62
     7
 10
-1.360266631066309
 20
2.9840499939357
 11
-1.386127266922804
 21
2.985064325011
  0
LINE
  8
0
  6
CONTINUOUS
 62
     7
 10
-1.386127266922804
 20
2.985064325011
 11
-1.412850702862012
 21
2.985650266735223
  0
LINE
  8
0
  6
CONTINUOUS
 62
     7
 10
-1.412850702862012
 20
2.985650266735223
 11
-1.440445647301503
 21
2.985821012000012
  0
LINE
  8
0
  6
CONTINUOUS
 62
     7
 10
-1.440445647301503
 20
2.985821012000012
 11
-1.468408313323205
 21
2.985821012000095
  0
LINE
  8
0
  6
CONTINUOUS
 62
     7
 10
-1.468408313323205
 20
2.985821012000095
 11
-1.496370980004907
 21
2.985821012000095
  0
ARC
  8
0
  6
CONTINUOUS
 62
     7
 10
2.933488531435713
 20
-0.3850152339079926
 40
1.632834108828751
 50
359.4954810608081
 51
133.4517131536365
  0
LINE
  8
0
  6
CONTINUOUS
 62
     7
 10
-1.496370980004907
 20
2.985821012000095
 11
-2.326335344013608
 21
2.966365759
  0
ARC
  8
0
  6
CONTINUOUS
 62
     7
 10
1.49506759106241
 20
0.3032292605482101
 40
0.2553756205670443
 50
177.5903448753484
 51
272.4009278402608
  0
ARC
  8
0
  6
CONTINUOUS
 62
     7
 10
1.571773147563987
 20
0.3806533460708195
 40
0.3390626154562149
 50
258.7741943751852
 51
333.5558461680943
  0
LINE
  8
0
  6
CONTINUOUS
 62
     7
 10
1.453892971020609
 20
2.557805447000128
 11
1.239917784015221
 21
0.3658469520000929
  0
ARC
  8
0
  6
CONTINUOUS
 62
     7
 10
2.104868459711501
 20
2.309978250473715
 40
0.1129103069267279
 50
81.39877865947369
 51
182.584324997684
  0
ARC
  8
0
  6
CONTINUOUS
 62
     7
 10
1.459402872092397
 20
-1.166741943015276
 40
0.2973017275819667
 50
115.6529865928475
 51
209.6439329220906
  0
ARC
  8
0
  6
CONTINUOUS
 62
     7
 10
4.081972667780404
 20
2.700477302000126
 40
0.2832796752471334
 50
280.1358247929749
 51
79.86417520702508
  0
LINE
  8
0
  6
CONTINUOUS
 62
     7
 10
2.121754921013408
 20
2.421618677000109
 11
4.131824866039108
 21
2.421618677000109
  0
LINE
  8
0
  6
CONTINUOUS
 62
     7
 10
1.201013204014278
 20
-1.313789882999905
 11
1.243512554960496
 21
-1.390712150074386
  0
LINE
  8
0
  6
CONTINUOUS
 62
     7
 10
1.243512554960496
 20
-1.390712150074386
 11
1.289689229226287
 21
-1.464441171423081
  0
LINE
  8
0
  6
CONTINUOUS
 62
     7
 10
1.289689229226287
 20
-1.464441171423081
 11
1.339543226813206
 21
-1.534909902294906
  0
LINE
  8
0
  6
CONTINUOUS
 62
     7
 10
1.339543226813206
 20
-1.534909902294906
 11
1.393074547722389
 21
-1.602051297939194
  0
LINE
  8
0
  6
CONTINUOUS
 62
     7
 10
1.393074547722389
 20
-1.602051297939194
 11
1.450283191955615
 21
-1.665798313604583
  0
LINE
  8
0
  6
CONTINUOUS
 62
     7
 10
1.450283191955615
 20
-1.665798313604583
 11
1.511169159513881
 21
-1.726083904540487
  0
LINE
  8
0
  6
CONTINUOUS
 62
     7
 10
1.511169159513881
 20
-1.726083904540487
 11
1.575732450398798
 21
-1.782841025995685
  0
LINE
  8
0
  6
CONTINUOUS
 62
     7
 10
1.575732450398798
 20
-1.782841025995685
 11
1.643973064611615
 21
-1.836002633219203
  0
LINE
  8
0
  6
CONTINUOUS
 62
     7
 10
1.643973064611615
 20
-1.836002633219203
 11
1.715891002153802
 21
-1.885501681460094
  0
LINE
  8
0
  6
CONTINUOUS
 62
     7
 10
1.715891002153802
 20
-1.885501681460094
 11
1.791486263026693
 21
-1.931271125967499
  0
LINE
  8
0
  6
CONTINUOUS
 62
     7
 10
1.791486263026693
 20
-1.931271125967499
 11
1.870758847231591
 21
-1.973243921990303
  0
LINE
  8
0
  6
CONTINUOUS
 62
     7
 10
1.870758847231591
 20
-1.973243921990303
 11
1.953708754770106
 21
-2.01135302477759
  0
LINE
  8
0
  6
CONTINUOUS
 62
     7
 10
1.953708754770106
 20
-2.01135302477759
 11
2.040335985643321
 21
-2.045531389578386
  0
LINE
  8
0
  6
CONTINUOUS
 62
     7
 10
2.040335985643321
 20
-2.045531389578386
 11
2.130640539852818
 21
-2.075711971641692
  0
LINE
  8
0
  6
CONTINUOUS
 62
     7
 10
2.130640539852818
 20
-2.075711971641692
 11
2.224622417399902
 21
-2.101827726216476
  0
LINE
  8
0
  6
CONTINUOUS
 62
     7
 10
2.224622417399902
 20
-2.101827726216476
 11
2.322281618285987
 21
-2.123811608551879
  0
LINE
  8
0
  6
CONTINUOUS
 62
     7
 10
2.322281618285987
 20
-2.123811608551879
 11
2.423618142512407
 21
-2.14159657389687
  0
LINE
  8
0
  6
CONTINUOUS
 62
     7
 10
2.423618142512407
 20
-2.14159657389687
 11
2.528631990080576
 21
-2.155115577500505
  0
LINE
  8
0
  6
CONTINUOUS
 62
     7
 10
2.528631990080576
 20
-2.155115577500505
 11
2.6373231609918
 21
-2.164301574611699
  0
LINE
  8
0
  6
CONTINUOUS
 62
     7
 10
2.6373231609918
 20
-2.164301574611699
 11
2.749691655247493
 21
-2.16908752047959
  0
LINE
  8
0
  6
CONTINUOUS
 62
     7
 10
2.749691655247493
 20
-2.16908752047959
 11
2.865123124088098
 21
-2.169290590762401
  0
LINE
  8
0
  6
CONTINUOUS
 62
     7
 10
2.865123124088098
 20
-2.169290590762401
 11
2.978603740405899
 21
-2.163967850707105
  0
LINE
  8
0
  6
CONTINUOUS
 62
     7
 10
2.978603740405899
 20
-2.163967850707105
 11
3.088955759032119
 21
-2.153022151263895
  0
LINE
  8
0
  6
CONTINUOUS
 62
     7
 10
3.088955759032119
 20
-2.153022151263895
 11
3.196088683338788
 21
-2.136572287349786
  0
LINE
  8
0
  6
CONTINUOUS
 62
     7
 10
3.196088683338788
 20
-2.136572287349786
 11
3.299912016697992
 21
-2.114737053881488
  0
LINE
  8
0
  6
CONTINUOUS
 62
     7
 10
3.299912016697992
 20
-2.114737053881488
 11
3.40033526248168
 21
-2.087635245775904
  0
LINE
  8
0
  6
CONTINUOUS
 62
     7
 10
3.40033526248168
 20
-2.087635245775904
 11
3.497267924061714
 21
-2.055385657950187
  0
LINE
  8
0
  6
CONTINUOUS
 62
     7
 10
3.497267924061714
 20
-2.055385657950187
 11
3.590619504810294
 21
-2.01810708532088
  0
LINE
  8
0
  6
CONTINUOUS
 62
     7
 10
3.590619504810294
 20
-2.01810708532088
 11
3.680299508099421
 21
-1.975918322804915
  0
LINE
  8
0
  6
CONTINUOUS
 62
     7
 10
3.680299508099421
 20
-1.975918322804915
 11
3.766217437300906
 21
-1.928938165319277
  0
LINE
  8
0
  6
CONTINUOUS
 62
     7
 10
3.766217437300906
 20
-1.928938165319277
 11
3.848282795786917
 21
-1.877285407780899
  0
LINE
  8
0
  6
CONTINUOUS
 62
     7
 10
3.848282795786917
 20
-1.877285407780899
 11
3.926405086929402
 21
-1.821078845106489
  0
LINE
  8
0
  6
CONTINUOUS
 62
     7
 10
3.926405086929402
 20
-1.821078845106489
 11
4.000493814100392
 21
-1.760437272213089
  0
LINE
  8
0
  6
CONTINUOUS
 62
     7
 10
4.000493814100392
 20
-1.760437272213089
 11
4.070458480671779
 21
-1.695479484017492
  0
LINE
  8
0
  6
CONTINUOUS
 62
     7
 10
4.070458480671779
 20
-1.695479484017492
 11
4.136208590015677
 21
-1.626324275436491
  0
LINE
  8
0
  6
CONTINUOUS
 62
     7
 10
4.136208590015677
 20
-1.626324275436491
 11
4.197653645504201
 21
-1.553090441387073
  0
LINE
  8
0
  6
CONTINUOUS
 62
     7
 10
4.197653645504201
 20
-1.553090441387073
 11
4.254703150509104
 21
-1.475896776786195
  0
LINE
  8
0
  6
CONTINUOUS
 62
     7
 10
4.254703150509104
 20
-1.475896776786195
 11
4.307266608402499
 21
-1.394862076550485
  0
LINE
  8
0
  6
CONTINUOUS
 62
     7
 10
4.307266608402499
 20
-1.394862076550485
 11
4.355253522556418
 21
-1.310105135597095
  0
LINE
  8
0
  6
CONTINUOUS
 62
     7
 10
4.355253522556418
 20
-1.310105135597095
 11
4.398573396342781
 21
-1.221744748842679
  0
LINE
  8
0
  6
CONTINUOUS
 62
     7
 10
4.398573396342781
 20
-1.221744748842679
 11
4.437135733133701
 21
-1.12989971120428
  0
LINE
  8
0
  6
CONTINUOUS
 62
     7
 10
4.437135733133701
 20
-1.12989971120428
 11
4.470850036300988
 21
-1.034688817598689
  0
LINE
  8
0
  6
CONTINUOUS
 62
     7
 10
4.470850036300988
 20
-1.034688817598689
 11
4.499625809216895
 21
-0.9362308629428662
  0
LINE
  8
0
  6
CONTINUOUS
 62
     7
 10
4.499625809216895
 20
-0.9362308629428662
 11
4.523372555253313
 21
-0.8346446421535758
  0
LINE
  8
0
  6
CONTINUOUS
 62
     7
 10
4.523372555253313
 20
-0.8346446421535758
 11
4.54199977778219
 21
-0.7300489501477769
  0
LINE
  8
0
  6
CONTINUOUS
 62
     7
 10
4.54199977778219
 20
-0.7300489501477769
 11
4.555416980175614
 21
-0.6225625818423175
  0
LINE
  8
0
  6
CONTINUOUS
 62
     7
 10
4.555416980175614
 20
-0.6225625818423175
 11
4.563533665805503
 21
-0.512304332154101
  0
LINE
  8
0
  6
CONTINUOUS
 62
     7
 10
4.563533665805503
 20
-0.512304332154101
 11
4.566259338043888
 21
-0.3993929959999754
  0
LINE
  8
0
  6
CONTINUOUS
 62
     7
 10
-2.313367151024897
 20
2.363252918000103
 11
-1.703862071005507
 21
2.3827081706769
  0
LINE
  8
0
  6
CONTINUOUS
 62
     7
 10
1.810518284023399
 20
0.8003476010000898
 11
1.868875154007188
 21
1.098661479000007
  0
ARC
  8
0
  6
CONTINUOUS
 62
     7
 10
1.870963217357496
 20
2.563849862832202
 40
0.4171140435688114
 50
84.93620598767806
 51
180.8303044309067
  0
LINE
  8
0
  6
CONTINUOUS
 62
     7
 10
1.239917784015221
 20
0.3658469520000929
 11
1.239917784015221
 21
0.313966278000094
  0
LINE
  8
0
  6
CONTINUOUS
 62
     7
 10
1.87535925001911
 20
0.2296601820001021
 11
1.907716597222997
 21
0.2772318915905125
  0
LINE
  8
0
  6
CONTINUOUS
 62
     7
 10
1.907716597222997
 20
0.2772318915905125
 11
1.941989775931102
 21
0.3226489262949939
  0
LINE
  8
0
  6
CONTINUOUS
 62
     7
 10
1.941989775931102
 20
0.3226489262949939
 11
1.978195272249211
 21
0.3658673164687043
  0
LINE
  8
0
  6
CONTINUOUS
 62
     7
 10
1.978195272249211
 20
0.3658673164687043
 11
2.016349572283499
 21
0.4068430924671074
  0
LINE
  8
0
  6
CONTINUOUS
 62
     7
 10
2.016349572283499
 20
0.4068430924671074
 11
2.056469162139918
 21
0.4455322846451115
  0
LINE
  8
0
  6
CONTINUOUS
 62
     7
 10
2.056469162139918
 20
0.4455322846451115
 11
2.09857052792442
 21
0.4818909233584301
  0
LINE
  8
0
  6
CONTINUOUS
 62
     7
 10
2.09857052792442
 20
0.4818909233584301
 11
2.142670155743098
 21
0.5158750389618327
  0
LINE
  8
0
  6
CONTINUOUS
 62
     7
 10
2.142670155743098
 20
0.5158750389618327
 11
2.188784531702015
 21
0.5474406618110328
  0
LINE
  8
0
  6
CONTINUOUS
 62
     7
 10
2.188784531702015
 20
0.5474406618110328
 11
2.236930141907012
 21
0.5765438222609942
  0
LINE
  8
0
  6
CONTINUOUS
 62
     7
 10
2.236930141907012
 20
0.5765438222609942
 11
2.287123472464403
 21
0.6031405506672083
  0
LINE
  8
0
  6
CONTINUOUS
 62
     7
 10
2.287123472464403
 20
0.6031405506672083
 11
2.339381009479807
 21
0.6271868773847222
  0
LINE
  8
0
  6
CONTINUOUS
 62
     7
 10
2.339381009479807
 20
0.6271868773847222
 11
2.393719239059622
 21
0.6486388327689163
  0
LINE
  8
0
  6
CONTINUOUS
 62
     7
 10
2.393719239059622
 20
0.6486388327689163
 11
2.450154647309605
 21
0.667452447175032
  0
LINE
  8
0
  6
CONTINUOUS
 62
     7
 10
2.450154647309605
 20
0.667452447175032
 11
2.508703720335681
 21
0.6835837509583109
  0
LINE
  8
0
  6
CONTINUOUS
 62
     7
 10
2.508703720335681
 20
0.6835837509583109
 11
2.569382944244192
 21
0.6969887744741332
  0
LINE
  8
0
  6
CONTINUOUS
 62
     7
 10
2.569382944244192
 20
0.6969887744741332
 11
2.632208805141006
 21
0.7076235480775184
  0
LINE
  8
0
  6
CONTINUOUS
 62
     7
 10
2.632208805141006
 20
0.7076235480775184
 11
2.697197789131994
 21
0.7154441021240132
  0
LINE
  8
0
  6
CONTINUOUS
 62
     7
 10
2.697197789131994
 20
0.7154441021240132
 11
2.764366382323413
 21
0.7204064669686927
  0
LINE
  8
0
  6
CONTINUOUS
 62
     7
 10
2.764366382323413
 20
0.7204064669686927
 11
2.833731070821105
 21
0.7224666729669094
  0
LINE
  8
0
  6
CONTINUOUS
 62
     7
 10
2.833731070821105
 20
0.7224666729669094
 11
2.904025554534478
 21
0.7214530857254098
  0
LINE
  8
0
  6
CONTINUOUS
 62
     7
 10
2.904025554534478
 20
0.7214530857254098
 11
2.972569600881297
 21
0.7171066609761023
  0
LINE
  8
0
  6
CONTINUOUS
 62
     7
 10
2.972569600881297
 20
0.7171066609761023
 11
3.039228731718913
 21
0.7094666139537964
  0
LINE
  8
0
  6
CONTINUOUS
 62
     7
 10
3.039228731718913
 20
0.7094666139537964
 11
3.103949661223404
 21
0.6985809092052153
  0
LINE
  8
0
  6
CONTINUOUS
 62
     7
 10
3.103949661223404
 20
0.6985809092052153
 11
3.166679103571407
 21
0.6844975112771101
  0
LINE
  8
0
  6
CONTINUOUS
 62
     7
 10
3.166679103571407
 20
0.6844975112771101
 11
3.227363772939196
 21
0.6672643847167037
  0
LINE
  8
0
  6
CONTINUOUS
 62
     7
 10
3.227363772939196
 20
0.6672643847167037
 11
3.285950383503211
 21
0.6469294940706916
  0
LINE
  8
0
  6
CONTINUOUS
 62
     7
 10
3.285950383503211
 20
0.6469294940706916
 11
3.3423856494397
 21
0.6235408038859913
  0
LINE
  8
0
  6
CONTINUOUS
 62
     7
 10
3.3423856494397
 20
0.6235408038859913
 11
3.396616284925186
 21
0.5971462787096038
  0
LINE
  8
0
  6
CONTINUOUS
 62
     7
 10
3.396616284925186
 20
0.5971462787096038
 11
3.44858900413611
 21
0.5677938830884188
  0
LINE
  8
0
  6
CONTINUOUS
 62
     7
 10
3.44858900413611
 20
0.5677938830884188
 11
3.498250521248719
 21
0.5355315815693262
  0
LINE
  8
0
  6
CONTINUOUS
 62
     7
 10
3.498250521248719
 20
0.5355315815693262
 11
3.545547550439399
 21
0.5004073386992158
  0
LINE
  8
0
  6
CONTINUOUS
 62
     7
 10
3.545547550439399
 20
0.5004073386992158
 11
3.590426805884589
 21
0.4624691190248942
  0
LINE
  8
0
  6
CONTINUOUS
 62
     7
 10
3.590426805884589
 20
0.4624691190248942
 11
3.632835001760704
 21
0.4217648870933066
  0
LINE
  8
0
  6
CONTINUOUS
 62
     7
 10
3.632835001760704
 20
0.4217648870933066
 11
3.6727188522441
 21
0.3783426074515095
  0
LINE
  8
0
  6
CONTINUOUS
 62
     7
 10
3.6727188522441
 20
0.3783426074515095
 11
3.710025071510997
 21
0.3322502446463094
  0
LINE
  8
0
  6
CONTINUOUS
 62
     7
 10
3.710025071510997
 20
0.3322502446463094
 11
3.744700373738086
 21
0.2835357632245961
  0
LINE
  8
0
  6
CONTINUOUS
 62
     7
 10
3.744700373738086
 20
0.2835357632245961
 11
3.776691473101501
 21
0.2322471277332039
  0
LINE
  8
0
  6
CONTINUOUS
 62
     7
 10
3.776691473101501
 20
0.2322471277332039
 11
3.805945083777684
 21
0.1784323027191892
  0
LINE
  8
0
  6
CONTINUOUS
 62
     7
 10
3.805945083777684
 20
0.1784323027191892
 11
3.832407919943104
 21
0.122139252729303
  0
LINE
  8
0
  6
CONTINUOUS
 62
     7
 10
3.832407919943104
 20
0.122139252729303
 11
3.856026695774006
 21
0.0634159423106018
  0
LINE
  8
0
  6
CONTINUOUS
 62
     7
 10
3.856026695774006
 20
0.0634159423106018
 11
3.876748125446805
 21
0.0023103360098919
  0
LINE
  8
0
  6
CONTINUOUS
 62
     7
 10
3.876748125446805
 20
0.0023103360098919
 11
3.894518923138107
 21
-0.0611296016258811
  0
LINE
  8
0
  6
CONTINUOUS
 62
     7
 10
3.894518923138107
 20
-0.0611296016258811
 11
3.909285803023882
 21
-0.1268559060499108
  0
LINE
  8
0
  6
CONTINUOUS
 62
     7
 10
3.909285803023882
 20
-0.1268559060499108
 11
3.920995479280903
 21
-0.1948206127150853
  0
LINE
  8
0
  6
CONTINUOUS
 62
     7
 10
3.920995479280903
 20
-0.1948206127150853
 11
3.92959466608539
 21
-0.2649757570746814
  0
LINE
  8
0
  6
CONTINUOUS
 62
     7
 10
3.92959466608539
 20
-0.2649757570746814
 11
3.935030077613588
 21
-0.3372733745818923
  0
LINE
  8
0
  6
CONTINUOUS
 62
     7
 10
3.935030077613588
 20
-0.3372733745818923
 11
3.937248428042217
 21
-0.4116655006894954
  0
LINE
  8
0
  6
CONTINUOUS
 62
     7
 10
3.937248428042217
 20
-0.4116655006894954
 11
3.936160962395879
 21
-0.4868291229529753
  0
LINE
  8
0
  6
CONTINUOUS
 62
     7
 10
3.936160962395879
 20
-0.4868291229529753
 11
3.931706742161589
 21
-0.5602439581773866
  0
LINE
  8
0
  6
CONTINUOUS
 62
     7
 10
3.931706742161589
 20
-0.5602439581773866
 11
3.923940469783976
 21
-0.6317823377522125
  0
LINE
  8
0
  6
CONTINUOUS
 62
     7
 10
3.923940469783976
 20
-0.6317823377522125
 11
3.91291917558162
 21
-0.7013785803980932
  0
LINE
  8
0
  6
CONTINUOUS
 62
     7
 10
3.91291917558162
 20
-0.7013785803980932
 11
3.898699889872487
 21
-0.768967004835891
  0
LINE
  8
0
  6
CONTINUOUS
 62
     7
 10
3.898699889872487
 20
-0.768967004835891
 11
3.881339642975406
 21
-0.8344819297863015
  0
LINE
  8
0
  6
CONTINUOUS
 62
     7
 10
3.881339642975406
 20
-0.8344819297863015
 11
3.860895465208403
 21
-0.8978576739698818
  0
LINE
  8
0
  6
CONTINUOUS
 62
     7
 10
3.860895465208403
 20
-0.8978576739698818
 11
3.837424386890081
 21
-0.959028556107494
  0
LINE
  8
0
  6
CONTINUOUS
 62
     7
 10
3.837424386890081
 20
-0.959028556107494
 11
3.810983438338911
 21
-1.017928894919667
  0
LINE
  8
0
  6
CONTINUOUS
 62
     7
 10
3.810983438338911
 20
-1.017928894919667
 11
3.78162964987308
 21
-1.074493009127181
  0
LINE
  8
0
  6
CONTINUOUS
 62
     7
 10
3.78162964987308
 20
-1.074493009127181
 11
3.749420051811281
 21
-1.128655217450675
  0
LINE
  8
0
  6
CONTINUOUS
 62
     7
 10
3.749420051811281
 20
-1.128655217450675
 11
3.71441167447159
 21
-1.180349838610983
  0
LINE
  8
0
  6
CONTINUOUS
 62
     7
 10
3.71441167447159
 20
-1.180349838610983
 11
3.676661548172616
 21
-1.229511191328692
  0
LINE
  8
0
  6
CONTINUOUS
 62
     7
 10
3.676661548172616
 20
-1.229511191328692
 11
3.636226703232603
 21
-1.276073594324495
  0
LINE
  8
0
  6
CONTINUOUS
 62
     7
 10
3.636226703232603
 20
-1.276073594324495
 11
3.593164169970103
 21
-1.319971366319089
  0
LINE
  8
0
  6
CONTINUOUS
 62
     7
 10
3.593164169970103
 20
-1.319971366319089
 11
3.5475309787035
 21
-1.361138826033198
  0
LINE
  8
0
  6
CONTINUOUS
 62
     7
 10
3.5475309787035
 20
-1.361138826033198
 11
3.499384159751012
 21
-1.399510292187489
  0
LINE
  8
0
  6
CONTINUOUS
 62
     7
 10
3.499384159751012
 20
-1.399510292187489
 11
3.44878074343119
 21
-1.435020083502575
  0
LINE
  8
0
  6
CONTINUOUS
 62
     7
 10
3.44878074343119
 20
-1.435020083502575
 11
3.395777760062418
 21
-1.467602518699401
  0
LINE
  8
0
  6
CONTINUOUS
 62
     7
 10
3.395777760062418
 20
-1.467602518699401
 11
3.340432239962998
 21
-1.497191916498386
  0
LINE
  8
0
  6
CONTINUOUS
 62
     7
 10
3.340432239962998
 20
-1.497191916498386
 11
3.282801213451592
 21
-1.523722595620502
  0
LINE
  8
0
  6
CONTINUOUS
 62
     7
 10
3.282801213451592
 20
-1.523722595620502
 11
3.222941710846194
 21
-1.547128874786086
  0
LINE
  8
0
  6
CONTINUOUS
 62
     7
 10
3.222941710846194
 20
-1.547128874786086
 11
3.160910762465607
 21
-1.567345072716109
  0
LINE
  8
0
  6
CONTINUOUS
 62
     7
 10
3.160910762465607
 20
-1.567345072716109
 11
3.09676539862791
 21
-1.584305508131184
  0
LINE
  8
0
  6
CONTINUOUS
 62
     7
 10
3.09676539862791
 20
-1.584305508131184
 11
3.030562649651708
 21
-1.59794449975198
  0
LINE
  8
0
  6
CONTINUOUS
 62
     7
 10
3.030562649651708
 20
-1.59794449975198
 11
2.962359545855303
 21
-1.608196366299192
  0
LINE
  8
0
  6
CONTINUOUS
 62
     7
 10
2.962359545855303
 20
-1.608196366299192
 11
2.892213117557108
 21
-1.614995426493487
  0
LINE
  8
0
  6
CONTINUOUS
 62
     7
 10
2.892213117557108
 20
-1.614995426493487
 11
2.820180395075478
 21
-1.618275999055785
  0
LINE
  8
0
  6
CONTINUOUS
 62
     7
 10
2.820180395075478
 20
-1.618275999055785
 11
2.746983576069006
 21
-1.618013527311474
  0
LINE
  8
0
  6
CONTINUOUS
 62
     7
 10
2.746983576069006
 20
-1.618013527311474
 11
2.675571170100477
 21
-1.614382989149565
  0
LINE
  8
0
  6
CONTINUOUS
 62
     7
 10
2.675571170100477
 20
-1.614382989149565
 11
2.606306115011781
 21
-1.607481471248784
  0
LINE
  8
0
  6
CONTINUOUS
 62
     7
 10
2.606306115011781
 20
-1.607481471248784
 11
2.539210717198786
 21
-1.597389288864687
  0
LINE
  8
0
  6
CONTINUOUS
 62
     7
 10
2.539210717198786
 20
-1.597389288864687
 11
2.474307283057198
 21
-1.584186757252609
  0
LINE
  8
0
  6
CONTINUOUS
 62
     7
 10
2.474307283057198
 20
-1.584186757252609
 11
2.411618118982689
 21
-1.567954191668386
  0
LINE
  8
0
  6
CONTINUOUS
 62
     7
 10
2.411618118982689
 20
-1.567954191668386
 11
2.351165531371213
 21
-1.548771907367408
  0
LINE
  8
0
  6
CONTINUOUS
 62
     7
 10
2.351165531371213
 20
-1.548771907367408
 11
2.292971826618112
 21
-1.526720219605288
  0
LINE
  8
0
  6
CONTINUOUS
 62
     7
 10
2.292971826618112
 20
-1.526720219605288
 11
2.237059311119505
 21
-1.501879443637499
  0
LINE
  8
0
  6
CONTINUOUS
 62
     7
 10
2.237059311119505
 20
-1.501879443637499
 11
2.1834502912709
 21
-1.4743298947196
  0
LINE
  8
0
  6
CONTINUOUS
 62
     7
 10
2.1834502912709
 20
-1.4743298947196
 11
2.132167073468083
 21
-1.444151888107092
  0
LINE
  8
0
  6
CONTINUOUS
 62
     7
 10
2.132167073468083
 20
-1.444151888107092
 11
2.083231964106896
 21
-1.411425739055588
  0
LINE
  8
0
  6
CONTINUOUS
 62
     7
 10
2.083231964106896
 20
-1.411425739055588
 11
2.036667269582904
 21
-1.37623176282059
  0
LINE
  8
0
  6
CONTINUOUS
 62
     7
 10
2.036667269582904
 20
-1.37623176282059
 11
1.992495296292002
 21
-1.33865027465771
  0
LINE
  8
0
  6
CONTINUOUS
 62
     7
 10
1.992495296292002
 20
-1.33865027465771
 11
1.950738350629783
 21
-1.298761589822367
  0
LINE
  8
0
  6
CONTINUOUS
 62
     7
 10
1.950738350629783
 20
-1.298761589822367
 11
1.911418738992199
 21
-1.25664602357009
  0
LINE
  8
0
  6
CONTINUOUS
 62
     7
 10
1.911418738992199
 20
-1.25664602357009
 11
1.874558767774703
 21
-1.212383891156604
  0
LINE
  8
0
  6
CONTINUOUS
 62
     7
 10
1.874558767774703
 20
-1.212383891156604
 11
1.840180743373193
 21
-1.166055507837299
  0
LINE
  8
0
  6
CONTINUOUS
 62
     7
 10
1.840180743373193
 20
-1.166055507837299
 11
1.808306972183399
 21
-1.117741188867705
  0
LINE
  8
0
  6
CONTINUOUS
 62
     7
 10
1.808306972183399
 20
-1.117741188867705
 11
1.778959760600995
 21
-1.067521249503406
  0
LINE
  8
0
  6
CONTINUOUS
 62
     7
 10
1.778959760600995
 20
-1.067521249503406
 11
1.752161415021797
 21
-1.015476004999988
  0
ARC
  8
0
  6
CONTINUOUS
 62
     7
 10
-2.319656054092706
 20
2.664813535568827
 40
0.3016261864795811
 50
91.26887658833917
 51
271.1947030194111
  0
LINE
  8
0
  6
CONTINUOUS
 62
     7
 10
4.131824866039108
 20
2.979335927000115
 11
1.907779733008291
 21
2.979335927000115
  0
LINE
  8
0
  6
CONTINUOUS
 62
     7
 10
-1.509339173011104
 20
2.188155642000089
 11
-1.509339173011104
 21
-1.832596628000005
  0
LINE
  8
0
  6
CONTINUOUS
 62
     7
 10
-1.703862071015805
 20
2.382708171000003
 11
-1.573699835678483
 21
2.363973483111209
  0
LINE
  8
0
  6
CONTINUOUS
 62
     7
 10
-1.573699835678483
 20
2.363973483111209
 11
-1.509339173011104
 21
2.188155642000089
  0
ARC
  8
0
  6
CONTINUOUS
 62
     7
 10
-1.201705530245095
 20
-1.795069466777904
 40
0.309914094534125
 50
186.9549510697625
 51
354.2514151692135
  0
ARC
  8
0
  6
CONTINUOUS
 62
     7
 10
1.488656134807892
 20
-1.147647286972614
 40
0.2947953196354158
 50
26.63782745089963
 51
122.4004068675062
  0
LINE
  8
0
  6
CONTINUOUS
 62
     7
 10
-6.534904812874609
 20
-3.599999999999992
 11
-6.534904812874609
 21
-9.134300864081402
  0
LINE
  8
0
  6
CONTINUOUS
 62
     7
 10
-6.534904812874609
 20
4.400000000000015
 11
-6.534904812874609
 21
-3.599999999999992
  0
LINE
  8
0
  6
CONTINUOUS
 62
     7
 10
8.500000000000007
 20
10.19673610377972
 11
-6.534904812874607
 21
9.934300864081507
  0
LINE
  8
0
  6
CONTINUOUS
 62
     7
 10
-6.534904812874609
 20
9.934300864081507
 11
-6.534904812874526
 21
4.400000000000015
  0
LINE
  8
0
  6
CONTINUOUS
 62
     7
 10
8.500000000000007
 20
4.400000000000015
 11
8.500000000000007
 21
10.19673610377972
  0
LINE
  8
0
  6
CONTINUOUS
 62
     7
 10
8.500000000000007
 20
4.400000000000015
 11
-6.534904812874609
 21
4.400000000000015
  0
LINE
  8
0
  6
CONTINUOUS
 62
     7
 10
-8.500000000000007
 20
-3.599999999999992
 11
-8.500000000000007
 21
4.400000000000015
  0
LINE
  8
0
  6
CONTINUOUS
 62
     7
 10
8.500000000000007
 20
-9.396736103779697
 11
-6.534904812874607
 21
-9.134300864081402
  0
LINE
  8
0
  6
CONTINUOUS
 62
     7
 10
-8.500000000000007
 20
-7.134605473768596
 11
-8.500000000000007
 21
-3.599999999999993
  0
LINE
  8
0
  6
CONTINUOUS
 62
     7
 10
-6.534904812874609
 20
-3.599999999999992
 11
-8.500000000000007
 21
-3.599999999999992
  0
LINE
  8
0
  6
CONTINUOUS
 62
     7
 10
8.500000000000007
 20
-9.396736103779697
 11
8.500000000000007
 21
-3.599999999999992
  0
LINE
  8
0
  6
CONTINUOUS
 62
     7
 10
8.500000000000007
 20
-3.599999999999992
 11
-6.534904812874609
 21
-3.599999999999992
  0
LINE
  8
0
  6
CONTINUOUS
 62
     7
 10
-6.534904812874609
 20
4.400000000000015
 11
-8.500000000000007
 21
4.400000000000015
  0
LINE
  8
0
  6
CONTINUOUS
 62
     7
 10
-8.500000000000007
 20
4.400000000000015
 11
-8.500000000000007
 21
7.934605473768702
  0
LINE
  8
0
  6
CONTINUOUS
 62
     7
 10
8.500000000000007
 20
-3.599999999999992
 11
8.500000000000007
 21
4.400000000000015
  0
ARC
  8
0
  6
CONTINUOUS
 62
     7
 10
-6.500000000000005
 20
7.934605473768702
 40
2.000000000000002
 50
90.9999999999995
 51
180.0
  0
ARC
  8
0
  6
CONTINUOUS
 62
     7
 10
-6.500000000000005
 20
-7.134605473768596
 40
2.000000000000002
 50
179.9999999999991
 51
269.0000000000005
  0
POINT
  8
0
 62
     7
 10
0.0
 20
0.0
 30
0.0
  0
LINE
  8
0
  6
CONTINUOUS
 62
     7
 10
121.1505176977501
 20
-9.396736103779585
 11
88.15051769775009
 21
-9.396736103779697
  0
LINE
  8
0
  6
CONTINUOUS
 62
     7
 10
88.15051769775009
 20
10.19673610377972
 11
91.15051769775009
 21
10.19673610377972
  0
ARC
  8
0
  6
CONTINUOUS
 62
     7
 10
91.15051769775009
 20
4.400000000000015
 40
5.796736103779676
 50
0.0
 51
90.0
  0
LINE
  8
0
  6
CONTINUOUS
 62
     7
 10
96.94725380152983
 20
4.400000000000015
 11
96.94725380152983
 21
3.200000000000008
  0
ARC
  8
0
  6
CONTINUOUS
 62
     7
 10
94.45051769775012
 20
3.200000000000008
 40
2.496736103779706
 50
270.0
 51
0.0
  0
LINE
  8
0
  6
CONTINUOUS
 62
     7
 10
94.45051769775012
 20
0.7032638962203297
 11
89.25051769775008
 21
0.7032638962203297
  0
ARC
  8
0
  6
CONTINUOUS
 62
     7
 10
89.25051769775008
 20
0.0
 40
0.7032638962202742
 50
90.0
 51
180.0
  0
LINE
  8
0
  6
CONTINUOUS
 62
     7
 10
88.5472538015298
 20
0.0
 11
88.5472538015298
 21
-2.499999999999974
  0
ARC
  8
0
  6
CONTINUOUS
 62
     7
 10
89.25051769775008
 20
-2.499999999999974
 40
0.7032638962202742
 50
180.0
 51
270.0
  0
LINE
  8
0
  6
CONTINUOUS
 62
     7
 10
89.25051769775008
 20
-3.203263896220193
 11
120.0505176977501
 21
-3.203263896220193
  0
ARC
  8
0
  6
CONTINUOUS
 62
     7
 10
120.0505176977501
 20
-2.499999999999974
 40
0.7032638962202742
 50
270.0
 51
0.0
  0
LINE
  8
0
  6
CONTINUOUS
 62
     7
 10
120.7537815939703
 20
-2.499999999999974
 11
120.7537815939703
 21
0.0
  0
ARC
  8
0
  6
CONTINUOUS
 62
     7
 10
120.0505176977501
 20
0.0
 40
0.7032638962202742
 50
0.0
 51
90.0
  0
LINE
  8
0
  6
CONTINUOUS
 62
     7
 10
120.0505176977501
 20
0.7032638962203297
 11
114.8505176977501
 21
0.7032638962203297
  0
ARC
  8
0
  6
CONTINUOUS
 62
     7
 10
114.8505176977501
 20
3.200000000000008
 40
2.496736103779706
 50
180.0
 51
270.0
  0
LINE
  8
0
  6
CONTINUOUS
 62
     7
 10
112.3537815939704
 20
3.200000000000008
 11
112.3537815939704
 21
4.400000000000015
  0
ARC
  8
0
  6
CONTINUOUS
 62
     7
 10
118.1505176977501
 20
4.400000000000015
 40
5.796736103779676
 50
90.0
 51
180.0
  0
LINE
  8
0
  6
CONTINUOUS
 62
     7
 10
118.1505176977501
 20
10.19673610377972
 11
121.1505176977501
 21
10.19673610377972
  0
ARC
  8
0
  6
CONTINUOUS
 62
     7
 10
121.1505176977501
 20
4.400000000000015
 40
5.796736103779732
 50
0.0
 51
90.0
  0
LINE
  8
0
  6
CONTINUOUS
 62
     7
 10
126.9472538015298
 20
4.400000000000015
 11
126.9472538015298
 21
-3.599999999999992
  0
ARC
  8
0
  6
CONTINUOUS
 62
     7
 10
121.1505176977501
 20
-3.599999999999992
 40
5.796736103779621
 50
270.0
 51
0.0
  0
ARC
  8
0
  6
CONTINUOUS
 62
     7
 10
121.1505176977501
 20
4.400000000000015
 40
4.744523237038944
 50
0.0
 51
90.0
  0
LINE
  8
0
  6
CONTINUOUS
 62
     7
 10
118.1505176977501
 20
9.144523237039015
 11
121.1505176977501
 21
9.144523237039015
  0
ARC
  8
0
  6
CONTINUOUS
 62
     7
 10
118.1505176977501
 20
4.400000000000015
 40
4.744523237038944
 50
90.0
 51
180.0
  0
LINE
  8
0
  6
CONTINUOUS
 62
     7
 10
113.4059944607112
 20
3.200000000000008
 11
113.4059944607112
 21
4.400000000000015
  0
ARC
  8
0
  6
CONTINUOUS
 62
     7
 10
114.8505176977501
 20
3.200000000000008
 40
1.444523237038919
 50
180.0
 51
270.0
  0
LINE
  8
0
  6
CONTINUOUS
 62
     7
 10
121.5505176977501
 20
1.755476762961117
 11
114.8505176977501
 21
1.755476762961117
  0
ARC
  8
0
  6
CONTINUOUS
 62
     7
 10
121.5505176977501
 20
1.500000000000001
 40
0.2554767629610044
 50
0.0
 51
90.0
  0
LINE
  8
0
  6
CONTINUOUS
 62
     7
 10
121.8059944607111
 20
-3.599999999999992
 11
121.8059944607111
 21
1.5
  0
ARC
  8
0
  6
CONTINUOUS
 62
     7
 10
121.1505176977501
 20
-3.599999999999992
 40
0.6554767629610714
 50
270.0
 51
0.0
  0
LINE
  8
0
  6
CONTINUOUS
 62
     7
 10
88.15051769775009
 20
-4.25547676296098
 11
121.1505176977501
 21
-4.25547676296098
  0
ARC
  8
0
  6
CONTINUOUS
 62
     7
 10
88.15051769775009
 20
-3.599999999999992
 40
0.6554767629610159
 50
180.0
 51
270.0
  0
LINE
  8
0
  6
CONTINUOUS
 62
     7
 10
87.49504093478902
 20
1.500000000000001
 11
87.49504093478902
 21
-3.599999999999991
  0
ARC
  8
0
  6
CONTINUOUS
 62
     7
 10
87.75051769775008
 20
1.500000000000001
 40
0.2554767629610599
 50
90.0
 51
180.0
  0
LINE
  8
0
  6
CONTINUOUS
 62
     7
 10
94.45051769775012
 20
1.755476762961117
 11
87.75051769775008
 21
1.755476762961117
  0
ARC
  8
0
  6
CONTINUOUS
 62
     7
 10
94.45051769775012
 20
3.200000000000008
 40
1.444523237038919
 50
270.0
 51
0.0
  0
LINE
  8
0
  6
CONTINUOUS
 62
     7
 10
95.89504093478904
 20
4.400000000000015
 11
95.89504093478904
 21
3.200000000000008
  0
ARC
  8
0
  6
CONTINUOUS
 62
     7
 10
91.15051769775009
 20
4.400000000000015
 40
4.744523237038944
 50
0.0
 51
90.0
  0
LINE
  8
0
  6
CONTINUOUS
 62
     7
 10
88.15051769775009
 20
9.144523237039015
 11
91.15051769775009
 21
9.144523237039015
  0
ARC
  8
0
  6
CONTINUOUS
 62
     7
 10
88.15051769775009
 20
4.400000000000015
 40
4.744523237038944
 50
90.0
 51
180.0
  0
LINE
  8
0
  6
CONTINUOUS
 62
     7
 10
83.40599446071109
 20
-3.599999999999992
 11
83.40599446071109
 21
4.400000000000015
  0
ARC
  8
0
  6
CONTINUOUS
 62
     7
 10
88.15051769775009
 20
-3.599999999999992
 40
4.744523237038944
 50
180.0
 51
270.0
  0
LINE
  8
0
  6
CONTINUOUS
 62
     7
 10
121.1505176977501
 20
-8.344523237038908
 11
88.15051769775009
 21
-8.344523237038908
  0
ARC
  8
0
  6
CONTINUOUS
 62
     7
 10
121.1505176977501
 20
-3.599999999999992
 40
4.744523237038944
 50
270.0
 51
0.0
  0
LINE
  8
0
  6
CONTINUOUS
 62
     7
 10
125.8950409347891
 20
4.400000000000015
 11
125.8950409347891
 21
-3.599999999999992
  0
ARC
  8
0
  6
CONTINUOUS
 62
     7
 10
88.15051769775009
 20
4.400000000000015
 40
5.796736103779676
 50
90.0
 51
180.0
  0
LINE
  8
0
  6
CONTINUOUS
 62
     7
 10
82.35378159397041
 20
-3.599999999999992
 11
82.35378159397041
 21
4.400000000000015
  0
ARC
  8
0
  6
CONTINUOUS
 62
     7
 10
88.15051769775009
 20
-3.599999999999992
 40
5.796736103779787
 50
180.0
 51
270.0
  0
ARC
  8
0
  6
CONTINUOUS
 62
     7
 10
88.15051769775009
 20
-3.599999999999992
 40
3.744675541882569
 50
180.0
 51
270.0
  0
LINE
  8
0
  6
CONTINUOUS
 62
     7
 10
88.15051769775009
 20
-7.344675541882506
 11
88.15051769775009
 21
-8.344523237038908
  0
LINE
  8
0
  6
CONTINUOUS
 62
     7
 10
84.40584215586746
 20
-3.599999999999992
 11
83.40599446071109
 21
-3.599999999999992
  0
ARC
  8
0
  6
CONTINUOUS
 62
     7
 10
88.15051769775009
 20
4.400000000000015
 40
3.744675541882514
 50
90.0
 51
180.0
  0
LINE
  8
0
  6
CONTINUOUS
 62
     7
 10
84.40584215586746
 20
4.400000000000015
 11
83.40599446071109
 21
4.400000000000015
  0
LINE
  8
0
  6
CONTINUOUS
 62
     7
 10
88.15051769775009
 20
8.144675541882613
 11
88.15051769775009
 21
9.144523237039015
  0
LINE
  8
0
  6
CONTINUOUS
 62
     7
 10
84.40584215586757
 20
4.400000000000015
 11
84.40584215586757
 21
-3.599999999999992
  0
LINE
  8
0
  6
CONTINUOUS
 62
     7
 10
86.49519323963258
 20
-3.599999999999992
 11
86.49519323963258
 21
1.5
  0
LINE
  8
0
  6
CONTINUOUS
 62
     7
 10
86.49519323963258
 20
1.500000000000001
 11
87.49504093478902
 21
1.500000000000001
  0
LINE
  8
0
  6
CONTINUOUS
 62
     7
 10
86.49519323963258
 20
-3.599999999999992
 11
87.49504093478902
 21
-3.599999999999992
  0
ARC
  8
0
  6
CONTINUOUS
 62
     7
 10
87.75051769775008
 20
1.500000000000001
 40
1.255324458117379
 50
90.0
 51
180.0
  0
LINE
  8
0
  6
CONTINUOUS
 62
     7
 10
87.75051769775008
 20
2.755324458117492
 11
87.75051769775008
 21
1.755476762961117
  0
LINE
  8
0
  6
CONTINUOUS
 62
     7
 10
88.15051769775009
 20
-4.25547676296098
 11
88.15051769775009
 21
-5.255324458117383
  0
ARC
  8
0
  6
CONTINUOUS
 62
     7
 10
88.15051769775009
 20
-3.599999999999992
 40
1.655324458117446
 50
180.0
 51
270.0
  0
LINE
  8
0
  6
CONTINUOUS
 62
     7
 10
87.75051769775008
 20
2.755324458117492
 11
94.45051769775012
 21
2.755324458117492
  0
LINE
  8
0
  6
CONTINUOUS
 62
     7
 10
94.45051769775012
 20
2.755324458117492
 11
94.45051769775012
 21
1.755476762961117
  0
LINE
  8
0
  6
CONTINUOUS
 62
     7
 10
91.15051769775009
 20
8.144675541882613
 11
88.15051769775009
 21
8.144675541882613
  0
LINE
  8
0
  6
CONTINUOUS
 62
     7
 10
91.15051769775009
 20
8.144675541882613
 11
91.15051769775009
 21
9.144523237039015
  0
LINE
  8
0
  6
CONTINUOUS
 62
     7
 10
121.1505176977501
 20
-4.25547676296098
 11
121.1505176977501
 21
-5.255324458117383
  0
LINE
  8
0
  6
CONTINUOUS
 62
     7
 10
121.1505176977501
 20
-5.255324458117383
 11
88.15051769775009
 21
-5.255324458117383
  0
LINE
  8
0
  6
CONTINUOUS
 62
     7
 10
88.15051769775009
 20
-7.344675541882506
 11
121.1505176977501
 21
-7.344675541882506
  0
LINE
  8
0
  6
CONTINUOUS
 62
     7
 10
121.1505176977501
 20
-7.344675541882506
 11
121.1505176977501
 21
-8.344523237038908
  0
ARC
  8
0
  6
CONTINUOUS
 62
     7
 10
91.15051769775009
 20
4.400000000000015
 40
3.744675541882569
 50
0.0
 51
90.0
  0
LINE
  8
0
  6
CONTINUOUS
 62
     7
 10
94.89519323963266
 20
4.400000000000015
 11
95.89504093478904
 21
4.400000000000015
  0
ARC
  8
0
  6
CONTINUOUS
 62
     7
 10
94.45051769775012
 20
3.200000000000008
 40
0.4446755418825443
 50
270.0
 51
0.0
  0
LINE
  8
0
  6
CONTINUOUS
 62
     7
 10
94.89519323963266
 20
3.200000000000008
 11
95.89504093478904
 21
3.200000000000008
  0
LINE
  8
0
  6
CONTINUOUS
 62
     7
 10
94.89519323963266
 20
3.200000000000008
 11
94.89519323963266
 21
4.400000000000015
  0
LINE
  8
0
  6
CONTINUOUS
 62
     7
 10
113.4059944607112
 20
3.200000000000008
 11
114.4058421558675
 21
3.200000000000008
  0
ARC
  8
0
  6
CONTINUOUS
 62
     7
 10
114.8505176977501
 20
3.200000000000008
 40
0.4446755418825443
 50
180.0
 51
270.0
  0
LINE
  8
0
  6
CONTINUOUS
 62
     7
 10
114.8505176977501
 20
1.755476762961117
 11
114.8505176977501
 21
2.755324458117492
  0
LINE
  8
0
  6
CONTINUOUS
 62
     7
 10
118.1505176977501
 20
9.144523237039015
 11
118.1505176977501
 21
8.144675541882613
  0
ARC
  8
0
  6
CONTINUOUS
 62
     7
 10
118.1505176977501
 20
4.400000000000015
 40
3.744675541882514
 50
90.0
 51
180.0
  0
LINE
  8
0
  6
CONTINUOUS
 62
     7
 10
113.4059944607112
 20
4.400000000000015
 11
114.4058421558675
 21
4.400000000000015
  0
LINE
  8
0
  6
CONTINUOUS
 62
     7
 10
114.4058421558675
 20
4.400000000000015
 11
114.4058421558675
 21
3.200000000000008
  0
LINE
  8
0
  6
CONTINUOUS
 62
     7
 10
114.8505176977501
 20
2.755324458117492
 11
121.5505176977501
 21
2.755324458117492
  0
LINE
  8
0
  6
CONTINUOUS
 62
     7
 10
121.5505176977501
 20
1.755476762961117
 11
121.5505176977501
 21
2.755324458117492
  0
LINE
  8
0
  6
CONTINUOUS
 62
     7
 10
121.1505176977501
 20
9.144523237039015
 11
121.1505176977501
 21
8.144675541882613
  0
LINE
  8
0
  6
CONTINUOUS
 62
     7
 10
121.1505176977501
 20
8.144675541882613
 11
118.1505176977501
 21
8.144675541882613
  0
ARC
  8
0
  6
CONTINUOUS
 62
     7
 10
121.1505176977501
 20
-3.599999999999992
 40
3.744675541882569
 50
270.0
 51
0.0
  0
LINE
  8
0
  6
CONTINUOUS
 62
     7
 10
125.8950409347891
 20
-3.599999999999992
 11
124.8951932396327
 21
-3.599999999999992
  0
LINE
  8
0
  6
CONTINUOUS
 62
     7
 10
121.8059944607111
 20
-3.599999999999992
 11
122.8058421558676
 21
-3.599999999999992
  0
ARC
  8
0
  6
CONTINUOUS
 62
     7
 10
121.1505176977501
 20
-3.599999999999992
 40
1.655324458117446
 50
270.0
 51
0.0
  0
LINE
  8
0
  6
CONTINUOUS
 62
     7
 10
125.8950409347891
 20
4.400000000000015
 11
124.8951932396327
 21
4.400000000000015
  0
ARC
  8
0
  6
CONTINUOUS
 62
     7
 10
121.1505176977501
 20
4.400000000000015
 40
3.744675541882569
 50
0.0
 51
90.0
  0
ARC
  8
0
  6
CONTINUOUS
 62
     7
 10
121.5505176977501
 20
1.500000000000001
 40
1.255324458117435
 50
0.0
 51
90.0
  0
LINE
  8
0
  6
CONTINUOUS
 62
     7
 10
121.8059944607111
 20
1.500000000000001
 11
122.8058421558675
 21
1.500000000000001
  0
LINE
  8
0
  6
CONTINUOUS
 62
     7
 10
122.8058421558675
 20
1.500000000000001
 11
122.8058421558676
 21
-3.599999999999991
  0
LINE
  8
0
  6
CONTINUOUS
 62
     7
 10
124.8951932396326
 20
-3.599999999999992
 11
124.8951932396326
 21
4.400000000000015
  0
LINE
  8
0
  6
CONTINUOUS
 62
     7
 10
84.65051769775009
 20
-3.599999999999992
 11
84.65051769775009
 21
4.400000000000015
  0
LINE
  8
0
  6
CONTINUOUS
 62
     7
 10
84.40584215586757
 20
-3.599999999999992
 11
84.65051769775009
 21
-3.599999999999992
  0
LINE
  8
0
  6
CONTINUOUS
 62
     7
 10
84.40584215586757
 20
4.400000000000015
 11
84.65051769775009
 21
4.400000000000015
  0
ARC
  8
0
  6
CONTINUOUS
 62
     7
 10
88.15051769775009
 20
-3.599999999999992
 40
3.500000000000003
 50
180.0
 51
270.0
  0
LINE
  8
0
  6
CONTINUOUS
 62
     7
 10
88.15051769775009
 20
-7.344675541882506
 11
88.15051769775009
 21
-7.099999999999995
  0
ARC
  8
0
  6
CONTINUOUS
 62
     7
 10
88.15051769775009
 20
4.400000000000015
 40
3.500000000000003
 50
90.0
 51
180.0
  0
LINE
  8
0
  6
CONTINUOUS
 62
     7
 10
88.15051769775009
 20
8.144675541882613
 11
88.15051769775009
 21
7.900000000000018
  0
ARC
  8
0
  6
CONTINUOUS
 62
     7
 10
88.15051769775009
 20
-3.599999999999992
 40
1.900000000000013
 50
180.0
 51
270.0
  0
LINE
  8
0
  6
CONTINUOUS
 62
     7
 10
86.49519323963258
 20
-3.599999999999992
 11
86.25051769775008
 21
-3.599999999999992
  0
LINE
  8
0
  6
CONTINUOUS
 62
     7
 10
88.15051769775009
 20
-5.255324458117383
 11
88.15051769775009
 21
-5.499999999999977
  0
LINE
  8
0
  6
CONTINUOUS
 62
     7
 10
86.25051769775008
 20
1.500000000000001
 11
86.25051769775008
 21
-3.599999999999991
  0
LINE
  8
0
  6
CONTINUOUS
 62
     7
 10
86.49519323963258
 20
1.500000000000001
 11
86.25051769775008
 21
1.500000000000001
  0
LINE
  8
0
  6
CONTINUOUS
 62
     7
 10
94.45051769775012
 20
3.000000000000003
 11
87.75051769775008
 21
3.000000000000003
  0
LINE
  8
0
  6
CONTINUOUS
 62
     7
 10
94.45051769775012
 20
2.755324458117492
 11
94.45051769775012
 21
3.000000000000003
  0
LINE
  8
0
  6
CONTINUOUS
 62
     7
 10
87.75051769775008
 20
2.755324458117492
 11
87.75051769775008
 21
3.000000000000003
  0
ARC
  8
0
  6
CONTINUOUS
 62
     7
 10
87.75051769775008
 20
1.500000000000001
 40
1.500000000000001
 50
90.0
 51
180.0
  0
LINE
  8
0
  6
CONTINUOUS
 62
     7
 10
88.15051769775009
 20
7.900000000000018
 11
91.15051769775009
 21
7.900000000000018
  0
LINE
  8
0
  6
CONTINUOUS
 62
     7
 10
91.15051769775009
 20
8.144675541882613
 11
91.15051769775009
 21
7.900000000000018
  0
LINE
  8
0
  6
CONTINUOUS
 62
     7
 10
121.1505176977501
 20
-7.099999999999995
 11
88.15051769775009
 21
-7.099999999999995
  0
LINE
  8
0
  6
CONTINUOUS
 62
     7
 10
121.1505176977501
 20
-7.344675541882506
 11
121.1505176977501
 21
-7.099999999999995
  0
LINE
  8
0
  6
CONTINUOUS
 62
     7
 10
88.15051769775009
 20
-5.499999999999977
 11
121.1505176977501
 21
-5.499999999999977
  0
LINE
  8
0
  6
CONTINUOUS
 62
     7
 10
121.1505176977501
 20
-5.255324458117383
 11
121.1505176977501
 21
-5.499999999999977
  0
ARC
  8
0
  6
CONTINUOUS
 62
     7
 10
91.15051769775009
 20
4.400000000000015
 40
3.500000000000003
 50
0.0
 51
90.0
  0
LINE
  8
0
  6
CONTINUOUS
 62
     7
 10
94.89519323963266
 20
4.400000000000015
 11
94.65051769775009
 21
4.400000000000015
  0
ARC
  8
0
  6
CONTINUOUS
 62
     7
 10
94.45051769775012
 20
3.200000000000008
 40
0.199999999999978
 50
270.0
 51
0.0
  0
LINE
  8
0
  6
CONTINUOUS
 62
     7
 10
94.89519323963266
 20
3.200000000000008
 11
94.65051769775009
 21
3.200000000000008
  0
LINE
  8
0
  6
CONTINUOUS
 62
     7
 10
94.65051769775009
 20
4.400000000000015
 11
94.65051769775009
 21
3.200000000000008
  0
ARC
  8
0
  6
CONTINUOUS
 62
     7
 10
114.8505176977501
 20
3.200000000000008
 40
0.199999999999978
 50
180.0
 51
270.0
  0
LINE
  8
0
  6
CONTINUOUS
 62
     7
 10
114.8505176977501
 20
2.755324458117492
 11
114.8505176977501
 21
3.000000000000003
  0
LINE
  8
0
  6
CONTINUOUS
 62
     7
 10
114.4058421558675
 20
3.200000000000008
 11
114.6505176977501
 21
3.200000000000008
  0
ARC
  8
0
  6
CONTINUOUS
 62
     7
 10
118.1505176977501
 20
4.400000000000015
 40
3.500000000000003
 50
90.0
 51
180.0
  0
LINE
  8
0
  6
CONTINUOUS
 62
     7
 10
114.4058421558675
 20
4.400000000000015
 11
114.6505176977501
 21
4.400000000000015
  0
LINE
  8
0
  6
CONTINUOUS
 62
     7
 10
118.1505176977501
 20
8.144675541882613
 11
118.1505176977501
 21
7.900000000000018
  0
LINE
  8
0
  6
CONTINUOUS
 62
     7
 10
121.5505176977501
 20
3.000000000000003
 11
114.8505176977501
 21
3.000000000000003
  0
LINE
  8
0
  6
CONTINUOUS
 62
     7
 10
121.5505176977501
 20
2.755324458117492
 11
121.5505176977501
 21
3.000000000000003
  0
LINE
  8
0
  6
CONTINUOUS
 62
     7
 10
114.6505176977501
 20
3.200000000000008
 11
114.6505176977501
 21
4.400000000000015
  0
LINE
  8
0
  6
CONTINUOUS
 62
     7
 10
118.1505176977501
 20
7.900000000000018
 11
121.1505176977501
 21
7.900000000000018
  0
LINE
  8
0
  6
CONTINUOUS
 62
     7
 10
121.1505176977501
 20
8.144675541882613
 11
121.1505176977501
 21
7.900000000000018
  0
ARC
  8
0
  6
CONTINUOUS
 62
     7
 10
121.1505176977501
 20
-3.599999999999992
 40
3.500000000000003
 50
270.0
 51
0.0
  0
LINE
  8
0
  6
CONTINUOUS
 62
     7
 10
124.8951932396326
 20
-3.599999999999992
 11
124.6505176977501
 21
-3.599999999999992
  0
ARC
  8
0
  6
CONTINUOUS
 62
     7
 10
121.1505176977501
 20
-3.599999999999992
 40
1.900000000000013
 50
270.0
 51
0.0
  0
LINE
  8
0
  6
CONTINUOUS
 62
     7
 10
122.8058421558676
 20
-3.599999999999992
 11
123.0505176977501
 21
-3.599999999999992
  0
ARC
  8
0
  6
CONTINUOUS
 62
     7
 10
121.1505176977501
 20
4.400000000000015
 40
3.499999999999948
 50
0.0
 51
90.0
  0
LINE
  8
0
  6
CONTINUOUS
 62
     7
 10
124.8951932396326
 20
4.400000000000015
 11
124.6505176977501
 21
4.400000000000015
  0
LINE
  8
0
  6
CONTINUOUS
 62
     7
 10
123.0505176977501
 20
-3.599999999999992
 11
123.0505176977501
 21
1.5
  0
LINE
  8
0
  6
CONTINUOUS
 62
     7
 10
122.8058421558675
 20
1.500000000000001
 11
123.0505176977501
 21
1.500000000000001
  0
ARC
  8
0
  6
CONTINUOUS
 62
     7
 10
121.5505176977501
 20
1.500000000000001
 40
1.500000000000001
 50
0.0
 51
90.0
  0
LINE
  8
0
  6
CONTINUOUS
 62
     7
 10
124.6505176977501
 20
4.400000000000015
 11
124.6505176977501
 21
-3.599999999999992
  0
LINE
  8
0
  6
CONTINUOUS
 62
     7
 10
-112.0645218893208
 20
-3.287607732492065
 11
-111.2762396242918
 21
-3.287607732492065
  0
LINE
  8
0
  6
CONTINUOUS
 62
     7
 10
-108.6624615854106
 20
-3.287607732492065
 11
-107.7082251602918
 21
-3.287607732492065
  0
LINE
  8
0
  6
CONTINUOUS
 62
     7
 10
-107.7082251602918
 20
-3.287607732492065
 11
-106.4635689504106
 21
-3.287607732492065
  0
LINE
  8
0
  6
CONTINUOUS
 62
     7
 10
-104.1605234712918
 20
-3.287607732492065
 11
-103.2274628102918
 21
-3.287607732492065
  0
LINE
  8
0
  6
CONTINUOUS
 62
     7
 10
-105.5238733396483
 20
-3.287607732492065
 11
-104.1605234712918
 21
-3.287607732492065
  0
LINE
  8
0
  6
CONTINUOUS
 62
     7
 10
-106.4635689504106
 20
-3.287607732492065
 11
-105.5238733396483
 21
-3.287607732492065
  0
LINE
  8
0
  6
CONTINUOUS
 62
     7
 10
-103.2274628102918
 20
-3.287607732492065
 11
-101.5679211992918
 21
-3.287607732492065
  0
LINE
  8
0
  6
CONTINUOUS
 62
     7
 10
-99.9897315812918
 20
-3.287607732492065
 11
-99.8668663821718
 21
-3.287607732492065
  0
LINE
  8
0
  6
CONTINUOUS
 62
     7
 10
-84.64476961008229
 20
-2.169821011997613
 11
-84.65489941772769
 21
-2.104391055149701
  0
LINE
  8
0
  6
CONTINUOUS
 62
     7
 10
-84.654899688448
 20
-2.104454298537589
 11
-84.66519614982099
 21
-1.836988927233385
  0
LINE
  8
0
  6
CONTINUOUS
 62
     7
 10
-84.66519614982099
 20
-1.836988927233385
 11
-84.67295156990839
 21
-1.313789882999905
  0
LINE
  8
0
  6
CONTINUOUS
 62
     7
 10
-84.61421098013949
 20
-1.313789882999905
 11
-84.67295156990839
 21
-1.313789882999905
  0
LINE
  8
0
  6
CONTINUOUS
 62
     7
 10
-84.61421098013949
 20
-1.313789882999905
 11
-84.61421098013949
 21
-2.169821008286304
  0
LINE
  8
0
  6
CONTINUOUS
 62
     7
 10
-84.61421098013949
 20
-0.8987444879998696
 11
-84.67068796336552
 21
-0.8987444879998696
  0
LINE
  8
0
  6
CONTINUOUS
 62
     7
 10
-84.61421098013949
 20
-0.8987444879998696
 11
-84.61421098013949
 21
-1.313789882999905
  0
LINE
  8
0
  6
CONTINUOUS
 62
     7
 10
-84.67295156990839
 20
-1.313789882999905
 11
-84.67068796336552
 21
-0.8987444879998696
  0
LINE
  8
0
  6
CONTINUOUS
 62
     7
 10
-84.61421098013949
 20
0.313966278000094
 11
-84.67227248793849
 21
0.313966278000094
  0
LINE
  8
0
  6
CONTINUOUS
 62
     7
 10
-84.61421098013949
 20
0.0480778210001087
 11
-84.66763209453582
 21
0.0480778210001087
  0
LINE
  8
0
  6
CONTINUOUS
 62
     7
 10
-84.61421098013949
 20
0.313966278000094
 11
-84.61421098013949
 21
0.0480778210001087
  0
LINE
  8
0
  6
CONTINUOUS
 62
     7
 10
-84.66763209453582
 20
0.0480778210001087
 11
-84.67227248793849
 21
0.313966278000094
  0
LINE
  8
0
  6
CONTINUOUS
 62
     7
 10
-84.61421098013949
 20
0.3658469520000929
 11
-84.61421098013949
 21
0.313966278000094
  0
LINE
  8
0
  6
CONTINUOUS
 62
     7
 10
-84.61421098013949
 20
2.557805447000128
 11
-84.66853753715631
 21
2.557805447000128
  0
LINE
  8
0
  6
CONTINUOUS
 62
     7
 10
-84.61421098013949
 20
2.557805447000128
 11
-84.61421098013949
 21
0.3658469520000929
  0
LINE
  8
0
  6
CONTINUOUS
 62
     7
 10
-84.61421098013949
 20
-0.8533488979998727
 11
-84.61421098013949
 21
-0.8987444879998696
  0
LINE
  8
0
  6
CONTINUOUS
 62
     7
 10
-84.67068796336552
 20
-0.8987444879998696
 11
-84.66763209997579
 21
-0.853348898000067
  0
LINE
  8
0
  6
CONTINUOUS
 62
     7
 10
-84.61421098013949
 20
2.979335927000115
 11
-84.66061491425569
 21
2.979335927000115
  0
LINE
  8
0
  6
CONTINUOUS
 62
     7
 10
-84.61421098013949
 20
2.979335927000115
 11
-84.61421098013949
 21
2.557805447000128
  0
LINE
  8
0
  6
CONTINUOUS
 62
     7
 10
-84.66853753715631
 20
2.557805447000128
 11
-84.66324364156618
 21
2.961789283688898
  0
LINE
  8
0
  6
CONTINUOUS
 62
     7
 10
-84.66324364156618
 20
2.961789283688898
 11
-84.66061491425569
 21
2.979335927000115
  0
LINE
  8
0
  6
CONTINUOUS
 62
     7
 10
-84.66650044362228
 20
0.0415927370001068
 11
-84.66763209453582
 21
0.0480778210001087
  0
LINE
  8
0
  6
CONTINUOUS
 62
     7
 10
-84.61421098013949
 20
0.0480778210001087
 11
-84.61421098013949
 21
0.0415927400989058
  0
LINE
  8
0
  6
CONTINUOUS
 62
     7
 10
-84.61421098013949
 20
0.0343160256827957
 11
-84.61421098013949
 21
-0.8458680138108965
  0
LINE
  8
0
  6
CONTINUOUS
 62
     7
 10
-84.6262070110168
 20
-0.8423372806579954
 11
-84.6265075610062
 21
0.0474912749686142
  0
LINE
  8
0
  6
CONTINUOUS
 62
     7
 10
-84.70950881554809
 20
2.966365759
 11
-84.7345216678387
 21
2.966365759382
  0
LINE
  8
0
  6
CONTINUOUS
 62
     7
 10
-84.70950881554809
 20
2.966365759
 11
-84.70950881554809
 21
2.363252918000103
  0
LINE
  8
0
  6
CONTINUOUS
 62
     7
 10
-84.70950881554809
 20
2.363252918000103
 11
-84.73429530718809
 21
2.363252918000103
  0
LINE
  8
0
  6
CONTINUOUS
 62
     7
 10
-84.73429530718809
 20
2.363252918000103
 11
-84.7345216678387
 21
2.966365759382
  0
LINE
  8
0
  6
CONTINUOUS
 62
     7
 10
-84.70950881554809
 20
2.985821012000095
 11
-84.72003458597679
 21
2.985821012000095
  0
LINE
  8
0
  6
CONTINUOUS
 62
     7
 10
-84.70950881554809
 20
2.985821012000095
 11
-84.70950881554809
 21
2.966365759
  0
LINE
  8
0
  6
CONTINUOUS
 62
     7
 10
-84.7345216678387
 20
2.966365759382
 11
-84.72003458597679
 21
2.985821012000095
  0
LINE
  8
0
  6
CONTINUOUS
 62
     7
 10
-84.70950881554809
 20
2.188155642000089
 11
-84.7202609466277
 21
2.188155642000089
  0
LINE
  8
0
  6
CONTINUOUS
 62
     7
 10
-84.70950881554809
 20
2.361115472727798
 11
-84.70950881554809
 21
2.188155642000089
  0
LINE
  8
0
  6
CONTINUOUS
 62
     7
 10
-84.72026094662779
 20
2.188155642000089
 11
-84.72156638724962
 21
2.36876347753362
  0
LINE
  8
0
  6
CONTINUOUS
 62
     7
 10
-84.71494153629189
 20
-2.104970168987169
 11
-84.72026094662779
 21
-1.832596628000005
  0
LINE
  8
0
  6
CONTINUOUS
 62
     7
 10
-84.70950881554809
 20
-1.832596628000005
 11
-84.7202609466277
 21
-1.832596628000005
  0
LINE
  8
0
  6
CONTINUOUS
 62
     7
 10
-84.70950881554809
 20
-1.832596628000005
 11
-84.70950881554809
 21
-2.104970168925996
  0
LINE
  8
0
  6
CONTINUOUS
 62
     7
 10
-84.70950881554809
 20
2.188155642000089
 11
-84.70950881554809
 21
-1.832596628000005
  0
LINE
  8
0
  6
CONTINUOUS
 62
     7
 10
-129.0402977257655
 20
2.369738003000027
 11
-129.0702905124441
 21
2.369738003000027
  0
LINE
  8
0
  6
CONTINUOUS
 62
     7
 10
-129.0702905124441
 20
2.985821012000095
 11
-129.0702905124441
 21
2.369738003000027
  0
LINE
  8
0
  6
CONTINUOUS
 62
     7
 10
-129.0508234961768
 20
2.985821012000095
 11
-129.0702905124441
 21
2.985821012000095
  0
LINE
  8
0
  6
CONTINUOUS
 62
     7
 10
-129.0402977257655
 20
2.369738003000027
 11
-129.0508234961767
 21
2.985821012000095
  0
LINE
  8
0
  6
CONTINUOUS
 62
     7
 10
-129.0457303151661
 20
-2.104970168985698
 11
-129.044620092157
 21
-2.100705760964494
  0
LINE
  8
0
  6
CONTINUOUS
 62
     7
 10
-129.044620092157
 20
-2.100705760964494
 11
-129.0402977257655
 21
-1.82611154299997
  0
LINE
  8
0
  6
CONTINUOUS
 62
     7
 10
-129.0702905124441
 20
-1.82611154299997
 11
-129.0702905124441
 21
-2.104970168947201
  0
LINE
  8
0
  6
CONTINUOUS
 62
     7
 10
-129.0402977257655
 20
-1.82611154299997
 11
-129.0702905124441
 21
-1.82611154299997
  0
LINE
  8
0
  6
CONTINUOUS
 62
     7
 10
-129.0702905124441
 20
2.369738003000027
 11
-129.0702905124441
 21
-1.826111542999969
  0
LINE
  8
0
  6
CONTINUOUS
 62
     7
 10
-128.9755586071196
 20
-2.169821011999501
 11
-128.973521271911
 21
1.247818417997315
  0
LINE
  8
0
  6
CONTINUOUS
 62
     7
 10
-129.0044195620783
 20
1.247818416331092
 11
-129.0044195620783
 21
-2.169821008373901
  0
LINE
  8
0
  6
CONTINUOUS
 62
     7
 10
-128.9525829722728
 20
2.421618677000109
 11
-129.0044195620783
 21
2.421618677000109
  0
LINE
  8
0
  6
CONTINUOUS
 62
     7
 10
-128.9525829722728
 20
2.979335927000115
 11
-129.0044195620783
 21
2.979335927000115
  0
LINE
  8
0
  6
CONTINUOUS
 62
     7
 10
-129.0044195620783
 20
2.979335927000115
 11
-129.0044195620783
 21
2.421618677000109
  0
LINE
  8
0
  6
CONTINUOUS
 62
     7
 10
-128.9525829722728
 20
2.421618677000109
 11
-128.9525829722728
 21
2.979335927000115
  0
LINE
  8
0
  6
CONTINUOUS
 62
     7
 10
-129.0044195620783
 20
2.421618677000109
 11
-129.0044195620783
 21
2.304887160000018
  0
LINE
  8
0
  6
CONTINUOUS
 62
     7
 10
-128.9881426128513
 20
2.4200941293539
 11
-128.987668873656
 21
2.421618677000109
  0
LINE
  8
0
  6
CONTINUOUS
 62
     7
 10
-129.0044195620783
 20
2.304887160000018
 11
-129.0044195620783
 21
1.257284653472718
  0
LINE
  8
0
  6
CONTINUOUS
 62
     7
 10
-88.4768562200604
 20
0.0
 11
-88.4768562200604
 21
-2.499999999999974
  0
LINE
  8
0
  6
CONTINUOUS
 62
     7
 10
-88.4768562200604
 20
-2.499999999999974
 11
-90.47655161037319
 21
-2.499999999999974
  0
LINE
  8
0
  6
CONTINUOUS
 62
     7
 10
-90.47655161037319
 20
-2.499999999999974
 11
-90.47655161037319
 21
0.0
  0
LINE
  8
0
  6
CONTINUOUS
 62
     7
 10
-90.47655161037319
 20
0.0
 11
-88.4768562200604
 21
0.0
  0
ARC
  8
0
  6
CONTINUOUS
 62
     7
 10
-91.4422507462918
 20
-2.499999999999974
 40
2.965394526231388
 50
270.0
 51
0.0
  0
LINE
  8
0
  6
CONTINUOUS
 62
     7
 10
-91.4422507462918
 20
-5.465394526231293
 11
-91.4422507462918
 21
-3.465699135918598
  0
ARC
  8
0
  6
CONTINUOUS
 62
     7
 10
-91.4422507462918
 20
-2.499999999999974
 40
0.9656991359185962
 50
270.0
 51
0.0
  0
ARC
  8
0
  6
CONTINUOUS
 62
     7
 10
-91.4422507462918
 20
0.0
 40
0.9656991359185962
 50
0.0
 51
90.0
  0
LINE
  8
0
  6
CONTINUOUS
 62
     7
 10
-91.4422507462918
 20
0.9656991359185962
 11
-91.4422507462918
 21
2.965394526231402
  0
ARC
  8
0
  6
CONTINUOUS
 62
     7
 10
-91.4422507462918
 20
0.0
 40
2.965394526231374
 50
0.0
 51
90.0
  0
LINE
  8
0
  6
CONTINUOUS
 62
     7
 10
-91.4422507462918
 20
-5.465394526231293
 11
-122.2422507462918
 21
-5.465394526231293
  0
LINE
  8
0
  6
CONTINUOUS
 62
     7
 10
-122.2422507462918
 20
-5.465394526231293
 11
-122.2422507462918
 21
-3.465699135918598
  0
LINE
  8
0
  6
CONTINUOUS
 62
     7
 10
-122.2422507462918
 20
-3.465699135918598
 11
-91.4422507462918
 21
-3.465699135918598
  0
LINE
  8
0
  6
CONTINUOUS
 62
     7
 10
-91.4422507462918
 20
0.9656991359185962
 11
-96.64225074629181
 21
0.9656991359185962
  0
LINE
  8
0
  6
CONTINUOUS
 62
     7
 10
-96.64225074629181
 20
0.9656991359185962
 11
-96.64225074629181
 21
2.965394526231402
  0
LINE
  8
0
  6
CONTINUOUS
 62
     7
 10
-96.64225074629181
 20
2.965394526231402
 11
-91.4422507462918
 21
2.965394526231402
  0
ARC
  8
0
  6
CONTINUOUS
 62
     7
 10
-122.2422507462918
 20
-2.499999999999974
 40
2.965394526231374
 50
180.0
 51
270.0
  0
LINE
  8
0
  6
CONTINUOUS
 62
     7
 10
-125.2076452725232
 20
-2.499999999999974
 11
-123.2079498822104
 21
-2.499999999999974
  0
ARC
  8
0
  6
CONTINUOUS
 62
     7
 10
-122.2422507462918
 20
-2.499999999999974
 40
0.9656991359185962
 50
180.0
 51
270.0
  0
ARC
  8
0
  6
CONTINUOUS
 62
     7
 10
-96.64225074629181
 20
3.200000000000008
 40
2.234300864081412
 50
180.0
 51
270.0
  0
LINE
  8
0
  6
CONTINUOUS
 62
     7
 10
-98.8765516103733
 20
3.200000000000008
 11
-96.8768562200605
 21
3.200000000000008
  0
ARC
  8
0
  6
CONTINUOUS
 62
     7
 10
-96.64225074629181
 20
3.200000000000008
 40
0.2346054737686343
 50
180.0
 51
270.0
  0
LINE
  8
0
  6
CONTINUOUS
 62
     7
 10
-125.2076452725232
 20
-2.499999999999974
 11
-125.2076452725232
 21
0.0
  0
LINE
  8
0
  6
CONTINUOUS
 62
     7
 10
-125.2076452725232
 20
0.0
 11
-123.2079498822104
 21
0.0
  0
LINE
  8
0
  6
CONTINUOUS
 62
     7
 10
-123.2079498822104
 20
0.0
 11
-123.2079498822104
 21
-2.499999999999974
  0
LINE
  8
0
  6
CONTINUOUS
 62
     7
 10
-98.8765516103732
 20
3.200000000000008
 11
-98.8765516103732
 21
4.400000000000015
  0
LINE
  8
0
  6
CONTINUOUS
 62
     7
 10
-98.8765516103732
 20
4.400000000000015
 11
-96.8768562200605
 21
4.400000000000015
  0
LINE
  8
0
  6
CONTINUOUS
 62
     7
 10
-96.8768562200605
 20
4.400000000000015
 11
-96.8768562200605
 21
3.200000000000008
  0
ARC
  8
0
  6
CONTINUOUS
 62
     7
 10
-122.2422507462918
 20
0.0
 40
2.965394526231388
 50
90.0
 51
180.0
  0
LINE
  8
0
  6
CONTINUOUS
 62
     7
 10
-122.2422507462918
 20
2.965394526231402
 11
-122.2422507462918
 21
0.9656991359185962
  0
ARC
  8
0
  6
CONTINUOUS
 62
     7
 10
-122.2422507462918
 20
0.0
 40
0.9656991359185962
 50
90.0
 51
180.0
  0
ARC
  8
0
  6
CONTINUOUS
 62
     7
 10
-93.34225074629181
 20
4.400000000000015
 40
5.534300864081409
 50
90.0
 51
180.0
  0
LINE
  8
0
  6
CONTINUOUS
 62
     7
 10
-93.34225074629181
 20
9.934300864081507
 11
-93.34225074629181
 21
7.934605473768702
  0
ARC
  8
0
  6
CONTINUOUS
 62
     7
 10
-93.34225074629181
 20
4.400000000000015
 40
3.534605473768604
 50
90.0
 51
180.0
  0
LINE
  8
0
  6
CONTINUOUS
 62
     7
 10
-122.2422507462918
 20
2.965394526231402
 11
-117.0422507462918
 21
2.965394526231402
  0
LINE
  8
0
  6
CONTINUOUS
 62
     7
 10
-117.0422507462918
 20
2.965394526231402
 11
-117.0422507462918
 21
0.9656991359185962
  0
LINE
  8
0
  6
CONTINUOUS
 62
     7
 10
-117.0422507462918
 20
0.9656991359185962
 11
-122.2422507462918
 21
0.9656991359185962
  0
LINE
  8
0
  6
CONTINUOUS
 62
     7
 10
-93.34225074629181
 20
9.934300864081397
 11
-90.3422507462918
 21
9.934300864081397
  0
LINE
  8
0
  6
CONTINUOUS
 62
     7
 10
-90.3422507462918
 20
9.934300864081507
 11
-90.3422507462918
 21
7.934605473768702
  0
LINE
  8
0
  6
CONTINUOUS
 62
     7
 10
-90.3422507462918
 20
7.934605473768702
 11
-93.34225074629181
 21
7.934605473768702
  0
ARC
  8
0
  6
CONTINUOUS
 62
     7
 10
-117.0422507462918
 20
3.200000000000008
 40
0.2346054737686343
 50
270.0
 51
0.0
  0
LINE
  8
0
  6
CONTINUOUS
 62
     7
 10
-116.8076452725232
 20
3.200000000000008
 11
-114.8079498822104
 21
3.200000000000008
  0
ARC
  8
0
  6
CONTINUOUS
 62
     7
 10
-117.0422507462918
 20
3.200000000000008
 40
2.234300864081412
 50
270.0
 51
0.0
  0
ARC
  8
0
  6
CONTINUOUS
 62
     7
 10
-90.3422507462918
 20
4.400000000000015
 40
5.534300864081423
 50
0.0
 51
90.0
  0
LINE
  8
0
  6
CONTINUOUS
 62
     7
 10
-84.80794988221041
 20
4.400000000000015
 11
-86.8076452725232
 21
4.400000000000015
  0
ARC
  8
0
  6
CONTINUOUS
 62
     7
 10
-90.3422507462918
 20
4.400000000000015
 40
3.534605473768618
 50
0.0
 51
90.0
  0
LINE
  8
0
  6
CONTINUOUS
 62
     7
 10
-116.8076452725232
 20
3.200000000000008
 11
-116.8076452725232
 21
4.400000000000015
  0
LINE
  8
0
  6
CONTINUOUS
 62
     7
 10
-116.8076452725232
 20
4.400000000000015
 11
-114.8079498822104
 21
4.400000000000015
  0
LINE
  8
0
  6
CONTINUOUS
 62
     7
 10
-114.8079498822104
 20
4.400000000000015
 11
-114.8079498822104
 21
3.200000000000008
  0
LINE
  8
0
  6
CONTINUOUS
 62
     7
 10
-84.80794988221041
 20
4.400000000000015
 11
-84.80794988221041
 21
-3.599999999999992
  0
LINE
  8
0
  6
CONTINUOUS
 62
     7
 10
-84.80794988221041
 20
-3.599999999999992
 11
-86.8076452725232
 21
-3.599999999999992
  0
LINE
  8
0
  6
CONTINUOUS
 62
     7
 10
-86.8076452725232
 20
-3.599999999999992
 11
-86.8076452725232
 21
4.400000000000015
  0
ARC
  8
0
  6
CONTINUOUS
 62
     7
 10
-120.3422507462918
 20
4.400000000000015
 40
3.534605473768576
 50
0.0
 51
90.0
  0
LINE
  8
0
  6
CONTINUOUS
 62
     7
 10
-120.3422507462918
 20
7.934605473768591
 11
-120.3422507462918
 21
9.934300864081397
  0
ARC
  8
0
  6
CONTINUOUS
 62
     7
 10
-120.3422507462918
 20
4.400000000000015
 40
5.534300864081354
 50
0.0
 51
90.0
  0
ARC
  8
0
  6
CONTINUOUS
 62
     7
 10
-90.3422507462918
 20
-3.599999999999992
 40
5.534300864081451
 50
270.0
 51
0.0
  0
LINE
  8
0
  6
CONTINUOUS
 62
     7
 10
-90.3422507462918
 20
-9.134300864081402
 11
-90.3422507462918
 21
-7.134605473768596
  0
ARC
  8
0
  6
CONTINUOUS
 62
     7
 10
-90.3422507462918
 20
-3.599999999999992
 40
3.534605473768659
 50
270.0
 51
0.0
  0
LINE
  8
0
  6
CONTINUOUS
 62
     7
 10
-120.3422507462918
 20
7.934605473768591
 11
-123.3422507462918
 21
7.934605473768702
  0
LINE
  8
0
  6
CONTINUOUS
 62
     7
 10
-123.3422507462918
 20
7.934605473768702
 11
-123.3422507462918
 21
9.934300864081507
  0
LINE
  8
0
  6
CONTINUOUS
 62
     7
 10
-123.3422507462918
 20
9.934300864081397
 11
-120.3422507462918
 21
9.934300864081397
  0
LINE
  8
0
  6
CONTINUOUS
 62
     7
 10
-90.3422507462918
 20
-9.134300864081402
 11
-123.3422507462918
 21
-9.13430086408129
  0
LINE
  8
0
  6
CONTINUOUS
 62
     7
 10
-123.3422507462918
 20
-9.134300864081402
 11
-123.3422507462918
 21
-7.134605473768513
  0
LINE
  8
0
  6
CONTINUOUS
 62
     7
 10
-123.3422507462918
 20
-7.134605473768513
 11
-90.3422507462918
 21
-7.134605473768596
  0
ARC
  8
0
  6
CONTINUOUS
 62
     7
 10
-123.3422507462918
 20
4.400000000000015
 40
3.534605473768604
 50
90.0
 51
180.0
  0
LINE
  8
0
  6
CONTINUOUS
 62
     7
 10
-126.8768562200605
 20
4.400000000000015
 11
-128.8765516103732
 21
4.400000000000015
  0
ARC
  8
0
  6
CONTINUOUS
 62
     7
 10
-123.3422507462918
 20
4.400000000000015
 40
5.534300864081409
 50
90.0
 51
180.0
  0
ARC
  8
0
  6
CONTINUOUS
 62
     7
 10
-123.3422507462918
 20
-3.599999999999992
 40
5.534300864081354
 50
180.0
 51
270.0
  0
LINE
  8
0
  6
CONTINUOUS
 62
     7
 10
-128.8765516103732
 20
-3.599999999999992
 11
-126.8768562200604
 21
-3.599999999999992
  0
ARC
  8
0
  6
CONTINUOUS
 62
     7
 10
-123.3422507462918
 20
-3.599999999999992
 40
3.534605473768576
 50
180.0
 51
270.0
  0
LINE
  8
0
  6
CONTINUOUS
 62
     7
 10
-126.8768562200605
 20
4.400000000000015
 11
-126.8768562200604
 21
-3.599999999999992
  0
LINE
  8
0
  6
CONTINUOUS
 62
     7
 10
-128.8765516103732
 20
-3.599999999999992
 11
-128.8765516103732
 21
4.400000000000015
  0
ARC
  8
0
  6
CONTINUOUS
 62
     7
 10
-90.3422507462918
 20
-3.599999999999992
 40
5.796736103779745
 50
270.0
 51
0.0
  0
LINE
  8
0
  6
CONTINUOUS
 62
     7
 10
-90.3422507462918
 20
-9.396736103779697
 11
-90.3422507462918
 21
-9.134300864081402
  0
LINE
  8
0
  6
CONTINUOUS
 62
     7
 10
-84.54551464251212
 20
-3.599999999999992
 11
-84.80794988221041
 21
-3.599999999999992
  0
LINE
  8
0
  6
CONTINUOUS
 62
     7
 10
-84.54551464251212
 20
-3.599999999999992
 11
-84.54551464251212
 21
4.400000000000015
  0
LINE
  8
0
  6
CONTINUOUS
 62
     7
 10
-84.54551464251212
 20
4.400000000000015
 11
-84.80794988221041
 21
4.400000000000015
  0
LINE
  8
0
  6
CONTINUOUS
 62
     7
 10
-90.3422507462918
 20
10.19673610377972
 11
-93.34225074629181
 21
10.19673610377972
  0
LINE
  8
0
  6
CONTINUOUS
 62
     7
 10
-90.3422507462918
 20
10.19673610377972
 11
-90.3422507462918
 21
9.934300864081397
  0
LINE
  8
0
  6
CONTINUOUS
 62
     7
 10
-93.34225074629181
 20
10.19673610377972
 11
-93.34225074629181
 21
9.934300864081397
  0
ARC
  8
0
  6
CONTINUOUS
 62
     7
 10
-93.34225074629181
 20
4.400000000000015
 40
5.796736103779704
 50
90.0
 51
180.0
  0
LINE
  8
0
  6
CONTINUOUS
 62
     7
 10
-99.13898685007149
 20
4.400000000000015
 11
-98.8765516103732
 21
4.400000000000015
  0
ARC
  8
0
  6
CONTINUOUS
 62
     7
 10
-90.3422507462918
 20
4.400000000000015
 40
5.79673610377969
 50
0.0
 51
90.0
  0
ARC
  8
0
  6
CONTINUOUS
 62
     7
 10
-96.64225074629181
 20
3.200000000000008
 40
2.496736103779706
 50
180.0
 51
270.0
  0
LINE
  8
0
  6
CONTINUOUS
 62
     7
 10
-99.13898685007149
 20
3.200000000000008
 11
-98.8765516103732
 21
3.200000000000008
  0
LINE
  8
0
  6
CONTINUOUS
 62
     7
 10
-96.64225074629181
 20
0.7032638962203297
 11
-96.64225074629181
 21
0.9656991359185962
  0
LINE
  8
0
  6
CONTINUOUS
 62
     7
 10
-96.64225074629181
 20
0.7032638962203297
 11
-91.4422507462918
 21
0.7032638962203297
  0
LINE
  8
0
  6
CONTINUOUS
 62
     7
 10
-91.4422507462918
 20
0.7032638962203297
 11
-91.4422507462918
 21
0.9656991359185962
  0
ARC
  8
0
  6
CONTINUOUS
 62
     7
 10
-91.4422507462918
 20
0.0
 40
0.7032638962203019
 50
0.0
 51
90.0
  0
LINE
  8
0
  6
CONTINUOUS
 62
     7
 10
-90.73898685007148
 20
0.0
 11
-90.47655161037319
 21
0.0
  0
LINE
  8
0
  6
CONTINUOUS
 62
     7
 10
-90.73898685007148
 20
0.0
 11
-90.73898685007148
 21
-2.499999999999974
  0
LINE
  8
0
  6
CONTINUOUS
 62
     7
 10
-90.73898685007148
 20
-2.499999999999974
 11
-90.47655161037319
 21
-2.499999999999974
  0
ARC
  8
0
  6
CONTINUOUS
 62
     7
 10
-91.4422507462918
 20
-2.499999999999974
 40
0.7032638962203019
 50
270.0
 51
0.0
  0
LINE
  8
0
  6
CONTINUOUS
 62
     7
 10
-91.4422507462918
 20
-3.203263896220193
 11
-91.4422507462918
 21
-3.465699135918598
  0
LINE
  8
0
  6
CONTINUOUS
 62
     7
 10
-99.13898685007149
 20
4.400000000000015
 11
-99.13898685007149
 21
3.200000000000008
  0
ARC
  8
0
  6
CONTINUOUS
 62
     7
 10
-122.2422507462918
 20
-2.499999999999974
 40
0.7032638962203019
 50
180.0
 51
270.0
  0
LINE
  8
0
  6
CONTINUOUS
 62
     7
 10
-122.2422507462918
 20
-3.203263896220193
 11
-122.2422507462918
 21
-3.465699135918598
  0
LINE
  8
0
  6
CONTINUOUS
 62
     7
 10
-122.9455146425121
 20
-2.499999999999974
 11
-123.2079498822104
 21
-2.499999999999974
  0
LINE
  8
0
  6
CONTINUOUS
 62
     7
 10
-122.9455146425121
 20
-2.499999999999974
 11
-122.9455146425121
 21
0.0
  0
LINE
  8
0
  6
CONTINUOUS
 62
     7
 10
-122.9455146425121
 20
0.0
 11
-123.2079498822104
 21
0.0
  0
ARC
  8
0
  6
CONTINUOUS
 62
     7
 10
-122.2422507462918
 20
0.0
 40
0.7032638962203019
 50
90.0
 51
180.0
  0
LINE
  8
0
  6
CONTINUOUS
 62
     7
 10
-122.2422507462918
 20
0.7032638962203297
 11
-122.2422507462918
 21
0.9656991359185962
  0
LINE
  8
0
  6
CONTINUOUS
 62
     7
 10
-122.2422507462918
 20
0.7032638962203297
 11
-117.0422507462918
 21
0.7032638962203297
  0
LINE
  8
0
  6
CONTINUOUS
 62
     7
 10
-117.0422507462918
 20
0.7032638962203297
 11
-117.0422507462918
 21
0.9656991359185962
  0
ARC
  8
0
  6
CONTINUOUS
 62
     7
 10
-117.0422507462918
 20
3.200000000000008
 40
2.496736103779706
 50
270.0
 51
0.0
  0
LINE
  8
0
  6
CONTINUOUS
 62
     7
 10
-114.5455146425121
 20
3.200000000000008
 11
-114.8079498822104
 21
3.200000000000008
  0
LINE
  8
0
  6
CONTINUOUS
 62
     7
 10
-114.5455146425121
 20
3.200000000000008
 11
-114.5455146425121
 21
4.400000000000015
  0
LINE
  8
0
  6
CONTINUOUS
 62
     7
 10
-114.5455146425121
 20
4.400000000000015
 11
-114.8079498822104
 21
4.400000000000015
  0
ARC
  8
0
  6
CONTINUOUS
 62
     7
 10
-120.3422507462918
 20
4.400000000000015
 40
5.796736103779662
 50
0.0
 51
90.0
  0
LINE
  8
0
  6
CONTINUOUS
 62
     7
 10
-120.3422507462918
 20
10.19673610377972
 11
-120.3422507462918
 21
9.934300864081397
  0
LINE
  8
0
  6
CONTINUOUS
 62
     7
 10
-120.3422507462918
 20
10.19673610377972
 11
-123.3422507462918
 21
10.19673610377972
  0
LINE
  8
0
  6
CONTINUOUS
 62
     7
 10
-123.3422507462918
 20
10.19673610377972
 11
-123.3422507462918
 21
9.934300864081397
  0
ARC
  8
0
  6
CONTINUOUS
 62
     7
 10
-123.3422507462918
 20
4.400000000000015
 40
5.796736103779704
 50
90.0
 51
180.0
  0
LINE
  8
0
  6
CONTINUOUS
 62
     7
 10
-129.1389868500715
 20
4.400000000000015
 11
-128.8765516103732
 21
4.400000000000015
  0
LINE
  8
0
  6
CONTINUOUS
 62
     7
 10
-129.1389868500715
 20
4.400000000000015
 11
-129.1389868500715
 21
-3.599999999999992
  0
LINE
  8
0
  6
CONTINUOUS
 62
     7
 10
-129.1389868500715
 20
-3.599999999999992
 11
-128.8765516103732
 21
-3.599999999999992
  0
ARC
  8
0
  6
CONTINUOUS
 62
     7
 10
-123.3422507462918
 20
-3.599999999999992
 40
5.796736103779662
 50
180.0
 51
270.0
  0
LINE
  8
0
  6
CONTINUOUS
 62
     7
 10
-123.3422507462918
 20
-9.396736103779585
 11
-123.3422507462918
 21
-9.13430086408129
  0
LINE
  8
0
  6
CONTINUOUS
 62
     7
 10
-91.4422507462918
 20
-3.203263896220193
 11
-122.2422507462918
 21
-3.203263896220193
  0
LINE
  8
0
  6
CONTINUOUS
 62
     7
 10
-123.3422507462918
 20
-9.396736103779585
 11
-90.3422507462918
 21
-9.396736103779697
  0
LINE
  8
0
  6
CONTINUOUS
 62
     7
 10
-99.86686638210901
 20
-3.339967617515677
 11
-99.86686638210901
 21
-3.287607732492065
  0
LINE
  8
0
  6
CONTINUOUS
 62
     7
 10
-84.6447696100926
 20
-2.169821012
 11
-84.61421098013949
 21
-2.169821012
  0
LINE
  8
0
  6
CONTINUOUS
 62
     7
 10
-84.61421098013949
 20
-0.8533488979998727
 11
-84.66763209997622
 21
-0.8533488979998727
  0
LINE
  8
0
  6
CONTINUOUS
 62
     7
 10
-84.66650044362228
 20
0.0415927370000235
 11
-84.61421098013949
 21
0.0415927370000235
  0
LINE
  8
0
  6
CONTINUOUS
 62
     7
 10
-84.7149415363132
 20
-2.104970168999992
 11
-84.70950881554809
 21
-2.104970168999992
  0
LINE
  8
0
  6
CONTINUOUS
 62
     7
 10
-129.0702905124441
 20
-2.104970168999992
 11
-129.0457303151423
 21
-2.104970168999992
  0
LINE
  8
0
  6
CONTINUOUS
 62
     7
 10
-128.9735212719162
 20
1.247818418000007
 11
-129.0044195620783
 21
1.247818418000007
  0
LINE
  8
0
  6
CONTINUOUS
 62
     7
 10
-129.0044195620783
 20
-2.169821012
 11
-128.9755586071149
 21
-2.169821012
  0
ENDSEC
  0
EOF
