  0
SECTION
  2
HEADER
  9
$ACADVER
  1
AC1015
  9
$ACADMAINTVER
 70
     6
  9
$DWGCODEPAGE
  3
DOS932
  9
$INSBASE
 10
0.0
 20
0.0
 30
0.0
  9
$EXTMIN
 10
-75.590996
 20
-10.344334
 30
0.0
  9
$EXTMAX
 10
220.074322
 20
175.33731
 30
9.906
  9
$LIMMIN
 10
-75.590996
 20
-10.344334
  9
$LIMMAX
 10
220.074322
 20
175.33731
  9
$ORTHOMODE
 70
     0
  9
$REGENMODE
 70
     1
  9
$FILLMODE
 70
     1
  9
$QTEXTMODE
 70
     0
  9
$MIRRTEXT
 70
     1
  9
$LTSCALE
 40
10.0
  9
$ATTMODE
 70
     1
  9
$TEXTSIZE
 40
0.2
  9
$TRACEWID
 40
0.05
  9
$TEXTSTYLE
  7
Standard
  9
$CLAYER
  8
0
  9
$CELTYPE
  6
Continuous
  9
$CECOLOR
 62
   256
  9
$CELTSCALE
 40
1.0
  9
$DISPSILH
 70
     0
  9
$DIMSCALE
 40
1.0
  9
$DIMASZ
 40
1.40208
  9
$DIMEXO
 40
1.40208
  9
$DIMDLI
 40
0.38
  9
$DIMRND
 40
0.0
  9
$DIMDLE
 40
0.0
  9
$DIMEXE
 40
1.05156
  9
$DIMTP
 40
0.0
  9
$DIMTM
 40
0.0
  9
$DIMTXT
 40
3.5052
  9
$DIMCEN
 40
0.09
  9
$DIMTSZ
 40
0.0
  9
$DIMTOL
 70
     0
  9
$DIMLIM
 70
     0
  9
$DIMTIH
 70
     0
  9
$DIMTOH
 70
     0
  9
$DIMSE1
 70
     0
  9
$DIMSE2
 70
     0
  9
$DIMTAD
 70
     1
  9
$DIMZIN
 70
     0
  9
$DIMBLK
  1

  9
$DIMASO
 70
     1
  9
$DIMSHO
 70
     1
  9
$DIMPOST
  1

  9
$DIMAPOST
  1

  9
$DIMALT
 70
     0
  9
$DIMALTD
 70
     2
  9
$DIMALTF
 40
25.4
  9
$DIMLFAC
 40
1.0
  9
$DIMTOFL
 70
     0
  9
$DIMTVP
 40
0.0
  9
$DIMTIX
 70
     0
  9
$DIMSOXD
 70
     0
  9
$DIMSAH
 70
     0
  9
$DIMBLK1
  1

  9
$DIMBLK2
  1

  9
$DIMSTYLE
  2
Standard
  9
$DIMCLRD
 70
     7
  9
$DIMCLRE
 70
     7
  9
$DIMCLRT
 70
     7
  9
$DIMTFAC
 40
0.5
  9
$DIMGAP
 40
1.7526
  9
$DIMJUST
 70
     0
  9
$DIMSD1
 70
     0
  9
$DIMSD2
 70
     0
  9
$DIMTOLJ
 70
     1
  9
$DIMTZIN
 70
     0
  9
$DIMALTZ
 70
     0
  9
$DIMALTTZ
 70
     0
  9
$DIMUPT
 70
     0
  9
$DIMDEC
 70
     2
  9
$DIMTDEC
 70
     4
  9
$DIMALTU
 70
     2
  9
$DIMALTTD
 70
     2
  9
$DIMTXSTY
  7
Standard
  9
$DIMAUNIT
 70
     0
  9
$DIMADEC
 70
     0
  9
$DIMALTRND
 40
0.0
  9
$DIMAZIN
 70
     0
  9
$DIMDSEP
 70
     0
  9
$DIMATFIT
 70
     3
  9
$DIMFRAC
 70
     0
  9
$DIMLDRBLK
  1

  9
$DIMLUNIT
 70
     2
  9
$DIMLWD
 70
     0
  9
$DIMLWE
 70
     0
  9
$DIMTMOVE
 70
     0
  9
$LUNITS
 70
     2
  9
$LUPREC
 70
     4
  9
$SKETCHINC
 40
0.1
  9
$FILLETRAD
 40
0.0
  9
$AUNITS
 70
     0
  9
$AUPREC
 70
     0
  9
$MENU
  1
acad
  9
$ELEVATION
 40
0.0
  9
$PELEVATION
 40
0.0
  9
$THICKNESS
 40
0.0
  9
$LIMCHECK
 70
     0
  9
$CHAMFERA
 40
0.0
  9
$CHAMFERB
 40
0.0
  9
$CHAMFERC
 40
0.0
  9
$CHAMFERD
 40
0.0
  9
$SKPOLY
 70
     0
  9
$TDCREATE
 40
2459788.578680555
  9
$TDUCREATE
 40
0.000000000
  9
$TDUPDATE
 40
2459788.203599537
  9
$TDUUPDATE
 40
0.000000000
  9
$TDINDWG
 40
0.0000000000
  9
$TDUSRTIMER
 40
0.0000000000
  9
$USRTIMER
 70
     1
  9
$ANGBASE
 50
0.0
  9
$ANGDIR
 70
     0
  9
$PDMODE
 70
     0
  9
$PDSIZE
 40
0.0
  9
$PLINEWID
 40
0.0
  9
$SPLFRAME
 70
     0
  9
$SPLINETYPE
 70
     6
  9
$SPLINESEGS
 70
     8
  9
$HANDSEED
  5
17E
  9
$SURFTAB1
 70
     6
  9
$SURFTAB2
 70
     6
  9
$SURFTYPE
 70
     6
  9
$SURFU
 70
     6
  9
$SURFV
 70
     6
  9
$UCSBASE
  2

  9
$UCSNAME
  2

  9
$UCSORG
 10
0.0
 20
0.0
 30
0.0
  9
$UCSXDIR
 10
1.0
 20
0.0
 30
0.0
  9
$UCSYDIR
 10
0.0
 20
1.0
 30
0.0
  9
$UCSORTHOREF
  2

  9
$UCSORTHOVIEW
 70
     0
  9
$UCSORGTOP
 10
0.0
 20
0.0
 30
0.0
  9
$UCSORGBOTTOM
 10
0.0
 20
0.0
 30
0.0
  9
$UCSORGLEFT
 10
0.0
 20
0.0
 30
0.0
  9
$UCSORGRIGHT
 10
0.0
 20
0.0
 30
0.0
  9
$UCSORGFRONT
 10
0.0
 20
0.0
 30
0.0
  9
$UCSORGBACK
 10
0.0
 20
0.0
 30
0.0
  9
$PUCSBASE
  2

  9
$PUCSNAME
  2

  9
$PUCSORG
 10
0.0
 20
0.0
 30
0.0
  9
$PUCSXDIR
 10
1.0
 20
0.0
 30
0.0
  9
$PUCSYDIR
 10
0.0
 20
1.0
 30
0.0
  9
$PUCSORTHOREF
  2

  9
$PUCSORTHOVIEW
 70
     0
  9
$PUCSORGTOP
 10
0.0
 20
0.0
 30
0.0
  9
$PUCSORGBOTTOM
 10
0.0
 20
0.0
 30
0.0
  9
$PUCSORGLEFT
 10
0.0
 20
0.0
 30
0.0
  9
$PUCSORGRIGHT
 10
0.0
 20
0.0
 30
0.0
  9
$PUCSORGFRONT
 10
0.0
 20
0.0
 30
0.0
  9
$PUCSORGBACK
 10
0.0
 20
0.0
 30
0.0
  9
$USERI1
 70
     0
  9
$USERI2
 70
     0
  9
$USERI3
 70
     0
  9
$USERI4
 70
     0
  9
$USERI5
 70
     0
  9
$USERR1
 40
0.0
  9
$USERR2
 40
0.0
  9
$USERR3
 40
0.0
  9
$USERR4
 40
0.0
  9
$USERR5
 40
0.0
  9
$WORLDVIEW
 70
     1
  9
$SHADEDGE
 70
     3
  9
$SHADEDIF
 70
    70
  9
$TILEMODE
 70
     1
  9
$MAXACTVP
 70
    16
  9
$PINSBASE
 10
0.0
 20
0.0
 30
0.0
  9
$PLIMCHECK
 70
     0
  9
$PEXTMIN
 10
1.000000E+20
 20
1.000000E+20
 30
1.000000E+20
  9
$PEXTMAX
 10
-1.000000E+20
 20
-1.000000E+20
 30
-1.000000E+20
  9
$PLIMMIN
 10
0.0
 20
0.0
  9
$PLIMMAX
 10
12.0
 20
9.0
  9
$UNITMODE
 70
     0
  9
$VISRETAIN
 70
     0
  9
$PLINEGEN
 70
     1
  9
$PSLTSCALE
 70
     0
  9
$TREEDEPTH
 70
  3020
  9
$CMLSTYLE
  2
Standard
  9
$CMLJUST
 70
     0
  9
$CMLSCALE
 40
1.0
  9
$PROXYGRAPHICS
 70
     0
  9
$MEASUREMENT
 70
     0
  9
$CELWEIGHT
370
     0
  9
$ENDCAPS
280
     0
  9
$JOINSTYLE
280
     0
  9
$LWDISPLAY
290
     0
  9
$INSUNITS
 70
     0
  9
$HYPERLINKBASE
  1

  9
$STYLESHEET
  1

  9
$XEDIT
290
     1
  9
$CEPSNTYPE
380
     0
  9
$PSTYLEMODE
290
     1
  9
$FINGERPRINTGUID
  2

  9
$VERSIONGUID
  2

  9
$EXTNAMES
290
     1
  9
$PSVPSCALE
 40
0.0
  0
ENDSEC
  0
SECTION
  2
CLASSES
  0
CLASS
  1
LWPOLYLINE
  2
AcDbPolyline
  3
AutoCAD 2000
 90
        0
280
     0
281
     1
  0
CLASS
  1
IMAGE
  2
AcDbRasterImage
  3
ISM
 90
      127
280
     0
281
     1
  0
CLASS
  1
OLE2FRAME
  2
AcDbOle2Frame
  3
AutoCAD 2000
 90
        0
280
     0
281
     1
  0
CLASS
  1
HATCH
  2
AcDbHatch
  3
AutoCAD 2000
 90
        0
280
     0
281
     1
  0
CLASS
  1
DICTIONARYVAR
  2
AcDbDictionaryVar
  3
AutoCAD 2000
 90
        0
280
     0
281
     0
  0
CLASS
  1
RASTERVARIABLES
  2
AcDbRasterVariables
  3
ISM
 90
        0
280
     0
281
     0
  0
CLASS
  1
IMAGEDEF
  2
AcDbRasterImageDef
  3
ISM
 90
        0
280
     0
281
     0
  0
CLASS
  1
IMAGEDEF_REACTOR
  2
AcDbRasterImageDefReactor
  3
ISM
 90
        1
280
     0
281
     0
  0
CLASS
  1
IDBUFFER
  2
AcDbIdBuffer
  3
AutoCAD 2000
 90
        0
280
     0
281
     0
  0
CLASS
  1
SPATIAL_FILTER
  2
AcDbSpatialFilter
  3
AutoCAD 2000
 90
        0
280
     0
281
     0
  0
CLASS
  1
XRECORD
  2
AcDbXrecord
  3
AutoCAD 2000
 90
        0
280
     0
281
     0
  0
CLASS
  1
SORTENTSTABLE
  2
AcDbSortentsTable
  3
AutoCAD 2000
 90
        0
280
     0
281
     0
  0
CLASS
  1
LAYER_INDEX
  2
AcDbLayerIndex
  3
AutoCAD 2000
 90
        0
280
     0
281
     0
  0
CLASS
  1
SPATIAL_INDEX
  2
AcDbSpatialIndex
  3
AutoCAD 2000
 90
        0
280
     0
281
     0
  0
CLASS
  1
OBJECT_PTR
  2
CAseDLPNTableRecord
  3
"ASE-LPNTableRecord"
 90
        1
280
     0
281
     0
  0
CLASS
  1
LAYOUT
  2
AcDbLayout
  3
AutoCAD 2000
 90
        0
280
     0
281
     0
  0
CLASS
  1
PLOTSETTINGS
  2
AcDbPlotSettings
  3
AutoCAD 2000
 90
        0
280
     0
281
     0
  0
CLASS
  1
ACDBDICTIONARYWDFLT
  2
AcDbDictionaryWithDefault
  3
AutoCAD 2000
 90
        0
280
     0
281
     0
  0
CLASS
  1
ACDBPLACEHOLDER
  2
AcDbPlaceHolder
  3
AutoCAD 2000
 90
        0
280
     0
281
     0
  0
CLASS
  1
VBA_PROJECT
  2
AcDbVbaProject
  3
acadvba
 90
        0
280
     0
281
     0
  0
CLASS
  1
WIPEOUT
  2
AcDbWipeout
  3
WipeOut|AutoCAD Express Tool|expresstools@autodesk.com
 90
      127
280
     0
281
     1
  0
CLASS
  1
WIPEOUTVARIABLES
  2
AcDbWipeoutVariables
  3
WipeOut|AutoCAD Express Tool|expresstools@autodesk.com
 90
        0
280
     0
281
     0
  0
CLASS
  1
RTEXT
  2
RText
  3
RText|AutoCAD Express Tool|expresstools@autodesk.com
 90
        0
280
     0
281
     1
  0
CLASS
  1
ARCALIGNEDTEXT
  2
AcDbArcAlignedText
  3
ATEXT|AutoCAD Express Tool|expresstools@autodesk.com
 90
        0
280
     0
281
     1
  0
ENDSEC
  0
SECTION
  2
TABLES
  0
TABLE
  2
VPORT
  5
7
100
AcDbSymbolTable
 70
     1
  0
VPORT
  5
15
100
AcDbSymbolTableRecord
100
AcDbViewportTableRecord
  2
*ACTIVE
 70
     0
 10
0.0
 20
0.0
 11
1.0
 21
1.0
 12
6.591288
 22
4.579184
 13
0.0
 23
0.0
 14
1.0
 24
1.0
 15
0.0
 25
0.0
 16
0.0
 26
0.0
 36
1.0
 17
0.0
 27
0.0
 37
0.0
 40
9.158369
 41
0.688564
 42
50.0
 43
0.0
 44
0.0
 50
0.0
 51
0.0
 71
     0
 72
   100
 73
     1
 74
     1
 75
     0
 76
     0
 77
     0
 78
     0
281
     0
 65
     0
110
0.0
120
0.0
130
0.0
111
1.0
121
0.0
131
0.0
112
0.0
122
1.0
132
0.0
345
0
346
0
 79
     0
146
0.0
  0
ENDTAB
  0
TABLE
  2
LTYPE
  5
4
100
AcDbSymbolTable
 70
     3
  0
LTYPE
  5
11
100
AcDbSymbolTableRecord
100
AcDbLinetypeTableRecord
  2
ByBlock
 70
    64
  3

 72
    65
 73
     0
 40
0.0
  0
LTYPE
  5
12
100
AcDbSymbolTableRecord
100
AcDbLinetypeTableRecord
  2
ByLayer
 70
    64
  3

 72
    65
 73
     0
 40
0.0
  0
LTYPE
  5
13
100
AcDbSymbolTableRecord
100
AcDbLinetypeTableRecord
  2
Continuous
 70
    64
  3
Solid line
 72
    65
 73
     0
 40
0.0
  0
ENDTAB
  0
TABLE
  2
LAYER
  5
2
100
AcDbSymbolTable
 70
     1
  0
LAYER
  5
14
100
AcDbSymbolTableRecord
100
AcDbLayerTableRecord
  2
0
 70
     0
 62
     7
  6
Continuous
290
     1
370
    -3
390
1D
  0
ENDTAB
  0
TABLE
  2
STYLE
  5
3
100
AcDbSymbolTable
 70
     1
  0
STYLE
  5
17
100
AcDbSymbolTableRecord
100
AcDbTextStyleTableRecord
  2
Standard
 70
     0
 40
0.0
 41
1.0
 50
0.0
 71
     0
 42
0.0
  3
FG教科書体NT-M
  4

1001
ACAD
1000
FG教科書体NT-M
1071
        0
  0
ENDTAB
  0
TABLE
  2
VIEW
  5
5
100
AcDbSymbolTable
 70
     0
  0
ENDTAB
  0
TABLE
  2
UCS
  5
6
100
AcDbSymbolTable
 70
     0
  0
ENDTAB
  0
TABLE
  2
APPID
  5
8
100
AcDbSymbolTable
 70
     2
  0
APPID
  5
16
100
AcDbSymbolTableRecord
100
AcDbRegAppTableRecord
  2
ACAD
 70
     0
  0
APPID
  5
26
100
AcDbSymbolTableRecord
100
AcDbRegAppTableRecord
  2
TOPsolid_Design
 70
     0
  0
ENDTAB
  0
TABLE
  2
DIMSTYLE
  5
9
100
AcDbSymbolTable
 70
     1
100
AcDbDimStyleTable
 71
     0
  0
DIMSTYLE
105
18
100
AcDbSymbolTableRecord
100
AcDbDimStyleTableRecord
  2
Standard
 70
     0
  3

  4

 40
1.0
 41
1.40208
 42
1.40208
 43
0.38
 44
1.05156
 45
0.0
 46
0.0
 47
0.0
 48
0.0
 71
     0
 72
     0
 73
     0
 74
     0
 75
     0
 76
     0
 77
     1
 78
     0
 79
     0
140
3.5052
141
0.09
142
0.0
143
25.4
144
1.0
145
0.0
146
0.5
147
1.7526
148
0.0
170
     0
171
     2
172
     0
173
     0
174
     0
175
     0
176
     7
177
     7
178
     7
179
     0
271
     2
272
     4
273
     2
274
     2
275
     0
276
     0
277
     2
278
    46
279
     0
280
     0
281
     0
282
     0
283
     1
284
     0
285
     0
286
     0
288
     0
289
     3
340
17
341
0
342
0
343
0
344
0
371
    -2
372
    -2
  0
ENDTAB
  0
TABLE
  2
BLOCK_RECORD
  5
1
100
AcDbSymbolTable
 70
     0
  0
BLOCK_RECORD
  5
A
100
AcDbSymbolTableRecord
100
AcDbBlockTableRecord
  2
*MODEL_SPACE
340
20
  0
BLOCK_RECORD
  5
B
100
AcDbSymbolTableRecord
100
AcDbBlockTableRecord
  2
*PAPER_SPACE
340
21
  0
ENDTAB
  0
ENDSEC
  0
SECTION
  2
BLOCKS
  0
BLOCK
  5
D
100
AcDbEntity
  8
0
390
0
100
AcDbBlockBegin
  2
*MODEL_SPACE
 70
     0
 10
0.0
 20
0.0
 30
0.0
  3
*MODEL_SPACE
  1

  0
ENDBLK
  5
E
100
AcDbEntity
  8
0
390
0
100
AcDbBlockEnd
  0
BLOCK
  5
F
100
AcDbEntity
 67
     1
  8
0
390
0
100
AcDbBlockBegin
  2
*PAPER_SPACE
 70
     0
 10
0.0
 20
0.0
 30
0.0
  3
*PAPER_SPACE
  1

  0
ENDBLK
  5
10
100
AcDbEntity
 67
     1
  8
0
390
0
100
AcDbBlockEnd
  0
ENDSEC
  0
SECTION
  2
ENTITIES
  0
LINE
  5
27
100
AcDbEntity
  8
0
390
0
  6
Continuous
 62
     7
100
AcDbLine
 10
4.9
 20
-10.344334
 30
0.0
 11
4.9
 21
0.0
 31
0.0
  0
LINE
  5
28
100
AcDbEntity
  8
0
390
0
  6
Continuous
 62
     7
100
AcDbLine
 10
3.01377
 20
10.245481
 30
0.0
 11
3.021496
 21
10.196527
 31
0.0
  0
LINE
  5
29
100
AcDbEntity
  8
0
390
0
  6
Continuous
 62
     7
100
AcDbLine
 10
4.9
 20
0.0
 30
0.0
 11
4.9
 21
10.344334
 31
0.0
  0
LINE
  5
2A
100
AcDbEntity
  8
0
390
0
  6
Continuous
 62
     7
100
AcDbLine
 10
3.021496
 20
-10.196527
 30
0.0
 11
3.01377
 21
-10.245481
 31
0.0
  0
LINE
  5
2B
100
AcDbEntity
  8
0
390
0
  6
Continuous
 62
     7
100
AcDbLine
 10
3.021496
 20
-5.968182
 30
0.0
 11
3.021496
 21
-10.196527
 31
0.0
  0
LINE
  5
2C
100
AcDbEntity
  8
0
390
0
  6
Continuous
 62
     7
100
AcDbLine
 10
3.021496
 20
-4.228345
 30
0.0
 11
3.021496
 21
-5.968182
 31
0.0
  0
LINE
  5
2D
100
AcDbEntity
  8
0
390
0
  6
Continuous
 62
     7
100
AcDbLine
 10
3.021496
 20
4.228345
 30
0.0
 11
3.021496
 21
-4.228345
 31
0.0
  0
LINE
  5
2E
100
AcDbEntity
  8
0
390
0
  6
Continuous
 62
     7
100
AcDbLine
 10
3.021496
 20
5.968182
 30
0.0
 11
3.021496
 21
4.228345
 31
0.0
  0
LINE
  5
2F
100
AcDbEntity
  8
0
390
0
  6
Continuous
 62
     7
100
AcDbLine
 10
3.021496
 20
10.196527
 30
0.0
 11
3.021496
 21
5.968182
 31
0.0
  0
LINE
  5
30
100
AcDbEntity
  8
0
390
0
  6
Continuous
 62
     7
100
AcDbLine
 10
1.810814
 20
3.926617
 30
0.0
 11
1.753002
 21
3.237056
 31
0.0
  0
ELLIPSE
  5
31
100
AcDbEntity
  8
0
390
0
  6
Continuous
 62
     7
100
AcDbEllipse
 10
3.1
 20
3.610163
 30
0.0
 11
-1.5000000000000013
 21
0.0
 31
0.0
210
0.0
220
0.0
230
1.0
 40
0.412687
 41
4.7647488579445172
 42
5.7465953197878044
  0
ELLIPSE
  5
32
100
AcDbEntity
  8
0
390
0
  6
Continuous
 62
     7
100
AcDbEllipse
 10
3.1
 20
-3.610163
 30
0.0
 11
-1.5000000000000013
 21
0.0
 31
0.0
210
0.0
220
0.0
230
1.0
 40
0.412687
 41
0.5365899873918771
 42
1.5184364492350675
  0
LINE
  5
33
100
AcDbEntity
  8
0
390
0
  6
Continuous
 62
     7
100
AcDbLine
 10
1.753002
 20
-3.237055
 30
0.0
 11
1.810814
 21
-3.926616
 31
0.0
  0
ARC
  5
34
100
AcDbEntity
  8
0
390
0
  6
Continuous
 62
     7
100
AcDbCircle
 10
48.514034
 20
0.0
 30
0.0
 40
46.872941
210
0.0
220
0.0
230
1.0
100
AcDbArc
 50
176.039989
 51
183.960011
  0
ELLIPSE
  5
35
100
AcDbEntity
  8
0
390
0
  6
Continuous
 62
     7
100
AcDbEllipse
 10
0.406005
 20
-3.464145
 30
0.0
 11
-1.4787948202169274
 21
-0.2513282310039888
 31
0.0
210
0.0
220
0.0
230
1.0
 40
0.002925
 41
1.5880028613171318
 42
2.7156987213867212
  0
ARC
  5
36
100
AcDbEntity
  8
0
390
0
  6
Continuous
 62
     7
100
AcDbCircle
 10
27.098413
 20
0.0
 30
0.0
 40
26.890297
210
0.0
220
0.0
230
1.0
100
AcDbArc
 50
172.598295
 51
187.401705
  0
ELLIPSE
  5
37
100
AcDbEntity
  8
0
390
0
  6
Continuous
 62
     7
100
AcDbEllipse
 10
0.406005
 20
3.464146
 30
0.0
 11
-1.4787948202295289
 21
0.2513282309297704
 31
0.0
210
0.0
220
0.0
230
1.0
 40
0.002925
 41
3.5674865857387652
 42
4.6951824440160852
  0
ELLIPSE
  5
38
100
AcDbEntity
  8
0
390
0
  6
Continuous
 62
     7
100
AcDbEllipse
 10
3.1
 20
-5.095636
 30
0.0
 11
-1.5000000000000013
 21
0.0
 31
0.0
210
0.0
220
0.0
230
0.9999999999999999
 40
0.582495
 41
0.5365899873916675
 42
1.5184364492350675
  0
LINE
  5
39
100
AcDbEntity
  8
0
390
0
  6
Continuous
 62
     7
100
AcDbLine
 10
1.810814
 20
-3.926616
 30
0.0
 11
1.810814
 21
-5.542301
 31
0.0
  0
LINE
  5
3A
100
AcDbEntity
  8
0
390
0
  6
Continuous
 62
     7
100
AcDbLine
 10
1.810814
 20
5.542301
 30
0.0
 11
1.810814
 21
3.926617
 31
0.0
  0
ELLIPSE
  5
3B
100
AcDbEntity
  8
0
390
0
  6
Continuous
 62
     7
100
AcDbEllipse
 10
3.1
 20
5.095636
 30
0.0
 11
-1.5000000000000013
 21
0.0
 31
0.0
210
0.0
220
0.0
230
0.9999999999999999
 40
0.582495
 41
4.7647488579445199
 42
5.746595319787855
  0
LINE
  5
3C
100
AcDbEntity
  8
0
390
0
  6
Continuous
 62
     7
100
AcDbLine
 10
0.432183
 20
3.464146
 30
0.0
 11
0.547794
 21
3.901831
 31
0.0
  0
ELLIPSE
  5
3D
100
AcDbEntity
  8
0
390
0
  6
Continuous
 62
     7
100
AcDbEllipse
 10
0.521629
 20
4.24307
 30
0.0
 11
-1.4893080956412952
 21
0.1787775048973095
 31
0.0
210
0.0
220
0.0
230
1.0
 40
0.224013
 41
1.6152436646826194
 42
2.6434575073473296
  0
ELLIPSE
  5
3E
100
AcDbEntity
  8
0
390
0
  6
Continuous
 62
     7
100
AcDbEllipse
 10
0.521629
 20
-4.24307
 30
0.0
 11
-1.4893080956412674
 21
-0.178777504897476
 31
0.0
210
0.0
220
0.0
230
1.0
 40
0.224013
 41
3.6397277998323325
 42
4.6679416424969729
  0
LINE
  5
3F
100
AcDbEntity
  8
0
390
0
  6
Continuous
 62
     7
100
AcDbLine
 10
0.547794
 20
-3.901831
 30
0.0
 11
0.432183
 21
-3.464145
 31
0.0
  0
ELLIPSE
  5
40
100
AcDbEntity
  8
0
390
0
  6
Continuous
 62
     7
100
AcDbEllipse
 10
0.521629
 20
-5.988965
 30
0.0
 11
-1.4784485687526772
 21
0.2533571186155714
 31
0.0
210
0.0
220
0.0
230
0.9999999999999999
 40
0.725994
 41
3.7903872846126037
 42
4.8186011272773497
  0
ARC
  5
41
100
AcDbEntity
  8
0
390
0
  6
Continuous
 62
     7
100
AcDbCircle
 10
-1.676913
 20
-4.398321
 30
0.0
 40
2.279435
210
0.0
220
0.0
230
1.0
100
AcDbArc
 50
347.419402
 51
12.580598
  0
ARC
  5
42
100
AcDbEntity
  8
0
390
0
  6
Continuous
 62
     7
100
AcDbCircle
 10
-1.623399
 20
4.398321
 30
0.0
 40
2.227237
210
0.0
220
0.0
230
1.0
100
AcDbArc
 50
347.119553
 51
12.880447
  0
ELLIPSE
  5
43
100
AcDbEntity
  8
0
390
0
  6
Continuous
 62
     7
100
AcDbEllipse
 10
0.521629
 20
5.988966
 30
0.0
 11
-1.4784485687526494
 21
-0.253357118615738
 31
0.0
210
0.0
220
0.0
230
0.9999999999999999
 40
0.725994
 41
1.4645841799021282
 42
2.4927980225668387
  0
LINE
  5
44
100
AcDbEntity
  8
0
390
0
  6
Continuous
 62
     7
100
AcDbLine
 10
1.810814
 20
-5.542301
 30
0.0
 11
1.753002
 21
-6.031512
 31
0.0
  0
ELLIPSE
  5
45
100
AcDbEntity
  8
0
390
0
  6
Continuous
 62
     7
100
AcDbEllipse
 10
3.1
 20
-8.705799
 30
0.0
 11
-1.5000000000000013
 21
0.0
 31
0.0
210
0.0
220
0.0
230
1.0
 40
0.995183
 41
0.5365899873917965
 42
1.5184364492350619
  0
LINE
  5
46
100
AcDbEntity
  8
0
390
0
  6
Continuous
 62
     7
100
AcDbLine
 10
1.753002
 20
-9.268567
 30
0.0
 11
1.810814
 21
-9.468917
 31
0.0
  0
ARC
  5
47
100
AcDbEntity
  8
0
390
0
  6
Continuous
 62
     7
100
AcDbCircle
 10
13.531767
 20
-7.650039
 30
0.0
 40
11.889446
210
0.0
220
0.0
230
1.0
100
AcDbArc
 50
172.175948
 51
187.824052
  0
LINE
  5
48
100
AcDbEntity
  8
0
390
0
  6
Continuous
 62
     7
100
AcDbLine
 10
1.810814
 20
9.468917
 30
0.0
 11
1.753002
 21
9.268567
 31
0.0
  0
ELLIPSE
  5
49
100
AcDbEntity
  8
0
390
0
  6
Continuous
 62
     7
100
AcDbEllipse
 10
3.1
 20
8.705799
 30
0.0
 11
1.5000000000000013
 21
0.0000000000000278
 31
0.0
210
0.0
220
0.0
230
1.0
 40
0.995183
 41
1.6231562043547134
 42
2.6050026661983048
  0
LINE
  5
4A
100
AcDbEntity
  8
0
390
0
  6
Continuous
 62
     7
100
AcDbLine
 10
1.753002
 20
6.031512
 30
0.0
 11
1.810814
 21
5.542301
 31
0.0
  0
ARC
  5
4B
100
AcDbEntity
  8
0
390
0
  6
Continuous
 62
     7
100
AcDbCircle
 10
12.809476
 20
7.65004
 30
0.0
 40
11.174312
210
0.0
220
0.0
230
1.0
100
AcDbArc
 50
171.671777
 51
188.328223
  0
LINE
  5
4C
100
AcDbEntity
  8
0
390
0
  6
Continuous
 62
     7
100
AcDbLine
 10
-3.426179
 20
-3.464145
 30
0.0
 11
-3.426179
 21
-5.097477
 31
0.0
  0
ELLIPSE
  5
4D
100
AcDbEntity
  8
0
390
0
  6
Continuous
 62
     7
100
AcDbEllipse
 10
-3.4
 20
-3.798637
 30
0.0
 11
1.5000000000000013
 21
0.0
 31
0.0
210
0.0
220
0.0
230
1.0
 40
0.866025
 41
3.1415926535897878
 42
4.6949356878647386
  0
LINE
  5
4E
100
AcDbEntity
  8
0
390
0
  6
Continuous
 62
     7
100
AcDbLine
 10
-4.9
 20
-3.798637
 30
0.0
 11
-4.9
 21
-3.464145
 31
0.0
  0
LINE
  5
4F
100
AcDbEntity
  8
0
390
0
  6
Continuous
 62
     7
100
AcDbLine
 10
-3.426179
 20
-3.464145
 30
0.0
 11
-4.9
 21
-3.464145
 31
0.0
  0
LINE
  5
50
100
AcDbEntity
  8
0
390
0
  6
Continuous
 62
     7
100
AcDbLine
 10
0.432183
 20
-5.155802
 30
0.0
 11
0.547794
 21
-4.894811
 31
0.0
  0
LINE
  5
51
100
AcDbEntity
  8
0
390
0
  6
Continuous
 62
     7
100
AcDbLine
 10
-3.426179
 20
-5.097477
 30
0.0
 11
0.432183
 21
-5.155802
 31
0.0
  0
LINE
  5
52
100
AcDbEntity
  8
0
390
0
  6
Continuous
 62
     7
100
AcDbLine
 10
-3.426179
 20
-3.464145
 30
0.0
 11
0.432183
 21
-3.464145
 31
0.0
  0
LINE
  5
53
100
AcDbEntity
  8
0
390
0
  6
Continuous
 62
     7
100
AcDbLine
 10
-3.426179
 20
3.464146
 30
0.0
 11
0.432183
 21
3.464146
 31
0.0
  0
LINE
  5
54
100
AcDbEntity
  8
0
390
0
  6
Continuous
 62
     7
100
AcDbLine
 10
-3.426179
 20
5.097477
 30
0.0
 11
-3.426179
 21
3.464146
 31
0.0
  0
LINE
  5
55
100
AcDbEntity
  8
0
390
0
  6
Continuous
 62
     7
100
AcDbLine
 10
-3.426179
 20
5.097477
 30
0.0
 11
0.432183
 21
5.155803
 31
0.0
  0
LINE
  5
56
100
AcDbEntity
  8
0
390
0
  6
Continuous
 62
     7
100
AcDbLine
 10
0.547794
 20
4.894811
 30
0.0
 11
0.432183
 21
5.155803
 31
0.0
  0
LINE
  5
57
100
AcDbEntity
  8
0
390
0
  6
Continuous
 62
     7
100
AcDbLine
 10
-4.9
 20
3.464146
 30
0.0
 11
-4.9
 21
3.798637
 31
0.0
  0
ELLIPSE
  5
58
100
AcDbEntity
  8
0
390
0
  6
Continuous
 62
     7
100
AcDbEllipse
 10
-3.4
 20
3.798637
 30
0.0
 11
-1.5000000000000013
 21
0.0
 31
0.0
210
0.0
220
0.0
230
1.0
 40
0.866025
 41
4.7298422729046319
 42
6.2831853071795916
  0
LINE
  5
59
100
AcDbEntity
  8
0
390
0
  6
Continuous
 62
     7
100
AcDbLine
 10
-4.9
 20
3.464146
 30
0.0
 11
-3.426179
 21
3.464146
 31
0.0
  0
LINE
  5
5A
100
AcDbEntity
  8
0
390
0
  6
Continuous
 62
     7
100
AcDbLine
 10
-3.426179
 20
3.464146
 30
0.0
 11
-3.426179
 21
-3.464145
 31
0.0
  0
LINE
  5
5B
100
AcDbEntity
  8
0
390
0
  6
Continuous
 62
     7
100
AcDbLine
 10
-4.9
 20
-3.464145
 30
0.0
 11
-4.9
 21
3.464146
 31
0.0
  0
ELLIPSE
  5
5C
100
AcDbEntity
  8
0
390
0
  6
Continuous
 62
     7
100
AcDbEllipse
 10
0.406005
 20
-6.454642
 30
0.0
 11
-1.4194372154233692
 21
0.4849721553565611
 31
0.0
210
0.0
220
0.0
230
0.9999999999999999
 40
0.855241
 41
3.8512806969517315
 42
4.9789765552287433
  0
ELLIPSE
  5
5D
100
AcDbEntity
  8
0
390
0
  6
Continuous
 62
     7
100
AcDbEllipse
 10
0.406005
 20
6.454643
 30
0.0
 11
-1.4194372153780443
 21
-0.484972155489205
 31
0.0
210
0.0
220
0.0
230
1.0
 40
0.855241
 41
1.3042087500243966
 42
2.4319046100939703
  0
ARC
  5
5E
100
AcDbEntity
  8
0
390
0
  6
Continuous
 62
     7
100
AcDbCircle
 10
7.01269
 20
6.887875
 30
0.0
 40
6.804642
210
0.0
220
0.0
230
1.0
100
AcDbArc
 50
165.253502
 51
194.746498
  0
ELLIPSE
  5
5F
100
AcDbEntity
  8
0
390
0
  6
Continuous
 62
     7
100
AcDbEllipse
 10
0.406005
 20
9.918788
 30
0.0
 11
1.4209488766780409
 21
-0.4805250148196272
 31
0.0
210
0.0
220
0.0
230
1.0
 40
0.852317
 41
5.0107161163492391
 42
6.1384119746256891
  0
ELLIPSE
  5
60
100
AcDbEntity
  8
0
390
0
  6
Continuous
 62
     7
100
AcDbEllipse
 10
0.406005
 20
-9.918788
 30
0.0
 11
-1.420948876549172
 21
-0.480525015200739
 31
0.0
210
0.0
220
0.0
230
1.0
 40
0.852317
 41
3.286365985969077
 42
4.4140618443283515
  0
ARC
  5
61
100
AcDbEntity
  8
0
390
0
  6
Continuous
 62
     7
100
AcDbCircle
 10
7.019622
 20
-6.887875
 30
0.0
 40
6.811345
210
0.0
220
0.0
230
1.0
100
AcDbArc
 50
165.268344
 51
194.731656
  0
LINE
  5
62
100
AcDbEntity
  8
0
390
0
  6
Continuous
 62
     7
100
AcDbLine
 10
-3.426179
 20
8.561623
 30
0.0
 11
-3.426179
 21
5.097477
 31
0.0
  0
LINE
  5
63
100
AcDbEntity
  8
0
390
0
  6
Continuous
 62
     7
100
AcDbLine
 10
-3.426179
 20
8.561623
 30
0.0
 11
0.432183
 21
8.619948
 31
0.0
  0
LINE
  5
64
100
AcDbEntity
  8
0
390
0
  6
Continuous
 62
     7
100
AcDbLine
 10
-3.426179
 20
-5.097477
 30
0.0
 11
-3.426179
 21
-8.561623
 31
0.0
  0
LINE
  5
65
100
AcDbEntity
  8
0
390
0
  6
Continuous
 62
     7
100
AcDbLine
 10
-3.426179
 20
-8.561623
 30
0.0
 11
0.432183
 21
-8.619948
 31
0.0
  0
LINE
  5
66
100
AcDbEntity
  8
0
390
0
  6
Continuous
 62
     7
100
AcDbLine
 10
-4.9
 20
3.798637
 30
0.0
 11
-4.9
 21
7.262783
 31
0.0
  0
ELLIPSE
  5
67
100
AcDbEntity
  8
0
390
0
  6
Continuous
 62
     7
100
AcDbEllipse
 10
-3.4
 20
7.262783
 30
0.0
 11
-1.5000000000000013
 21
0.0
 31
0.0
210
0.0
220
0.0
230
1.0
 40
0.866025
 41
4.7298422729046328
 42
6.2831853071795916
  0
ELLIPSE
  5
68
100
AcDbEntity
  8
0
390
0
  6
Continuous
 62
     7
100
AcDbEllipse
 10
-3.4
 20
-7.262782
 30
0.0
 11
1.5000000000000013
 21
0.0
 31
0.0
210
0.0
220
0.0
230
1.0
 40
0.866025
 41
3.1415926535897882
 42
4.6949356878647404
  0
LINE
  5
69
100
AcDbEntity
  8
0
390
0
  6
Continuous
 62
     7
100
AcDbLine
 10
-4.9
 20
-7.262782
 30
0.0
 11
-4.9
 21
-3.798637
 31
0.0
  0
LINE
  5
6A
100
AcDbEntity
  8
0
390
0
  6
Continuous
 62
     7
100
AcDbLine
 10
0.432183
 20
8.619948
 30
0.0
 11
0.547794
 21
8.796642
 31
0.0
  0
ELLIPSE
  5
6B
100
AcDbEntity
  8
0
390
0
  6
Continuous
 62
     7
100
AcDbEllipse
 10
0.521629
 20
10.232036
 30
0.0
 11
1.39233589762916
 21
-0.5580329274990636
 31
0.0
210
0.0
220
0.0
230
0.9999999999999999
 40
0.950007
 41
5.0937563272391824
 42
6.1219701699040785
  0
ELLIPSE
  5
6C
100
AcDbEntity
  8
0
390
0
  6
Continuous
 62
     7
100
AcDbEllipse
 10
0.521629
 20
-10.232035
 30
0.0
 11
-1.3923358976289932
 21
-0.55803292749948
 31
0.0
210
0.0
220
0.0
230
1.0
 40
0.950007
 41
3.3028077908653701
 42
4.3310216335300833
  0
LINE
  5
6D
100
AcDbEntity
  8
0
390
0
  6
Continuous
 62
     7
100
AcDbLine
 10
0.547794
 20
-8.796642
 30
0.0
 11
0.432183
 21
-8.619948
 31
0.0
  0
LINE
  5
6E
100
AcDbEntity
  8
0
390
0
  6
Continuous
 62
     7
100
AcDbLine
 10
1.810814
 20
-9.468917
 30
0.0
 11
1.834435
 21
-9.564751
 31
0.0
  0
LINE
  5
6F
100
AcDbEntity
  8
0
390
0
  6
Continuous
 62
     7
100
AcDbLine
 10
1.834435
 20
9.564751
 30
0.0
 11
1.810814
 21
9.468917
 31
0.0
  0
LINE
  5
70
100
AcDbEntity
  8
0
390
0
  6
Continuous
 62
     7
100
AcDbLine
 10
-3.426148
 20
8.811954
 30
0.0
 11
-3.426179
 21
8.561623
 31
0.0
  0
LINE
  5
71
100
AcDbEntity
  8
0
390
0
  6
Continuous
 62
     7
100
AcDbLine
 10
0.547794
 20
8.796642
 30
0.0
 11
0.602742
 21
8.882194
 31
0.0
  0
LINE
  5
72
100
AcDbEntity
  8
0
390
0
  6
Continuous
 62
     7
100
AcDbLine
 10
0.602742
 20
-8.882194
 30
0.0
 11
0.547794
 21
-8.796642
 31
0.0
  0
LINE
  5
73
100
AcDbEntity
  8
0
390
0
  6
Continuous
 62
     7
100
AcDbLine
 10
-3.426179
 20
-8.561623
 30
0.0
 11
-3.426148
 21
-8.811953
 31
0.0
  0
LINE
  5
74
100
AcDbEntity
  8
0
390
0
  6
Continuous
 62
     7
100
AcDbLine
 10
-4.9
 20
7.312027
 30
0.0
 11
-4.9
 21
7.311047
 31
0.0
  0
LINE
  5
75
100
AcDbEntity
  8
0
390
0
  6
Continuous
 62
     7
100
AcDbLine
 10
-4.9
 20
7.262783
 30
0.0
 11
-4.9
 21
7.312027
 31
0.0
  0
LINE
  5
76
100
AcDbEntity
  8
0
390
0
  6
Continuous
 62
     7
100
AcDbLine
 10
-4.9
 20
-7.312181
 30
0.0
 11
-4.9
 21
-7.311047
 31
0.0
  0
LINE
  5
77
100
AcDbEntity
  8
0
390
0
  6
Continuous
 62
     7
100
AcDbLine
 10
-4.9
 20
-7.311047
 30
0.0
 11
-4.9
 21
-7.262782
 31
0.0
  0
LINE
  5
78
100
AcDbEntity
  8
0
390
0
  6
Continuous
 62
     7
100
AcDbLine
 10
4.9
 20
10.344334
 30
0.0
 11
3.013801
 21
10.245483
 31
0.0
  0
LINE
  5
79
100
AcDbEntity
  8
0
390
0
  6
Continuous
 62
     7
100
AcDbLine
 10
3.013801
 20
-10.245482
 30
0.0
 11
4.9
 21
-10.344334
 31
0.0
  0
ARC
  5
7A
100
AcDbEntity
  8
0
390
0
  6
Continuous
 62
     7
100
AcDbCircle
 10
3.092274
 20
-8.747536
 30
0.0
 40
1.5
210
0.0
220
0.0
230
1.0
100
AcDbArc
 50
213.011666
 51
267.0
  0
ARC
  5
7B
100
AcDbEntity
  8
0
390
0
  6
Continuous
 62
     7
100
AcDbCircle
 10
3.092274
 20
8.747537
 30
0.0
 40
1.5
210
0.0
220
0.0
230
1.0
100
AcDbArc
 50
93.0
 51
146.988334
  0
LINE
  5
7C
100
AcDbEntity
  8
0
390
0
  6
Continuous
 62
     7
100
AcDbLine
 10
0.602742
 20
8.882194
 30
0.0
 11
-3.426148
 21
8.811954
 31
0.0
  0
LINE
  5
7D
100
AcDbEntity
  8
0
390
0
  6
Continuous
 62
     7
100
AcDbLine
 10
-3.426148
 20
8.811954
 30
0.0
 11
-3.450366
 21
8.811531
 31
0.0
  0
LINE
  5
7E
100
AcDbEntity
  8
0
390
0
  6
Continuous
 62
     7
100
AcDbLine
 10
-3.450366
 20
-8.811531
 30
0.0
 11
-3.426148
 21
-8.811953
 31
0.0
  0
LINE
  5
7F
100
AcDbEntity
  8
0
390
0
  6
Continuous
 62
     7
100
AcDbLine
 10
-3.426148
 20
-8.811953
 30
0.0
 11
0.602742
 21
-8.882194
 31
0.0
  0
ARC
  5
80
100
AcDbEntity
  8
0
390
0
  6
Continuous
 62
     7
100
AcDbCircle
 10
-3.4
 20
7.312182
 30
0.0
 40
1.5
210
0.0
220
0.0
230
1.0
100
AcDbArc
 50
90.998804
 51
180.0
  0
ARC
  5
81
100
AcDbEntity
  8
0
390
0
  6
Continuous
 62
     7
100
AcDbCircle
 10
-3.4
 20
-7.312181
 30
0.0
 40
1.5
210
0.0
220
0.0
230
1.0
100
AcDbArc
 50
180.0
 51
269.001196
  0
ARC
  5
82
100
AcDbEntity
  8
0
390
0
  6
Continuous
 62
     7
100
AcDbCircle
 10
0.576595
 20
-10.381966
 30
0.0
 40
1.5
210
0.0
220
0.0
230
1.0
100
AcDbArc
 50
33.011666
 51
89.001196
  0
ARC
  5
83
100
AcDbEntity
  8
0
390
0
  6
Continuous
 62
     7
100
AcDbCircle
 10
0.576595
 20
10.381966
 30
0.0
 40
1.5
210
0.0
220
0.0
230
1.0
100
AcDbArc
 50
270.998804
 51
326.988334
  0
CIRCLE
  5
84
100
AcDbEntity
  8
0
390
0
  6
Continuous
 62
     7
100
AcDbCircle
 10
65.242152
 20
0.0
 30
0.0
 40
8.844334
210
0.0
220
0.0
230
1.0
  0
CIRCLE
  5
85
100
AcDbEntity
  8
0
390
0
  6
Continuous
 62
     7
100
AcDbCircle
 10
65.242152
 20
0.0
 30
0.0
 40
10.344334
210
0.0
220
0.0
230
0.9999999999999999
  0
ARC
  5
86
100
AcDbEntity
  8
0
390
0
  6
Continuous
 62
     7
100
AcDbCircle
 10
65.242152
 20
0.0
 30
0.0
 40
8.75
210
0.0
220
0.0
230
1.0
100
AcDbArc
 50
155.575024
 51
204.424976
  0
ARC
  5
87
100
AcDbEntity
  8
0
390
0
  6
Continuous
 62
     7
100
AcDbCircle
 10
65.242152
 20
0.0
 30
0.0
 40
8.75
210
0.0
220
0.0
230
1.0
100
AcDbArc
 50
204.424976
 51
215.575024
  0
ARC
  5
88
100
AcDbEntity
  8
0
390
0
  6
Continuous
 62
     7
100
AcDbCircle
 10
65.242152
 20
0.0
 30
0.0
 40
8.75
210
0.0
220
0.0
230
1.0
100
AcDbArc
 50
215.575024
 51
264.424976
  0
ARC
  5
89
100
AcDbEntity
  8
0
390
0
  6
Continuous
 62
     7
100
AcDbCircle
 10
65.242152
 20
0.0
 30
0.0
 40
8.75
210
0.0
220
0.0
230
1.0
100
AcDbArc
 50
264.424976
 51
275.575024
  0
ARC
  5
8A
100
AcDbEntity
  8
0
390
0
  6
Continuous
 62
     7
100
AcDbCircle
 10
65.242152
 20
0.0
 30
0.0
 40
8.75
210
0.0
220
0.0
230
1.0
100
AcDbArc
 50
275.575024
 51
324.424976
  0
ARC
  5
8B
100
AcDbEntity
  8
0
390
0
  6
Continuous
 62
     7
100
AcDbCircle
 10
65.242152
 20
0.0
 30
0.0
 40
8.75
210
0.0
220
0.0
230
1.0
100
AcDbArc
 50
324.424976
 51
335.575024
  0
ARC
  5
8C
100
AcDbEntity
  8
0
390
0
  6
Continuous
 62
     7
100
AcDbCircle
 10
65.242152
 20
0.0
 30
0.0
 40
8.75
210
0.0
220
0.0
230
1.0
100
AcDbArc
 50
335.575024
 51
24.424976
  0
ARC
  5
8D
100
AcDbEntity
  8
0
390
0
  6
Continuous
 62
     7
100
AcDbCircle
 10
65.242152
 20
0.0
 30
0.0
 40
8.75
210
0.0
220
0.0
230
1.0
100
AcDbArc
 50
24.424976
 51
35.575024
  0
ARC
  5
8E
100
AcDbEntity
  8
0
390
0
  6
Continuous
 62
     7
100
AcDbCircle
 10
65.242152
 20
0.0
 30
0.0
 40
8.75
210
0.0
220
0.0
230
1.0
100
AcDbArc
 50
35.575024
 51
84.424976
  0
ARC
  5
8F
100
AcDbEntity
  8
0
390
0
  6
Continuous
 62
     7
100
AcDbCircle
 10
65.242152
 20
0.0
 30
0.0
 40
8.75
210
0.0
220
0.0
230
1.0
100
AcDbArc
 50
84.424976
 51
95.575024
  0
ARC
  5
90
100
AcDbEntity
  8
0
390
0
  6
Continuous
 62
     7
100
AcDbCircle
 10
65.242152
 20
0.0
 30
0.0
 40
8.75
210
0.0
220
0.0
230
1.0
100
AcDbArc
 50
95.575024
 51
144.424976
  0
ARC
  5
91
100
AcDbEntity
  8
0
390
0
  6
Continuous
 62
     7
100
AcDbCircle
 10
65.242152
 20
0.0
 30
0.0
 40
8.75
210
0.0
220
0.0
230
1.0
100
AcDbArc
 50
144.424976
 51
155.575024
  0
LINE
  5
92
100
AcDbEntity
  8
0
390
0
  6
Continuous
 62
     7
100
AcDbLine
 10
58.769642
 20
-3.491516
 30
0.0
 11
58.767878
 21
-3.449293
 31
0.0
  0
LINE
  5
93
100
AcDbEntity
  8
0
390
0
  6
Continuous
 62
     7
100
AcDbLine
 10
57.275247
 20
-3.618137
 30
0.0
 11
58.769642
 21
-3.491516
 31
0.0
  0
ELLIPSE
  5
94
100
AcDbEntity
  8
0
390
0
  6
Continuous
 62
     7
100
AcDbEllipse
 10
59.268411
 20
-3.448941
 30
0.0
 11
-1.7324025851881697
 21
-1.0002030989031963
 31
0.0
210
0.0
220
0.0
230
1.0
 40
0.999797
 41
5.7596744625918594
 42
5.8441934464037715
  0
LINE
  5
95
100
AcDbEntity
  8
0
390
0
  6
Continuous
 62
     7
100
AcDbLine
 10
57.268106
 20
-3.449293
 30
0.0
 11
58.767878
 21
-3.449293
 31
0.0
  0
LINE
  5
96
100
AcDbEntity
  8
0
390
0
  6
Continuous
 62
     7
100
AcDbLine
 10
58.767878
 20
3.449293
 30
0.0
 11
58.769642
 21
3.491516
 31
0.0
  0
LINE
  5
97
100
AcDbEntity
  8
0
390
0
  6
Continuous
 62
     7
100
AcDbLine
 10
57.268106
 20
3.449293
 30
0.0
 11
58.767878
 21
3.449293
 31
0.0
  0
ELLIPSE
  5
98
100
AcDbEntity
  8
0
390
0
  6
Continuous
 62
     7
100
AcDbEllipse
 10
59.268411
 20
3.448941
 30
0.0
 11
-1.7324025851881697
 21
1.0002030989031963
 31
0.0
210
0.0
220
0.0
230
1.0
 40
0.999797
 41
0.4389918607758119
 42
0.5235108445877252
  0
LINE
  5
99
100
AcDbEntity
  8
0
390
0
  6
Continuous
 62
     7
100
AcDbLine
 10
57.275247
 20
3.618137
 30
0.0
 11
58.769642
 21
3.491516
 31
0.0
  0
LINE
  5
9A
100
AcDbEntity
  8
0
390
0
  6
Continuous
 62
     7
100
AcDbLine
 10
58.982156
 20
3.8596
 30
0.0
 11
59.01784
 21
3.88224
 31
0.0
  0
LINE
  5
9B
100
AcDbEntity
  8
0
390
0
  6
Continuous
 62
     7
100
AcDbLine
 10
58.125301
 20
5.090474
 30
0.0
 11
58.982156
 21
3.8596
 31
0.0
  0
ELLIPSE
  5
9C
100
AcDbEntity
  8
0
390
0
  6
Continuous
 62
     7
100
AcDbEllipse
 10
59.268411
 20
3.448941
 30
0.0
 11
-1.7324025851881697
 21
1.0002030989031963
 31
0.0
210
0.0
220
0.0
230
1.0
 40
0.999797
 41
5.7596744625918594
 42
5.8441934464037741
  0
LINE
  5
9D
100
AcDbEntity
  8
0
390
0
  6
Continuous
 62
     7
100
AcDbLine
 10
58.267954
 20
5.18108
 30
0.0
 11
59.01784
 21
3.88224
 31
0.0
  0
LINE
  5
9E
100
AcDbEntity
  8
0
390
0
  6
Continuous
 62
     7
100
AcDbLine
 10
58.769642
 20
3.491516
 30
0.0
 11
58.982156
 21
3.8596
 31
0.0
  0
LINE
  5
9F
100
AcDbEntity
  8
0
390
0
  6
Continuous
 62
     7
100
AcDbLine
 10
58.982156
 20
-3.8596
 30
0.0
 11
58.769642
 21
-3.491516
 31
0.0
  0
LINE
  5
A0
100
AcDbEntity
  8
0
390
0
  6
Continuous
 62
     7
100
AcDbLine
 10
58.125301
 20
-5.090474
 30
0.0
 11
58.982156
 21
-3.8596
 31
0.0
  0
LINE
  5
A1
100
AcDbEntity
  8
0
390
0
  6
Continuous
 62
     7
100
AcDbLine
 10
58.767878
 20
-3.449293
 30
0.0
 11
58.767878
 21
3.449293
 31
0.0
  0
LINE
  5
A2
100
AcDbEntity
  8
0
390
0
  6
Continuous
 62
     7
100
AcDbLine
 10
57.268106
 20
3.449293
 30
0.0
 11
57.268106
 21
-3.449293
 31
0.0
  0
LINE
  5
A3
100
AcDbEntity
  8
0
390
0
  6
Continuous
 62
     7
100
AcDbLine
 10
58.267954
 20
-5.18108
 30
0.0
 11
64.242304
 21
-8.630373
 31
0.0
  0
LINE
  5
A4
100
AcDbEntity
  8
0
390
0
  6
Continuous
 62
     7
100
AcDbLine
 10
58.267954
 20
-5.18108
 30
0.0
 11
59.01784
 21
-3.882239
 31
0.0
  0
LINE
  5
A5
100
AcDbEntity
  8
0
390
0
  6
Continuous
 62
     7
100
AcDbLine
 10
64.99219
 20
-7.331532
 30
0.0
 11
59.01784
 21
-3.882239
 31
0.0
  0
LINE
  5
A6
100
AcDbEntity
  8
0
390
0
  6
Continuous
 62
     7
100
AcDbLine
 10
64.99219
 20
-7.331532
 30
0.0
 11
64.242304
 21
-8.630373
 31
0.0
  0
LINE
  5
A7
100
AcDbEntity
  8
0
390
0
  6
Continuous
 62
     7
100
AcDbLine
 10
59.01784
 20
-3.882239
 30
0.0
 11
58.982156
 21
-3.8596
 31
0.0
  0
ELLIPSE
  5
A8
100
AcDbEntity
  8
0
390
0
  6
Continuous
 62
     7
100
AcDbEllipse
 10
59.268411
 20
-3.448941
 30
0.0
 11
-1.7324025851881697
 21
-1.0002030989031963
 31
0.0
210
0.0
220
0.0
230
1.0
 40
0.999797
 41
0.4389918607758146
 42
0.5235108445877261
  0
LINE
  5
A9
100
AcDbEntity
  8
0
390
0
  6
Continuous
 62
     7
100
AcDbLine
 10
59.01784
 20
3.88224
 30
0.0
 11
64.99219
 21
7.331533
 31
0.0
  0
LINE
  5
AA
100
AcDbEntity
  8
0
390
0
  6
Continuous
 62
     7
100
AcDbLine
 10
64.242304
 20
8.630373
 30
0.0
 11
58.267954
 21
5.18108
 31
0.0
  0
LINE
  5
AB
100
AcDbEntity
  8
0
390
0
  6
Continuous
 62
     7
100
AcDbLine
 10
64.242304
 20
8.630373
 30
0.0
 11
64.99219
 21
7.331533
 31
0.0
  0
ELLIPSE
  5
AC
100
AcDbEntity
  8
0
390
0
  6
Continuous
 62
     7
100
AcDbEllipse
 10
65.242152
 20
-6.897882
 30
0.0
 11
0.0
 21
-2.000406197806365
 31
0.0
210
0.0
220
0.0
230
1.0
 40
0.999797
 41
5.7596744625918621
 42
5.8441934464037635
  0
ELLIPSE
  5
AD
100
AcDbEntity
  8
0
390
0
  6
Continuous
 62
     7
100
AcDbEllipse
 10
65.242152
 20
6.897882
 30
0.0
 11
0.0
 21
2.000406197806365
 31
0.0
210
0.0
220
0.0
230
1.0
 40
0.999797
 41
0.4389918607758169
 42
0.5235108445877248
  0
LINE
  5
AE
100
AcDbEntity
  8
0
390
0
  6
Continuous
 62
     7
100
AcDbLine
 10
71.502148
 20
-3.8596
 30
0.0
 11
72.359003
 21
-5.090474
 31
0.0
  0
LINE
  5
AF
100
AcDbEntity
  8
0
390
0
  6
Continuous
 62
     7
100
AcDbLine
 10
71.714662
 20
-3.491516
 30
0.0
 11
71.502148
 21
-3.8596
 31
0.0
  0
LINE
  5
B0
100
AcDbEntity
  8
0
390
0
  6
Continuous
 62
     7
100
AcDbLine
 10
71.714662
 20
-3.491516
 30
0.0
 11
73.209058
 21
-3.618137
 31
0.0
  0
ELLIPSE
  5
B1
100
AcDbEntity
  8
0
390
0
  6
Continuous
 62
     7
100
AcDbEllipse
 10
71.215893
 20
-3.448941
 30
0.0
 11
1.7324025851881697
 21
-1.0002030989031963
 31
0.0
210
0.0
220
0.0
230
1.0
 40
0.999797
 41
0.4389918607758183
 42
0.5235108445877256
  0
LINE
  5
B2
100
AcDbEntity
  8
0
390
0
  6
Continuous
 62
     7
100
AcDbLine
 10
71.716426
 20
-3.449293
 30
0.0
 11
71.714662
 21
-3.491516
 31
0.0
  0
LINE
  5
B3
100
AcDbEntity
  8
0
390
0
  6
Continuous
 62
     7
100
AcDbLine
 10
71.716426
 20
-3.449293
 30
0.0
 11
73.216198
 21
-3.449293
 31
0.0
  0
LINE
  5
B4
100
AcDbEntity
  8
0
390
0
  6
Continuous
 62
     7
100
AcDbLine
 10
65.029639
 20
-7.351116
 30
0.0
 11
64.99219
 21
-7.331532
 31
0.0
  0
LINE
  5
B5
100
AcDbEntity
  8
0
390
0
  6
Continuous
 62
     7
100
AcDbLine
 10
65.029639
 20
-7.351116
 30
0.0
 11
64.392098
 21
-8.708611
 31
0.0
  0
LINE
  5
B6
100
AcDbEntity
  8
0
390
0
  6
Continuous
 62
     7
100
AcDbLine
 10
64.99219
 20
7.331533
 30
0.0
 11
65.029639
 21
7.351116
 31
0.0
  0
LINE
  5
B7
100
AcDbEntity
  8
0
390
0
  6
Continuous
 62
     7
100
AcDbLine
 10
64.392098
 20
8.708611
 30
0.0
 11
65.029639
 21
7.351116
 31
0.0
  0
LINE
  5
B8
100
AcDbEntity
  8
0
390
0
  6
Continuous
 62
     7
100
AcDbLine
 10
65.454666
 20
7.351116
 30
0.0
 11
65.492114
 21
7.331533
 31
0.0
  0
LINE
  5
B9
100
AcDbEntity
  8
0
390
0
  6
Continuous
 62
     7
100
AcDbLine
 10
66.092206
 20
8.708611
 30
0.0
 11
65.454666
 21
7.351116
 31
0.0
  0
ELLIPSE
  5
BA
100
AcDbEntity
  8
0
390
0
  6
Continuous
 62
     7
100
AcDbEllipse
 10
65.242152
 20
6.897882
 30
0.0
 11
0.0
 21
2.000406197806365
 31
0.0
210
0.0
220
0.0
230
1.0
 40
0.999797
 41
5.7596744625918612
 42
5.8441934464037697
  0
LINE
  5
BB
100
AcDbEntity
  8
0
390
0
  6
Continuous
 62
     7
100
AcDbLine
 10
66.242
 20
8.630373
 30
0.0
 11
65.492114
 21
7.331533
 31
0.0
  0
LINE
  5
BC
100
AcDbEntity
  8
0
390
0
  6
Continuous
 62
     7
100
AcDbLine
 10
72.21635
 20
5.18108
 30
0.0
 11
66.242
 21
8.630373
 31
0.0
  0
LINE
  5
BD
100
AcDbEntity
  8
0
390
0
  6
Continuous
 62
     7
100
AcDbLine
 10
71.466465
 20
3.88224
 30
0.0
 11
72.21635
 21
5.18108
 31
0.0
  0
LINE
  5
BE
100
AcDbEntity
  8
0
390
0
  6
Continuous
 62
     7
100
AcDbLine
 10
65.492114
 20
7.331533
 30
0.0
 11
71.466465
 21
3.88224
 31
0.0
  0
ELLIPSE
  5
BF
100
AcDbEntity
  8
0
390
0
  6
Continuous
 62
     7
100
AcDbEllipse
 10
65.242152
 20
-6.897882
 30
0.0
 11
0.0
 21
-2.000406197806365
 31
0.0
210
0.0
220
0.0
230
1.0
 40
0.999797
 41
0.4389918607758241
 42
0.5235108445877263
  0
LINE
  5
C0
100
AcDbEntity
  8
0
390
0
  6
Continuous
 62
     7
100
AcDbLine
 10
65.454666
 20
-7.351116
 30
0.0
 11
66.092206
 21
-8.708611
 31
0.0
  0
LINE
  5
C1
100
AcDbEntity
  8
0
390
0
  6
Continuous
 62
     7
100
AcDbLine
 10
65.492114
 20
-7.331532
 30
0.0
 11
65.454666
 21
-7.351116
 31
0.0
  0
LINE
  5
C2
100
AcDbEntity
  8
0
390
0
  6
Continuous
 62
     7
100
AcDbLine
 10
65.492114
 20
-7.331532
 30
0.0
 11
66.242
 21
-8.630373
 31
0.0
  0
LINE
  5
C3
100
AcDbEntity
  8
0
390
0
  6
Continuous
 62
     7
100
AcDbLine
 10
65.454666
 20
-7.351116
 30
0.0
 11
65.029639
 21
-7.351116
 31
0.0
  0
LINE
  5
C4
100
AcDbEntity
  8
0
390
0
  6
Continuous
 62
     7
100
AcDbLine
 10
66.242
 20
-8.630373
 30
0.0
 11
72.21635
 21
-5.18108
 31
0.0
  0
LINE
  5
C5
100
AcDbEntity
  8
0
390
0
  6
Continuous
 62
     7
100
AcDbLine
 10
71.466465
 20
-3.882239
 30
0.0
 11
65.492114
 21
-7.331532
 31
0.0
  0
LINE
  5
C6
100
AcDbEntity
  8
0
390
0
  6
Continuous
 62
     7
100
AcDbLine
 10
71.466465
 20
-3.882239
 30
0.0
 11
72.21635
 21
-5.18108
 31
0.0
  0
LINE
  5
C7
100
AcDbEntity
  8
0
390
0
  6
Continuous
 62
     7
100
AcDbLine
 10
65.029639
 20
7.351116
 30
0.0
 11
65.454666
 21
7.351116
 31
0.0
  0
ELLIPSE
  5
C8
100
AcDbEntity
  8
0
390
0
  6
Continuous
 62
     7
100
AcDbEllipse
 10
71.215893
 20
-3.448941
 30
0.0
 11
1.7324025851881697
 21
-1.0002030989031963
 31
0.0
210
0.0
220
0.0
230
1.0
 40
0.999797
 41
5.7596744625918612
 42
5.8441934464037688
  0
ELLIPSE
  5
C9
100
AcDbEntity
  8
0
390
0
  6
Continuous
 62
     7
100
AcDbEllipse
 10
71.215893
 20
3.448941
 30
0.0
 11
1.7324025851881697
 21
1.0002030989031963
 31
0.0
210
0.0
220
0.0
230
1.0
 40
0.999797
 41
0.4389918607758134
 42
0.5235108445877238
  0
LINE
  5
CA
100
AcDbEntity
  8
0
390
0
  6
Continuous
 62
     7
100
AcDbLine
 10
71.714662
 20
3.491516
 30
0.0
 11
73.209058
 21
3.618137
 31
0.0
  0
LINE
  5
CB
100
AcDbEntity
  8
0
390
0
  6
Continuous
 62
     7
100
AcDbLine
 10
71.502148
 20
3.8596
 30
0.0
 11
71.714662
 21
3.491516
 31
0.0
  0
LINE
  5
CC
100
AcDbEntity
  8
0
390
0
  6
Continuous
 62
     7
100
AcDbLine
 10
71.502148
 20
3.8596
 30
0.0
 11
72.359003
 21
5.090474
 31
0.0
  0
ELLIPSE
  5
CD
100
AcDbEntity
  8
0
390
0
  6
Continuous
 62
     7
100
AcDbEllipse
 10
71.215893
 20
3.448941
 30
0.0
 11
1.7324025851881697
 21
1.0002030989031963
 31
0.0
210
0.0
220
0.0
230
1.0
 40
0.999797
 41
5.7596744625918612
 42
5.8441934464037715
  0
LINE
  5
CE
100
AcDbEntity
  8
0
390
0
  6
Continuous
 62
     7
100
AcDbLine
 10
71.716426
 20
3.449293
 30
0.0
 11
73.216198
 21
3.449293
 31
0.0
  0
LINE
  5
CF
100
AcDbEntity
  8
0
390
0
  6
Continuous
 62
     7
100
AcDbLine
 10
71.714662
 20
3.491516
 30
0.0
 11
71.716426
 21
3.449293
 31
0.0
  0
LINE
  5
D0
100
AcDbEntity
  8
0
390
0
  6
Continuous
 62
     7
100
AcDbLine
 10
71.502148
 20
-3.8596
 30
0.0
 11
71.466465
 21
-3.882239
 31
0.0
  0
LINE
  5
D1
100
AcDbEntity
  8
0
390
0
  6
Continuous
 62
     7
100
AcDbLine
 10
73.216198
 20
-3.449293
 30
0.0
 11
73.216198
 21
3.449293
 31
0.0
  0
LINE
  5
D2
100
AcDbEntity
  8
0
390
0
  6
Continuous
 62
     7
100
AcDbLine
 10
71.716426
 20
3.449293
 30
0.0
 11
71.716426
 21
-3.449293
 31
0.0
  0
LINE
  5
D3
100
AcDbEntity
  8
0
390
0
  6
Continuous
 62
     7
100
AcDbLine
 10
71.466465
 20
3.88224
 30
0.0
 11
71.502148
 21
3.8596
 31
0.0
  0
LINE
  5
D4
100
AcDbEntity
  8
0
390
0
  6
Continuous
 62
     7
100
AcDbLine
 10
59.105572
 20
3.831588
 30
0.0
 11
59.01784
 21
3.88224
 31
0.0
  0
ELLIPSE
  5
D5
100
AcDbEntity
  8
0
390
0
  6
Continuous
 62
     7
100
AcDbEllipse
 10
59.355686
 20
3.398553
 30
0.0
 11
-0.4331006462970355
 21
0.2500507747257852
 31
0.0
210
0.0
220
0.0
230
1.0
 40
0.999797
 41
5.7596744625918612
 42
6.8066961517673121
  0
LINE
  5
D6
100
AcDbEntity
  8
0
390
0
  6
Continuous
 62
     7
100
AcDbLine
 10
58.767878
 20
3.449293
 30
0.0
 11
58.85561
 21
3.398641
 31
0.0
  0
LINE
  5
D7
100
AcDbEntity
  8
0
390
0
  6
Continuous
 62
     7
100
AcDbLine
 10
64.99219
 20
-7.230228
 30
0.0
 11
64.99219
 21
-7.331532
 31
0.0
  0
ELLIPSE
  5
D8
100
AcDbEntity
  8
0
390
0
  6
Continuous
 62
     7
100
AcDbEllipse
 10
65.242152
 20
-6.797105
 30
0.0
 11
0.0
 21
-0.5001015494515981
 31
0.0
210
0.0
220
0.0
230
1.0
 40
0.999797
 41
5.7596744625918648
 42
6.8066961517673121
  0
LINE
  5
D9
100
AcDbEntity
  8
0
390
0
  6
Continuous
 62
     7
100
AcDbLine
 10
65.492114
 20
-7.331532
 30
0.0
 11
65.492114
 21
-7.230228
 31
0.0
  0
LINE
  5
DA
100
AcDbEntity
  8
0
390
0
  6
Continuous
 62
     7
100
AcDbLine
 10
58.85561
 20
-3.39864
 30
0.0
 11
58.767878
 21
-3.449293
 31
0.0
  0
ELLIPSE
  5
DB
100
AcDbEntity
  8
0
390
0
  6
Continuous
 62
     7
100
AcDbEllipse
 10
59.355686
 20
-3.398552
 30
0.0
 11
-0.4331006462970355
 21
-0.2500507747257852
 31
0.0
210
0.0
220
0.0
230
1.0
 40
0.999797
 41
5.7596744625918594
 42
6.8066961517673121
  0
LINE
  5
DC
100
AcDbEntity
  8
0
390
0
  6
Continuous
 62
     7
100
AcDbLine
 10
59.01784
 20
-3.882239
 30
0.0
 11
59.105572
 21
-3.831587
 31
0.0
  0
LINE
  5
DD
100
AcDbEntity
  8
0
390
0
  6
Continuous
 62
     7
100
AcDbLine
 10
71.628694
 20
3.398641
 30
0.0
 11
71.716426
 21
3.449293
 31
0.0
  0
ELLIPSE
  5
DE
100
AcDbEntity
  8
0
390
0
  6
Continuous
 62
     7
100
AcDbEllipse
 10
71.128618
 20
3.398553
 30
0.0
 11
0.4331006462970355
 21
0.2500507747257852
 31
0.0
210
0.0
220
0.0
230
1.0
 40
0.999797
 41
5.7596744625918612
 42
6.8066961517673112
  0
LINE
  5
DF
100
AcDbEntity
  8
0
390
0
  6
Continuous
 62
     7
100
AcDbLine
 10
71.466465
 20
3.88224
 30
0.0
 11
71.378732
 21
3.831588
 31
0.0
  0
LINE
  5
E0
100
AcDbEntity
  8
0
390
0
  6
Continuous
 62
     7
100
AcDbLine
 10
65.492114
 20
7.230228
 30
0.0
 11
65.492114
 21
7.331533
 31
0.0
  0
ELLIPSE
  5
E1
100
AcDbEntity
  8
0
390
0
  6
Continuous
 62
     7
100
AcDbEllipse
 10
65.242152
 20
6.797106
 30
0.0
 11
0.0
 21
0.5001015494515981
 31
0.0
210
0.0
220
0.0
230
1.0
 40
0.999797
 41
5.7596744625918612
 42
6.8066961517673148
  0
LINE
  5
E2
100
AcDbEntity
  8
0
390
0
  6
Continuous
 62
     7
100
AcDbLine
 10
64.99219
 20
7.331533
 30
0.0
 11
64.99219
 21
7.230228
 31
0.0
  0
LINE
  5
E3
100
AcDbEntity
  8
0
390
0
  6
Continuous
 62
     7
100
AcDbLine
 10
71.378732
 20
-3.831587
 30
0.0
 11
71.466465
 21
-3.882239
 31
0.0
  0
ELLIPSE
  5
E4
100
AcDbEntity
  8
0
390
0
  6
Continuous
 62
     7
100
AcDbEllipse
 10
71.128618
 20
-3.398552
 30
0.0
 11
0.4331006462970355
 21
-0.2500507747257852
 31
0.0
210
0.0
220
0.0
230
0.9999999999999999
 40
0.999797
 41
5.7596744625918594
 42
6.8066961517673121
  0
LINE
  5
E5
100
AcDbEntity
  8
0
390
0
  6
Continuous
 62
     7
100
AcDbLine
 10
71.716426
 20
-3.449293
 30
0.0
 11
71.628694
 21
-3.39864
 31
0.0
  0
LINE
  5
E6
100
AcDbEntity
  8
0
390
0
  6
Continuous
 62
     7
100
AcDbLine
 10
64.99219
 20
-7.230228
 30
0.0
 11
59.105572
 21
-3.831587
 31
0.0
  0
LINE
  5
E7
100
AcDbEntity
  8
0
390
0
  6
Continuous
 62
     7
100
AcDbLine
 10
59.105572
 20
3.831588
 30
0.0
 11
64.99219
 21
7.230228
 31
0.0
  0
LINE
  5
E8
100
AcDbEntity
  8
0
390
0
  6
Continuous
 62
     7
100
AcDbLine
 10
58.85561
 20
-3.39864
 30
0.0
 11
58.85561
 21
3.398641
 31
0.0
  0
LINE
  5
E9
100
AcDbEntity
  8
0
390
0
  6
Continuous
 62
     7
100
AcDbLine
 10
65.492114
 20
7.230228
 30
0.0
 11
71.378732
 21
3.831588
 31
0.0
  0
LINE
  5
EA
100
AcDbEntity
  8
0
390
0
  6
Continuous
 62
     7
100
AcDbLine
 10
71.378732
 20
-3.831587
 30
0.0
 11
65.492114
 21
-7.230228
 31
0.0
  0
LINE
  5
EB
100
AcDbEntity
  8
0
390
0
  6
Continuous
 62
     7
100
AcDbLine
 10
71.628694
 20
3.398641
 30
0.0
 11
71.628694
 21
-3.39864
 31
0.0
  0
LINE
  5
EC
100
AcDbEntity
  8
0
390
0
  6
Continuous
 62
     7
100
AcDbLine
 10
-59.053467
 20
3.798637
 30
0.0
 11
-65.053543
 21
7.262783
 31
0.0
  0
LINE
  5
ED
100
AcDbEntity
  8
0
390
0
  6
Continuous
 62
     7
100
AcDbLine
 10
-65.053543
 20
7.262783
 30
0.0
 11
-64.303658
 21
8.561623
 31
0.0
  0
LINE
  5
EE
100
AcDbEntity
  8
0
390
0
  6
Continuous
 62
     7
100
AcDbLine
 10
-64.303658
 20
8.561623
 30
0.0
 11
-58.303582
 21
5.097477
 31
0.0
  0
LINE
  5
EF
100
AcDbEntity
  8
0
390
0
  6
Continuous
 62
     7
100
AcDbLine
 10
-59.053467
 20
3.798637
 30
0.0
 11
-58.303582
 21
5.097477
 31
0.0
  0
LINE
  5
F0
100
AcDbEntity
  8
0
390
0
  6
Continuous
 62
     7
100
AcDbLine
 10
-58.860349
 20
3.464146
 30
0.0
 11
-59.053467
 21
3.798637
 31
0.0
  0
ARC
  5
F1
100
AcDbEntity
  8
0
390
0
  6
Continuous
 62
     7
100
AcDbCircle
 10
-59.262056
 20
3.455214
 30
0.0
 40
1.9015
210
0.0
220
0.0
230
1.0
100
AcDbArc
 50
0.269128
 51
59.730872
  0
LINE
  5
F2
100
AcDbEntity
  8
0
390
0
  6
Continuous
 62
     7
100
AcDbLine
 10
-58.860349
 20
3.464146
 30
0.0
 11
-57.360577
 21
3.464146
 31
0.0
  0
LINE
  5
F3
100
AcDbEntity
  8
0
390
0
  6
Continuous
 62
     7
100
AcDbLine
 10
-57.360577
 20
3.464146
 30
0.0
 11
-57.360577
 21
-3.464145
 31
0.0
  0
LINE
  5
F4
100
AcDbEntity
  8
0
390
0
  6
Continuous
 62
     7
100
AcDbLine
 10
-57.360577
 20
-3.464145
 30
0.0
 11
-58.860349
 21
-3.464145
 31
0.0
  0
LINE
  5
F5
100
AcDbEntity
  8
0
390
0
  6
Continuous
 62
     7
100
AcDbLine
 10
-58.860349
 20
-3.464145
 30
0.0
 11
-58.860349
 21
3.464146
 31
0.0
  0
LINE
  5
F6
100
AcDbEntity
  8
0
390
0
  6
Continuous
 62
     7
100
AcDbLine
 10
-65.439781
 20
7.262783
 30
0.0
 11
-71.439857
 21
3.798637
 31
0.0
  0
LINE
  5
F7
100
AcDbEntity
  8
0
390
0
  6
Continuous
 62
     7
100
AcDbLine
 10
-65.053543
 20
7.262783
 30
0.0
 11
-65.439781
 21
7.262783
 31
0.0
  0
LINE
  5
F8
100
AcDbEntity
  8
0
390
0
  6
Continuous
 62
     7
100
AcDbLine
 10
-59.053467
 20
-3.798637
 30
0.0
 11
-58.860349
 21
-3.464145
 31
0.0
  0
LINE
  5
F9
100
AcDbEntity
  8
0
390
0
  6
Continuous
 62
     7
100
AcDbLine
 10
-65.053543
 20
-7.262782
 30
0.0
 11
-59.053467
 21
-3.798637
 31
0.0
  0
LINE
  5
FA
100
AcDbEntity
  8
0
390
0
  6
Continuous
 62
     7
100
AcDbLine
 10
-65.439781
 20
-7.262782
 30
0.0
 11
-65.053543
 21
-7.262782
 31
0.0
  0
LINE
  5
FB
100
AcDbEntity
  8
0
390
0
  6
Continuous
 62
     7
100
AcDbLine
 10
-71.439857
 20
-3.798637
 30
0.0
 11
-65.439781
 21
-7.262782
 31
0.0
  0
LINE
  5
FC
100
AcDbEntity
  8
0
390
0
  6
Continuous
 62
     7
100
AcDbLine
 10
-71.632976
 20
-3.464145
 30
0.0
 11
-71.439857
 21
-3.798637
 31
0.0
  0
LINE
  5
FD
100
AcDbEntity
  8
0
390
0
  6
Continuous
 62
     7
100
AcDbLine
 10
-71.632976
 20
3.464146
 30
0.0
 11
-71.632976
 21
-3.464145
 31
0.0
  0
LINE
  5
FE
100
AcDbEntity
  8
0
390
0
  6
Continuous
 62
     7
100
AcDbLine
 10
-71.439857
 20
3.798637
 30
0.0
 11
-71.632976
 21
3.464146
 31
0.0
  0
LINE
  5
FF
100
AcDbEntity
  8
0
390
0
  6
Continuous
 62
     7
100
AcDbLine
 10
-71.439857
 20
3.798637
 30
0.0
 11
-72.189743
 21
5.097477
 31
0.0
  0
LINE
  5
100
100
AcDbEntity
  8
0
390
0
  6
Continuous
 62
     7
100
AcDbLine
 10
-72.189743
 20
5.097477
 30
0.0
 11
-66.189667
 21
8.561623
 31
0.0
  0
LINE
  5
101
100
AcDbEntity
  8
0
390
0
  6
Continuous
 62
     7
100
AcDbLine
 10
-65.439781
 20
7.262783
 30
0.0
 11
-66.189667
 21
8.561623
 31
0.0
  0
ARC
  5
102
100
AcDbEntity
  8
0
390
0
  6
Continuous
 62
     7
100
AcDbCircle
 10
-65.246662
 20
6.911044
 30
0.0
 40
1.900965
210
0.0
220
0.0
230
0.9999999999999999
100
AcDbArc
 50
60.25992
 51
119.740079
  0
ARC
  5
103
100
AcDbEntity
  8
0
390
0
  6
Continuous
 62
     7
100
AcDbCircle
 10
-59.262056
 20
-3.455214
 30
0.0
 40
1.9015
210
0.0
220
0.0
230
1.0
100
AcDbArc
 50
300.269128
 51
359.730872
  0
LINE
  5
104
100
AcDbEntity
  8
0
390
0
  6
Continuous
 62
     7
100
AcDbLine
 10
-58.303582
 20
-5.097477
 30
0.0
 11
-59.053467
 21
-3.798637
 31
0.0
  0
LINE
  5
105
100
AcDbEntity
  8
0
390
0
  6
Continuous
 62
     7
100
AcDbLine
 10
-71.632976
 20
3.464146
 30
0.0
 11
-73.132747
 21
3.464146
 31
0.0
  0
ARC
  5
106
100
AcDbEntity
  8
0
390
0
  6
Continuous
 62
     7
100
AcDbCircle
 10
-71.231268
 20
3.455214
 30
0.0
 40
1.9015
210
0.0
220
0.0
230
1.0
100
AcDbArc
 50
120.269128
 51
179.730872
  0
LINE
  5
107
100
AcDbEntity
  8
0
390
0
  6
Continuous
 62
     7
100
AcDbLine
 10
-58.303582
 20
-5.097477
 30
0.0
 11
-64.303658
 21
-8.561623
 31
0.0
  0
LINE
  5
108
100
AcDbEntity
  8
0
390
0
  6
Continuous
 62
     7
100
AcDbLine
 10
-64.303658
 20
-8.561623
 30
0.0
 11
-65.053543
 21
-7.262782
 31
0.0
  0
LINE
  5
109
100
AcDbEntity
  8
0
390
0
  6
Continuous
 62
     7
100
AcDbLine
 10
-73.132747
 20
-3.464145
 30
0.0
 11
-73.132747
 21
3.464146
 31
0.0
  0
LINE
  5
10A
100
AcDbEntity
  8
0
390
0
  6
Continuous
 62
     7
100
AcDbLine
 10
-73.132747
 20
-3.464145
 30
0.0
 11
-71.632976
 21
-3.464145
 31
0.0
  0
ARC
  5
10B
100
AcDbEntity
  8
0
390
0
  6
Continuous
 62
     7
100
AcDbCircle
 10
-65.246662
 20
-6.911044
 30
0.0
 40
1.900965
210
0.0
220
0.0
230
0.9999999999999999
100
AcDbArc
 50
240.25992
 51
299.740079
  0
LINE
  5
10C
100
AcDbEntity
  8
0
390
0
  6
Continuous
 62
     7
100
AcDbLine
 10
-66.189667
 20
-8.561623
 30
0.0
 11
-65.439781
 21
-7.262782
 31
0.0
  0
ARC
  5
10D
100
AcDbEntity
  8
0
390
0
  6
Continuous
 62
     7
100
AcDbCircle
 10
-71.231268
 20
-3.455214
 30
0.0
 40
1.9015
210
0.0
220
0.0
230
1.0
100
AcDbArc
 50
180.269128
 51
239.730872
  0
LINE
  5
10E
100
AcDbEntity
  8
0
390
0
  6
Continuous
 62
     7
100
AcDbLine
 10
-72.189743
 20
-5.097477
 30
0.0
 11
-71.439857
 21
-3.798637
 31
0.0
  0
LINE
  5
10F
100
AcDbEntity
  8
0
390
0
  6
Continuous
 62
     7
100
AcDbLine
 10
-66.189667
 20
-8.561623
 30
0.0
 11
-72.189743
 21
-5.097477
 31
0.0
  0
LINE
  5
110
100
AcDbEntity
  8
0
390
0
  6
Continuous
 62
     7
100
AcDbLine
 10
-64.269984
 20
8.619948
 30
0.0
 11
-64.673365
 21
8.796642
 31
0.0
  0
LINE
  5
111
100
AcDbEntity
  8
0
390
0
  6
Continuous
 62
     7
100
AcDbLine
 10
-64.303658
 20
8.561623
 30
0.0
 11
-64.269984
 21
8.619948
 31
0.0
  0
LINE
  5
112
100
AcDbEntity
  8
0
390
0
  6
Continuous
 62
     7
100
AcDbLine
 10
-66.189667
 20
8.561623
 30
0.0
 11
-66.223341
 21
8.619948
 31
0.0
  0
LINE
  5
113
100
AcDbEntity
  8
0
390
0
  6
Continuous
 62
     7
100
AcDbLine
 10
-65.819959
 20
8.796642
 30
0.0
 11
-66.223341
 21
8.619948
 31
0.0
  0
ARC
  5
114
100
AcDbEntity
  8
0
390
0
  6
Continuous
 62
     7
100
AcDbCircle
 10
-65.246662
 20
6.918583
 30
0.0
 40
1.963613
210
0.0
220
0.0
230
1.0
100
AcDbArc
 50
73.02464
 51
106.97536
  0
LINE
  5
115
100
AcDbEntity
  8
0
390
0
  6
Continuous
 62
     7
100
AcDbLine
 10
-58.269908
 20
-5.155802
 30
0.0
 11
-57.915195
 21
-4.894811
 31
0.0
  0
LINE
  5
116
100
AcDbEntity
  8
0
390
0
  6
Continuous
 62
     7
100
AcDbLine
 10
-58.303582
 20
-5.097477
 30
0.0
 11
-58.269908
 21
-5.155802
 31
0.0
  0
LINE
  5
117
100
AcDbEntity
  8
0
390
0
  6
Continuous
 62
     7
100
AcDbLine
 10
-57.360577
 20
-3.464145
 30
0.0
 11
-57.293229
 21
-3.464145
 31
0.0
  0
LINE
  5
118
100
AcDbEntity
  8
0
390
0
  6
Continuous
 62
     7
100
AcDbLine
 10
-57.341898
 20
-3.901831
 30
0.0
 11
-57.293229
 21
-3.464145
 31
0.0
  0
ARC
  5
119
100
AcDbEntity
  8
0
390
0
  6
Continuous
 62
     7
100
AcDbCircle
 10
-59.254993
 20
-3.459291
 30
0.0
 40
1.963613
210
0.0
220
0.0
230
1.0
100
AcDbArc
 50
313.02464
 51
346.97536
  0
LINE
  5
11A
100
AcDbEntity
  8
0
390
0
  6
Continuous
 62
     7
100
AcDbLine
 10
-64.303658
 20
-8.561623
 30
0.0
 11
-64.269984
 21
-8.619948
 31
0.0
  0
LINE
  5
11B
100
AcDbEntity
  8
0
390
0
  6
Continuous
 62
     7
100
AcDbLine
 10
-64.673365
 20
-8.796642
 30
0.0
 11
-64.269984
 21
-8.619948
 31
0.0
  0
ARC
  5
11C
100
AcDbEntity
  8
0
390
0
  6
Continuous
 62
     7
100
AcDbCircle
 10
-65.246662
 20
-6.918583
 30
0.0
 40
1.963613
210
0.0
220
0.0
230
1.0
100
AcDbArc
 50
253.02464
 51
286.97536
  0
LINE
  5
11D
100
AcDbEntity
  8
0
390
0
  6
Continuous
 62
     7
100
AcDbLine
 10
-66.223341
 20
-8.619948
 30
0.0
 11
-65.819959
 21
-8.796642
 31
0.0
  0
LINE
  5
11E
100
AcDbEntity
  8
0
390
0
  6
Continuous
 62
     7
100
AcDbLine
 10
-66.189667
 20
-8.561623
 30
0.0
 11
-66.223341
 21
-8.619948
 31
0.0
  0
LINE
  5
11F
100
AcDbEntity
  8
0
390
0
  6
Continuous
 62
     7
100
AcDbLine
 10
-72.223417
 20
5.155803
 30
0.0
 11
-72.578129
 21
4.894811
 31
0.0
  0
LINE
  5
120
100
AcDbEntity
  8
0
390
0
  6
Continuous
 62
     7
100
AcDbLine
 10
-72.189743
 20
5.097477
 30
0.0
 11
-72.223417
 21
5.155803
 31
0.0
  0
LINE
  5
121
100
AcDbEntity
  8
0
390
0
  6
Continuous
 62
     7
100
AcDbLine
 10
-73.132747
 20
3.464146
 30
0.0
 11
-73.200095
 21
3.464146
 31
0.0
  0
LINE
  5
122
100
AcDbEntity
  8
0
390
0
  6
Continuous
 62
     7
100
AcDbLine
 10
-73.151426
 20
3.901831
 30
0.0
 11
-73.200095
 21
3.464146
 31
0.0
  0
ARC
  5
123
100
AcDbEntity
  8
0
390
0
  6
Continuous
 62
     7
100
AcDbCircle
 10
-71.238331
 20
3.459292
 30
0.0
 40
1.963613
210
0.0
220
0.0
230
1.0
100
AcDbArc
 50
133.02464
 51
166.97536
  0
LINE
  5
124
100
AcDbEntity
  8
0
390
0
  6
Continuous
 62
     7
100
AcDbLine
 10
-57.293229
 20
3.464146
 30
0.0
 11
-57.341898
 21
3.901831
 31
0.0
  0
LINE
  5
125
100
AcDbEntity
  8
0
390
0
  6
Continuous
 62
     7
100
AcDbLine
 10
-57.360577
 20
3.464146
 30
0.0
 11
-57.293229
 21
3.464146
 31
0.0
  0
LINE
  5
126
100
AcDbEntity
  8
0
390
0
  6
Continuous
 62
     7
100
AcDbLine
 10
-58.303582
 20
5.097477
 30
0.0
 11
-58.269908
 21
5.155803
 31
0.0
  0
LINE
  5
127
100
AcDbEntity
  8
0
390
0
  6
Continuous
 62
     7
100
AcDbLine
 10
-57.915195
 20
4.894811
 30
0.0
 11
-58.269908
 21
5.155803
 31
0.0
  0
ARC
  5
128
100
AcDbEntity
  8
0
390
0
  6
Continuous
 62
     7
100
AcDbCircle
 10
-59.254993
 20
3.459292
 30
0.0
 40
1.963613
210
0.0
220
0.0
230
1.0
100
AcDbArc
 50
13.02464
 51
46.97536
  0
LINE
  5
129
100
AcDbEntity
  8
0
390
0
  6
Continuous
 62
     7
100
AcDbLine
 10
-73.200095
 20
-3.464145
 30
0.0
 11
-73.151426
 21
-3.901831
 31
0.0
  0
LINE
  5
12A
100
AcDbEntity
  8
0
390
0
  6
Continuous
 62
     7
100
AcDbLine
 10
-73.132747
 20
-3.464145
 30
0.0
 11
-73.200095
 21
-3.464145
 31
0.0
  0
LINE
  5
12B
100
AcDbEntity
  8
0
390
0
  6
Continuous
 62
     7
100
AcDbLine
 10
-72.189743
 20
-5.097477
 30
0.0
 11
-72.223417
 21
-5.155802
 31
0.0
  0
LINE
  5
12C
100
AcDbEntity
  8
0
390
0
  6
Continuous
 62
     7
100
AcDbLine
 10
-72.578129
 20
-4.894811
 30
0.0
 11
-72.223417
 21
-5.155802
 31
0.0
  0
ARC
  5
12D
100
AcDbEntity
  8
0
390
0
  6
Continuous
 62
     7
100
AcDbCircle
 10
-71.238331
 20
-3.459291
 30
0.0
 40
1.963613
210
0.0
220
0.0
230
1.0
100
AcDbArc
 50
193.02464
 51
226.97536
  0
LINE
  5
12E
100
AcDbEntity
  8
0
390
0
  6
Continuous
 62
     7
100
AcDbLine
 10
-58.269908
 20
5.155803
 30
0.0
 11
-64.269984
 21
8.619948
 31
0.0
  0
LINE
  5
12F
100
AcDbEntity
  8
0
390
0
  6
Continuous
 62
     7
100
AcDbLine
 10
-66.223341
 20
8.619948
 30
0.0
 11
-72.223417
 21
5.155803
 31
0.0
  0
LINE
  5
130
100
AcDbEntity
  8
0
390
0
  6
Continuous
 62
     7
100
AcDbLine
 10
-57.293229
 20
-3.464145
 30
0.0
 11
-57.293229
 21
3.464146
 31
0.0
  0
LINE
  5
131
100
AcDbEntity
  8
0
390
0
  6
Continuous
 62
     7
100
AcDbLine
 10
-64.269984
 20
-8.619948
 30
0.0
 11
-58.269908
 21
-5.155802
 31
0.0
  0
LINE
  5
132
100
AcDbEntity
  8
0
390
0
  6
Continuous
 62
     7
100
AcDbLine
 10
-73.200095
 20
3.464146
 30
0.0
 11
-73.200095
 21
-3.464145
 31
0.0
  0
LINE
  5
133
100
AcDbEntity
  8
0
390
0
  6
Continuous
 62
     7
100
AcDbLine
 10
-72.223417
 20
-5.155802
 30
0.0
 11
-66.223341
 21
-8.619948
 31
0.0
  0
ARC
  5
134
100
AcDbEntity
  8
0
390
0
  6
Continuous
 62
     7
100
AcDbCircle
 10
-70.649859
 20
-9.358611
 30
0.0
 40
19.904876
210
0.0
220
0.0
230
1.0
100
AcDbArc
 50
50.640634
 51
69.359366
  0
ELLIPSE
  5
135
100
AcDbEntity
  8
0
390
0
  6
Continuous
 62
     7
100
AcDbEllipse
 10
-57.520022
 20
6.454643
 30
0.0
 11
-0.7461430273325437
 21
-1.3012573084378865
 31
0.0
210
0.0
220
0.0
230
1.0
 40
0.167551
 41
5.1377858593070735
 42
6.2654817193766918
  0
ELLIPSE
  5
136
100
AcDbEntity
  8
0
390
0
  6
Continuous
 62
     7
100
AcDbEllipse
 10
-63.520098
 20
9.918788
 30
0.0
 11
0.7538503727128609
 21
1.2968074705061727
 31
0.0
210
0.0
220
0.0
230
0.9999999999999999
 40
0.167551
 41
3.1592962432930594
 42
4.2869921015694681
  0
ARC
  5
137
100
AcDbEntity
  8
0
390
0
  6
Continuous
 62
     7
100
AcDbCircle
 10
-76.055538
 20
0.0
 30
0.0
 40
19.907326
210
0.0
220
0.0
230
1.0
100
AcDbArc
 50
350.641796
 51
9.358204
  0
ELLIPSE
  5
138
100
AcDbEntity
  8
0
390
0
  6
Continuous
 62
     7
100
AcDbEllipse
 10
-55.793458
 20
-3.464145
 30
0.0
 11
-1.4999933996336505
 21
-0.0044498376923219
 31
0.0
210
0.0
220
0.0
230
1.0
 40
0.167551
 41
5.1377858593071108
 42
6.265481719376691
  0
ELLIPSE
  5
139
100
AcDbEntity
  8
0
390
0
  6
Continuous
 62
     7
100
AcDbEllipse
 10
-55.793458
 20
3.464146
 30
0.0
 11
-1.4999933996336505
 21
0.0044498376909896
 31
0.0
210
0.0
220
0.0
230
1.0
 40
0.167551
 41
0.0177035896489712
 42
1.1453994479262817
  0
ELLIPSE
  5
13A
100
AcDbEntity
  8
0
390
0
  6
Continuous
 62
     7
100
AcDbEllipse
 10
-72.973303
 20
6.454643
 30
0.0
 11
-0.7461430269195268
 21
1.301257308674697
 31
0.0
210
0.0
220
0.0
230
1.0
 40
0.167551
 41
3.1592962432922582
 42
4.2869921015694157
  0
ARC
  5
13B
100
AcDbEntity
  8
0
390
0
  6
Continuous
 62
     7
100
AcDbCircle
 10
-59.842224
 20
-9.360761
 30
0.0
 40
19.907326
210
0.0
220
0.0
230
1.0
100
AcDbArc
 50
110.641796
 51
129.358204
  0
ELLIPSE
  5
13C
100
AcDbEntity
  8
0
390
0
  6
Continuous
 62
     7
100
AcDbEllipse
 10
-66.973226
 20
9.918788
 30
0.0
 11
-0.7538503580730716
 21
1.2968074790164763
 31
0.0
210
0.0
220
0.0
230
1.0
 40
0.167551
 41
1.9961932075251367
 42
3.1238890675251008
  0
ELLIPSE
  5
13D
100
AcDbEntity
  8
0
390
0
  6
Continuous
 62
     7
100
AcDbEllipse
 10
-74.699867
 20
-3.464145
 30
0.0
 11
-1.4999933996322212
 21
0.0044498381683855
 31
0.0
210
0.0
220
0.0
230
1.0
 40
0.167551
 41
3.159296243292121
 42
4.2869921015694441
  0
ARC
  5
13E
100
AcDbEntity
  8
0
390
0
  6
Continuous
 62
     7
100
AcDbCircle
 10
-54.437787
 20
0.0
 30
0.0
 40
19.907326
210
0.0
220
0.0
230
1.0
100
AcDbArc
 50
170.641796
 51
189.358204
  0
ELLIPSE
  5
13F
100
AcDbEntity
  8
0
390
0
  6
Continuous
 62
     7
100
AcDbEllipse
 10
-74.699867
 20
3.464146
 30
0.0
 11
-1.4999933996824866
 21
-0.004449821230823
 31
0.0
210
0.0
220
0.0
230
0.9999999999999999
 40
0.167551
 41
1.9961932075255906
 42
3.1238890675255333
  0
ARC
  5
140
100
AcDbEntity
  8
0
390
0
  6
Continuous
 62
     7
100
AcDbCircle
 10
-70.649859
 20
9.358611
 30
0.0
 40
19.904876
210
0.0
220
0.0
230
1.0
100
AcDbArc
 50
290.640634
 51
309.359366
  0
ELLIPSE
  5
141
100
AcDbEntity
  8
0
390
0
  6
Continuous
 62
     7
100
AcDbEllipse
 10
-63.520098
 20
-9.918788
 30
0.0
 11
-0.7538503723010792
 21
1.2968074707455646
 31
0.0
210
0.0
220
0.0
230
0.9999999999999999
 40
0.167551
 41
5.137785859307094
 42
6.265481717666348
  0
ELLIPSE
  5
142
100
AcDbEntity
  8
0
390
0
  6
Continuous
 62
     7
100
AcDbEllipse
 10
-57.520022
 20
-6.454642
 30
0.0
 11
-0.7461430273337233
 21
1.3012573084372203
 31
0.0
210
0.0
220
0.0
230
1.0
 40
0.167551
 41
0.0177035896492629
 42
1.1453994479263123
  0
ARC
  5
143
100
AcDbEntity
  8
0
390
0
  6
Continuous
 62
     7
100
AcDbCircle
 10
-59.842224
 20
9.360761
 30
0.0
 40
19.907326
210
0.0
220
0.0
230
1.0
100
AcDbArc
 50
230.641796
 51
249.358204
  0
ELLIPSE
  5
144
100
AcDbEntity
  8
0
390
0
  6
Continuous
 62
     7
100
AcDbEllipse
 10
-72.973303
 20
-6.454642
 30
0.0
 11
-0.7461430412303016
 21
-1.3012573004688999
 31
0.0
210
0.0
220
0.0
230
1.0
 40
0.167551
 41
1.9961932074763524
 42
3.1238890657658702
  0
ELLIPSE
  5
145
100
AcDbEntity
  8
0
390
0
  6
Continuous
 62
     7
100
AcDbEllipse
 10
-66.973226
 20
-9.918788
 30
0.0
 11
0.7538503722999412
 21
1.2968074707462307
 31
0.0
210
0.0
220
0.0
230
1.0
 40
0.167551
 41
0.0177035896491319
 42
1.1453994479262954
  0
LINE
  5
146
100
AcDbEntity
  8
0
390
0
  6
Continuous
 62
     7
100
AcDbLine
 10
-66.860042
 20
9.268567
 30
0.0
 11
-66.179478
 21
9.468917
 31
0.0
  0
ELLIPSE
  5
147
100
AcDbEntity
  8
0
390
0
  6
Continuous
 62
     7
100
AcDbEllipse
 10
-66.254655
 20
10.232036
 30
0.0
 11
-0.4376903964824763
 21
1.4347219649907816
 31
0.0
210
0.0
220
0.0
230
1.0
 40
0.116156
 41
2.095815695459323
 42
3.1240295381239194
  0
LINE
  5
148
100
AcDbEntity
  8
0
390
0
  6
Continuous
 62
     7
100
AcDbLine
 10
-56.413157
 20
-3.237055
 30
0.0
 11
-56.579931
 21
-3.926616
 31
0.0
  0
ELLIPSE
  5
149
100
AcDbEntity
  8
0
390
0
  6
Continuous
 62
     7
100
AcDbEllipse
 10
-55.881463
 20
-4.24307
 30
0.0
 11
-1.4613508672907394
 21
0.3383099801492484
 31
0.0
210
0.0
220
0.0
230
1.0
 40
0.116156
 41
5.237408349049085
 42
6.2656221917136969
  0
LINE
  5
14A
100
AcDbEntity
  8
0
390
0
  6
Continuous
 62
     7
100
AcDbLine
 10
-74.080167
 20
3.237056
 30
0.0
 11
-73.913393
 21
3.926617
 31
0.0
  0
ELLIPSE
  5
14B
100
AcDbEntity
  8
0
390
0
  6
Continuous
 62
     7
100
AcDbEllipse
 10
-74.611862
 20
4.24307
 30
0.0
 11
-1.4613508672906839
 21
0.3383099801495815
 31
0.0
210
0.0
220
0.0
230
1.0
 40
0.116156
 41
2.0958156954592266
 42
3.1240295381240166
  0
LINE
  5
14C
100
AcDbEntity
  8
0
390
0
  6
Continuous
 62
     7
100
AcDbLine
 10
-58.026538
 20
6.031512
 30
0.0
 11
-57.512747
 21
5.542301
 31
0.0
  0
ELLIPSE
  5
14D
100
AcDbEntity
  8
0
390
0
  6
Continuous
 62
     7
100
AcDbEllipse
 10
-56.889456
 20
5.988966
 30
0.0
 11
-1.0236604708087627
 21
-1.0964119848413112
 31
0.0
210
0.0
220
0.0
230
1.0
 40
0.116156
 41
5.2374083490490229
 42
6.2656221917137334
  0
LINE
  5
14E
100
AcDbEntity
  8
0
390
0
  6
Continuous
 62
     7
100
AcDbLine
 10
-63.633282
 20
-9.268567
 30
0.0
 11
-64.313846
 21
-9.468917
 31
0.0
  0
ELLIPSE
  5
14F
100
AcDbEntity
  8
0
390
0
  6
Continuous
 62
     7
100
AcDbEllipse
 10
-64.238669
 20
-10.232035
 30
0.0
 11
-0.4376903964820322
 21
1.4347219649909204
 31
0.0
210
0.0
220
0.0
230
1.0
 40
0.116156
 41
5.237408349049046
 42
6.2656221917137662
  0
LINE
  5
150
100
AcDbEntity
  8
0
390
0
  6
Continuous
 62
     7
100
AcDbLine
 10
-66.179478
 20
-9.468917
 30
0.0
 11
-66.860042
 21
-9.268567
 31
0.0
  0
ELLIPSE
  5
151
100
AcDbEntity
  8
0
390
0
  6
Continuous
 62
     7
100
AcDbEllipse
 10
-66.254655
 20
-10.232035
 30
0.0
 11
0.4376903964817824
 21
1.4347219649910037
 31
0.0
210
0.0
220
0.0
230
0.9999999999999999
 40
0.116156
 41
0.0175631154658789
 42
1.0457769581306509
  0
ARC
  5
152
100
AcDbEntity
  8
0
390
0
  6
Continuous
 62
     7
100
AcDbCircle
 10
-65.246662
 20
-4.976592
 30
0.0
 40
4.588151
210
0.0
220
0.0
230
1.0
100
AcDbArc
 50
258.269429
 51
281.730571
  0
ARC
  5
153
100
AcDbEntity
  8
0
390
0
  6
Continuous
 62
     7
100
AcDbCircle
 10
-60.939542
 20
2.486717
 30
0.0
 40
4.591243
210
0.0
220
0.0
230
1.0
100
AcDbArc
 50
18.277441
 51
41.722559
  0
ELLIPSE
  5
154
100
AcDbEntity
  8
0
390
0
  6
Continuous
 62
     7
100
AcDbEllipse
 10
-55.881463
 20
4.24307
 30
0.0
 11
-1.4613508672906561
 21
-0.3383099801496092
 31
0.0
210
0.0
220
0.0
230
1.0
 40
0.116156
 41
0.0175631154658531
 42
1.0457769581305754
  0
ARC
  5
155
100
AcDbEntity
  8
0
390
0
  6
Continuous
 62
     7
100
AcDbCircle
 10
-60.936807
 20
-2.488296
 30
0.0
 40
4.588151
210
0.0
220
0.0
230
0.9999999999999999
100
AcDbArc
 50
318.269429
 51
341.730571
  0
ELLIPSE
  5
156
100
AcDbEntity
  8
0
390
0
  6
Continuous
 62
     7
100
AcDbEllipse
 10
-56.889456
 20
-5.988965
 30
0.0
 11
-1.0236604708088599
 21
1.0964119848411447
 31
0.0
210
0.0
220
0.0
230
1.0
 40
0.116156
 41
0.0175631154659255
 42
1.0457769581306706
  0
ELLIPSE
  5
157
100
AcDbEntity
  8
0
390
0
  6
Continuous
 62
     7
100
AcDbEllipse
 10
-73.603868
 20
-5.988965
 30
0.0
 11
-1.0236604708087627
 21
-1.0964119848413112
 31
0.0
210
0.0
220
0.0
230
1.0
 40
0.116156
 41
2.0958156954591534
 42
3.1240295381238483
  0
ARC
  5
158
100
AcDbEntity
  8
0
390
0
  6
Continuous
 62
     7
100
AcDbCircle
 10
-69.553782
 20
-2.486717
 30
0.0
 40
4.591243
210
0.0
220
0.0
230
1.0
100
AcDbArc
 50
198.277441
 51
221.722559
  0
ELLIPSE
  5
159
100
AcDbEntity
  8
0
390
0
  6
Continuous
 62
     7
100
AcDbEllipse
 10
-74.611862
 20
-4.24307
 30
0.0
 11
-1.4613508672906839
 21
-0.3383099801495815
 31
0.0
210
0.0
220
0.0
230
1.0
 40
0.116156
 41
3.1591557690557037
 42
4.1873696117203822
  0
ARC
  5
15A
100
AcDbEntity
  8
0
390
0
  6
Continuous
 62
     7
100
AcDbCircle
 10
-69.553782
 20
2.486717
 30
0.0
 40
4.591243
210
0.0
220
0.0
230
1.0
100
AcDbArc
 50
138.277441
 51
161.722559
  0
ELLIPSE
  5
15B
100
AcDbEntity
  8
0
390
0
  6
Continuous
 62
     7
100
AcDbEllipse
 10
-73.603868
 20
5.988966
 30
0.0
 11
-1.0236604708087627
 21
1.0964119848412834
 31
0.0
210
0.0
220
0.0
230
1.0
 40
0.116156
 41
3.1591557690557641
 42
4.1873696117203973
  0
ARC
  5
15C
100
AcDbEntity
  8
0
390
0
  6
Continuous
 62
     7
100
AcDbCircle
 10
-65.246662
 20
4.973434
 30
0.0
 40
4.591243
210
0.0
220
0.0
230
1.0
100
AcDbArc
 50
78.277441
 51
101.722559
  0
ELLIPSE
  5
15D
100
AcDbEntity
  8
0
390
0
  6
Continuous
 62
     7
100
AcDbEllipse
 10
-64.238669
 20
10.232036
 30
0.0
 11
0.4376903964810608
 21
1.434721964991198
 31
0.0
210
0.0
220
0.0
230
1.0
 40
0.116156
 41
3.1591557690557353
 42
4.1873696117206158
  0
LINE
  5
15E
100
AcDbEntity
  8
0
390
0
  6
Continuous
 62
     7
100
AcDbLine
 10
-72.466787
 20
-6.031512
 30
0.0
 11
-72.980577
 21
-5.542301
 31
0.0
  0
LINE
  5
15F
100
AcDbEntity
  8
0
390
0
  6
Continuous
 62
     7
100
AcDbLine
 10
-73.913393
 20
-3.926616
 30
0.0
 11
-74.080167
 21
-3.237055
 31
0.0
  0
LINE
  5
160
100
AcDbEntity
  8
0
390
0
  6
Continuous
 62
     7
100
AcDbLine
 10
-56.579931
 20
3.926617
 30
0.0
 11
-56.413157
 21
3.237056
 31
0.0
  0
LINE
  5
161
100
AcDbEntity
  8
0
390
0
  6
Continuous
 62
     7
100
AcDbLine
 10
-72.980577
 20
5.542301
 30
0.0
 11
-72.466787
 21
6.031512
 31
0.0
  0
LINE
  5
162
100
AcDbEntity
  8
0
390
0
  6
Continuous
 62
     7
100
AcDbLine
 10
-57.512747
 20
-5.542301
 30
0.0
 11
-58.026538
 21
-6.031512
 31
0.0
  0
LINE
  5
163
100
AcDbEntity
  8
0
390
0
  6
Continuous
 62
     7
100
AcDbLine
 10
-64.313846
 20
9.468917
 30
0.0
 11
-63.633282
 21
9.268567
 31
0.0
  0
LINE
  5
164
100
AcDbEntity
  8
0
390
0
  6
Continuous
 62
     7
100
AcDbLine
 10
-73.574866
 20
-5.968182
 30
0.0
 11
-74.579361
 21
-4.228345
 31
0.0
  0
LINE
  5
165
100
AcDbEntity
  8
0
390
0
  6
Continuous
 62
     7
100
AcDbLine
 10
-74.579361
 20
-4.228345
 30
0.0
 11
-73.913393
 21
-3.926616
 31
0.0
  0
LINE
  5
166
100
AcDbEntity
  8
0
390
0
  6
Continuous
 62
     7
100
AcDbLine
 10
-73.574866
 20
-5.968182
 30
0.0
 11
-72.980577
 21
-5.542301
 31
0.0
  0
ARC
  5
167
100
AcDbEntity
  8
0
390
0
  6
Continuous
 62
     7
100
AcDbCircle
 10
-65.246662
 20
0.0
 30
0.0
 40
10.245886
210
0.0
220
0.0
230
1.0
100
AcDbArc
 50
215.626252
 51
264.373748
  0
LINE
  5
168
100
AcDbEntity
  8
0
390
0
  6
Continuous
 62
     7
100
AcDbLine
 10
-66.179478
 20
-9.468917
 30
0.0
 11
-66.251157
 21
-10.196527
 31
0.0
  0
LINE
  5
169
100
AcDbEntity
  8
0
390
0
  6
Continuous
 62
     7
100
AcDbLine
 10
-73.574866
 20
5.968182
 30
0.0
 11
-72.980577
 21
5.542301
 31
0.0
  0
ARC
  5
16A
100
AcDbEntity
  8
0
390
0
  6
Continuous
 62
     7
100
AcDbCircle
 10
-65.246662
 20
0.0
 30
0.0
 40
10.245886
210
0.0
220
0.0
230
1.0
100
AcDbArc
 50
95.626252
 51
144.373748
  0
LINE
  5
16B
100
AcDbEntity
  8
0
390
0
  6
Continuous
 62
     7
100
AcDbLine
 10
-66.251157
 20
10.196527
 30
0.0
 11
-66.179478
 21
9.468917
 31
0.0
  0
ARC
  5
16C
100
AcDbEntity
  8
0
390
0
  6
Continuous
 62
     7
100
AcDbCircle
 10
-65.246662
 20
0.0
 30
0.0
 40
10.245886
210
0.0
220
0.0
230
1.0
100
AcDbArc
 50
155.626252
 51
204.373748
  0
LINE
  5
16D
100
AcDbEntity
  8
0
390
0
  6
Continuous
 62
     7
100
AcDbLine
 10
-74.579361
 20
4.228345
 30
0.0
 11
-73.913393
 21
3.926617
 31
0.0
  0
LINE
  5
16E
100
AcDbEntity
  8
0
390
0
  6
Continuous
 62
     7
100
AcDbLine
 10
-56.579931
 20
3.926617
 30
0.0
 11
-55.913963
 21
4.228345
 31
0.0
  0
ARC
  5
16F
100
AcDbEntity
  8
0
390
0
  6
Continuous
 62
     7
100
AcDbCircle
 10
-65.246662
 20
0.0
 30
0.0
 40
10.245886
210
0.0
220
0.0
230
0.9999999999999999
100
AcDbArc
 50
335.626252
 51
24.373748
  0
LINE
  5
170
100
AcDbEntity
  8
0
390
0
  6
Continuous
 62
     7
100
AcDbLine
 10
-56.579931
 20
-3.926616
 30
0.0
 11
-55.913963
 21
-4.228345
 31
0.0
  0
LINE
  5
171
100
AcDbEntity
  8
0
390
0
  6
Continuous
 62
     7
100
AcDbLine
 10
-57.512747
 20
-5.542301
 30
0.0
 11
-56.918458
 21
-5.968182
 31
0.0
  0
ARC
  5
172
100
AcDbEntity
  8
0
390
0
  6
Continuous
 62
     7
100
AcDbCircle
 10
-65.246662
 20
0.0
 30
0.0
 40
10.245886
210
0.0
220
0.0
230
1.0
100
AcDbArc
 50
275.626252
 51
324.373748
  0
LINE
  5
173
100
AcDbEntity
  8
0
390
0
  6
Continuous
 62
     7
100
AcDbLine
 10
-64.313846
 20
-9.468917
 30
0.0
 11
-64.242167
 21
-10.196527
 31
0.0
  0
LINE
  5
174
100
AcDbEntity
  8
0
390
0
  6
Continuous
 62
     7
100
AcDbLine
 10
-56.918458
 20
5.968182
 30
0.0
 11
-55.913963
 21
4.228345
 31
0.0
  0
LINE
  5
175
100
AcDbEntity
  8
0
390
0
  6
Continuous
 62
     7
100
AcDbLine
 10
-57.512747
 20
5.542301
 30
0.0
 11
-56.918458
 21
5.968182
 31
0.0
  0
LINE
  5
176
100
AcDbEntity
  8
0
390
0
  6
Continuous
 62
     7
100
AcDbLine
 10
-55.913963
 20
-4.228345
 30
0.0
 11
-56.918458
 21
-5.968182
 31
0.0
  0
LINE
  5
177
100
AcDbEntity
  8
0
390
0
  6
Continuous
 62
     7
100
AcDbLine
 10
-64.242167
 20
10.196527
 30
0.0
 11
-64.313846
 21
9.468917
 31
0.0
  0
ARC
  5
178
100
AcDbEntity
  8
0
390
0
  6
Continuous
 62
     7
100
AcDbCircle
 10
-65.246662
 20
0.0
 30
0.0
 40
10.245886
210
0.0
220
0.0
230
1.0
100
AcDbArc
 50
35.626252
 51
84.373748
  0
LINE
  5
179
100
AcDbEntity
  8
0
390
0
  6
Continuous
 62
     7
100
AcDbLine
 10
-64.242167
 20
-10.196527
 30
0.0
 11
-66.251157
 21
-10.196527
 31
0.0
  0
LINE
  5
17A
100
AcDbEntity
  8
0
390
0
  6
Continuous
 62
     7
100
AcDbLine
 10
-66.251157
 20
10.196527
 30
0.0
 11
-64.242167
 21
10.196527
 31
0.0
  0
LINE
  5
17B
100
AcDbEntity
  8
0
390
0
  6
Continuous
 62
     7
100
AcDbLine
 10
-74.579361
 20
4.228345
 30
0.0
 11
-73.574866
 21
5.968182
 31
0.0
  0
CIRCLE
  5
17C
100
AcDbEntity
  8
0
390
0
  6
Continuous
 62
     7
100
AcDbCircle
 10
-65.246662
 20
0.0
 30
0.0
 40
10.344334
210
0.0
220
0.0
230
1.0
  0
POINT
  5
17D
100
AcDbEntity
  8
0
390
0
 62
     7
100
AcDbPoint
 10
0.0
 20
0.0
 30
0.0
  0
ENDSEC
  0
SECTION
  2
OBJECTS
  0
DICTIONARY
  5
19
100
AcDbDictionary
280
     0
281
     1
  3
ACAD_GROUP
350
1A
  3
ACAD_MLINESTYLE
350
1B
  3
ACAD_LAYOUT
350
1E
  3
ACAD_PLOTSETTINGS
350
22
  3
ACAD_PLOTSTYLENAME
350
1F
  3
ACAD_WIPEOUT_VARS
350
23
  0
DICTIONARY
  5
1A
102
{ACAD_REACTORS
330
19
102
}
100
AcDbDictionary
280
     0
281
     1
  0
DICTIONARY
  5
1B
102
{ACAD_REACTORS
330
19
102
}
100
AcDbDictionary
280
     0
281
     1
  3
Standard
350
1C
  0
MLINESTYLE
  5
1C
102
{ACAD_REACTORS
330
1B
102
}
100
AcDbMlineStyle
  2
Standard
 70
     0
  3

 62
     0
 51
90.0
 52
90.0
 71
     2
 49
0.5
 62
   256
  6
ByLayer
 49
-0.5
 62
   256
  6
ByLayer
  0
ACDBDICTIONARYWDFLT
  5
1F
102
{ACAD_REACTORS
330
19
102
}
100
AcDbDictionary
281
     1
  3
Normal
350
1D
100
AcDbDictionaryWithDefault
340
1D
  0
ACDBPLACEHOLDER
  5
1D
102
{ACAD_REACTORS
330
1F
102
}
  0
LAYOUT
  5
20
102
{ACAD_REACTORS
330
1E
102
}
100
AcDbPlotSettings
  1

  2

  4

  6

 40
0.0
 41
0.0
 42
0.0
 43
0.0
 44
0.0
 45
0.0
 46
0.0
 47
0.0
 48
0.0
 49
0.0
140
0.0
141
0.0
142
1.0
143
1.0
 70
  1024
 72
     0
 73
     0
 74
     0
  7

 75
     0
147
1.0
148
0.0
149
0.0
100
AcDbLayout
  1
Model
 70
     0
 71
     1
 10
0.0
 20
0.0
 11
0.0
 21
0.0
 12
0.0
 22
0.0
 32
0.0
 14
0.0
 24
0.0
 34
0.0
 15
0.0
 25
0.0
 35
0.0
146
0.0
 13
0.0
 23
0.0
 33
0.0
 16
0.0
 26
0.0
 36
0.0
 17
0.0
 27
0.0
 37
0.0
 76
     0
330
A
331
0
345
0
346
0
  0
LAYOUT
  5
21
102
{ACAD_REACTORS
330
1E
102
}
100
AcDbPlotSettings
  1

  2

  4

  6

 40
0.0
 41
0.0
 42
0.0
 43
0.0
 44
0.0
 45
0.0
 46
0.0
 47
0.0
 48
0.0
 49
0.0
140
0.0
141
0.0
142
1.0
143
1.0
 70
     0
 72
     0
 73
     0
 74
     0
  7

 75
     0
147
1.0
148
0.0
149
0.0
100
AcDbLayout
  1
Layout1
 70
     0
 71
     2
 10
0.0
 20
0.0
 11
0.0
 21
0.0
 12
0.0
 22
0.0
 32
0.0
 14
0.0
 24
0.0
 34
0.0
 15
0.0
 25
0.0
 35
0.0
146
0.0
 13
0.0
 23
0.0
 33
0.0
 16
0.0
 26
0.0
 36
0.0
 17
0.0
 27
0.0
 37
0.0
 76
     0
330
B
331
0
345
0
346
0
  0
DICTIONARY
  5
1E
102
{ACAD_REACTORS
330
19
102
}
100
AcDbDictionary
280
     0
281
     1
  3
Layout1
350
21
  3
Model
350
20
  0
DICTIONARY
  5
22
102
{ACAD_REACTORS
330
19
102
}
100
AcDbDictionary
280
     0
281
     1
  0
WIPEOUTVARIABLES
  5
23
100
AcDbWipeoutVariables
 70
     1
  0
ENDSEC
  0
EOF
