  0
SECTION
  2
HEADER
  9
$ACADVER
  1
AC1015
  9
$ACADMAINTVER
 70
     6
  9
$DWGCODEPAGE
  3
DOS932
  9
$INSBASE
 10
0.0
 20
0.0
 30
0.0
  9
$EXTMIN
 10
-70.87976
 20
-8.094334
 30
0.0
  9
$EXTMAX
 10
220.24996
 20
182.803108
 30
9.906
  9
$LIMMIN
 10
-70.87976
 20
-8.094334
  9
$LIMMAX
 10
220.24996
 20
182.803108
  9
$ORTHOMODE
 70
     0
  9
$REGENMODE
 70
     1
  9
$FILLMODE
 70
     1
  9
$QTEXTMODE
 70
     0
  9
$MIRRTEXT
 70
     1
  9
$LTSCALE
 40
10.0
  9
$ATTMODE
 70
     1
  9
$TEXTSIZE
 40
0.2
  9
$TRACEWID
 40
0.05
  9
$TEXTSTYLE
  7
Standard
  9
$CLAYER
  8
0
  9
$CELTYPE
  6
Continuous
  9
$CECOLOR
 62
   256
  9
$CELTSCALE
 40
1.0
  9
$DISPSILH
 70
     0
  9
$DIMSCALE
 40
1.0
  9
$DIMASZ
 40
1.40208
  9
$DIMEXO
 40
1.40208
  9
$DIMDLI
 40
0.38
  9
$DIMRND
 40
0.0
  9
$DIMDLE
 40
0.0
  9
$DIMEXE
 40
1.05156
  9
$DIMTP
 40
0.0
  9
$DIMTM
 40
0.0
  9
$DIMTXT
 40
3.5052
  9
$DIMCEN
 40
0.09
  9
$DIMTSZ
 40
0.0
  9
$DIMTOL
 70
     0
  9
$DIMLIM
 70
     0
  9
$DIMTIH
 70
     0
  9
$DIMTOH
 70
     0
  9
$DIMSE1
 70
     0
  9
$DIMSE2
 70
     0
  9
$DIMTAD
 70
     1
  9
$DIMZIN
 70
     0
  9
$DIMBLK
  1

  9
$DIMASO
 70
     1
  9
$DIMSHO
 70
     1
  9
$DIMPOST
  1

  9
$DIMAPOST
  1

  9
$DIMALT
 70
     0
  9
$DIMALTD
 70
     2
  9
$DIMALTF
 40
25.4
  9
$DIMLFAC
 40
1.0
  9
$DIMTOFL
 70
     0
  9
$DIMTVP
 40
0.0
  9
$DIMTIX
 70
     0
  9
$DIMSOXD
 70
     0
  9
$DIMSAH
 70
     0
  9
$DIMBLK1
  1

  9
$DIMBLK2
  1

  9
$DIMSTYLE
  2
Standard
  9
$DIMCLRD
 70
     7
  9
$DIMCLRE
 70
     7
  9
$DIMCLRT
 70
     7
  9
$DIMTFAC
 40
0.5
  9
$DIMGAP
 40
1.7526
  9
$DIMJUST
 70
     0
  9
$DIMSD1
 70
     0
  9
$DIMSD2
 70
     0
  9
$DIMTOLJ
 70
     1
  9
$DIMTZIN
 70
     0
  9
$DIMALTZ
 70
     0
  9
$DIMALTTZ
 70
     0
  9
$DIMUPT
 70
     0
  9
$DIMDEC
 70
     2
  9
$DIMTDEC
 70
     4
  9
$DIMALTU
 70
     2
  9
$DIMALTTD
 70
     2
  9
$DIMTXSTY
  7
Standard
  9
$DIMAUNIT
 70
     0
  9
$DIMADEC
 70
     0
  9
$DIMALTRND
 40
0.0
  9
$DIMAZIN
 70
     0
  9
$DIMDSEP
 70
     0
  9
$DIMATFIT
 70
     3
  9
$DIMFRAC
 70
     0
  9
$DIMLDRBLK
  1

  9
$DIMLUNIT
 70
     2
  9
$DIMLWD
 70
     0
  9
$DIMLWE
 70
     0
  9
$DIMTMOVE
 70
     0
  9
$LUNITS
 70
     2
  9
$LUPREC
 70
     4
  9
$SKETCHINC
 40
0.1
  9
$FILLETRAD
 40
0.0
  9
$AUNITS
 70
     0
  9
$AUPREC
 70
     0
  9
$MENU
  1
acad
  9
$ELEVATION
 40
0.0
  9
$PELEVATION
 40
0.0
  9
$THICKNESS
 40
0.0
  9
$LIMCHECK
 70
     0
  9
$CHAMFERA
 40
0.0
  9
$CHAMFERB
 40
0.0
  9
$CHAMFERC
 40
0.0
  9
$CHAMFERD
 40
0.0
  9
$SKPOLY
 70
     0
  9
$TDCREATE
 40
2459788.551967592
  9
$TDUCREATE
 40
0.000000000
  9
$TDUPDATE
 40
2459788.176875000
  9
$TDUUPDATE
 40
0.000000000
  9
$TDINDWG
 40
0.0000000000
  9
$TDUSRTIMER
 40
0.0000000000
  9
$USRTIMER
 70
     1
  9
$ANGBASE
 50
0.0
  9
$ANGDIR
 70
     0
  9
$PDMODE
 70
     0
  9
$PDSIZE
 40
0.0
  9
$PLINEWID
 40
0.0
  9
$SPLFRAME
 70
     0
  9
$SPLINETYPE
 70
     6
  9
$SPLINESEGS
 70
     8
  9
$HANDSEED
  5
344
  9
$SURFTAB1
 70
     6
  9
$SURFTAB2
 70
     6
  9
$SURFTYPE
 70
     6
  9
$SURFU
 70
     6
  9
$SURFV
 70
     6
  9
$UCSBASE
  2

  9
$UCSNAME
  2

  9
$UCSORG
 10
0.0
 20
0.0
 30
0.0
  9
$UCSXDIR
 10
1.0
 20
0.0
 30
0.0
  9
$UCSYDIR
 10
0.0
 20
1.0
 30
0.0
  9
$UCSORTHOREF
  2

  9
$UCSORTHOVIEW
 70
     0
  9
$UCSORGTOP
 10
0.0
 20
0.0
 30
0.0
  9
$UCSORGBOTTOM
 10
0.0
 20
0.0
 30
0.0
  9
$UCSORGLEFT
 10
0.0
 20
0.0
 30
0.0
  9
$UCSORGRIGHT
 10
0.0
 20
0.0
 30
0.0
  9
$UCSORGFRONT
 10
0.0
 20
0.0
 30
0.0
  9
$UCSORGBACK
 10
0.0
 20
0.0
 30
0.0
  9
$PUCSBASE
  2

  9
$PUCSNAME
  2

  9
$PUCSORG
 10
0.0
 20
0.0
 30
0.0
  9
$PUCSXDIR
 10
1.0
 20
0.0
 30
0.0
  9
$PUCSYDIR
 10
0.0
 20
1.0
 30
0.0
  9
$PUCSORTHOREF
  2

  9
$PUCSORTHOVIEW
 70
     0
  9
$PUCSORGTOP
 10
0.0
 20
0.0
 30
0.0
  9
$PUCSORGBOTTOM
 10
0.0
 20
0.0
 30
0.0
  9
$PUCSORGLEFT
 10
0.0
 20
0.0
 30
0.0
  9
$PUCSORGRIGHT
 10
0.0
 20
0.0
 30
0.0
  9
$PUCSORGFRONT
 10
0.0
 20
0.0
 30
0.0
  9
$PUCSORGBACK
 10
0.0
 20
0.0
 30
0.0
  9
$USERI1
 70
     0
  9
$USERI2
 70
     0
  9
$USERI3
 70
     0
  9
$USERI4
 70
     0
  9
$USERI5
 70
     0
  9
$USERR1
 40
0.0
  9
$USERR2
 40
0.0
  9
$USERR3
 40
0.0
  9
$USERR4
 40
0.0
  9
$USERR5
 40
0.0
  9
$WORLDVIEW
 70
     1
  9
$SHADEDGE
 70
     3
  9
$SHADEDIF
 70
    70
  9
$TILEMODE
 70
     1
  9
$MAXACTVP
 70
    16
  9
$PINSBASE
 10
0.0
 20
0.0
 30
0.0
  9
$PLIMCHECK
 70
     0
  9
$PEXTMIN
 10
1.000000E+20
 20
1.000000E+20
 30
1.000000E+20
  9
$PEXTMAX
 10
-1.000000E+20
 20
-1.000000E+20
 30
-1.000000E+20
  9
$PLIMMIN
 10
0.0
 20
0.0
  9
$PLIMMAX
 10
12.0
 20
9.0
  9
$UNITMODE
 70
     0
  9
$VISRETAIN
 70
     0
  9
$PLINEGEN
 70
     1
  9
$PSLTSCALE
 70
     0
  9
$TREEDEPTH
 70
  3020
  9
$CMLSTYLE
  2
Standard
  9
$CMLJUST
 70
     0
  9
$CMLSCALE
 40
1.0
  9
$PROXYGRAPHICS
 70
     0
  9
$MEASUREMENT
 70
     0
  9
$CELWEIGHT
370
     0
  9
$ENDCAPS
280
     0
  9
$JOINSTYLE
280
     0
  9
$LWDISPLAY
290
     0
  9
$INSUNITS
 70
     0
  9
$HYPERLINKBASE
  1

  9
$STYLESHEET
  1

  9
$XEDIT
290
     1
  9
$CEPSNTYPE
380
     0
  9
$PSTYLEMODE
290
     1
  9
$FINGERPRINTGUID
  2

  9
$VERSIONGUID
  2

  9
$EXTNAMES
290
     1
  9
$PSVPSCALE
 40
0.0
  0
ENDSEC
  0
SECTION
  2
CLASSES
  0
CLASS
  1
LWPOLYLINE
  2
AcDbPolyline
  3
AutoCAD 2000
 90
        0
280
     0
281
     1
  0
CLASS
  1
IMAGE
  2
AcDbRasterImage
  3
ISM
 90
      127
280
     0
281
     1
  0
CLASS
  1
OLE2FRAME
  2
AcDbOle2Frame
  3
AutoCAD 2000
 90
        0
280
     0
281
     1
  0
CLASS
  1
HATCH
  2
AcDbHatch
  3
AutoCAD 2000
 90
        0
280
     0
281
     1
  0
CLASS
  1
DICTIONARYVAR
  2
AcDbDictionaryVar
  3
AutoCAD 2000
 90
        0
280
     0
281
     0
  0
CLASS
  1
RASTERVARIABLES
  2
AcDbRasterVariables
  3
ISM
 90
        0
280
     0
281
     0
  0
CLASS
  1
IMAGEDEF
  2
AcDbRasterImageDef
  3
ISM
 90
        0
280
     0
281
     0
  0
CLASS
  1
IMAGEDEF_REACTOR
  2
AcDbRasterImageDefReactor
  3
ISM
 90
        1
280
     0
281
     0
  0
CLASS
  1
IDBUFFER
  2
AcDbIdBuffer
  3
AutoCAD 2000
 90
        0
280
     0
281
     0
  0
CLASS
  1
SPATIAL_FILTER
  2
AcDbSpatialFilter
  3
AutoCAD 2000
 90
        0
280
     0
281
     0
  0
CLASS
  1
XRECORD
  2
AcDbXrecord
  3
AutoCAD 2000
 90
        0
280
     0
281
     0
  0
CLASS
  1
SORTENTSTABLE
  2
AcDbSortentsTable
  3
AutoCAD 2000
 90
        0
280
     0
281
     0
  0
CLASS
  1
LAYER_INDEX
  2
AcDbLayerIndex
  3
AutoCAD 2000
 90
        0
280
     0
281
     0
  0
CLASS
  1
SPATIAL_INDEX
  2
AcDbSpatialIndex
  3
AutoCAD 2000
 90
        0
280
     0
281
     0
  0
CLASS
  1
OBJECT_PTR
  2
CAseDLPNTableRecord
  3
"ASE-LPNTableRecord"
 90
        1
280
     0
281
     0
  0
CLASS
  1
LAYOUT
  2
AcDbLayout
  3
AutoCAD 2000
 90
        0
280
     0
281
     0
  0
CLASS
  1
PLOTSETTINGS
  2
AcDbPlotSettings
  3
AutoCAD 2000
 90
        0
280
     0
281
     0
  0
CLASS
  1
ACDBDICTIONARYWDFLT
  2
AcDbDictionaryWithDefault
  3
AutoCAD 2000
 90
        0
280
     0
281
     0
  0
CLASS
  1
ACDBPLACEHOLDER
  2
AcDbPlaceHolder
  3
AutoCAD 2000
 90
        0
280
     0
281
     0
  0
CLASS
  1
VBA_PROJECT
  2
AcDbVbaProject
  3
acadvba
 90
        0
280
     0
281
     0
  0
CLASS
  1
WIPEOUT
  2
AcDbWipeout
  3
WipeOut|AutoCAD Express Tool|expresstools@autodesk.com
 90
      127
280
     0
281
     1
  0
CLASS
  1
WIPEOUTVARIABLES
  2
AcDbWipeoutVariables
  3
WipeOut|AutoCAD Express Tool|expresstools@autodesk.com
 90
        0
280
     0
281
     0
  0
CLASS
  1
RTEXT
  2
RText
  3
RText|AutoCAD Express Tool|expresstools@autodesk.com
 90
        0
280
     0
281
     1
  0
CLASS
  1
ARCALIGNEDTEXT
  2
AcDbArcAlignedText
  3
ATEXT|AutoCAD Express Tool|expresstools@autodesk.com
 90
        0
280
     0
281
     1
  0
ENDSEC
  0
SECTION
  2
TABLES
  0
TABLE
  2
VPORT
  5
7
100
AcDbSymbolTable
 70
     1
  0
VPORT
  5
15
100
AcDbSymbolTableRecord
100
AcDbViewportTableRecord
  2
*ACTIVE
 70
     0
 10
0.0
 20
0.0
 11
1.0
 21
1.0
 12
6.591288
 22
4.579184
 13
0.0
 23
0.0
 14
1.0
 24
1.0
 15
0.0
 25
0.0
 16
0.0
 26
0.0
 36
1.0
 17
0.0
 27
0.0
 37
0.0
 40
9.158369
 41
0.688564
 42
50.0
 43
0.0
 44
0.0
 50
0.0
 51
0.0
 71
     0
 72
   100
 73
     1
 74
     1
 75
     0
 76
     0
 77
     0
 78
     0
281
     0
 65
     0
110
0.0
120
0.0
130
0.0
111
1.0
121
0.0
131
0.0
112
0.0
122
1.0
132
0.0
345
0
346
0
 79
     0
146
0.0
  0
ENDTAB
  0
TABLE
  2
LTYPE
  5
4
100
AcDbSymbolTable
 70
     3
  0
LTYPE
  5
11
100
AcDbSymbolTableRecord
100
AcDbLinetypeTableRecord
  2
ByBlock
 70
    64
  3

 72
    65
 73
     0
 40
0.0
  0
LTYPE
  5
12
100
AcDbSymbolTableRecord
100
AcDbLinetypeTableRecord
  2
ByLayer
 70
    64
  3

 72
    65
 73
     0
 40
0.0
  0
LTYPE
  5
13
100
AcDbSymbolTableRecord
100
AcDbLinetypeTableRecord
  2
Continuous
 70
    64
  3
Solid line
 72
    65
 73
     0
 40
0.0
  0
ENDTAB
  0
TABLE
  2
LAYER
  5
2
100
AcDbSymbolTable
 70
     1
  0
LAYER
  5
14
100
AcDbSymbolTableRecord
100
AcDbLayerTableRecord
  2
0
 70
     0
 62
     7
  6
Continuous
290
     1
370
    -3
390
1D
  0
ENDTAB
  0
TABLE
  2
STYLE
  5
3
100
AcDbSymbolTable
 70
     1
  0
STYLE
  5
17
100
AcDbSymbolTableRecord
100
AcDbTextStyleTableRecord
  2
Standard
 70
     0
 40
0.0
 41
1.0
 50
0.0
 71
     0
 42
0.0
  3
FG教科書体NT-M
  4

1001
ACAD
1000
FG教科書体NT-M
1071
        0
  0
ENDTAB
  0
TABLE
  2
VIEW
  5
5
100
AcDbSymbolTable
 70
     0
  0
ENDTAB
  0
TABLE
  2
UCS
  5
6
100
AcDbSymbolTable
 70
     0
  0
ENDTAB
  0
TABLE
  2
APPID
  5
8
100
AcDbSymbolTable
 70
     2
  0
APPID
  5
16
100
AcDbSymbolTableRecord
100
AcDbRegAppTableRecord
  2
ACAD
 70
     0
  0
APPID
  5
26
100
AcDbSymbolTableRecord
100
AcDbRegAppTableRecord
  2
TOPsolid_Design
 70
     0
  0
ENDTAB
  0
TABLE
  2
DIMSTYLE
  5
9
100
AcDbSymbolTable
 70
     1
100
AcDbDimStyleTable
 71
     0
  0
DIMSTYLE
105
18
100
AcDbSymbolTableRecord
100
AcDbDimStyleTableRecord
  2
Standard
 70
     0
  3

  4

 40
1.0
 41
1.40208
 42
1.40208
 43
0.38
 44
1.05156
 45
0.0
 46
0.0
 47
0.0
 48
0.0
 71
     0
 72
     0
 73
     0
 74
     0
 75
     0
 76
     0
 77
     1
 78
     0
 79
     0
140
3.5052
141
0.09
142
0.0
143
25.4
144
1.0
145
0.0
146
0.5
147
1.7526
148
0.0
170
     0
171
     2
172
     0
173
     0
174
     0
175
     0
176
     7
177
     7
178
     7
179
     0
271
     2
272
     4
273
     2
274
     2
275
     0
276
     0
277
     2
278
    46
279
     0
280
     0
281
     0
282
     0
283
     1
284
     0
285
     0
286
     0
288
     0
289
     3
340
17
341
0
342
0
343
0
344
0
371
    -2
372
    -2
  0
ENDTAB
  0
TABLE
  2
BLOCK_RECORD
  5
1
100
AcDbSymbolTable
 70
     0
  0
BLOCK_RECORD
  5
A
100
AcDbSymbolTableRecord
100
AcDbBlockTableRecord
  2
*MODEL_SPACE
340
20
  0
BLOCK_RECORD
  5
B
100
AcDbSymbolTableRecord
100
AcDbBlockTableRecord
  2
*PAPER_SPACE
340
21
  0
ENDTAB
  0
ENDSEC
  0
SECTION
  2
BLOCKS
  0
BLOCK
  5
D
100
AcDbEntity
  8
0
390
0
100
AcDbBlockBegin
  2
*MODEL_SPACE
 70
     0
 10
0.0
 20
0.0
 30
0.0
  3
*MODEL_SPACE
  1

  0
ENDBLK
  5
E
100
AcDbEntity
  8
0
390
0
100
AcDbBlockEnd
  0
BLOCK
  5
F
100
AcDbEntity
 67
     1
  8
0
390
0
100
AcDbBlockBegin
  2
*PAPER_SPACE
 70
     0
 10
0.0
 20
0.0
 30
0.0
  3
*PAPER_SPACE
  1

  0
ENDBLK
  5
10
100
AcDbEntity
 67
     1
  8
0
390
0
100
AcDbBlockEnd
  0
ENDSEC
  0
SECTION
  2
ENTITIES
  0
ELLIPSE
  5
27
100
AcDbEntity
  8
0
390
0
  6
Continuous
 62
     7
100
AcDbEllipse
 10
2.255765
 20
2.598121
 30
0.0
 11
-1.479735569722862
 21
-0.2457288011140368
 31
0.0
210
0.0
220
0.0
230
1.0
 40
0.402807
 41
4.6985564238198334
 42
5.482652887336255
  0
LINE
  5
28
100
AcDbEntity
  8
0
390
0
  6
Continuous
 62
     7
100
AcDbLine
 10
2.177261
 20
3.19751
 30
0.0
 11
2.271496
 21
0.68836
 31
0.0
  0
ELLIPSE
  5
29
100
AcDbEntity
  8
0
390
0
  6
Continuous
 62
     7
100
AcDbEllipse
 10
2.35
 20
0.559403
 30
0.0
 11
-1.5000000000000013
 21
0.0
 31
0.0
210
0.0
220
0.0
230
1.0
 40
0.086089
 41
4.7647488579445199
 42
5.7647963334979844
  0
LINE
  5
2A
100
AcDbEntity
  8
0
390
0
  6
Continuous
 62
     7
100
AcDbLine
 10
1.142555
 20
2.371351
 30
0.0
 11
1.047072
 21
0.623387
 31
0.0
  0
LINE
  5
2B
100
AcDbEntity
  8
0
390
0
  6
Continuous
 62
     7
100
AcDbLine
 10
1.154347
 20
2.854813
 30
0.0
 11
1.142555
 21
2.371351
 31
0.0
  0
LINE
  5
2C
100
AcDbEntity
  8
0
390
0
  6
Continuous
 62
     7
100
AcDbLine
 10
4.15
 20
-8.094334
 30
0.0
 11
4.15
 21
0.0
 31
0.0
  0
LINE
  5
2D
100
AcDbEntity
  8
0
390
0
  6
Continuous
 62
     7
100
AcDbLine
 10
2.109483
 20
7.987396
 30
0.0
 11
2.177261
 21
7.940945
 31
0.0
  0
LINE
  5
2E
100
AcDbEntity
  8
0
390
0
  6
Continuous
 62
     7
100
AcDbLine
 10
4.15
 20
0.0
 30
0.0
 11
4.15
 21
8.094334
 31
0.0
  0
POLYLINE
  5
2F
100
AcDbEntity
  8
0
390
0
  6
Continuous
 62
     7
100
AcDb2dPolyline
 66
     1
 10
0.0
 20
0.0
 30
0.0
 40
0.1
 41
0.1
  0
VERTEX
  5
30
100
AcDbEntity
  8
0
390
0
 62
     7
100
AcDbVertex
100
AcDb2dVertex
 10
2.177261
 20
7.940945
 30
0.0
  0
VERTEX
  5
31
100
AcDbEntity
  8
0
390
0
 62
     7
100
AcDbVertex
100
AcDb2dVertex
 10
2.187114
 20
7.931708
 30
0.0
  0
VERTEX
  5
32
100
AcDbEntity
  8
0
390
0
 62
     7
100
AcDbVertex
100
AcDb2dVertex
 10
2.216813
 20
7.889819
 30
0.0
  0
VERTEX
  5
33
100
AcDbEntity
  8
0
390
0
 62
     7
100
AcDbVertex
100
AcDb2dVertex
 10
2.237843
 20
7.835649
 30
0.0
  0
VERTEX
  5
34
100
AcDbEntity
  8
0
390
0
 62
     7
100
AcDbVertex
100
AcDb2dVertex
 10
2.252294
 20
7.768744
 30
0.0
  0
VERTEX
  5
35
100
AcDbEntity
  8
0
390
0
 62
     7
100
AcDbVertex
100
AcDb2dVertex
 10
2.261563
 20
7.68973
 30
0.0
  0
VERTEX
  5
36
100
AcDbEntity
  8
0
390
0
 62
     7
100
AcDbVertex
100
AcDb2dVertex
 10
2.267171
 20
7.596632
 30
0.0
  0
VERTEX
  5
37
100
AcDbEntity
  8
0
390
0
 62
     7
100
AcDbVertex
100
AcDb2dVertex
 10
2.270053
 20
7.491316
 30
0.0
  0
VERTEX
  5
38
100
AcDbEntity
  8
0
390
0
 62
     7
100
AcDbVertex
100
AcDb2dVertex
 10
2.27125
 20
7.373174
 30
0.0
  0
VERTEX
  5
39
100
AcDbEntity
  8
0
390
0
 62
     7
100
AcDbVertex
100
AcDb2dVertex
 10
2.271496
 20
7.243112
 30
0.0
  0
SEQEND
  5
3A
100
AcDbEntity
  8
0
390
0
  0
LINE
  5
3B
100
AcDbEntity
  8
0
390
0
  6
Continuous
 62
     7
100
AcDbLine
 10
2.177261
 20
-7.940945
 30
0.0
 11
2.109483
 21
-7.987395
 31
0.0
  0
POLYLINE
  5
3C
100
AcDbEntity
  8
0
390
0
  6
Continuous
 62
     7
100
AcDb2dPolyline
 66
     1
 10
0.0
 20
0.0
 30
0.0
 40
0.1
 41
0.1
  0
VERTEX
  5
3D
100
AcDbEntity
  8
0
390
0
 62
     7
100
AcDbVertex
100
AcDb2dVertex
 10
2.271496
 20
-7.243111
 30
0.0
 42
-0.03535
  0
VERTEX
  5
3E
100
AcDbEntity
  8
0
390
0
 62
     7
100
AcDbVertex
100
AcDb2dVertex
 10
2.247718
 20
-7.794496
 30
0.0
  0
VERTEX
  5
3F
100
AcDbEntity
  8
0
390
0
 62
     7
100
AcDbVertex
100
AcDb2dVertex
 10
2.208965
 20
-7.903595
 30
0.0
  0
VERTEX
  5
40
100
AcDbEntity
  8
0
390
0
 62
     7
100
AcDbVertex
100
AcDb2dVertex
 10
2.177261
 20
-7.940945
 30
0.0
  0
SEQEND
  5
41
100
AcDbEntity
  8
0
390
0
  0
LINE
  5
42
100
AcDbEntity
  8
0
390
0
  6
Continuous
 62
     7
100
AcDbLine
 10
2.271496
 20
-6.554752
 30
0.0
 11
2.271496
 21
-7.243111
 31
0.0
  0
LINE
  5
43
100
AcDbEntity
  8
0
390
0
  6
Continuous
 62
     7
100
AcDbLine
 10
2.177261
 20
-4.743435
 30
0.0
 11
2.271496
 21
-6.554752
 31
0.0
  0
ARC
  5
44
100
AcDbEntity
  8
0
390
0
  6
Continuous
 62
     7
100
AcDbCircle
 10
6.590595
 20
-3.970472
 30
0.0
 40
4.480512
210
0.0
220
0.0
230
1.0
100
AcDbArc
 50
170.06583
 51
189.93417
  0
LINE
  5
45
100
AcDbEntity
  8
0
390
0
  6
Continuous
 62
     7
100
AcDbLine
 10
2.271496
 20
-0.688359
 30
0.0
 11
2.177261
 21
-3.197509
 31
0.0
  0
LINE
  5
46
100
AcDbEntity
  8
0
390
0
  6
Continuous
 62
     7
100
AcDbLine
 10
2.271496
 20
0.68836
 30
0.0
 11
2.271496
 21
-0.688359
 31
0.0
  0
ARC
  5
47
100
AcDbEntity
  8
0
390
0
  6
Continuous
 62
     7
100
AcDbCircle
 10
6.528823
 20
3.970473
 30
0.0
 40
4.41968
210
0.0
220
0.0
230
1.0
100
AcDbArc
 50
169.92768
 51
190.07232
  0
LINE
  5
48
100
AcDbEntity
  8
0
390
0
  6
Continuous
 62
     7
100
AcDbLine
 10
2.271496
 20
6.554752
 30
0.0
 11
2.177261
 21
4.743436
 31
0.0
  0
LINE
  5
49
100
AcDbEntity
  8
0
390
0
  6
Continuous
 62
     7
100
AcDbLine
 10
2.271496
 20
7.243112
 30
0.0
 11
2.271496
 21
6.554752
 31
0.0
  0
ELLIPSE
  5
4A
100
AcDbEntity
  8
0
390
0
  6
Continuous
 62
     7
100
AcDbEllipse
 10
2.255765
 20
-2.59812
 30
0.0
 11
-1.4797355710725046
 21
0.2457287929866769
 31
0.0
210
0.0
220
0.0
230
1.0
 40
0.402807
 41
0.8005324173977803
 42
1.5846288810055218
  0
LINE
  5
4B
100
AcDbEntity
  8
0
390
0
  6
Continuous
 62
     7
100
AcDbLine
 10
1.142555
 20
-2.37135
 30
0.0
 11
1.154347
 21
-2.854812
 31
0.0
  0
LINE
  5
4C
100
AcDbEntity
  8
0
390
0
  6
Continuous
 62
     7
100
AcDbLine
 10
1.047072
 20
-0.623386
 30
0.0
 11
1.142555
 21
-2.37135
 31
0.0
  0
ELLIPSE
  5
4D
100
AcDbEntity
  8
0
390
0
  6
Continuous
 62
     7
100
AcDbEllipse
 10
2.35
 20
-0.559403
 30
0.0
 11
-1.5000000000000013
 21
0.0
 31
0.0
210
0.0
220
0.0
230
1.0
 40
0.086089
 41
0.5183889736815925
 42
1.5184364492350664
  0
LINE
  5
4E
100
AcDbEntity
  8
0
390
0
  6
Continuous
 62
     7
100
AcDbLine
 10
1.047072
 20
0.623387
 30
0.0
 11
1.047072
 21
-0.623386
 31
0.0
  0
ELLIPSE
  5
4F
100
AcDbEntity
  8
0
390
0
  6
Continuous
 62
     7
100
AcDbEllipse
 10
-0.025342
 20
-2.59812
 30
0.0
 11
-1.4717537505727074
 21
-0.2897255557854639
 31
0.0
210
0.0
220
0.0
230
0.9999999999999999
 40
0.003371
 41
1.5879209268393839
 42
2.486738497132102
  0
LINE
  5
50
100
AcDbEntity
  8
0
390
0
  6
Continuous
 62
     7
100
AcDbLine
 10
0.000836
 20
-2.59812
 30
0.0
 11
-0.229677
 21
-0.687369
 31
0.0
  0
ELLIPSE
  5
51
100
AcDbEntity
  8
0
390
0
  6
Continuous
 62
     7
100
AcDbEllipse
 10
-0.255856
 20
-0.687369
 30
0.0
 11
-1.4981583178013955
 21
-0.0743078380961437
 31
0.0
210
0.0
220
0.0
230
0.9999999999999999
 40
0.000865
 41
1.5882281881972777
 42
2.6253199344679206
  0
ELLIPSE
  5
52
100
AcDbEntity
  8
0
390
0
  6
Continuous
 62
     7
100
AcDbEllipse
 10
-0.255856
 20
0.68737
 30
0.0
 11
-1.4981583178013955
 21
0.0743078380961437
 31
0.0
210
0.0
220
0.0
230
0.9999999999999999
 40
0.000865
 41
3.6578653727115884
 42
4.6949571189823018
  0
LINE
  5
53
100
AcDbEntity
  8
0
390
0
  6
Continuous
 62
     7
100
AcDbLine
 10
-0.229677
 20
0.68737
 30
0.0
 11
0.000836
 21
2.598121
 31
0.0
  0
ELLIPSE
  5
54
100
AcDbEntity
  8
0
390
0
  6
Continuous
 62
     7
100
AcDbEllipse
 10
-0.025342
 20
2.598121
 30
0.0
 11
1.4717537505865019
 21
-0.2897255557153255
 31
0.0
210
0.0
220
0.0
230
0.9999999999999999
 40
0.003371
 41
0.6548541563987531
 42
1.5536717246446412
  0
ELLIPSE
  5
55
100
AcDbEntity
  8
0
390
0
  6
Continuous
 62
     7
100
AcDbEllipse
 10
2.255765
 20
-3.854253
 30
0.0
 11
-1.4743467020243428
 21
-0.2762278085746694
 31
0.0
210
0.0
220
0.0
230
1.0
 40
0.580548
 41
0.6253974560819205
 42
1.4094939195987439
  0
LINE
  5
56
100
AcDbEntity
  8
0
390
0
  6
Continuous
 62
     7
100
AcDbLine
 10
1.154347
 20
-2.854812
 30
0.0
 11
1.154347
 21
-4.579277
 31
0.0
  0
LINE
  5
57
100
AcDbEntity
  8
0
390
0
  6
Continuous
 62
     7
100
AcDbLine
 10
1.154347
 20
4.579278
 30
0.0
 11
1.154347
 21
2.854813
 31
0.0
  0
ELLIPSE
  5
58
100
AcDbEntity
  8
0
390
0
  6
Continuous
 62
     7
100
AcDbEllipse
 10
2.255765
 20
3.854254
 30
0.0
 11
-1.4743467036528457
 21
0.2762277998826779
 31
0.0
210
0.0
220
0.0
230
0.9999999999999999
 40
0.580548
 41
4.8736913843000869
 42
5.6577878479080175
  0
LINE
  5
59
100
AcDbEntity
  8
0
390
0
  6
Continuous
 62
     7
100
AcDbLine
 10
-0.229677
 20
-0.687369
 30
0.0
 11
-0.229677
 21
0.68737
 31
0.0
  0
ARC
  5
5A
100
AcDbEntity
  8
0
390
0
  6
Continuous
 62
     7
100
AcDbCircle
 10
-3.27963
 20
3.509548
 30
0.0
 40
3.416064
210
0.0
220
0.0
230
1.0
100
AcDbArc
 50
349.487937
 51
10.512063
  0
ELLIPSE
  5
5B
100
AcDbEntity
  8
0
390
0
  6
Continuous
 62
     7
100
AcDbEllipse
 10
0.052929
 20
5.304302
 30
0.0
 11
1.4819097635367373
 21
0.2322572985601901
 31
0.0
210
0.0
220
0.0
230
1.0
 40
0.778491
 41
4.6085091828896791
 42
5.420739745862388
  0
ELLIPSE
  5
5C
100
AcDbEntity
  8
0
390
0
  6
Continuous
 62
     7
100
AcDbEllipse
 10
0.052929
 20
3.111506
 30
0.0
 11
1.4927406222355888
 21
-0.1473955044351827
 31
0.0
210
0.0
220
0.0
230
1.0
 40
0.147764
 41
4.744510195672027
 42
5.556740758344664
  0
LINE
  5
5D
100
AcDbEntity
  8
0
390
0
  6
Continuous
 62
     7
100
AcDbLine
 10
0.000836
 20
2.598121
 30
0.0
 11
0.079101
 21
2.886312
 31
0.0
  0
ELLIPSE
  5
5E
100
AcDbEntity
  8
0
390
0
  6
Continuous
 62
     7
100
AcDbEllipse
 10
0.052929
 20
-3.111505
 30
0.0
 11
-1.4927406223954331
 21
-0.147395502816422
 31
0.0
210
0.0
220
0.0
230
0.9999999999999999
 40
0.147764
 41
3.8680372023502665
 42
4.6802677653228013
  0
LINE
  5
5F
100
AcDbEntity
  8
0
390
0
  6
Continuous
 62
     7
100
AcDbLine
 10
0.079101
 20
-2.886311
 30
0.0
 11
0.000836
 21
-2.59812
 31
0.0
  0
ELLIPSE
  5
60
100
AcDbEntity
  8
0
390
0
  6
Continuous
 62
     7
100
AcDbEllipse
 10
0.052929
 20
-5.304301
 30
0.0
 11
-1.4819097636037668
 21
0.2322572981324766
 31
0.0
210
0.0
220
0.0
230
1.0
 40
0.778491
 41
4.0040382149167941
 42
4.8162687775897117
  0
ARC
  5
61
100
AcDbEntity
  8
0
390
0
  6
Continuous
 62
     7
100
AcDbCircle
 10
-3.258567
 20
-3.509547
 30
0.0
 40
3.395357
210
0.0
220
0.0
230
1.0
100
AcDbArc
 50
349.423089
 51
10.576911
  0
LINE
  5
62
100
AcDbEntity
  8
0
390
0
  6
Continuous
 62
     7
100
AcDbLine
 10
-2.676179
 20
-2.59812
 30
0.0
 11
-2.676179
 21
-4.254126
 31
0.0
  0
ELLIPSE
  5
63
100
AcDbEntity
  8
0
390
0
  6
Continuous
 62
     7
100
AcDbEllipse
 10
-2.65
 20
-2.955286
 30
0.0
 11
1.5000000000000013
 21
0.0
 31
0.0
210
0.0
220
0.0
230
1.0
 40
0.866025
 41
3.1415926535897856
 42
4.6949356878647395
  0
LINE
  5
64
100
AcDbEntity
  8
0
390
0
  6
Continuous
 62
     7
100
AcDbLine
 10
-4.15
 20
-2.955286
 30
0.0
 11
-4.15
 21
-2.59812
 31
0.0
  0
LINE
  5
65
100
AcDbEntity
  8
0
390
0
  6
Continuous
 62
     7
100
AcDbLine
 10
-2.676179
 20
-2.59812
 30
0.0
 11
-4.15
 21
-2.59812
 31
0.0
  0
LINE
  5
66
100
AcDbEntity
  8
0
390
0
  6
Continuous
 62
     7
100
AcDbLine
 10
-2.676179
 20
-2.59812
 30
0.0
 11
0.000836
 21
-2.59812
 31
0.0
  0
LINE
  5
67
100
AcDbEntity
  8
0
390
0
  6
Continuous
 62
     7
100
AcDbLine
 10
0.000836
 20
-4.294593
 30
0.0
 11
0.079101
 21
-4.132782
 31
0.0
  0
LINE
  5
68
100
AcDbEntity
  8
0
390
0
  6
Continuous
 62
     7
100
AcDbLine
 10
-2.676179
 20
-4.254126
 30
0.0
 11
0.000836
 21
-4.294593
 31
0.0
  0
LINE
  5
69
100
AcDbEntity
  8
0
390
0
  6
Continuous
 62
     7
100
AcDbLine
 10
-4.15
 20
2.598121
 30
0.0
 11
-4.15
 21
2.955287
 31
0.0
  0
ELLIPSE
  5
6A
100
AcDbEntity
  8
0
390
0
  6
Continuous
 62
     7
100
AcDbEllipse
 10
-2.65
 20
2.955287
 30
0.0
 11
-1.5000000000000013
 21
0.0
 31
0.0
210
0.0
220
0.0
230
1.0
 40
0.866025
 41
4.7298422729046328
 42
6.2831853071795916
  0
LINE
  5
6B
100
AcDbEntity
  8
0
390
0
  6
Continuous
 62
     7
100
AcDbLine
 10
-2.676179
 20
4.254127
 30
0.0
 11
-2.676179
 21
2.598121
 31
0.0
  0
LINE
  5
6C
100
AcDbEntity
  8
0
390
0
  6
Continuous
 62
     7
100
AcDbLine
 10
-4.15
 20
2.598121
 30
0.0
 11
-2.676179
 21
2.598121
 31
0.0
  0
LINE
  5
6D
100
AcDbEntity
  8
0
390
0
  6
Continuous
 62
     7
100
AcDbLine
 10
-2.676179
 20
4.254127
 30
0.0
 11
0.000836
 21
4.294594
 31
0.0
  0
LINE
  5
6E
100
AcDbEntity
  8
0
390
0
  6
Continuous
 62
     7
100
AcDbLine
 10
0.079101
 20
4.132783
 30
0.0
 11
0.000836
 21
4.294594
 31
0.0
  0
LINE
  5
6F
100
AcDbEntity
  8
0
390
0
  6
Continuous
 62
     7
100
AcDbLine
 10
-2.676179
 20
2.598121
 30
0.0
 11
0.000836
 21
2.598121
 31
0.0
  0
LINE
  5
70
100
AcDbEntity
  8
0
390
0
  6
Continuous
 62
     7
100
AcDbLine
 10
-2.676179
 20
2.598121
 30
0.0
 11
-2.676179
 21
-2.59812
 31
0.0
  0
ELLIPSE
  5
71
100
AcDbEntity
  8
0
390
0
  6
Continuous
 62
     7
100
AcDbEllipse
 10
2.35
 20
-5.326788
 30
0.0
 11
-1.5000000000000013
 21
0.0
 31
0.0
210
0.0
220
0.0
230
1.0
 40
0.819766
 41
0.5183889736816004
 42
1.5184364492350664
  0
LINE
  5
72
100
AcDbEntity
  8
0
390
0
  6
Continuous
 62
     7
100
AcDbLine
 10
1.142555
 20
-4.915652
 30
0.0
 11
1.047072
 21
-5.936056
 31
0.0
  0
LINE
  5
73
100
AcDbEntity
  8
0
390
0
  6
Continuous
 62
     7
100
AcDbLine
 10
1.154347
 20
-4.579277
 30
0.0
 11
1.142555
 21
-4.915652
 31
0.0
  0
LINE
  5
74
100
AcDbEntity
  8
0
390
0
  6
Continuous
 62
     7
100
AcDbLine
 10
1.142555
 20
4.915653
 30
0.0
 11
1.154347
 21
4.579278
 31
0.0
  0
LINE
  5
75
100
AcDbEntity
  8
0
390
0
  6
Continuous
 62
     7
100
AcDbLine
 10
1.047072
 20
5.936057
 30
0.0
 11
1.142555
 21
4.915653
 31
0.0
  0
ELLIPSE
  5
76
100
AcDbEntity
  8
0
390
0
  6
Continuous
 62
     7
100
AcDbEllipse
 10
2.35
 20
5.326789
 30
0.0
 11
-1.5000000000000013
 21
0.0
 31
0.0
210
0.0
220
0.0
230
1.0
 40
0.819766
 41
4.7647488579445199
 42
5.7647963334979941
  0
LINE
  5
77
100
AcDbEntity
  8
0
390
0
  6
Continuous
 62
     7
100
AcDbLine
 10
-4.15
 20
-2.59812
 30
0.0
 11
-4.15
 21
2.598121
 31
0.0
  0
ELLIPSE
  5
78
100
AcDbEntity
  8
0
390
0
  6
Continuous
 62
     7
100
AcDbEllipse
 10
-0.025342
 20
-5.593434
 30
0.0
 11
-1.3945959962083363
 21
0.5523603962628576
 31
0.0
210
0.0
220
0.0
230
1.0
 40
0.851398
 41
4.1210231082177282
 42
5.0198406764628629
  0
ELLIPSE
  5
79
100
AcDbEntity
  8
0
390
0
  6
Continuous
 62
     7
100
AcDbEllipse
 10
-0.025342
 20
5.593435
 30
0.0
 11
1.3945959946224107
 21
0.552360400266988
 31
0.0
210
0.0
220
0.0
230
1.0
 40
0.851398
 41
4.4049372798947584
 42
5.303754850114859
  0
LINE
  5
7A
100
AcDbEntity
  8
0
390
0
  6
Continuous
 62
     7
100
AcDbLine
 10
0.000836
 20
4.294594
 30
0.0
 11
-0.229677
 21
5.246485
 31
0.0
  0
ELLIPSE
  5
7B
100
AcDbEntity
  8
0
390
0
  6
Continuous
 62
     7
100
AcDbEllipse
 10
-0.255856
 20
6.545325
 30
0.0
 11
1.4926518478807216
 21
0.1482918103547226
 31
0.0
210
0.0
220
0.0
230
1.0
 40
0.865394
 41
4.6440995497087192
 42
5.6811912959793318
  0
ELLIPSE
  5
7C
100
AcDbEntity
  8
0
390
0
  6
Continuous
 62
     7
100
AcDbEllipse
 10
-0.255856
 20
-6.545324
 30
0.0
 11
-1.4926518478807216
 21
0.1482918103547226
 31
0.0
210
0.0
220
0.0
230
1.0
 40
0.865394
 41
3.743586664790052
 42
4.7806784110606637
  0
LINE
  5
7D
100
AcDbEntity
  8
0
390
0
  6
Continuous
 62
     7
100
AcDbLine
 10
-0.229677
 20
-5.246484
 30
0.0
 11
0.000836
 21
-4.294593
 31
0.0
  0
LINE
  5
7E
100
AcDbEntity
  8
0
390
0
  6
Continuous
 62
     7
100
AcDbLine
 10
-2.676179
 20
6.852247
 30
0.0
 11
-2.676179
 21
4.254127
 31
0.0
  0
LINE
  5
7F
100
AcDbEntity
  8
0
390
0
  6
Continuous
 62
     7
100
AcDbLine
 10
-2.676179
 20
6.852247
 30
0.0
 11
0.000836
 21
6.892714
 31
0.0
  0
LINE
  5
80
100
AcDbEntity
  8
0
390
0
  6
Continuous
 62
     7
100
AcDbLine
 10
-0.229677
 20
5.933855
 30
0.0
 11
0.000836
 21
6.892714
 31
0.0
  0
LINE
  5
81
100
AcDbEntity
  8
0
390
0
  6
Continuous
 62
     7
100
AcDbLine
 10
-0.229677
 20
5.246485
 30
0.0
 11
-0.229677
 21
5.933855
 31
0.0
  0
LINE
  5
82
100
AcDbEntity
  8
0
390
0
  6
Continuous
 62
     7
100
AcDbLine
 10
-2.676179
 20
-4.254126
 30
0.0
 11
-2.676179
 21
-6.852246
 31
0.0
  0
LINE
  5
83
100
AcDbEntity
  8
0
390
0
  6
Continuous
 62
     7
100
AcDbLine
 10
-0.229677
 20
-5.933854
 30
0.0
 11
-0.229677
 21
-5.246484
 31
0.0
  0
LINE
  5
84
100
AcDbEntity
  8
0
390
0
  6
Continuous
 62
     7
100
AcDbLine
 10
0.000836
 20
-6.892714
 30
0.0
 11
-0.229677
 21
-5.933854
 31
0.0
  0
LINE
  5
85
100
AcDbEntity
  8
0
390
0
  6
Continuous
 62
     7
100
AcDbLine
 10
-2.676179
 20
-6.852246
 30
0.0
 11
0.000836
 21
-6.892714
 31
0.0
  0
LINE
  5
86
100
AcDbEntity
  8
0
390
0
  6
Continuous
 62
     7
100
AcDbLine
 10
-4.15
 20
2.955287
 30
0.0
 11
-4.15
 21
5.553407
 31
0.0
  0
ELLIPSE
  5
87
100
AcDbEntity
  8
0
390
0
  6
Continuous
 62
     7
100
AcDbEllipse
 10
-2.65
 20
5.553407
 30
0.0
 11
-1.5000000000000013
 21
0.0
 31
0.0
210
0.0
220
0.0
230
1.0
 40
0.866025
 41
4.7298422729046354
 42
6.2831853071795916
  0
ELLIPSE
  5
88
100
AcDbEntity
  8
0
390
0
  6
Continuous
 62
     7
100
AcDbEllipse
 10
-2.65
 20
-5.553406
 30
0.0
 11
1.5000000000000013
 21
0.0
 31
0.0
210
0.0
220
0.0
230
1.0
 40
0.866025
 41
3.1415926535897896
 42
4.6949356878647395
  0
LINE
  5
89
100
AcDbEntity
  8
0
390
0
  6
Continuous
 62
     7
100
AcDbLine
 10
-4.15
 20
-5.553406
 30
0.0
 11
-4.15
 21
-2.955286
 31
0.0
  0
ELLIPSE
  5
8A
100
AcDbEntity
  8
0
390
0
  6
Continuous
 62
     7
100
AcDbEllipse
 10
2.35
 20
-5.886191
 30
0.0
 11
-1.5000000000000013
 21
0.0
 31
0.0
210
0.0
220
0.0
230
0.9999999999999999
 40
0.905855
 41
0.5183889736815907
 42
1.5184364492350642
  0
LINE
  5
8B
100
AcDbEntity
  8
0
390
0
  6
Continuous
 62
     7
100
AcDbLine
 10
1.047072
 20
-5.936056
 30
0.0
 11
1.047072
 21
-6.559443
 31
0.0
  0
LINE
  5
8C
100
AcDbEntity
  8
0
390
0
  6
Continuous
 62
     7
100
AcDbLine
 10
1.047072
 20
6.559444
 30
0.0
 11
1.047072
 21
5.936057
 31
0.0
  0
ELLIPSE
  5
8D
100
AcDbEntity
  8
0
390
0
  6
Continuous
 62
     7
100
AcDbEllipse
 10
2.35
 20
5.886192
 30
0.0
 11
1.5000000000000013
 21
0.0
 31
0.0
210
0.0
220
0.0
230
0.9999999999999999
 40
0.905855
 41
1.6231562043547292
 42
2.6232036799082024
  0
ELLIPSE
  5
8E
100
AcDbEntity
  8
0
390
0
  6
Continuous
 62
     7
100
AcDbEllipse
 10
-0.255856
 20
-7.232694
 30
0.0
 11
-1.492695471015798
 21
-0.1478520571683017
 31
0.0
210
0.0
220
0.0
230
1.0
 40
0.864529
 41
3.5723989052420664
 42
4.6094906515126794
  0
ELLIPSE
  5
8F
100
AcDbEntity
  8
0
390
0
  6
Continuous
 62
     7
100
AcDbEllipse
 10
-0.255856
 20
7.232695
 30
0.0
 11
1.492695471015798
 21
-0.1478520571683017
 31
0.0
210
0.0
220
0.0
230
1.0
 40
0.864529
 41
4.8152873092566955
 42
5.8523790555273107
  0
ELLIPSE
  5
90
100
AcDbEntity
  8
0
390
0
  6
Continuous
 62
     7
100
AcDbEllipse
 10
2.255765
 20
6.452374
 30
0.0
 11
0.8471801477255569
 21
1.2378553216348398
 31
0.0
210
0.0
220
0.0
230
1.0
 40
0.983355
 41
0.6609807251977433
 42
1.4450771889846004
  0
LINE
  5
91
100
AcDbEntity
  8
0
390
0
  6
Continuous
 62
     7
100
AcDbLine
 10
1.142555
 20
7.287003
 30
0.0
 11
1.047072
 21
6.559444
 31
0.0
  0
LINE
  5
92
100
AcDbEntity
  8
0
390
0
  6
Continuous
 62
     7
100
AcDbLine
 10
1.154347
 20
7.434091
 30
0.0
 11
1.142555
 21
7.287003
 31
0.0
  0
ELLIPSE
  5
93
100
AcDbEntity
  8
0
390
0
  6
Continuous
 62
     7
100
AcDbEllipse
 10
2.255765
 20
-6.452373
 30
0.0
 11
-0.8471801759186437
 21
1.237855302339691
 31
0.0
210
0.0
220
0.0
230
1.0
 40
0.983355
 41
1.6965154422461299
 42
2.4806119058536078
  0
LINE
  5
94
100
AcDbEntity
  8
0
390
0
  6
Continuous
 62
     7
100
AcDbLine
 10
1.142555
 20
-7.287002
 30
0.0
 11
1.154347
 21
-7.43409
 31
0.0
  0
LINE
  5
95
100
AcDbEntity
  8
0
390
0
  6
Continuous
 62
     7
100
AcDbLine
 10
1.047072
 20
-6.559443
 30
0.0
 11
1.142555
 21
-7.287002
 31
0.0
  0
ELLIPSE
  5
96
100
AcDbEntity
  8
0
390
0
  6
Continuous
 62
     7
100
AcDbEllipse
 10
-0.025342
 20
8.191555
 30
0.0
 11
1.3968257718208199
 21
-0.5466971402679488
 31
0.0
210
0.0
220
0.0
230
1.0
 40
0.848027
 41
5.0506420432309476
 42
5.9494596114768079
  0
ELLIPSE
  5
97
100
AcDbEntity
  8
0
390
0
  6
Continuous
 62
     7
100
AcDbEllipse
 10
-0.025342
 20
-8.191554
 30
0.0
 11
-1.3968257716393542
 21
-0.5466971407315779
 31
0.0
210
0.0
220
0.0
230
1.0
 40
0.848027
 41
3.4753183490699007
 42
4.3741359193625824
  0
LINE
  5
98
100
AcDbEntity
  8
0
390
0
  6
Continuous
 62
     7
100
AcDbLine
 10
0.000836
 20
6.892714
 30
0.0
 11
0.079101
 21
7.019095
 31
0.0
  0
ELLIPSE
  5
99
100
AcDbEntity
  8
0
390
0
  6
Continuous
 62
     7
100
AcDbEllipse
 10
0.052929
 20
8.415807
 30
0.0
 11
1.449274940466011
 21
-0.3867843674933702
 31
0.0
210
0.0
220
0.0
230
1.0
 40
0.926256
 41
4.9722626832276955
 42
5.7844932462488918
  0
ELLIPSE
  5
9A
100
AcDbEntity
  8
0
390
0
  6
Continuous
 62
     7
100
AcDbEllipse
 10
0.052929
 20
-8.415806
 30
0.0
 11
-1.4492749424582507
 21
-0.3867843600284804
 31
0.0
210
0.0
220
0.0
230
0.9999999999999999
 40
0.926256
 41
3.6402847193305852
 42
4.4525152823029144
  0
LINE
  5
9B
100
AcDbEntity
  8
0
390
0
  6
Continuous
 62
     7
100
AcDbLine
 10
0.079101
 20
-7.019094
 30
0.0
 11
0.000836
 21
-6.892714
 31
0.0
  0
LINE
  5
9C
100
AcDbEntity
  8
0
390
0
  6
Continuous
 62
     7
100
AcDbLine
 10
1.149853
 20
7.572169
 30
0.0
 11
1.154347
 21
7.434091
 31
0.0
  0
LINE
  5
9D
100
AcDbEntity
  8
0
390
0
  6
Continuous
 62
     7
100
AcDbLine
 10
0.079101
 20
7.019095
 30
0.0
 11
0.137866
 21
7.155114
 31
0.0
  0
LINE
  5
9E
100
AcDbEntity
  8
0
390
0
  6
Continuous
 62
     7
100
AcDbLine
 10
0.137866
 20
-7.155113
 30
0.0
 11
0.079101
 21
-7.019094
 31
0.0
  0
LINE
  5
9F
100
AcDbEntity
  8
0
390
0
  6
Continuous
 62
     7
100
AcDbLine
 10
1.154347
 20
-7.43409
 30
0.0
 11
1.149853
 21
-7.572168
 31
0.0
  0
LINE
  5
A0
100
AcDbEntity
  8
0
390
0
  6
Continuous
 62
     7
100
AcDbLine
 10
-2.676147
 20
7.106054
 30
0.0
 11
-2.676179
 21
6.852247
 31
0.0
  0
LINE
  5
A1
100
AcDbEntity
  8
0
390
0
  6
Continuous
 62
     7
100
AcDbLine
 10
-2.676179
 20
-6.852246
 30
0.0
 11
-2.676147
 21
-7.106053
 31
0.0
  0
LINE
  5
A2
100
AcDbEntity
  8
0
390
0
  6
Continuous
 62
     7
100
AcDbLine
 10
-4.15
 20
5.606106
 30
0.0
 11
-4.15
 21
5.605087
 31
0.0
  0
LINE
  5
A3
100
AcDbEntity
  8
0
390
0
  6
Continuous
 62
     7
100
AcDbLine
 10
-4.15
 20
5.553407
 30
0.0
 11
-4.15
 21
5.606106
 31
0.0
  0
LINE
  5
A4
100
AcDbEntity
  8
0
390
0
  6
Continuous
 62
     7
100
AcDbLine
 10
-4.15
 20
-5.606281
 30
0.0
 11
-4.15
 21
-5.605086
 31
0.0
  0
LINE
  5
A5
100
AcDbEntity
  8
0
390
0
  6
Continuous
 62
     7
100
AcDbLine
 10
-4.15
 20
-5.605086
 30
0.0
 11
-4.15
 21
-5.553406
 31
0.0
  0
LINE
  5
A6
100
AcDbEntity
  8
0
390
0
  6
Continuous
 62
     7
100
AcDbLine
 10
4.15
 20
8.094334
 30
0.0
 11
2.110494
 21
7.987448
 31
0.0
  0
LINE
  5
A7
100
AcDbEntity
  8
0
390
0
  6
Continuous
 62
     7
100
AcDbLine
 10
2.110494
 20
-7.987448
 30
0.0
 11
4.15
 21
-8.094334
 31
0.0
  0
ARC
  5
A8
100
AcDbEntity
  8
0
390
0
  6
Continuous
 62
     7
100
AcDbCircle
 10
2.187987
 20
6.489451
 30
0.0
 40
1.5
210
0.0
220
0.0
230
1.0
100
AcDbArc
 50
93.0
 51
134.506911
  0
ARC
  5
A9
100
AcDbEntity
  8
0
390
0
  6
Continuous
 62
     7
100
AcDbCircle
 10
0.111719
 20
8.654887
 30
0.0
 40
1.5
210
0.0
220
0.0
230
1.0
100
AcDbArc
 50
270.998804
 51
313.795733
  0
ARC
  5
AA
100
AcDbEntity
  8
0
390
0
  6
Continuous
 62
     7
100
AcDbCircle
 10
0.111719
 20
-8.654886
 30
0.0
 40
1.5
210
0.0
220
0.0
230
1.0
100
AcDbArc
 50
46.204267
 51
89.001196
  0
ARC
  5
AB
100
AcDbEntity
  8
0
390
0
  6
Continuous
 62
     7
100
AcDbCircle
 10
2.187987
 20
-6.48945
 30
0.0
 40
1.5
210
0.0
220
0.0
230
1.0
100
AcDbArc
 50
225.493089
 51
267.0
  0
LINE
  5
AC
100
AcDbEntity
  8
0
390
0
  6
Continuous
 62
     7
100
AcDbLine
 10
0.137866
 20
7.155114
 30
0.0
 11
-2.676147
 21
7.106054
 31
0.0
  0
LINE
  5
AD
100
AcDbEntity
  8
0
390
0
  6
Continuous
 62
     7
100
AcDbLine
 10
-2.676147
 20
7.106054
 30
0.0
 11
-2.693088
 21
7.105759
 31
0.0
  0
LINE
  5
AE
100
AcDbEntity
  8
0
390
0
  6
Continuous
 62
     7
100
AcDbLine
 10
-2.693088
 20
-7.105758
 30
0.0
 11
-2.676147
 21
-7.106053
 31
0.0
  0
LINE
  5
AF
100
AcDbEntity
  8
0
390
0
  6
Continuous
 62
     7
100
AcDbLine
 10
-2.676147
 20
-7.106053
 30
0.0
 11
0.137866
 21
-7.155113
 31
0.0
  0
ARC
  5
B0
100
AcDbEntity
  8
0
390
0
  6
Continuous
 62
     7
100
AcDbCircle
 10
-2.65
 20
5.606282
 30
0.0
 40
1.5
210
0.0
220
0.0
230
1.0
100
AcDbArc
 50
90.998804
 51
180.0
  0
ARC
  5
B1
100
AcDbEntity
  8
0
390
0
  6
Continuous
 62
     7
100
AcDbCircle
 10
-2.65
 20
-5.606281
 30
0.0
 40
1.5
210
0.0
220
0.0
230
1.0
100
AcDbArc
 50
180.0
 51
269.001196
  0
CIRCLE
  5
B2
100
AcDbEntity
  8
0
390
0
  6
Continuous
 62
     7
100
AcDbCircle
 10
62.244017
 20
0.0
 30
0.0
 40
8.094334
210
0.0
220
0.0
230
1.0
  0
CIRCLE
  5
B3
100
AcDbEntity
  8
0
390
0
  6
Continuous
 62
     7
100
AcDbCircle
 10
62.244017
 20
0.0
 30
0.0
 40
6.594334
210
0.0
220
0.0
230
0.9999999999999999
  0
ARC
  5
B4
100
AcDbEntity
  8
0
390
0
  6
Continuous
 62
     7
100
AcDbCircle
 10
62.244017
 20
0.0
 30
0.0
 40
6.5
210
0.0
220
0.0
230
1.0
100
AcDbArc
 50
174.878129
 51
185.121871
  0
ARC
  5
B5
100
AcDbEntity
  8
0
390
0
  6
Continuous
 62
     7
100
AcDbCircle
 10
62.244017
 20
0.0
 30
0.0
 40
6.5
210
0.0
220
0.0
230
1.0
100
AcDbArc
 50
185.121871
 51
201.75475
  0
ARC
  5
B6
100
AcDbEntity
  8
0
390
0
  6
Continuous
 62
     7
100
AcDbCircle
 10
62.244017
 20
0.0
 30
0.0
 40
6.5
210
0.0
220
0.0
230
1.0
100
AcDbArc
 50
201.75475
 51
218.24525
  0
ARC
  5
B7
100
AcDbEntity
  8
0
390
0
  6
Continuous
 62
     7
100
AcDbCircle
 10
62.244017
 20
0.0
 30
0.0
 40
6.5
210
0.0
220
0.0
230
0.9999999999999999
100
AcDbArc
 50
218.24525
 51
234.878129
  0
ARC
  5
B8
100
AcDbEntity
  8
0
390
0
  6
Continuous
 62
     7
100
AcDbCircle
 10
62.244017
 20
0.0
 30
0.0
 40
6.5
210
0.0
220
0.0
230
1.0
100
AcDbArc
 50
234.878129
 51
245.121871
  0
ARC
  5
B9
100
AcDbEntity
  8
0
390
0
  6
Continuous
 62
     7
100
AcDbCircle
 10
62.244017
 20
0.0
 30
0.0
 40
6.5
210
0.0
220
0.0
230
1.0
100
AcDbArc
 50
245.121871
 51
261.75475
  0
ARC
  5
BA
100
AcDbEntity
  8
0
390
0
  6
Continuous
 62
     7
100
AcDbCircle
 10
62.244017
 20
0.0
 30
0.0
 40
6.5
210
0.0
220
0.0
230
1.0
100
AcDbArc
 50
261.75475
 51
278.24525
  0
ARC
  5
BB
100
AcDbEntity
  8
0
390
0
  6
Continuous
 62
     7
100
AcDbCircle
 10
62.244017
 20
0.0
 30
0.0
 40
6.5
210
0.0
220
0.0
230
1.0
100
AcDbArc
 50
278.24525
 51
294.878129
  0
ARC
  5
BC
100
AcDbEntity
  8
0
390
0
  6
Continuous
 62
     7
100
AcDbCircle
 10
62.244017
 20
0.0
 30
0.0
 40
6.5
210
0.0
220
0.0
230
1.0
100
AcDbArc
 50
294.878129
 51
305.121871
  0
ARC
  5
BD
100
AcDbEntity
  8
0
390
0
  6
Continuous
 62
     7
100
AcDbCircle
 10
62.244017
 20
0.0
 30
0.0
 40
6.5
210
0.0
220
0.0
230
1.0
100
AcDbArc
 50
305.121871
 51
321.75475
  0
ARC
  5
BE
100
AcDbEntity
  8
0
390
0
  6
Continuous
 62
     7
100
AcDbCircle
 10
62.244017
 20
0.0
 30
0.0
 40
6.5
210
0.0
220
0.0
230
0.9999999999999999
100
AcDbArc
 50
321.75475
 51
338.24525
  0
ARC
  5
BF
100
AcDbEntity
  8
0
390
0
  6
Continuous
 62
     7
100
AcDbCircle
 10
62.244017
 20
0.0
 30
0.0
 40
6.5
210
0.0
220
0.0
230
1.0
100
AcDbArc
 50
338.24525
 51
354.878129
  0
ARC
  5
C0
100
AcDbEntity
  8
0
390
0
  6
Continuous
 62
     7
100
AcDbCircle
 10
62.244017
 20
0.0
 30
0.0
 40
6.5
210
0.0
220
0.0
230
1.0
100
AcDbArc
 50
354.878129
 51
5.121871
  0
ARC
  5
C1
100
AcDbEntity
  8
0
390
0
  6
Continuous
 62
     7
100
AcDbCircle
 10
62.244017
 20
0.0
 30
0.0
 40
6.5
210
0.0
220
0.0
230
1.0
100
AcDbArc
 50
5.121871
 51
21.75475
  0
ARC
  5
C2
100
AcDbEntity
  8
0
390
0
  6
Continuous
 62
     7
100
AcDbCircle
 10
62.244017
 20
0.0
 30
0.0
 40
6.5
210
0.0
220
0.0
230
1.0
100
AcDbArc
 50
21.75475
 51
38.24525
  0
ARC
  5
C3
100
AcDbEntity
  8
0
390
0
  6
Continuous
 62
     7
100
AcDbCircle
 10
62.244017
 20
0.0
 30
0.0
 40
6.5
210
0.0
220
0.0
230
0.9999999999999999
100
AcDbArc
 50
38.24525
 51
54.878129
  0
ARC
  5
C4
100
AcDbEntity
  8
0
390
0
  6
Continuous
 62
     7
100
AcDbCircle
 10
62.244017
 20
0.0
 30
0.0
 40
6.5
210
0.0
220
0.0
230
1.0
100
AcDbArc
 50
54.878129
 51
65.121871
  0
ARC
  5
C5
100
AcDbEntity
  8
0
390
0
  6
Continuous
 62
     7
100
AcDbCircle
 10
62.244017
 20
0.0
 30
0.0
 40
6.5
210
0.0
220
0.0
230
1.0
100
AcDbArc
 50
65.121871
 51
81.75475
  0
ARC
  5
C6
100
AcDbEntity
  8
0
390
0
  6
Continuous
 62
     7
100
AcDbCircle
 10
62.244017
 20
0.0
 30
0.0
 40
6.5
210
0.0
220
0.0
230
1.0
100
AcDbArc
 50
81.75475
 51
98.24525
  0
ARC
  5
C7
100
AcDbEntity
  8
0
390
0
  6
Continuous
 62
     7
100
AcDbCircle
 10
62.244017
 20
0.0
 30
0.0
 40
6.5
210
0.0
220
0.0
230
1.0
100
AcDbArc
 50
98.24525
 51
114.878129
  0
ARC
  5
C8
100
AcDbEntity
  8
0
390
0
  6
Continuous
 62
     7
100
AcDbCircle
 10
62.244017
 20
0.0
 30
0.0
 40
6.5
210
0.0
220
0.0
230
1.0
100
AcDbArc
 50
114.878129
 51
125.121871
  0
ARC
  5
C9
100
AcDbEntity
  8
0
390
0
  6
Continuous
 62
     7
100
AcDbCircle
 10
62.244017
 20
0.0
 30
0.0
 40
6.5
210
0.0
220
0.0
230
1.0
100
AcDbArc
 50
125.121871
 51
141.75475
  0
ARC
  5
CA
100
AcDbEntity
  8
0
390
0
  6
Continuous
 62
     7
100
AcDbCircle
 10
62.244017
 20
0.0
 30
0.0
 40
6.5
210
0.0
220
0.0
230
0.9999999999999999
100
AcDbArc
 50
141.75475
 51
158.24525
  0
ARC
  5
CB
100
AcDbEntity
  8
0
390
0
  6
Continuous
 62
     7
100
AcDbCircle
 10
62.244017
 20
0.0
 30
0.0
 40
6.5
210
0.0
220
0.0
230
1.0
100
AcDbArc
 50
158.24525
 51
174.878129
  0
LINE
  5
CC
100
AcDbEntity
  8
0
390
0
  6
Continuous
 62
     7
100
AcDbLine
 10
59.509535
 20
5.896831
 30
0.0
 11
58.504453
 21
5.316547
 31
0.0
  0
LINE
  5
CD
100
AcDbEntity
  8
0
390
0
  6
Continuous
 62
     7
100
AcDbLine
 10
60.259421
 20
4.597991
 30
0.0
 11
59.509535
 21
5.896831
 31
0.0
  0
LINE
  5
CE
100
AcDbEntity
  8
0
390
0
  6
Continuous
 62
     7
100
AcDbLine
 10
59.254339
 20
4.017706
 30
0.0
 11
60.259421
 21
4.597991
 31
0.0
  0
LINE
  5
CF
100
AcDbEntity
  8
0
390
0
  6
Continuous
 62
     7
100
AcDbLine
 10
59.254339
 20
4.017706
 30
0.0
 11
58.504453
 21
5.316547
 31
0.0
  0
ELLIPSE
  5
D0
100
AcDbEntity
  8
0
390
0
  6
Continuous
 62
     7
100
AcDbEllipse
 10
61.244169
 20
6.899858
 30
0.0
 11
0.7527988014280063
 21
-1.2974181918597172
 31
0.0
210
0.0
220
0.0
230
0.9999999999999999
 40
0.122578
 41
5.0086609535172251
 42
6.2655993841864976
  0
LINE
  5
D1
100
AcDbEntity
  8
0
390
0
  6
Continuous
 62
     7
100
AcDbLine
 10
60.259421
 20
4.597991
 30
0.0
 11
61.994055
 21
5.601017
 31
0.0
  0
LINE
  5
D2
100
AcDbEntity
  8
0
390
0
  6
Continuous
 62
     7
100
AcDbLine
 10
57.269743
 20
0.580285
 30
0.0
 11
57.268413
 21
2.584036
 31
0.0
  0
LINE
  5
D3
100
AcDbEntity
  8
0
390
0
  6
Continuous
 62
     7
100
AcDbLine
 10
55.769971
 20
0.580285
 30
0.0
 11
57.269743
 21
0.580285
 31
0.0
  0
ELLIPSE
  5
D4
100
AcDbEntity
  8
0
390
0
  6
Continuous
 62
     7
100
AcDbEllipse
 10
55.768642
 20
2.584036
 30
0.0
 11
-1.4999965141966054
 21
-0.0032337900452706
 31
0.0
210
0.0
220
0.0
230
1.0
 40
0.122578
 41
1.8670682999274015
 42
3.1240067305968089
  0
LINE
  5
D5
100
AcDbEntity
  8
0
390
0
  6
Continuous
 62
     7
100
AcDbLine
 10
61.994055
 20
-5.601016
 30
0.0
 11
60.259421
 21
-4.59799
 31
0.0
  0
ELLIPSE
  5
D6
100
AcDbEntity
  8
0
390
0
  6
Continuous
 62
     7
100
AcDbEllipse
 10
61.244169
 20
-6.899857
 30
0.0
 11
-0.7527988014280063
 21
-1.2974181918597172
 31
0.0
210
0.0
220
0.0
230
0.9999999999999999
 40
0.122578
 41
3.1591785765829905
 42
4.4161170072521845
  0
LINE
  5
D7
100
AcDbEntity
  8
0
390
0
  6
Continuous
 62
     7
100
AcDbLine
 10
59.509535
 20
-5.89683
 30
0.0
 11
60.259421
 21
-4.59799
 31
0.0
  0
LINE
  5
D8
100
AcDbEntity
  8
0
390
0
  6
Continuous
 62
     7
100
AcDbLine
 10
60.259421
 20
-4.59799
 30
0.0
 11
59.254339
 21
-4.017705
 31
0.0
  0
LINE
  5
D9
100
AcDbEntity
  8
0
390
0
  6
Continuous
 62
     7
100
AcDbLine
 10
58.504453
 20
-5.316546
 30
0.0
 11
59.509535
 21
-5.89683
 31
0.0
  0
LINE
  5
DA
100
AcDbEntity
  8
0
390
0
  6
Continuous
 62
     7
100
AcDbLine
 10
58.504453
 20
-5.316546
 30
0.0
 11
59.254339
 21
-4.017705
 31
0.0
  0
LINE
  5
DB
100
AcDbEntity
  8
0
390
0
  6
Continuous
 62
     7
100
AcDbLine
 10
57.269743
 20
-0.580284
 30
0.0
 11
57.269743
 21
0.580285
 31
0.0
  0
LINE
  5
DC
100
AcDbEntity
  8
0
390
0
  6
Continuous
 62
     7
100
AcDbLine
 10
55.769971
 20
-0.580284
 30
0.0
 11
57.269743
 21
-0.580284
 31
0.0
  0
LINE
  5
DD
100
AcDbEntity
  8
0
390
0
  6
Continuous
 62
     7
100
AcDbLine
 10
55.769971
 20
0.580285
 30
0.0
 11
55.769971
 21
-0.580284
 31
0.0
  0
LINE
  5
DE
100
AcDbEntity
  8
0
390
0
  6
Continuous
 62
     7
100
AcDbLine
 10
57.268413
 20
-2.584035
 30
0.0
 11
57.269743
 21
-0.580284
 31
0.0
  0
ELLIPSE
  5
DF
100
AcDbEntity
  8
0
390
0
  6
Continuous
 62
     7
100
AcDbEllipse
 10
55.768642
 20
-2.584035
 30
0.0
 11
-1.4999965141965776
 21
0.0032337900452706
 31
0.0
210
0.0
220
0.0
230
1.0
 40
0.122578
 41
3.1591785765829079
 42
4.4161170072521845
  0
LINE
  5
E0
100
AcDbEntity
  8
0
390
0
  6
Continuous
 62
     7
100
AcDbLine
 10
59.254339
 20
-4.017705
 30
0.0
 11
57.518375
 21
-3.016981
 31
0.0
  0
ELLIPSE
  5
E1
100
AcDbEntity
  8
0
390
0
  6
Continuous
 62
     7
100
AcDbEllipse
 10
56.768489
 20
-4.315822
 30
0.0
 11
-0.7471977127685991
 21
-1.3006519819049878
 31
0.0
210
0.0
220
0.0
230
0.9999999999999999
 40
0.122578
 41
1.8670682999274444
 42
3.1240067305967671
  0
LINE
  5
E2
100
AcDbEntity
  8
0
390
0
  6
Continuous
 62
     7
100
AcDbLine
 10
57.518375
 20
3.016982
 30
0.0
 11
59.254339
 21
4.017706
 31
0.0
  0
ELLIPSE
  5
E3
100
AcDbEntity
  8
0
390
0
  6
Continuous
 62
     7
100
AcDbEllipse
 10
56.768489
 20
4.315823
 30
0.0
 11
-0.7471977127680995
 21
1.3006519819052653
 31
0.0
210
0.0
220
0.0
230
1.0
 40
0.122578
 41
3.1591785765841047
 42
4.4161170072525735
  0
LINE
  5
E4
100
AcDbEntity
  8
0
390
0
  6
Continuous
 62
     7
100
AcDbLine
 10
68.718063
 20
-0.580284
 30
0.0
 11
68.718063
 21
0.580285
 31
0.0
  0
LINE
  5
E5
100
AcDbEntity
  8
0
390
0
  6
Continuous
 62
     7
100
AcDbLine
 10
67.218291
 20
-0.580284
 30
0.0
 11
68.718063
 21
-0.580284
 31
0.0
  0
LINE
  5
E6
100
AcDbEntity
  8
0
390
0
  6
Continuous
 62
     7
100
AcDbLine
 10
67.218291
 20
0.580285
 30
0.0
 11
67.218291
 21
-0.580284
 31
0.0
  0
LINE
  5
E7
100
AcDbEntity
  8
0
390
0
  6
Continuous
 62
     7
100
AcDbLine
 10
67.218291
 20
0.580285
 30
0.0
 11
68.718063
 21
0.580285
 31
0.0
  0
POLYLINE
  5
E8
100
AcDbEntity
  8
0
390
0
  6
Continuous
 62
     7
100
AcDb2dPolyline
 66
     1
 10
0.0
 20
0.0
 30
0.0
 40
0.1
 41
0.1
  0
VERTEX
  5
E9
100
AcDbEntity
  8
0
390
0
 62
     7
100
AcDbVertex
100
AcDb2dVertex
 10
57.268413
 20
2.584036
 30
0.0
  0
VERTEX
  5
EA
100
AcDbEntity
  8
0
390
0
 62
     7
100
AcDbVertex
100
AcDb2dVertex
 10
57.268531
 20
2.600449
 30
0.0
  0
VERTEX
  5
EB
100
AcDbEntity
  8
0
390
0
 62
     7
100
AcDbVertex
100
AcDb2dVertex
 10
57.269506
 20
2.622127
 30
0.0
  0
VERTEX
  5
EC
100
AcDbEntity
  8
0
390
0
 62
     7
100
AcDbVertex
100
AcDb2dVertex
 10
57.271441
 20
2.643938
 30
0.0
  0
VERTEX
  5
ED
100
AcDbEntity
  8
0
390
0
 62
     7
100
AcDbVertex
100
AcDb2dVertex
 10
57.27437
 20
2.665866
 30
0.0
  0
VERTEX
  5
EE
100
AcDbEntity
  8
0
390
0
 62
     7
100
AcDbVertex
100
AcDb2dVertex
 10
57.278328
 20
2.687892
 30
0.0
  0
VERTEX
  5
EF
100
AcDbEntity
  8
0
390
0
 62
     7
100
AcDbVertex
100
AcDb2dVertex
 10
57.283352
 20
2.71
 30
0.0
  0
VERTEX
  5
F0
100
AcDbEntity
  8
0
390
0
 62
     7
100
AcDbVertex
100
AcDb2dVertex
 10
57.287072
 20
2.723925
 30
0.0
  0
VERTEX
  5
F1
100
AcDbEntity
  8
0
390
0
 62
     7
100
AcDbVertex
100
AcDb2dVertex
 10
57.291247
 20
2.737887
 30
0.0
  0
VERTEX
  5
F2
100
AcDbEntity
  8
0
390
0
 62
     7
100
AcDbVertex
100
AcDb2dVertex
 10
57.295882
 20
2.751853
 30
0.0
  0
VERTEX
  5
F3
100
AcDbEntity
  8
0
390
0
 62
     7
100
AcDbVertex
100
AcDb2dVertex
 10
57.30098
 20
2.76579
 30
0.0
  0
VERTEX
  5
F4
100
AcDbEntity
  8
0
390
0
 62
     7
100
AcDbVertex
100
AcDb2dVertex
 10
57.305715
 20
2.777673
 30
0.0
  0
VERTEX
  5
F5
100
AcDbEntity
  8
0
390
0
 62
     7
100
AcDbVertex
100
AcDb2dVertex
 10
57.3108
 20
2.789517
 30
0.0
  0
VERTEX
  5
F6
100
AcDbEntity
  8
0
390
0
 62
     7
100
AcDbVertex
100
AcDb2dVertex
 10
57.316226
 20
2.801286
 30
0.0
  0
VERTEX
  5
F7
100
AcDbEntity
  8
0
390
0
 62
     7
100
AcDbVertex
100
AcDb2dVertex
 10
57.321982
 20
2.812943
 30
0.0
  0
VERTEX
  5
F8
100
AcDbEntity
  8
0
390
0
 62
     7
100
AcDbVertex
100
AcDb2dVertex
 10
57.328297
 20
2.824889
 30
0.0
  0
VERTEX
  5
F9
100
AcDbEntity
  8
0
390
0
 62
     7
100
AcDbVertex
100
AcDb2dVertex
 10
57.334958
 20
2.836685
 30
0.0
  0
VERTEX
  5
FA
100
AcDbEntity
  8
0
390
0
 62
     7
100
AcDbVertex
100
AcDb2dVertex
 10
57.341943
 20
2.84829
 30
0.0
  0
VERTEX
  5
FB
100
AcDbEntity
  8
0
390
0
 62
     7
100
AcDbVertex
100
AcDb2dVertex
 10
57.349225
 20
2.859659
 30
0.0
  0
VERTEX
  5
FC
100
AcDbEntity
  8
0
390
0
 62
     7
100
AcDbVertex
100
AcDb2dVertex
 10
57.357885
 20
2.872328
 30
0.0
  0
VERTEX
  5
FD
100
AcDbEntity
  8
0
390
0
 62
     7
100
AcDbVertex
100
AcDb2dVertex
 10
57.366899
 20
2.884662
 30
0.0
  0
VERTEX
  5
FE
100
AcDbEntity
  8
0
390
0
 62
     7
100
AcDbVertex
100
AcDb2dVertex
 10
57.376226
 20
2.896625
 30
0.0
  0
VERTEX
  5
FF
100
AcDbEntity
  8
0
390
0
 62
     7
100
AcDbVertex
100
AcDb2dVertex
 10
57.385822
 20
2.908178
 30
0.0
  0
VERTEX
  5
100
100
AcDbEntity
  8
0
390
0
 62
     7
100
AcDbVertex
100
AcDb2dVertex
 10
57.397555
 20
2.921373
 30
0.0
  0
VERTEX
  5
101
100
AcDbEntity
  8
0
390
0
 62
     7
100
AcDbVertex
100
AcDb2dVertex
 10
57.409628
 20
2.934006
 30
0.0
  0
VERTEX
  5
102
100
AcDbEntity
  8
0
390
0
 62
     7
100
AcDbVertex
100
AcDb2dVertex
 10
57.422002
 20
2.946071
 30
0.0
  0
VERTEX
  5
103
100
AcDbEntity
  8
0
390
0
 62
     7
100
AcDbVertex
100
AcDb2dVertex
 10
57.434638
 20
2.957561
 30
0.0
  0
VERTEX
  5
104
100
AcDbEntity
  8
0
390
0
 62
     7
100
AcDbVertex
100
AcDb2dVertex
 10
57.447498
 20
2.968471
 30
0.0
  0
VERTEX
  5
105
100
AcDbEntity
  8
0
390
0
 62
     7
100
AcDbVertex
100
AcDb2dVertex
 10
57.464628
 20
2.981893
 30
0.0
  0
VERTEX
  5
106
100
AcDbEntity
  8
0
390
0
 62
     7
100
AcDbVertex
100
AcDb2dVertex
 10
57.482157
 20
2.994437
 30
0.0
  0
VERTEX
  5
107
100
AcDbEntity
  8
0
390
0
 62
     7
100
AcDbVertex
100
AcDb2dVertex
 10
57.500077
 20
3.006125
 30
0.0
  0
VERTEX
  5
108
100
AcDbEntity
  8
0
390
0
 62
     7
100
AcDbVertex
100
AcDb2dVertex
 10
57.518375
 20
3.016982
 30
0.0
  0
SEQEND
  5
109
100
AcDbEntity
  8
0
390
0
  0
LINE
  5
10A
100
AcDbEntity
  8
0
390
0
  6
Continuous
 62
     7
100
AcDbLine
 10
65.983581
 20
5.316547
 30
0.0
 11
64.978499
 21
5.896831
 31
0.0
  0
LINE
  5
10B
100
AcDbEntity
  8
0
390
0
  6
Continuous
 62
     7
100
AcDbLine
 10
65.233695
 20
4.017706
 30
0.0
 11
65.983581
 21
5.316547
 31
0.0
  0
LINE
  5
10C
100
AcDbEntity
  8
0
390
0
  6
Continuous
 62
     7
100
AcDbLine
 10
64.228613
 20
4.597991
 30
0.0
 11
65.233695
 21
4.017706
 31
0.0
  0
LINE
  5
10D
100
AcDbEntity
  8
0
390
0
  6
Continuous
 62
     7
100
AcDbLine
 10
64.228613
 20
4.597991
 30
0.0
 11
64.978499
 21
5.896831
 31
0.0
  0
POLYLINE
  5
10E
100
AcDbEntity
  8
0
390
0
  6
Continuous
 62
     7
100
AcDb2dPolyline
 66
     1
 10
0.0
 20
0.0
 30
0.0
 40
0.1
 41
0.1
  0
VERTEX
  5
10F
100
AcDbEntity
  8
0
390
0
 62
     7
100
AcDbVertex
100
AcDb2dVertex
 10
57.518375
 20
-3.016981
 30
0.0
  0
VERTEX
  5
110
100
AcDbEntity
  8
0
390
0
 62
     7
100
AcDbVertex
100
AcDb2dVertex
 10
57.50422
 20
-3.008673
 30
0.0
  0
VERTEX
  5
111
100
AcDbEntity
  8
0
390
0
 62
     7
100
AcDbVertex
100
AcDb2dVertex
 10
57.485934
 20
-2.996989
 30
0.0
  0
VERTEX
  5
112
100
AcDbEntity
  8
0
390
0
 62
     7
100
AcDbVertex
100
AcDb2dVertex
 10
57.468012
 20
-2.984408
 30
0.0
  0
VERTEX
  5
113
100
AcDbEntity
  8
0
390
0
 62
     7
100
AcDbVertex
100
AcDb2dVertex
 10
57.450486
 20
-2.970908
 30
0.0
  0
VERTEX
  5
114
100
AcDbEntity
  8
0
390
0
 62
     7
100
AcDbVertex
100
AcDb2dVertex
 10
57.43339
 20
-2.956466
 30
0.0
  0
VERTEX
  5
115
100
AcDbEntity
  8
0
390
0
 62
     7
100
AcDbVertex
100
AcDb2dVertex
 10
57.416756
 20
-2.941062
 30
0.0
  0
VERTEX
  5
116
100
AcDbEntity
  8
0
390
0
 62
     7
100
AcDbVertex
100
AcDb2dVertex
 10
57.406557
 20
-2.930878
 30
0.0
  0
VERTEX
  5
117
100
AcDbEntity
  8
0
390
0
 62
     7
100
AcDbVertex
100
AcDb2dVertex
 10
57.396553
 20
-2.920281
 30
0.0
  0
VERTEX
  5
118
100
AcDbEntity
  8
0
390
0
 62
     7
100
AcDbVertex
100
AcDb2dVertex
 10
57.386775
 20
-2.909284
 30
0.0
  0
VERTEX
  5
119
100
AcDbEntity
  8
0
390
0
 62
     7
100
AcDbVertex
100
AcDb2dVertex
 10
57.377255
 20
-2.897901
 30
0.0
  0
VERTEX
  5
11A
100
AcDbEntity
  8
0
390
0
 62
     7
100
AcDbVertex
100
AcDb2dVertex
 10
57.369331
 20
-2.887858
 30
0.0
  0
VERTEX
  5
11B
100
AcDbEntity
  8
0
390
0
 62
     7
100
AcDbVertex
100
AcDb2dVertex
 10
57.361616
 20
-2.877532
 30
0.0
  0
VERTEX
  5
11C
100
AcDbEntity
  8
0
390
0
 62
     7
100
AcDbVertex
100
AcDb2dVertex
 10
57.354137
 20
-2.866949
 30
0.0
  0
VERTEX
  5
11D
100
AcDbEntity
  8
0
390
0
 62
     7
100
AcDbVertex
100
AcDb2dVertex
 10
57.34692
 20
-2.856135
 30
0.0
  0
VERTEX
  5
11E
100
AcDbEntity
  8
0
390
0
 62
     7
100
AcDbVertex
100
AcDb2dVertex
 10
57.339731
 20
-2.844694
 30
0.0
  0
VERTEX
  5
11F
100
AcDbEntity
  8
0
390
0
 62
     7
100
AcDbVertex
100
AcDb2dVertex
 10
57.332846
 20
-2.833027
 30
0.0
  0
VERTEX
  5
120
100
AcDbEntity
  8
0
390
0
 62
     7
100
AcDbVertex
100
AcDb2dVertex
 10
57.326289
 20
-2.821176
 30
0.0
  0
VERTEX
  5
121
100
AcDbEntity
  8
0
390
0
 62
     7
100
AcDbVertex
100
AcDb2dVertex
 10
57.320084
 20
-2.809185
 30
0.0
  0
VERTEX
  5
122
100
AcDbEntity
  8
0
390
0
 62
     7
100
AcDbVertex
100
AcDb2dVertex
 10
57.313443
 20
-2.79535
 30
0.0
  0
VERTEX
  5
123
100
AcDbEntity
  8
0
390
0
 62
     7
100
AcDbVertex
100
AcDb2dVertex
 10
57.307268
 20
-2.781376
 30
0.0
  0
VERTEX
  5
124
100
AcDbEntity
  8
0
390
0
 62
     7
100
AcDbVertex
100
AcDb2dVertex
 10
57.301571
 20
-2.767318
 30
0.0
  0
VERTEX
  5
125
100
AcDbEntity
  8
0
390
0
 62
     7
100
AcDbVertex
100
AcDb2dVertex
 10
57.296364
 20
-2.753231
 30
0.0
  0
VERTEX
  5
126
100
AcDbEntity
  8
0
390
0
 62
     7
100
AcDbVertex
100
AcDb2dVertex
 10
57.290803
 20
-2.736473
 30
0.0
  0
VERTEX
  5
127
100
AcDbEntity
  8
0
390
0
 62
     7
100
AcDbVertex
100
AcDb2dVertex
 10
57.2859
 20
-2.7197
 30
0.0
  0
VERTEX
  5
128
100
AcDbEntity
  8
0
390
0
 62
     7
100
AcDbVertex
100
AcDb2dVertex
 10
57.281638
 20
-2.702952
 30
0.0
  0
VERTEX
  5
129
100
AcDbEntity
  8
0
390
0
 62
     7
100
AcDbVertex
100
AcDb2dVertex
 10
57.278005
 20
-2.686263
 30
0.0
  0
VERTEX
  5
12A
100
AcDbEntity
  8
0
390
0
 62
     7
100
AcDbVertex
100
AcDb2dVertex
 10
57.274987
 20
-2.669672
 30
0.0
  0
VERTEX
  5
12B
100
AcDbEntity
  8
0
390
0
 62
     7
100
AcDbVertex
100
AcDb2dVertex
 10
57.271928
 20
-2.648126
 30
0.0
  0
VERTEX
  5
12C
100
AcDbEntity
  8
0
390
0
 62
     7
100
AcDbVertex
100
AcDb2dVertex
 10
57.269829
 20
-2.626673
 30
0.0
  0
VERTEX
  5
12D
100
AcDbEntity
  8
0
390
0
 62
     7
100
AcDbVertex
100
AcDb2dVertex
 10
57.268666
 20
-2.60531
 30
0.0
  0
VERTEX
  5
12E
100
AcDbEntity
  8
0
390
0
 62
     7
100
AcDbVertex
100
AcDb2dVertex
 10
57.268413
 20
-2.584035
 30
0.0
  0
SEQEND
  5
12F
100
AcDbEntity
  8
0
390
0
  0
ELLIPSE
  5
130
100
AcDbEntity
  8
0
390
0
  6
Continuous
 62
     7
100
AcDbEllipse
 10
68.719393
 20
-2.584035
 30
0.0
 11
-1.4999965141966054
 21
-0.0032337900452706
 31
0.0
210
0.0
220
0.0
230
1.0
 40
0.122578
 41
5.0086609535172135
 42
6.2655993841864897
  0
LINE
  5
131
100
AcDbEntity
  8
0
390
0
  6
Continuous
 62
     7
100
AcDbLine
 10
67.218291
 20
-0.580284
 30
0.0
 11
67.219621
 21
-2.584035
 31
0.0
  0
ELLIPSE
  5
132
100
AcDbEntity
  8
0
390
0
  6
Continuous
 62
     7
100
AcDbEllipse
 10
67.719545
 20
4.315823
 30
0.0
 11
-0.7471977127685991
 21
-1.3006519819049878
 31
0.0
210
0.0
220
0.0
230
0.9999999999999999
 40
0.122578
 41
5.0086609535171931
 42
6.2655993841864994
  0
LINE
  5
133
100
AcDbEntity
  8
0
390
0
  6
Continuous
 62
     7
100
AcDbLine
 10
65.233695
 20
4.017706
 30
0.0
 11
66.969659
 21
3.016982
 31
0.0
  0
ELLIPSE
  5
134
100
AcDbEntity
  8
0
390
0
  6
Continuous
 62
     7
100
AcDbEllipse
 10
63.243865
 20
6.899858
 30
0.0
 11
-0.7527988014280063
 21
-1.2974181918597172
 31
0.0
210
0.0
220
0.0
230
0.9999999999999999
 40
0.122578
 41
0.0175859229930899
 42
1.274524353662347
  0
POLYLINE
  5
135
100
AcDbEntity
  8
0
390
0
  6
Continuous
 62
     7
100
AcDb2dPolyline
 66
     1
 10
0.0
 20
0.0
 30
0.0
 40
0.1
 41
0.1
  0
VERTEX
  5
136
100
AcDbEntity
  8
0
390
0
 62
     7
100
AcDbVertex
100
AcDb2dVertex
 10
61.994055
 20
5.601017
 30
0.0
  0
VERTEX
  5
137
100
AcDbEntity
  8
0
390
0
 62
     7
100
AcDbVertex
100
AcDb2dVertex
 10
62.008328
 20
5.609122
 30
0.0
  0
VERTEX
  5
138
100
AcDbEntity
  8
0
390
0
 62
     7
100
AcDbVertex
100
AcDb2dVertex
 10
62.024245
 20
5.617455
 30
0.0
  0
VERTEX
  5
139
100
AcDbEntity
  8
0
390
0
 62
     7
100
AcDbVertex
100
AcDb2dVertex
 10
62.040546
 20
5.625254
 30
0.0
  0
VERTEX
  5
13A
100
AcDbEntity
  8
0
390
0
 62
     7
100
AcDbVertex
100
AcDb2dVertex
 10
62.05724
 20
5.632508
 30
0.0
  0
VERTEX
  5
13B
100
AcDbEntity
  8
0
390
0
 62
     7
100
AcDbVertex
100
AcDb2dVertex
 10
62.074584
 20
5.639293
 30
0.0
  0
VERTEX
  5
13C
100
AcDbEntity
  8
0
390
0
 62
     7
100
AcDbVertex
100
AcDb2dVertex
 10
62.092378
 20
5.645489
 30
0.0
  0
VERTEX
  5
13D
100
AcDbEntity
  8
0
390
0
 62
     7
100
AcDbVertex
100
AcDb2dVertex
 10
62.110613
 20
5.651062
 30
0.0
  0
VERTEX
  5
13E
100
AcDbEntity
  8
0
390
0
 62
     7
100
AcDbVertex
100
AcDb2dVertex
 10
62.124484
 20
5.654792
 30
0.0
  0
VERTEX
  5
13F
100
AcDbEntity
  8
0
390
0
 62
     7
100
AcDbVertex
100
AcDb2dVertex
 10
62.1386
 20
5.658145
 30
0.0
  0
VERTEX
  5
140
100
AcDbEntity
  8
0
390
0
 62
     7
100
AcDbVertex
100
AcDb2dVertex
 10
62.15306
 20
5.661126
 30
0.0
  0
VERTEX
  5
141
100
AcDbEntity
  8
0
390
0
 62
     7
100
AcDbVertex
100
AcDb2dVertex
 10
62.167742
 20
5.663691
 30
0.0
  0
VERTEX
  5
142
100
AcDbEntity
  8
0
390
0
 62
     7
100
AcDbVertex
100
AcDb2dVertex
 10
62.180401
 20
5.665532
 30
0.0
  0
VERTEX
  5
143
100
AcDbEntity
  8
0
390
0
 62
     7
100
AcDbVertex
100
AcDb2dVertex
 10
62.193201
 20
5.66705
 30
0.0
  0
VERTEX
  5
144
100
AcDbEntity
  8
0
390
0
 62
     7
100
AcDbVertex
100
AcDb2dVertex
 10
62.206106
 20
5.668236
 30
0.0
  0
VERTEX
  5
145
100
AcDbEntity
  8
0
390
0
 62
     7
100
AcDbVertex
100
AcDb2dVertex
 10
62.21908
 20
5.669079
 30
0.0
  0
VERTEX
  5
146
100
AcDbEntity
  8
0
390
0
 62
     7
100
AcDbVertex
100
AcDb2dVertex
 10
62.232582
 20
5.669584
 30
0.0
  0
VERTEX
  5
147
100
AcDbEntity
  8
0
390
0
 62
     7
100
AcDbVertex
100
AcDb2dVertex
 10
62.246129
 20
5.669713
 30
0.0
  0
VERTEX
  5
148
100
AcDbEntity
  8
0
390
0
 62
     7
100
AcDbVertex
100
AcDb2dVertex
 10
62.259671
 20
5.669466
 30
0.0
  0
VERTEX
  5
149
100
AcDbEntity
  8
0
390
0
 62
     7
100
AcDbVertex
100
AcDb2dVertex
 10
62.273158
 20
5.668844
 30
0.0
  0
VERTEX
  5
14A
100
AcDbEntity
  8
0
390
0
 62
     7
100
AcDbVertex
100
AcDb2dVertex
 10
62.283323
 20
5.668125
 30
0.0
  0
VERTEX
  5
14B
100
AcDbEntity
  8
0
390
0
 62
     7
100
AcDbVertex
100
AcDb2dVertex
 10
62.293439
 20
5.667197
 30
0.0
  0
VERTEX
  5
14C
100
AcDbEntity
  8
0
390
0
 62
     7
100
AcDbVertex
100
AcDb2dVertex
 10
62.303487
 20
5.666063
 30
0.0
  0
VERTEX
  5
14D
100
AcDbEntity
  8
0
390
0
 62
     7
100
AcDbVertex
100
AcDb2dVertex
 10
62.318582
 20
5.663959
 30
0.0
  0
VERTEX
  5
14E
100
AcDbEntity
  8
0
390
0
 62
     7
100
AcDbVertex
100
AcDb2dVertex
 10
62.333475
 20
5.66141
 30
0.0
  0
VERTEX
  5
14F
100
AcDbEntity
  8
0
390
0
 62
     7
100
AcDbVertex
100
AcDb2dVertex
 10
62.350769
 20
5.657846
 30
0.0
  0
VERTEX
  5
150
100
AcDbEntity
  8
0
390
0
 62
     7
100
AcDbVertex
100
AcDb2dVertex
 10
62.367746
 20
5.653707
 30
0.0
  0
VERTEX
  5
151
100
AcDbEntity
  8
0
390
0
 62
     7
100
AcDbVertex
100
AcDb2dVertex
 10
62.384381
 20
5.649023
 30
0.0
  0
VERTEX
  5
152
100
AcDbEntity
  8
0
390
0
 62
     7
100
AcDbVertex
100
AcDb2dVertex
 10
62.40065
 20
5.643825
 30
0.0
  0
VERTEX
  5
153
100
AcDbEntity
  8
0
390
0
 62
     7
100
AcDbVertex
100
AcDb2dVertex
 10
62.416528
 20
5.638143
 30
0.0
  0
VERTEX
  5
154
100
AcDbEntity
  8
0
390
0
 62
     7
100
AcDbVertex
100
AcDb2dVertex
 10
62.436717
 20
5.630019
 30
0.0
  0
VERTEX
  5
155
100
AcDbEntity
  8
0
390
0
 62
     7
100
AcDbVertex
100
AcDb2dVertex
 10
62.456345
 20
5.62111
 30
0.0
  0
VERTEX
  5
156
100
AcDbEntity
  8
0
390
0
 62
     7
100
AcDbVertex
100
AcDb2dVertex
 10
62.475427
 20
5.611436
 30
0.0
  0
VERTEX
  5
157
100
AcDbEntity
  8
0
390
0
 62
     7
100
AcDbVertex
100
AcDb2dVertex
 10
62.493979
 20
5.601017
 30
0.0
  0
SEQEND
  5
158
100
AcDbEntity
  8
0
390
0
  0
POLYLINE
  5
159
100
AcDbEntity
  8
0
390
0
  6
Continuous
 62
     7
100
AcDb2dPolyline
 66
     1
 10
0.0
 20
0.0
 30
0.0
 40
0.1
 41
0.1
  0
VERTEX
  5
15A
100
AcDbEntity
  8
0
390
0
 62
     7
100
AcDbVertex
100
AcDb2dVertex
 10
62.493979
 20
-5.601016
 30
0.0
  0
VERTEX
  5
15B
100
AcDbEntity
  8
0
390
0
 62
     7
100
AcDbVertex
100
AcDb2dVertex
 10
62.479706
 20
-5.609121
 30
0.0
  0
VERTEX
  5
15C
100
AcDbEntity
  8
0
390
0
 62
     7
100
AcDbVertex
100
AcDb2dVertex
 10
62.463789
 20
-5.617454
 30
0.0
  0
VERTEX
  5
15D
100
AcDbEntity
  8
0
390
0
 62
     7
100
AcDbVertex
100
AcDb2dVertex
 10
62.447488
 20
-5.625253
 30
0.0
  0
VERTEX
  5
15E
100
AcDbEntity
  8
0
390
0
 62
     7
100
AcDbVertex
100
AcDb2dVertex
 10
62.430794
 20
-5.632507
 30
0.0
  0
VERTEX
  5
15F
100
AcDbEntity
  8
0
390
0
 62
     7
100
AcDbVertex
100
AcDb2dVertex
 10
62.41345
 20
-5.639292
 30
0.0
  0
VERTEX
  5
160
100
AcDbEntity
  8
0
390
0
 62
     7
100
AcDbVertex
100
AcDb2dVertex
 10
62.395656
 20
-5.645488
 30
0.0
  0
VERTEX
  5
161
100
AcDbEntity
  8
0
390
0
 62
     7
100
AcDbVertex
100
AcDb2dVertex
 10
62.377422
 20
-5.651062
 30
0.0
  0
VERTEX
  5
162
100
AcDbEntity
  8
0
390
0
 62
     7
100
AcDbVertex
100
AcDb2dVertex
 10
62.36355
 20
-5.654791
 30
0.0
  0
VERTEX
  5
163
100
AcDbEntity
  8
0
390
0
 62
     7
100
AcDbVertex
100
AcDb2dVertex
 10
62.349434
 20
-5.658145
 30
0.0
  0
VERTEX
  5
164
100
AcDbEntity
  8
0
390
0
 62
     7
100
AcDbVertex
100
AcDb2dVertex
 10
62.334974
 20
-5.661125
 30
0.0
  0
VERTEX
  5
165
100
AcDbEntity
  8
0
390
0
 62
     7
100
AcDbVertex
100
AcDb2dVertex
 10
62.320292
 20
-5.66369
 30
0.0
  0
VERTEX
  5
166
100
AcDbEntity
  8
0
390
0
 62
     7
100
AcDbVertex
100
AcDb2dVertex
 10
62.307633
 20
-5.665531
 30
0.0
  0
VERTEX
  5
167
100
AcDbEntity
  8
0
390
0
 62
     7
100
AcDbVertex
100
AcDb2dVertex
 10
62.294833
 20
-5.667049
 30
0.0
  0
VERTEX
  5
168
100
AcDbEntity
  8
0
390
0
 62
     7
100
AcDbVertex
100
AcDb2dVertex
 10
62.281929
 20
-5.668235
 30
0.0
  0
VERTEX
  5
169
100
AcDbEntity
  8
0
390
0
 62
     7
100
AcDbVertex
100
AcDb2dVertex
 10
62.268954
 20
-5.669078
 30
0.0
  0
VERTEX
  5
16A
100
AcDbEntity
  8
0
390
0
 62
     7
100
AcDbVertex
100
AcDb2dVertex
 10
62.255452
 20
-5.669583
 30
0.0
  0
VERTEX
  5
16B
100
AcDbEntity
  8
0
390
0
 62
     7
100
AcDbVertex
100
AcDb2dVertex
 10
62.241905
 20
-5.669712
 30
0.0
  0
VERTEX
  5
16C
100
AcDbEntity
  8
0
390
0
 62
     7
100
AcDbVertex
100
AcDb2dVertex
 10
62.228364
 20
-5.669465
 30
0.0
  0
VERTEX
  5
16D
100
AcDbEntity
  8
0
390
0
 62
     7
100
AcDbVertex
100
AcDb2dVertex
 10
62.214876
 20
-5.668843
 30
0.0
  0
VERTEX
  5
16E
100
AcDbEntity
  8
0
390
0
 62
     7
100
AcDbVertex
100
AcDb2dVertex
 10
62.204711
 20
-5.668124
 30
0.0
  0
VERTEX
  5
16F
100
AcDbEntity
  8
0
390
0
 62
     7
100
AcDbVertex
100
AcDb2dVertex
 10
62.194595
 20
-5.667196
 30
0.0
  0
VERTEX
  5
170
100
AcDbEntity
  8
0
390
0
 62
     7
100
AcDbVertex
100
AcDb2dVertex
 10
62.184547
 20
-5.666062
 30
0.0
  0
VERTEX
  5
171
100
AcDbEntity
  8
0
390
0
 62
     7
100
AcDbVertex
100
AcDb2dVertex
 10
62.169452
 20
-5.663959
 30
0.0
  0
VERTEX
  5
172
100
AcDbEntity
  8
0
390
0
 62
     7
100
AcDbVertex
100
AcDb2dVertex
 10
62.154559
 20
-5.661409
 30
0.0
  0
VERTEX
  5
173
100
AcDbEntity
  8
0
390
0
 62
     7
100
AcDbVertex
100
AcDb2dVertex
 10
62.137265
 20
-5.657845
 30
0.0
  0
VERTEX
  5
174
100
AcDbEntity
  8
0
390
0
 62
     7
100
AcDbVertex
100
AcDb2dVertex
 10
62.120288
 20
-5.653706
 30
0.0
  0
VERTEX
  5
175
100
AcDbEntity
  8
0
390
0
 62
     7
100
AcDbVertex
100
AcDb2dVertex
 10
62.103653
 20
-5.649022
 30
0.0
  0
VERTEX
  5
176
100
AcDbEntity
  8
0
390
0
 62
     7
100
AcDbVertex
100
AcDb2dVertex
 10
62.087384
 20
-5.643824
 30
0.0
  0
VERTEX
  5
177
100
AcDbEntity
  8
0
390
0
 62
     7
100
AcDbVertex
100
AcDb2dVertex
 10
62.071506
 20
-5.638142
 30
0.0
  0
VERTEX
  5
178
100
AcDbEntity
  8
0
390
0
 62
     7
100
AcDbVertex
100
AcDb2dVertex
 10
62.051317
 20
-5.630019
 30
0.0
  0
VERTEX
  5
179
100
AcDbEntity
  8
0
390
0
 62
     7
100
AcDbVertex
100
AcDb2dVertex
 10
62.031689
 20
-5.621109
 30
0.0
  0
VERTEX
  5
17A
100
AcDbEntity
  8
0
390
0
 62
     7
100
AcDbVertex
100
AcDb2dVertex
 10
62.012607
 20
-5.611435
 30
0.0
  0
VERTEX
  5
17B
100
AcDbEntity
  8
0
390
0
 62
     7
100
AcDbVertex
100
AcDb2dVertex
 10
61.994055
 20
-5.601016
 30
0.0
  0
SEQEND
  5
17C
100
AcDbEntity
  8
0
390
0
  0
ELLIPSE
  5
17D
100
AcDbEntity
  8
0
390
0
  6
Continuous
 62
     7
100
AcDbEllipse
 10
63.243865
 20
-6.899857
 30
0.0
 11
0.7527988014280063
 21
-1.2974181918597172
 31
0.0
210
0.0
220
0.0
230
0.9999999999999999
 40
0.122578
 41
1.8670682999274018
 42
3.1240067305967951
  0
LINE
  5
17E
100
AcDbEntity
  8
0
390
0
  6
Continuous
 62
     7
100
AcDbLine
 10
64.228613
 20
-4.59799
 30
0.0
 11
62.493979
 21
-5.601016
 31
0.0
  0
LINE
  5
17F
100
AcDbEntity
  8
0
390
0
  6
Continuous
 62
     7
100
AcDbLine
 10
64.978499
 20
-5.89683
 30
0.0
 11
64.228613
 21
-4.59799
 31
0.0
  0
LINE
  5
180
100
AcDbEntity
  8
0
390
0
  6
Continuous
 62
     7
100
AcDbLine
 10
62.493979
 20
5.601017
 30
0.0
 11
64.228613
 21
4.597991
 31
0.0
  0
LINE
  5
181
100
AcDbEntity
  8
0
390
0
  6
Continuous
 62
     7
100
AcDbLine
 10
65.233695
 20
-4.017705
 30
0.0
 11
64.228613
 21
-4.59799
 31
0.0
  0
LINE
  5
182
100
AcDbEntity
  8
0
390
0
  6
Continuous
 62
     7
100
AcDbLine
 10
65.983581
 20
-5.316546
 30
0.0
 11
65.233695
 21
-4.017705
 31
0.0
  0
LINE
  5
183
100
AcDbEntity
  8
0
390
0
  6
Continuous
 62
     7
100
AcDbLine
 10
64.978499
 20
-5.89683
 30
0.0
 11
65.983581
 21
-5.316546
 31
0.0
  0
LINE
  5
184
100
AcDbEntity
  8
0
390
0
  6
Continuous
 62
     7
100
AcDbLine
 10
66.969659
 20
-3.016981
 30
0.0
 11
65.233695
 21
-4.017705
 31
0.0
  0
ELLIPSE
  5
185
100
AcDbEntity
  8
0
390
0
  6
Continuous
 62
     7
100
AcDbEllipse
 10
67.719545
 20
-4.315822
 30
0.0
 11
-0.7471977127685991
 21
1.3006519819049878
 31
0.0
210
0.0
220
0.0
230
0.9999999999999999
 40
0.122578
 41
0.0175859229931022
 42
1.2745243536623947
  0
ELLIPSE
  5
186
100
AcDbEntity
  8
0
390
0
  6
Continuous
 62
     7
100
AcDbEllipse
 10
68.719393
 20
2.584036
 30
0.0
 11
-1.4999965141966054
 21
0.0032337900452706
 31
0.0
210
0.0
220
0.0
230
1.0
 40
0.122578
 41
0.0175859229931147
 42
1.2745243536624169
  0
POLYLINE
  5
187
100
AcDbEntity
  8
0
390
0
  6
Continuous
 62
     7
100
AcDb2dPolyline
 66
     1
 10
0.0
 20
0.0
 30
0.0
 40
0.1
 41
0.1
  0
VERTEX
  5
188
100
AcDbEntity
  8
0
390
0
 62
     7
100
AcDbVertex
100
AcDb2dVertex
 10
66.969659
 20
3.016982
 30
0.0
  0
VERTEX
  5
189
100
AcDbEntity
  8
0
390
0
 62
     7
100
AcDbVertex
100
AcDb2dVertex
 10
66.983814
 20
3.008674
 30
0.0
  0
VERTEX
  5
18A
100
AcDbEntity
  8
0
390
0
 62
     7
100
AcDbVertex
100
AcDb2dVertex
 10
67.002101
 20
2.99699
 30
0.0
  0
VERTEX
  5
18B
100
AcDbEntity
  8
0
390
0
 62
     7
100
AcDbVertex
100
AcDb2dVertex
 10
67.020023
 20
2.984409
 30
0.0
  0
VERTEX
  5
18C
100
AcDbEntity
  8
0
390
0
 62
     7
100
AcDbVertex
100
AcDb2dVertex
 10
67.037548
 20
2.970909
 30
0.0
  0
VERTEX
  5
18D
100
AcDbEntity
  8
0
390
0
 62
     7
100
AcDbVertex
100
AcDb2dVertex
 10
67.054644
 20
2.956467
 30
0.0
  0
VERTEX
  5
18E
100
AcDbEntity
  8
0
390
0
 62
     7
100
AcDbVertex
100
AcDb2dVertex
 10
67.071278
 20
2.941063
 30
0.0
  0
VERTEX
  5
18F
100
AcDbEntity
  8
0
390
0
 62
     7
100
AcDbVertex
100
AcDb2dVertex
 10
67.081478
 20
2.930879
 30
0.0
  0
VERTEX
  5
190
100
AcDbEntity
  8
0
390
0
 62
     7
100
AcDbVertex
100
AcDb2dVertex
 10
67.091481
 20
2.920282
 30
0.0
  0
VERTEX
  5
191
100
AcDbEntity
  8
0
390
0
 62
     7
100
AcDbVertex
100
AcDb2dVertex
 10
67.101259
 20
2.909285
 30
0.0
  0
VERTEX
  5
192
100
AcDbEntity
  8
0
390
0
 62
     7
100
AcDbVertex
100
AcDb2dVertex
 10
67.11078
 20
2.897902
 30
0.0
  0
VERTEX
  5
193
100
AcDbEntity
  8
0
390
0
 62
     7
100
AcDbVertex
100
AcDb2dVertex
 10
67.118703
 20
2.887859
 30
0.0
  0
VERTEX
  5
194
100
AcDbEntity
  8
0
390
0
 62
     7
100
AcDbVertex
100
AcDb2dVertex
 10
67.126418
 20
2.877533
 30
0.0
  0
VERTEX
  5
195
100
AcDbEntity
  8
0
390
0
 62
     7
100
AcDbVertex
100
AcDb2dVertex
 10
67.133897
 20
2.86695
 30
0.0
  0
VERTEX
  5
196
100
AcDbEntity
  8
0
390
0
 62
     7
100
AcDbVertex
100
AcDb2dVertex
 10
67.141114
 20
2.856136
 30
0.0
  0
VERTEX
  5
197
100
AcDbEntity
  8
0
390
0
 62
     7
100
AcDbVertex
100
AcDb2dVertex
 10
67.148303
 20
2.844695
 30
0.0
  0
VERTEX
  5
198
100
AcDbEntity
  8
0
390
0
 62
     7
100
AcDbVertex
100
AcDb2dVertex
 10
67.155188
 20
2.833028
 30
0.0
  0
VERTEX
  5
199
100
AcDbEntity
  8
0
390
0
 62
     7
100
AcDbVertex
100
AcDb2dVertex
 10
67.161745
 20
2.821177
 30
0.0
  0
VERTEX
  5
19A
100
AcDbEntity
  8
0
390
0
 62
     7
100
AcDbVertex
100
AcDb2dVertex
 10
67.16795
 20
2.809186
 30
0.0
  0
VERTEX
  5
19B
100
AcDbEntity
  8
0
390
0
 62
     7
100
AcDbVertex
100
AcDb2dVertex
 10
67.174592
 20
2.795351
 30
0.0
  0
VERTEX
  5
19C
100
AcDbEntity
  8
0
390
0
 62
     7
100
AcDbVertex
100
AcDb2dVertex
 10
67.180766
 20
2.781377
 30
0.0
  0
VERTEX
  5
19D
100
AcDbEntity
  8
0
390
0
 62
     7
100
AcDbVertex
100
AcDb2dVertex
 10
67.186463
 20
2.767319
 30
0.0
  0
VERTEX
  5
19E
100
AcDbEntity
  8
0
390
0
 62
     7
100
AcDbVertex
100
AcDb2dVertex
 10
67.19167
 20
2.753232
 30
0.0
  0
VERTEX
  5
19F
100
AcDbEntity
  8
0
390
0
 62
     7
100
AcDbVertex
100
AcDb2dVertex
 10
67.197231
 20
2.736473
 30
0.0
  0
VERTEX
  5
1A0
100
AcDbEntity
  8
0
390
0
 62
     7
100
AcDbVertex
100
AcDb2dVertex
 10
67.202135
 20
2.719701
 30
0.0
  0
VERTEX
  5
1A1
100
AcDbEntity
  8
0
390
0
 62
     7
100
AcDbVertex
100
AcDb2dVertex
 10
67.206396
 20
2.702953
 30
0.0
  0
VERTEX
  5
1A2
100
AcDbEntity
  8
0
390
0
 62
     7
100
AcDbVertex
100
AcDb2dVertex
 10
67.210029
 20
2.686264
 30
0.0
  0
VERTEX
  5
1A3
100
AcDbEntity
  8
0
390
0
 62
     7
100
AcDbVertex
100
AcDb2dVertex
 10
67.213048
 20
2.669673
 30
0.0
  0
VERTEX
  5
1A4
100
AcDbEntity
  8
0
390
0
 62
     7
100
AcDbVertex
100
AcDb2dVertex
 10
67.216107
 20
2.648127
 30
0.0
  0
VERTEX
  5
1A5
100
AcDbEntity
  8
0
390
0
 62
     7
100
AcDbVertex
100
AcDb2dVertex
 10
67.218205
 20
2.626674
 30
0.0
  0
VERTEX
  5
1A6
100
AcDbEntity
  8
0
390
0
 62
     7
100
AcDbVertex
100
AcDb2dVertex
 10
67.219368
 20
2.605311
 30
0.0
  0
VERTEX
  5
1A7
100
AcDbEntity
  8
0
390
0
 62
     7
100
AcDbVertex
100
AcDb2dVertex
 10
67.219621
 20
2.584036
 30
0.0
  0
SEQEND
  5
1A8
100
AcDbEntity
  8
0
390
0
  0
POLYLINE
  5
1A9
100
AcDbEntity
  8
0
390
0
  6
Continuous
 62
     7
100
AcDb2dPolyline
 66
     1
 10
0.0
 20
0.0
 30
0.0
 40
0.1
 41
0.1
  0
VERTEX
  5
1AA
100
AcDbEntity
  8
0
390
0
 62
     7
100
AcDbVertex
100
AcDb2dVertex
 10
67.219621
 20
-2.584035
 30
0.0
  0
VERTEX
  5
1AB
100
AcDbEntity
  8
0
390
0
 62
     7
100
AcDbVertex
100
AcDb2dVertex
 10
67.219503
 20
-2.600448
 30
0.0
  0
VERTEX
  5
1AC
100
AcDbEntity
  8
0
390
0
 62
     7
100
AcDbVertex
100
AcDb2dVertex
 10
67.218528
 20
-2.622126
 30
0.0
  0
VERTEX
  5
1AD
100
AcDbEntity
  8
0
390
0
 62
     7
100
AcDbVertex
100
AcDb2dVertex
 10
67.216593
 20
-2.643937
 30
0.0
  0
VERTEX
  5
1AE
100
AcDbEntity
  8
0
390
0
 62
     7
100
AcDbVertex
100
AcDb2dVertex
 10
67.213664
 20
-2.665865
 30
0.0
  0
VERTEX
  5
1AF
100
AcDbEntity
  8
0
390
0
 62
     7
100
AcDbVertex
100
AcDb2dVertex
 10
67.209706
 20
-2.687891
 30
0.0
  0
VERTEX
  5
1B0
100
AcDbEntity
  8
0
390
0
 62
     7
100
AcDbVertex
100
AcDb2dVertex
 10
67.204683
 20
-2.709999
 30
0.0
  0
VERTEX
  5
1B1
100
AcDbEntity
  8
0
390
0
 62
     7
100
AcDbVertex
100
AcDb2dVertex
 10
67.200963
 20
-2.723924
 30
0.0
  0
VERTEX
  5
1B2
100
AcDbEntity
  8
0
390
0
 62
     7
100
AcDbVertex
100
AcDb2dVertex
 10
67.196787
 20
-2.737886
 30
0.0
  0
VERTEX
  5
1B3
100
AcDbEntity
  8
0
390
0
 62
     7
100
AcDbVertex
100
AcDb2dVertex
 10
67.192153
 20
-2.751852
 30
0.0
  0
VERTEX
  5
1B4
100
AcDbEntity
  8
0
390
0
 62
     7
100
AcDbVertex
100
AcDb2dVertex
 10
67.187054
 20
-2.765789
 30
0.0
  0
VERTEX
  5
1B5
100
AcDbEntity
  8
0
390
0
 62
     7
100
AcDbVertex
100
AcDb2dVertex
 10
67.182319
 20
-2.777672
 30
0.0
  0
VERTEX
  5
1B6
100
AcDbEntity
  8
0
390
0
 62
     7
100
AcDbVertex
100
AcDb2dVertex
 10
67.177234
 20
-2.789516
 30
0.0
  0
VERTEX
  5
1B7
100
AcDbEntity
  8
0
390
0
 62
     7
100
AcDbVertex
100
AcDb2dVertex
 10
67.171809
 20
-2.801285
 30
0.0
  0
VERTEX
  5
1B8
100
AcDbEntity
  8
0
390
0
 62
     7
100
AcDbVertex
100
AcDb2dVertex
 10
67.166052
 20
-2.812942
 30
0.0
  0
VERTEX
  5
1B9
100
AcDbEntity
  8
0
390
0
 62
     7
100
AcDbVertex
100
AcDb2dVertex
 10
67.159738
 20
-2.824888
 30
0.0
  0
VERTEX
  5
1BA
100
AcDbEntity
  8
0
390
0
 62
     7
100
AcDbVertex
100
AcDb2dVertex
 10
67.153076
 20
-2.836685
 30
0.0
  0
VERTEX
  5
1BB
100
AcDbEntity
  8
0
390
0
 62
     7
100
AcDbVertex
100
AcDb2dVertex
 10
67.146091
 20
-2.848289
 30
0.0
  0
VERTEX
  5
1BC
100
AcDbEntity
  8
0
390
0
 62
     7
100
AcDbVertex
100
AcDb2dVertex
 10
67.138809
 20
-2.859658
 30
0.0
  0
VERTEX
  5
1BD
100
AcDbEntity
  8
0
390
0
 62
     7
100
AcDbVertex
100
AcDb2dVertex
 10
67.130149
 20
-2.872327
 30
0.0
  0
VERTEX
  5
1BE
100
AcDbEntity
  8
0
390
0
 62
     7
100
AcDbVertex
100
AcDb2dVertex
 10
67.121135
 20
-2.884661
 30
0.0
  0
VERTEX
  5
1BF
100
AcDbEntity
  8
0
390
0
 62
     7
100
AcDbVertex
100
AcDb2dVertex
 10
67.111808
 20
-2.896624
 30
0.0
  0
VERTEX
  5
1C0
100
AcDbEntity
  8
0
390
0
 62
     7
100
AcDbVertex
100
AcDb2dVertex
 10
67.102212
 20
-2.908177
 30
0.0
  0
VERTEX
  5
1C1
100
AcDbEntity
  8
0
390
0
 62
     7
100
AcDbVertex
100
AcDb2dVertex
 10
67.090479
 20
-2.921372
 30
0.0
  0
VERTEX
  5
1C2
100
AcDbEntity
  8
0
390
0
 62
     7
100
AcDbVertex
100
AcDb2dVertex
 10
67.078406
 20
-2.934005
 30
0.0
  0
VERTEX
  5
1C3
100
AcDbEntity
  8
0
390
0
 62
     7
100
AcDbVertex
100
AcDb2dVertex
 10
67.066032
 20
-2.94607
 30
0.0
  0
VERTEX
  5
1C4
100
AcDbEntity
  8
0
390
0
 62
     7
100
AcDbVertex
100
AcDb2dVertex
 10
67.053396
 20
-2.95756
 30
0.0
  0
VERTEX
  5
1C5
100
AcDbEntity
  8
0
390
0
 62
     7
100
AcDbVertex
100
AcDb2dVertex
 10
67.040537
 20
-2.96847
 30
0.0
  0
VERTEX
  5
1C6
100
AcDbEntity
  8
0
390
0
 62
     7
100
AcDbVertex
100
AcDb2dVertex
 10
67.023407
 20
-2.981892
 30
0.0
  0
VERTEX
  5
1C7
100
AcDbEntity
  8
0
390
0
 62
     7
100
AcDbVertex
100
AcDb2dVertex
 10
67.005877
 20
-2.994436
 30
0.0
  0
VERTEX
  5
1C8
100
AcDbEntity
  8
0
390
0
 62
     7
100
AcDbVertex
100
AcDb2dVertex
 10
66.987958
 20
-3.006125
 30
0.0
  0
VERTEX
  5
1C9
100
AcDbEntity
  8
0
390
0
 62
     7
100
AcDbVertex
100
AcDb2dVertex
 10
66.969659
 20
-3.016981
 30
0.0
  0
SEQEND
  5
1CA
100
AcDbEntity
  8
0
390
0
  0
LINE
  5
1CB
100
AcDbEntity
  8
0
390
0
  6
Continuous
 62
     7
100
AcDbLine
 10
67.219621
 20
2.584036
 30
0.0
 11
67.218291
 21
0.580285
 31
0.0
  0
LINE
  5
1CC
100
AcDbEntity
  8
0
390
0
  6
Continuous
 62
     7
100
AcDbLine
 10
67.219621
 20
-2.584035
 30
0.0
 11
67.156742
 21
-2.547731
 31
0.0
  0
LINE
  5
1CD
100
AcDbEntity
  8
0
390
0
  6
Continuous
 62
     7
100
AcDbLine
 10
67.156742
 20
2.547732
 30
0.0
 11
67.156742
 21
-2.547731
 31
0.0
  0
LINE
  5
1CE
100
AcDbEntity
  8
0
390
0
  6
Continuous
 62
     7
100
AcDbLine
 10
67.156742
 20
2.547732
 30
0.0
 11
67.219621
 21
2.584036
 31
0.0
  0
LINE
  5
1CF
100
AcDbEntity
  8
0
390
0
  6
Continuous
 62
     7
100
AcDbLine
 10
62.493979
 20
-5.601016
 30
0.0
 11
62.493979
 21
-5.52841
 31
0.0
  0
LINE
  5
1D0
100
AcDbEntity
  8
0
390
0
  6
Continuous
 62
     7
100
AcDbLine
 10
66.90678
 20
-2.980678
 30
0.0
 11
62.493979
 21
-5.52841
 31
0.0
  0
LINE
  5
1D1
100
AcDbEntity
  8
0
390
0
  6
Continuous
 62
     7
100
AcDbLine
 10
66.90678
 20
-2.980678
 30
0.0
 11
66.969659
 21
-3.016981
 31
0.0
  0
LINE
  5
1D2
100
AcDbEntity
  8
0
390
0
  6
Continuous
 62
     7
100
AcDbLine
 10
61.994055
 20
5.601017
 30
0.0
 11
61.994055
 21
5.528411
 31
0.0
  0
LINE
  5
1D3
100
AcDbEntity
  8
0
390
0
  6
Continuous
 62
     7
100
AcDbLine
 10
57.581254
 20
2.980679
 30
0.0
 11
61.994055
 21
5.528411
 31
0.0
  0
LINE
  5
1D4
100
AcDbEntity
  8
0
390
0
  6
Continuous
 62
     7
100
AcDbLine
 10
57.581254
 20
2.980679
 30
0.0
 11
57.518375
 21
3.016982
 31
0.0
  0
LINE
  5
1D5
100
AcDbEntity
  8
0
390
0
  6
Continuous
 62
     7
100
AcDbLine
 10
57.268413
 20
2.584036
 30
0.0
 11
57.331292
 21
2.547732
 31
0.0
  0
LINE
  5
1D6
100
AcDbEntity
  8
0
390
0
  6
Continuous
 62
     7
100
AcDbLine
 10
57.331292
 20
-2.547731
 30
0.0
 11
57.331292
 21
2.547732
 31
0.0
  0
LINE
  5
1D7
100
AcDbEntity
  8
0
390
0
  6
Continuous
 62
     7
100
AcDbLine
 10
57.331292
 20
-2.547731
 30
0.0
 11
57.268413
 21
-2.584035
 31
0.0
  0
LINE
  5
1D8
100
AcDbEntity
  8
0
390
0
  6
Continuous
 62
     7
100
AcDbLine
 10
57.518375
 20
-3.016981
 30
0.0
 11
57.581254
 21
-2.980678
 31
0.0
  0
LINE
  5
1D9
100
AcDbEntity
  8
0
390
0
  6
Continuous
 62
     7
100
AcDbLine
 10
61.994055
 20
-5.52841
 30
0.0
 11
57.581254
 21
-2.980678
 31
0.0
  0
LINE
  5
1DA
100
AcDbEntity
  8
0
390
0
  6
Continuous
 62
     7
100
AcDbLine
 10
61.994055
 20
-5.52841
 30
0.0
 11
61.994055
 21
-5.601016
 31
0.0
  0
LINE
  5
1DB
100
AcDbEntity
  8
0
390
0
  6
Continuous
 62
     7
100
AcDbLine
 10
66.969659
 20
3.016982
 30
0.0
 11
66.90678
 21
2.980679
 31
0.0
  0
LINE
  5
1DC
100
AcDbEntity
  8
0
390
0
  6
Continuous
 62
     7
100
AcDbLine
 10
62.493979
 20
5.528411
 30
0.0
 11
66.90678
 21
2.980679
 31
0.0
  0
LINE
  5
1DD
100
AcDbEntity
  8
0
390
0
  6
Continuous
 62
     7
100
AcDbLine
 10
62.493979
 20
5.528411
 30
0.0
 11
62.493979
 21
5.601017
 31
0.0
  0
ELLIPSE
  5
1DE
100
AcDbEntity
  8
0
390
0
  6
Continuous
 62
     7
100
AcDbEllipse
 10
66.656666
 20
2.547644
 30
0.0
 11
0.4331006462970355
 21
0.2500507747257852
 31
0.0
210
0.0
220
0.0
230
1.0
 40
0.999797
 41
5.7596744625918594
 42
6.8066961517673139
  0
ELLIPSE
  5
1DF
100
AcDbEntity
  8
0
390
0
  6
Continuous
 62
     7
100
AcDbEllipse
 10
66.656666
 20
-2.547643
 30
0.0
 11
0.4331006462970355
 21
-0.2500507747257852
 31
0.0
210
0.0
220
0.0
230
1.0
 40
0.999797
 41
5.7596744625918586
 42
6.8066961517673095
  0
ELLIPSE
  5
1E0
100
AcDbEntity
  8
0
390
0
  6
Continuous
 62
     7
100
AcDbEllipse
 10
57.831369
 20
2.547644
 30
0.0
 11
-0.4331006462970355
 21
0.2500507747257852
 31
0.0
210
0.0
220
0.0
230
1.0
 40
0.999797
 41
5.7596744625918621
 42
6.8066961517673121
  0
ELLIPSE
  5
1E1
100
AcDbEntity
  8
0
390
0
  6
Continuous
 62
     7
100
AcDbEllipse
 10
57.831369
 20
-2.547643
 30
0.0
 11
-0.4331006462970355
 21
-0.2500507747258129
 31
0.0
210
0.0
220
0.0
230
1.0
 40
0.999797
 41
5.7596744625918612
 42
6.8066961517673121
  0
ELLIPSE
  5
1E2
100
AcDbEntity
  8
0
390
0
  6
Continuous
 62
     7
100
AcDbEllipse
 10
62.244017
 20
-5.095287
 30
0.0
 11
0.0
 21
-0.5001015494515981
 31
0.0
210
0.0
220
0.0
230
1.0
 40
0.999797
 41
5.7596744625918612
 42
6.8066961517673095
  0
ELLIPSE
  5
1E3
100
AcDbEntity
  8
0
390
0
  6
Continuous
 62
     7
100
AcDbEllipse
 10
62.244017
 20
5.095288
 30
0.0
 11
0.0
 21
0.5001015494515981
 31
0.0
210
0.0
220
0.0
230
1.0
 40
0.999797
 41
5.7596744625918612
 42
6.8066961517673175
  0
LINE
  5
1E4
100
AcDbEntity
  8
0
390
0
  6
Continuous
 62
     7
100
AcDbLine
 10
-62.451636
 20
5.553407
 30
0.0
 11
-66.951712
 21
2.955287
 31
0.0
  0
POLYLINE
  5
1E5
100
AcDbEntity
  8
0
390
0
  6
Continuous
 62
     7
100
AcDb2dPolyline
 66
     1
 10
0.0
 20
0.0
 30
0.0
 40
0.1
 41
0.1
  0
VERTEX
  5
1E6
100
AcDbEntity
  8
0
390
0
 62
     7
100
AcDbVertex
100
AcDb2dVertex
 10
-62.039216
 20
5.553407
 30
0.0
  0
VERTEX
  5
1E7
100
AcDbEntity
  8
0
390
0
 62
     7
100
AcDbVertex
100
AcDb2dVertex
 10
-62.056207
 20
5.562616
 30
0.0
  0
VERTEX
  5
1E8
100
AcDbEntity
  8
0
390
0
 62
     7
100
AcDbVertex
100
AcDb2dVertex
 10
-62.073682
 20
5.570929
 30
0.0
  0
VERTEX
  5
1E9
100
AcDbEntity
  8
0
390
0
 62
     7
100
AcDbVertex
100
AcDb2dVertex
 10
-62.09156
 20
5.578344
 30
0.0
  0
VERTEX
  5
1EA
100
AcDbEntity
  8
0
390
0
 62
     7
100
AcDbVertex
100
AcDb2dVertex
 10
-62.109759
 20
5.584857
 30
0.0
  0
VERTEX
  5
1EB
100
AcDbEntity
  8
0
390
0
 62
     7
100
AcDbVertex
100
AcDb2dVertex
 10
-62.129018
 20
5.590696
 30
0.0
  0
VERTEX
  5
1EC
100
AcDbEntity
  8
0
390
0
 62
     7
100
AcDbVertex
100
AcDb2dVertex
 10
-62.14856
 20
5.595597
 30
0.0
  0
VERTEX
  5
1ED
100
AcDbEntity
  8
0
390
0
 62
     7
100
AcDbVertex
100
AcDb2dVertex
 10
-62.168315
 20
5.599566
 30
0.0
  0
VERTEX
  5
1EE
100
AcDbEntity
  8
0
390
0
 62
     7
100
AcDbVertex
100
AcDb2dVertex
 10
-62.188211
 20
5.602608
 30
0.0
  0
VERTEX
  5
1EF
100
AcDbEntity
  8
0
390
0
 62
     7
100
AcDbVertex
100
AcDb2dVertex
 10
-62.210481
 20
5.604918
 30
0.0
  0
VERTEX
  5
1F0
100
AcDbEntity
  8
0
390
0
 62
     7
100
AcDbVertex
100
AcDb2dVertex
 10
-62.232853
 20
5.606106
 30
0.0
  0
VERTEX
  5
1F1
100
AcDbEntity
  8
0
390
0
 62
     7
100
AcDbVertex
100
AcDb2dVertex
 10
-62.255243
 20
5.606175
 30
0.0
  0
VERTEX
  5
1F2
100
AcDbEntity
  8
0
390
0
 62
     7
100
AcDbVertex
100
AcDb2dVertex
 10
-62.278136
 20
5.605087
 30
0.0
  0
VERTEX
  5
1F3
100
AcDbEntity
  8
0
390
0
 62
     7
100
AcDbVertex
100
AcDb2dVertex
 10
-62.300959
 20
5.602822
 30
0.0
  0
VERTEX
  5
1F4
100
AcDbEntity
  8
0
390
0
 62
     7
100
AcDbVertex
100
AcDb2dVertex
 10
-62.323616
 20
5.599375
 30
0.0
  0
VERTEX
  5
1F5
100
AcDbEntity
  8
0
390
0
 62
     7
100
AcDbVertex
100
AcDb2dVertex
 10
-62.340121
 20
5.596082
 30
0.0
  0
VERTEX
  5
1F6
100
AcDbEntity
  8
0
390
0
 62
     7
100
AcDbVertex
100
AcDb2dVertex
 10
-62.356495
 20
5.592135
 30
0.0
  0
VERTEX
  5
1F7
100
AcDbEntity
  8
0
390
0
 62
     7
100
AcDbVertex
100
AcDb2dVertex
 10
-62.372696
 20
5.58753
 30
0.0
  0
VERTEX
  5
1F8
100
AcDbEntity
  8
0
390
0
 62
     7
100
AcDbVertex
100
AcDb2dVertex
 10
-62.388679
 20
5.582265
 30
0.0
  0
VERTEX
  5
1F9
100
AcDbEntity
  8
0
390
0
 62
     7
100
AcDbVertex
100
AcDb2dVertex
 10
-62.404888
 20
5.576138
 30
0.0
  0
VERTEX
  5
1FA
100
AcDbEntity
  8
0
390
0
 62
     7
100
AcDbVertex
100
AcDb2dVertex
 10
-62.420824
 20
5.569283
 30
0.0
  0
VERTEX
  5
1FB
100
AcDbEntity
  8
0
390
0
 62
     7
100
AcDbVertex
100
AcDb2dVertex
 10
-62.436426
 20
5.561705
 30
0.0
  0
VERTEX
  5
1FC
100
AcDbEntity
  8
0
390
0
 62
     7
100
AcDbVertex
100
AcDb2dVertex
 10
-62.451636
 20
5.553407
 30
0.0
  0
SEQEND
  5
1FD
100
AcDbEntity
  8
0
390
0
  0
LINE
  5
1FE
100
AcDbEntity
  8
0
390
0
  6
Continuous
 62
     7
100
AcDbLine
 10
-57.53914
 20
2.955287
 30
0.0
 11
-62.039216
 21
5.553407
 31
0.0
  0
POLYLINE
  5
1FF
100
AcDbEntity
  8
0
390
0
  6
Continuous
 62
     7
100
AcDb2dPolyline
 66
     1
 10
0.0
 20
0.0
 30
0.0
 40
0.1
 41
0.1
  0
VERTEX
  5
200
100
AcDbEntity
  8
0
390
0
 62
     7
100
AcDbVertex
100
AcDb2dVertex
 10
-57.33293
 20
2.598121
 30
0.0
  0
VERTEX
  5
201
100
AcDbEntity
  8
0
390
0
 62
     7
100
AcDbVertex
100
AcDb2dVertex
 10
-57.33345
 20
2.61744
 30
0.0
  0
VERTEX
  5
202
100
AcDbEntity
  8
0
390
0
 62
     7
100
AcDbVertex
100
AcDb2dVertex
 10
-57.334988
 20
2.63673
 30
0.0
  0
VERTEX
  5
203
100
AcDbEntity
  8
0
390
0
 62
     7
100
AcDbVertex
100
AcDb2dVertex
 10
-57.337505
 20
2.65592
 30
0.0
  0
VERTEX
  5
204
100
AcDbEntity
  8
0
390
0
 62
     7
100
AcDbVertex
100
AcDb2dVertex
 10
-57.340965
 20
2.674938
 30
0.0
  0
VERTEX
  5
205
100
AcDbEntity
  8
0
390
0
 62
     7
100
AcDbVertex
100
AcDb2dVertex
 10
-57.345537
 20
2.694536
 30
0.0
  0
VERTEX
  5
206
100
AcDbEntity
  8
0
390
0
 62
     7
100
AcDbVertex
100
AcDb2dVertex
 10
-57.351064
 20
2.713911
 30
0.0
  0
VERTEX
  5
207
100
AcDbEntity
  8
0
390
0
 62
     7
100
AcDbVertex
100
AcDb2dVertex
 10
-57.357505
 20
2.733004
 30
0.0
  0
VERTEX
  5
208
100
AcDbEntity
  8
0
390
0
 62
     7
100
AcDbVertex
100
AcDb2dVertex
 10
-57.364818
 20
2.751755
 30
0.0
  0
VERTEX
  5
209
100
AcDbEntity
  8
0
390
0
 62
     7
100
AcDbVertex
100
AcDb2dVertex
 10
-57.373953
 20
2.772196
 30
0.0
  0
VERTEX
  5
20A
100
AcDbEntity
  8
0
390
0
 62
     7
100
AcDbVertex
100
AcDb2dVertex
 10
-57.38411
 20
2.792165
 30
0.0
  0
VERTEX
  5
20B
100
AcDbEntity
  8
0
390
0
 62
     7
100
AcDbVertex
100
AcDb2dVertex
 10
-57.395245
 20
2.81159
 30
0.0
  0
VERTEX
  5
20C
100
AcDbEntity
  8
0
390
0
 62
     7
100
AcDbVertex
100
AcDb2dVertex
 10
-57.407634
 20
2.830872
 30
0.0
  0
VERTEX
  5
20D
100
AcDbEntity
  8
0
390
0
 62
     7
100
AcDbVertex
100
AcDb2dVertex
 10
-57.421007
 20
2.849504
 30
0.0
  0
VERTEX
  5
20E
100
AcDbEntity
  8
0
390
0
 62
     7
100
AcDbVertex
100
AcDb2dVertex
 10
-57.435321
 20
2.867402
 30
0.0
  0
VERTEX
  5
20F
100
AcDbEntity
  8
0
390
0
 62
     7
100
AcDbVertex
100
AcDb2dVertex
 10
-57.446425
 20
2.880049
 30
0.0
  0
VERTEX
  5
210
100
AcDbEntity
  8
0
390
0
 62
     7
100
AcDbVertex
100
AcDb2dVertex
 10
-57.45803
 20
2.892256
 30
0.0
  0
VERTEX
  5
211
100
AcDbEntity
  8
0
390
0
 62
     7
100
AcDbVertex
100
AcDb2dVertex
 10
-57.470118
 20
2.903984
 30
0.0
  0
VERTEX
  5
212
100
AcDbEntity
  8
0
390
0
 62
     7
100
AcDbVertex
100
AcDb2dVertex
 10
-57.48267
 20
2.915193
 30
0.0
  0
VERTEX
  5
213
100
AcDbEntity
  8
0
390
0
 62
     7
100
AcDbVertex
100
AcDb2dVertex
 10
-57.496081
 20
2.926168
 30
0.0
  0
VERTEX
  5
214
100
AcDbEntity
  8
0
390
0
 62
     7
100
AcDbVertex
100
AcDb2dVertex
 10
-57.509984
 20
2.936541
 30
0.0
  0
VERTEX
  5
215
100
AcDbEntity
  8
0
390
0
 62
     7
100
AcDbVertex
100
AcDb2dVertex
 10
-57.524348
 20
2.946264
 30
0.0
  0
VERTEX
  5
216
100
AcDbEntity
  8
0
390
0
 62
     7
100
AcDbVertex
100
AcDb2dVertex
 10
-57.53914
 20
2.955287
 30
0.0
  0
SEQEND
  5
217
100
AcDbEntity
  8
0
390
0
  0
LINE
  5
218
100
AcDbEntity
  8
0
390
0
  6
Continuous
 62
     7
100
AcDbLine
 10
-57.33293
 20
-2.59812
 30
0.0
 11
-57.33293
 21
2.598121
 31
0.0
  0
POLYLINE
  5
219
100
AcDbEntity
  8
0
390
0
  6
Continuous
 62
     7
100
AcDb2dPolyline
 66
     1
 10
0.0
 20
0.0
 30
0.0
 40
0.1
 41
0.1
  0
VERTEX
  5
21A
100
AcDbEntity
  8
0
390
0
 62
     7
100
AcDbVertex
100
AcDb2dVertex
 10
-57.53914
 20
-2.955286
 30
0.0
  0
VERTEX
  5
21B
100
AcDbEntity
  8
0
390
0
 62
     7
100
AcDbVertex
100
AcDb2dVertex
 10
-57.522742
 20
-2.945226
 30
0.0
  0
VERTEX
  5
21C
100
AcDbEntity
  8
0
390
0
 62
     7
100
AcDbVertex
100
AcDb2dVertex
 10
-57.506893
 20
-2.934322
 30
0.0
  0
VERTEX
  5
21D
100
AcDbEntity
  8
0
390
0
 62
     7
100
AcDbVertex
100
AcDb2dVertex
 10
-57.491459
 20
-2.922497
 30
0.0
  0
VERTEX
  5
21E
100
AcDbEntity
  8
0
390
0
 62
     7
100
AcDbVertex
100
AcDb2dVertex
 10
-57.476632
 20
-2.909918
 30
0.0
  0
VERTEX
  5
21F
100
AcDbEntity
  8
0
390
0
 62
     7
100
AcDbVertex
100
AcDb2dVertex
 10
-57.462002
 20
-2.896216
 30
0.0
  0
VERTEX
  5
220
100
AcDbEntity
  8
0
390
0
 62
     7
100
AcDbVertex
100
AcDb2dVertex
 10
-57.448053
 20
-2.881821
 30
0.0
  0
VERTEX
  5
221
100
AcDbEntity
  8
0
390
0
 62
     7
100
AcDbVertex
100
AcDb2dVertex
 10
-57.434681
 20
-2.866641
 30
0.0
  0
VERTEX
  5
222
100
AcDbEntity
  8
0
390
0
 62
     7
100
AcDbVertex
100
AcDb2dVertex
 10
-57.422033
 20
-2.850852
 30
0.0
  0
VERTEX
  5
223
100
AcDbEntity
  8
0
390
0
 62
     7
100
AcDbVertex
100
AcDb2dVertex
 10
-57.41212
 20
-2.837352
 30
0.0
  0
VERTEX
  5
224
100
AcDbEntity
  8
0
390
0
 62
     7
100
AcDbVertex
100
AcDb2dVertex
 10
-57.402724
 20
-2.823487
 30
0.0
  0
VERTEX
  5
225
100
AcDbEntity
  8
0
390
0
 62
     7
100
AcDbVertex
100
AcDb2dVertex
 10
-57.390854
 20
-2.804194
 30
0.0
  0
VERTEX
  5
226
100
AcDbEntity
  8
0
390
0
 62
     7
100
AcDbVertex
100
AcDb2dVertex
 10
-57.379967
 20
-2.784314
 30
0.0
  0
VERTEX
  5
227
100
AcDbEntity
  8
0
390
0
 62
     7
100
AcDbVertex
100
AcDb2dVertex
 10
-57.370106
 20
-2.763922
 30
0.0
  0
VERTEX
  5
228
100
AcDbEntity
  8
0
390
0
 62
     7
100
AcDbVertex
100
AcDb2dVertex
 10
-57.363304
 20
-2.748074
 30
0.0
  0
VERTEX
  5
229
100
AcDbEntity
  8
0
390
0
 62
     7
100
AcDbVertex
100
AcDb2dVertex
 10
-57.35713
 20
-2.731972
 30
0.0
  0
VERTEX
  5
22A
100
AcDbEntity
  8
0
390
0
 62
     7
100
AcDbVertex
100
AcDb2dVertex
 10
-57.351744
 20
-2.716078
 30
0.0
  0
VERTEX
  5
22B
100
AcDbEntity
  8
0
390
0
 62
     7
100
AcDbVertex
100
AcDb2dVertex
 10
-57.346989
 20
-2.699985
 30
0.0
  0
VERTEX
  5
22C
100
AcDbEntity
  8
0
390
0
 62
     7
100
AcDbVertex
100
AcDb2dVertex
 10
-57.342862
 20
-2.683606
 30
0.0
  0
VERTEX
  5
22D
100
AcDbEntity
  8
0
390
0
 62
     7
100
AcDbVertex
100
AcDb2dVertex
 10
-57.339417
 20
-2.667071
 30
0.0
  0
VERTEX
  5
22E
100
AcDbEntity
  8
0
390
0
 62
     7
100
AcDbVertex
100
AcDb2dVertex
 10
-57.336626
 20
-2.650034
 30
0.0
  0
VERTEX
  5
22F
100
AcDbEntity
  8
0
390
0
 62
     7
100
AcDbVertex
100
AcDb2dVertex
 10
-57.334597
 20
-2.632889
 30
0.0
  0
VERTEX
  5
230
100
AcDbEntity
  8
0
390
0
 62
     7
100
AcDbVertex
100
AcDb2dVertex
 10
-57.333351
 20
-2.615524
 30
0.0
  0
VERTEX
  5
231
100
AcDbEntity
  8
0
390
0
 62
     7
100
AcDbVertex
100
AcDb2dVertex
 10
-57.33293
 20
-2.59812
 30
0.0
  0
SEQEND
  5
232
100
AcDbEntity
  8
0
390
0
  0
LINE
  5
233
100
AcDbEntity
  8
0
390
0
  6
Continuous
 62
     7
100
AcDbLine
 10
-62.039216
 20
-5.553406
 30
0.0
 11
-57.53914
 21
-2.955286
 31
0.0
  0
POLYLINE
  5
234
100
AcDbEntity
  8
0
390
0
  6
Continuous
 62
     7
100
AcDb2dPolyline
 66
     1
 10
0.0
 20
0.0
 30
0.0
 40
0.1
 41
0.1
  0
VERTEX
  5
235
100
AcDbEntity
  8
0
390
0
 62
     7
100
AcDbVertex
100
AcDb2dVertex
 10
-62.451636
 20
-5.553406
 30
0.0
  0
VERTEX
  5
236
100
AcDbEntity
  8
0
390
0
 62
     7
100
AcDbVertex
100
AcDb2dVertex
 10
-62.434645
 20
-5.562615
 30
0.0
  0
VERTEX
  5
237
100
AcDbEntity
  8
0
390
0
 62
     7
100
AcDbVertex
100
AcDb2dVertex
 10
-62.41717
 20
-5.570928
 30
0.0
  0
VERTEX
  5
238
100
AcDbEntity
  8
0
390
0
 62
     7
100
AcDbVertex
100
AcDb2dVertex
 10
-62.399292
 20
-5.578343
 30
0.0
  0
VERTEX
  5
239
100
AcDbEntity
  8
0
390
0
 62
     7
100
AcDbVertex
100
AcDb2dVertex
 10
-62.381092
 20
-5.584856
 30
0.0
  0
VERTEX
  5
23A
100
AcDbEntity
  8
0
390
0
 62
     7
100
AcDbVertex
100
AcDb2dVertex
 10
-62.361834
 20
-5.590695
 30
0.0
  0
VERTEX
  5
23B
100
AcDbEntity
  8
0
390
0
 62
     7
100
AcDbVertex
100
AcDb2dVertex
 10
-62.342291
 20
-5.595596
 30
0.0
  0
VERTEX
  5
23C
100
AcDbEntity
  8
0
390
0
 62
     7
100
AcDbVertex
100
AcDb2dVertex
 10
-62.322536
 20
-5.599565
 30
0.0
  0
VERTEX
  5
23D
100
AcDbEntity
  8
0
390
0
 62
     7
100
AcDbVertex
100
AcDb2dVertex
 10
-62.30264
 20
-5.602607
 30
0.0
  0
VERTEX
  5
23E
100
AcDbEntity
  8
0
390
0
 62
     7
100
AcDbVertex
100
AcDb2dVertex
 10
-62.28037
 20
-5.604917
 30
0.0
  0
VERTEX
  5
23F
100
AcDbEntity
  8
0
390
0
 62
     7
100
AcDbVertex
100
AcDb2dVertex
 10
-62.257998
 20
-5.606105
 30
0.0
  0
VERTEX
  5
240
100
AcDbEntity
  8
0
390
0
 62
     7
100
AcDbVertex
100
AcDb2dVertex
 10
-62.235609
 20
-5.606174
 30
0.0
  0
VERTEX
  5
241
100
AcDbEntity
  8
0
390
0
 62
     7
100
AcDbVertex
100
AcDb2dVertex
 10
-62.212715
 20
-5.605086
 30
0.0
  0
VERTEX
  5
242
100
AcDbEntity
  8
0
390
0
 62
     7
100
AcDbVertex
100
AcDb2dVertex
 10
-62.189893
 20
-5.602821
 30
0.0
  0
VERTEX
  5
243
100
AcDbEntity
  8
0
390
0
 62
     7
100
AcDbVertex
100
AcDb2dVertex
 10
-62.167235
 20
-5.599374
 30
0.0
  0
VERTEX
  5
244
100
AcDbEntity
  8
0
390
0
 62
     7
100
AcDbVertex
100
AcDb2dVertex
 10
-62.150731
 20
-5.596081
 30
0.0
  0
VERTEX
  5
245
100
AcDbEntity
  8
0
390
0
 62
     7
100
AcDbVertex
100
AcDb2dVertex
 10
-62.134357
 20
-5.592134
 30
0.0
  0
VERTEX
  5
246
100
AcDbEntity
  8
0
390
0
 62
     7
100
AcDbVertex
100
AcDb2dVertex
 10
-62.118156
 20
-5.587529
 30
0.0
  0
VERTEX
  5
247
100
AcDbEntity
  8
0
390
0
 62
     7
100
AcDbVertex
100
AcDb2dVertex
 10
-62.102173
 20
-5.582264
 30
0.0
  0
VERTEX
  5
248
100
AcDbEntity
  8
0
390
0
 62
     7
100
AcDbVertex
100
AcDb2dVertex
 10
-62.085963
 20
-5.576137
 30
0.0
  0
VERTEX
  5
249
100
AcDbEntity
  8
0
390
0
 62
     7
100
AcDbVertex
100
AcDb2dVertex
 10
-62.070028
 20
-5.569282
 30
0.0
  0
VERTEX
  5
24A
100
AcDbEntity
  8
0
390
0
 62
     7
100
AcDbVertex
100
AcDb2dVertex
 10
-62.054426
 20
-5.561704
 30
0.0
  0
VERTEX
  5
24B
100
AcDbEntity
  8
0
390
0
 62
     7
100
AcDbVertex
100
AcDb2dVertex
 10
-62.039216
 20
-5.553406
 30
0.0
  0
SEQEND
  5
24C
100
AcDbEntity
  8
0
390
0
  0
LINE
  5
24D
100
AcDbEntity
  8
0
390
0
  6
Continuous
 62
     7
100
AcDbLine
 10
-66.951712
 20
-2.955286
 30
0.0
 11
-62.451636
 21
-5.553406
 31
0.0
  0
POLYLINE
  5
24E
100
AcDbEntity
  8
0
390
0
  6
Continuous
 62
     7
100
AcDb2dPolyline
 66
     1
 10
0.0
 20
0.0
 30
0.0
 40
0.1
 41
0.1
  0
VERTEX
  5
24F
100
AcDbEntity
  8
0
390
0
 62
     7
100
AcDbVertex
100
AcDb2dVertex
 10
-67.157922
 20
-2.59812
 30
0.0
  0
VERTEX
  5
250
100
AcDbEntity
  8
0
390
0
 62
     7
100
AcDbVertex
100
AcDb2dVertex
 10
-67.157527
 20
-2.614954
 30
0.0
  0
VERTEX
  5
251
100
AcDbEntity
  8
0
390
0
 62
     7
100
AcDbVertex
100
AcDb2dVertex
 10
-67.156356
 20
-2.63177
 30
0.0
  0
VERTEX
  5
252
100
AcDbEntity
  8
0
390
0
 62
     7
100
AcDbVertex
100
AcDb2dVertex
 10
-67.154435
 20
-2.648518
 30
0.0
  0
VERTEX
  5
253
100
AcDbEntity
  8
0
390
0
 62
     7
100
AcDbVertex
100
AcDb2dVertex
 10
-67.151788
 20
-2.665151
 30
0.0
  0
VERTEX
  5
254
100
AcDbEntity
  8
0
390
0
 62
     7
100
AcDbVertex
100
AcDb2dVertex
 10
-67.148317
 20
-2.682171
 30
0.0
  0
VERTEX
  5
255
100
AcDbEntity
  8
0
390
0
 62
     7
100
AcDbVertex
100
AcDb2dVertex
 10
-67.144118
 20
-2.699043
 30
0.0
  0
VERTEX
  5
256
100
AcDbEntity
  8
0
390
0
 62
     7
100
AcDbVertex
100
AcDb2dVertex
 10
-67.139218
 20
-2.715727
 30
0.0
  0
VERTEX
  5
257
100
AcDbEntity
  8
0
390
0
 62
     7
100
AcDbVertex
100
AcDb2dVertex
 10
-67.133645
 20
-2.732181
 30
0.0
  0
VERTEX
  5
258
100
AcDbEntity
  8
0
390
0
 62
     7
100
AcDbVertex
100
AcDb2dVertex
 10
-67.125484
 20
-2.753066
 30
0.0
  0
VERTEX
  5
259
100
AcDbEntity
  8
0
390
0
 62
     7
100
AcDbVertex
100
AcDb2dVertex
 10
-67.116263
 20
-2.773522
 30
0.0
  0
VERTEX
  5
25A
100
AcDbEntity
  8
0
390
0
 62
     7
100
AcDbVertex
100
AcDb2dVertex
 10
-67.10603
 20
-2.793475
 30
0.0
  0
VERTEX
  5
25B
100
AcDbEntity
  8
0
390
0
 62
     7
100
AcDbVertex
100
AcDb2dVertex
 10
-67.094533
 20
-2.813347
 30
0.0
  0
VERTEX
  5
25C
100
AcDbEntity
  8
0
390
0
 62
     7
100
AcDbVertex
100
AcDb2dVertex
 10
-67.082026
 20
-2.832617
 30
0.0
  0
VERTEX
  5
25D
100
AcDbEntity
  8
0
390
0
 62
     7
100
AcDbVertex
100
AcDb2dVertex
 10
-67.06855
 20
-2.851204
 30
0.0
  0
VERTEX
  5
25E
100
AcDbEntity
  8
0
390
0
 62
     7
100
AcDbVertex
100
AcDb2dVertex
 10
-67.056483
 20
-2.866269
 30
0.0
  0
VERTEX
  5
25F
100
AcDbEntity
  8
0
390
0
 62
     7
100
AcDbVertex
100
AcDb2dVertex
 10
-67.043742
 20
-2.880795
 30
0.0
  0
VERTEX
  5
260
100
AcDbEntity
  8
0
390
0
 62
     7
100
AcDbVertex
100
AcDb2dVertex
 10
-67.030356
 20
-2.894726
 30
0.0
  0
VERTEX
  5
261
100
AcDbEntity
  8
0
390
0
 62
     7
100
AcDbVertex
100
AcDb2dVertex
 10
-67.016351
 20
-2.908006
 30
0.0
  0
VERTEX
  5
262
100
AcDbEntity
  8
0
390
0
 62
     7
100
AcDbVertex
100
AcDb2dVertex
 10
-67.004244
 20
-2.918516
 30
0.0
  0
VERTEX
  5
263
100
AcDbEntity
  8
0
390
0
 62
     7
100
AcDbVertex
100
AcDb2dVertex
 10
-66.991702
 20
-2.928538
 30
0.0
  0
VERTEX
  5
264
100
AcDbEntity
  8
0
390
0
 62
     7
100
AcDbVertex
100
AcDb2dVertex
 10
-66.978749
 20
-2.938033
 30
0.0
  0
VERTEX
  5
265
100
AcDbEntity
  8
0
390
0
 62
     7
100
AcDbVertex
100
AcDb2dVertex
 10
-66.965411
 20
-2.946962
 30
0.0
  0
VERTEX
  5
266
100
AcDbEntity
  8
0
390
0
 62
     7
100
AcDbVertex
100
AcDb2dVertex
 10
-66.951712
 20
-2.955286
 30
0.0
  0
SEQEND
  5
267
100
AcDbEntity
  8
0
390
0
  0
LINE
  5
268
100
AcDbEntity
  8
0
390
0
  6
Continuous
 62
     7
100
AcDbLine
 10
-67.157922
 20
2.598121
 30
0.0
 11
-67.157922
 21
-2.59812
 31
0.0
  0
POLYLINE
  5
269
100
AcDbEntity
  8
0
390
0
  6
Continuous
 62
     7
100
AcDb2dPolyline
 66
     1
 10
0.0
 20
0.0
 30
0.0
 40
0.1
 41
0.1
  0
VERTEX
  5
26A
100
AcDbEntity
  8
0
390
0
 62
     7
100
AcDbVertex
100
AcDb2dVertex
 10
-66.951712
 20
2.955287
 30
0.0
  0
VERTEX
  5
26B
100
AcDbEntity
  8
0
390
0
 62
     7
100
AcDbVertex
100
AcDb2dVertex
 10
-66.968182
 20
2.945176
 30
0.0
  0
VERTEX
  5
26C
100
AcDbEntity
  8
0
390
0
 62
     7
100
AcDbVertex
100
AcDb2dVertex
 10
-66.98412
 20
2.9342
 30
0.0
  0
VERTEX
  5
26D
100
AcDbEntity
  8
0
390
0
 62
     7
100
AcDbVertex
100
AcDb2dVertex
 10
-66.99948
 20
2.922424
 30
0.0
  0
VERTEX
  5
26E
100
AcDbEntity
  8
0
390
0
 62
     7
100
AcDbVertex
100
AcDb2dVertex
 10
-67.01422
 20
2.909919
 30
0.0
  0
VERTEX
  5
26F
100
AcDbEntity
  8
0
390
0
 62
     7
100
AcDbVertex
100
AcDb2dVertex
 10
-67.028906
 20
2.896161
 30
0.0
  0
VERTEX
  5
270
100
AcDbEntity
  8
0
390
0
 62
     7
100
AcDbVertex
100
AcDb2dVertex
 10
-67.042922
 20
2.881687
 30
0.0
  0
VERTEX
  5
271
100
AcDbEntity
  8
0
390
0
 62
     7
100
AcDbVertex
100
AcDb2dVertex
 10
-67.056237
 20
2.866563
 30
0.0
  0
VERTEX
  5
272
100
AcDbEntity
  8
0
390
0
 62
     7
100
AcDbVertex
100
AcDb2dVertex
 10
-67.068819
 20
2.850853
 30
0.0
  0
VERTEX
  5
273
100
AcDbEntity
  8
0
390
0
 62
     7
100
AcDbVertex
100
AcDb2dVertex
 10
-67.081954
 20
2.832722
 30
0.0
  0
VERTEX
  5
274
100
AcDbEntity
  8
0
390
0
 62
     7
100
AcDbVertex
100
AcDb2dVertex
 10
-67.094169
 20
2.813941
 30
0.0
  0
VERTEX
  5
275
100
AcDbEntity
  8
0
390
0
 62
     7
100
AcDbVertex
100
AcDb2dVertex
 10
-67.105424
 20
2.794586
 30
0.0
  0
VERTEX
  5
276
100
AcDbEntity
  8
0
390
0
 62
     7
100
AcDbVertex
100
AcDb2dVertex
 10
-67.115928
 20
2.774215
 30
0.0
  0
VERTEX
  5
277
100
AcDbEntity
  8
0
390
0
 62
     7
100
AcDbVertex
100
AcDb2dVertex
 10
-67.125378
 20
2.753318
 30
0.0
  0
VERTEX
  5
278
100
AcDbEntity
  8
0
390
0
 62
     7
100
AcDbVertex
100
AcDb2dVertex
 10
-67.133721
 20
2.731973
 30
0.0
  0
VERTEX
  5
279
100
AcDbEntity
  8
0
390
0
 62
     7
100
AcDbVertex
100
AcDb2dVertex
 10
-67.139122
 20
2.716033
 30
0.0
  0
VERTEX
  5
27A
100
AcDbEntity
  8
0
390
0
 62
     7
100
AcDbVertex
100
AcDb2dVertex
 10
-67.143891
 20
2.699879
 30
0.0
  0
VERTEX
  5
27B
100
AcDbEntity
  8
0
390
0
 62
     7
100
AcDbVertex
100
AcDb2dVertex
 10
-67.148003
 20
2.683547
 30
0.0
  0
VERTEX
  5
27C
100
AcDbEntity
  8
0
390
0
 62
     7
100
AcDbVertex
100
AcDb2dVertex
 10
-67.151435
 20
2.667072
 30
0.0
  0
VERTEX
  5
27D
100
AcDbEntity
  8
0
390
0
 62
     7
100
AcDbVertex
100
AcDb2dVertex
 10
-67.154233
 20
2.64997
 30
0.0
  0
VERTEX
  5
27E
100
AcDbEntity
  8
0
390
0
 62
     7
100
AcDbVertex
100
AcDb2dVertex
 10
-67.156265
 20
2.632743
 30
0.0
  0
VERTEX
  5
27F
100
AcDbEntity
  8
0
390
0
 62
     7
100
AcDbVertex
100
AcDb2dVertex
 10
-67.157503
 20
2.615442
 30
0.0
  0
VERTEX
  5
280
100
AcDbEntity
  8
0
390
0
 62
     7
100
AcDbVertex
100
AcDb2dVertex
 10
-67.157922
 20
2.598121
 30
0.0
  0
SEQEND
  5
281
100
AcDbEntity
  8
0
390
0
  0
LINE
  5
282
100
AcDbEntity
  8
0
390
0
  6
Continuous
 62
     7
100
AcDbLine
 10
-57.53914
 20
2.955287
 30
0.0
 11
-56.789254
 21
4.254127
 31
0.0
  0
ARC
  5
283
100
AcDbEntity
  8
0
390
0
  6
Continuous
 62
     7
100
AcDbCircle
 10
-57.761043
 20
2.58906
 30
0.0
 40
1.927907
210
0.0
220
0.0
230
1.0
100
AcDbArc
 50
0.269281
 51
59.730719
  0
LINE
  5
284
100
AcDbEntity
  8
0
390
0
  6
Continuous
 62
     7
100
AcDbLine
 10
-57.33293
 20
2.598121
 30
0.0
 11
-55.833158
 21
2.598121
 31
0.0
  0
LINE
  5
285
100
AcDbEntity
  8
0
390
0
  6
Continuous
 62
     7
100
AcDbLine
 10
-62.039216
 20
5.553407
 30
0.0
 11
-61.28933
 21
6.852247
 31
0.0
  0
LINE
  5
286
100
AcDbEntity
  8
0
390
0
  6
Continuous
 62
     7
100
AcDbLine
 10
-61.28933
 20
6.852247
 30
0.0
 11
-56.789254
 21
4.254127
 31
0.0
  0
LINE
  5
287
100
AcDbEntity
  8
0
390
0
  6
Continuous
 62
     7
100
AcDbLine
 10
-62.451636
 20
5.553407
 30
0.0
 11
-63.201522
 21
6.852247
 31
0.0
  0
ARC
  5
288
100
AcDbEntity
  8
0
390
0
  6
Continuous
 62
     7
100
AcDbCircle
 10
-62.245426
 20
5.178758
 30
0.0
 40
1.927352
210
0.0
220
0.0
230
1.0
100
AcDbArc
 50
60.259858
 51
119.740142
  0
LINE
  5
289
100
AcDbEntity
  8
0
390
0
  6
Continuous
 62
     7
100
AcDbLine
 10
-66.951712
 20
2.955287
 30
0.0
 11
-67.701598
 21
4.254127
 31
0.0
  0
LINE
  5
28A
100
AcDbEntity
  8
0
390
0
  6
Continuous
 62
     7
100
AcDbLine
 10
-67.701598
 20
4.254127
 30
0.0
 11
-63.201522
 21
6.852247
 31
0.0
  0
LINE
  5
28B
100
AcDbEntity
  8
0
390
0
  6
Continuous
 62
     7
100
AcDbLine
 10
-55.833158
 20
2.598121
 30
0.0
 11
-55.833158
 21
-2.59812
 31
0.0
  0
LINE
  5
28C
100
AcDbEntity
  8
0
390
0
  6
Continuous
 62
     7
100
AcDbLine
 10
-55.833158
 20
-2.59812
 30
0.0
 11
-57.33293
 21
-2.59812
 31
0.0
  0
ARC
  5
28D
100
AcDbEntity
  8
0
390
0
  6
Continuous
 62
     7
100
AcDbCircle
 10
-57.761043
 20
-2.589059
 30
0.0
 40
1.927907
210
0.0
220
0.0
230
1.0
100
AcDbArc
 50
300.269281
 51
359.730719
  0
LINE
  5
28E
100
AcDbEntity
  8
0
390
0
  6
Continuous
 62
     7
100
AcDbLine
 10
-56.789254
 20
-4.254126
 30
0.0
 11
-57.53914
 21
-2.955286
 31
0.0
  0
LINE
  5
28F
100
AcDbEntity
  8
0
390
0
  6
Continuous
 62
     7
100
AcDbLine
 10
-67.157922
 20
2.598121
 30
0.0
 11
-68.657694
 21
2.598121
 31
0.0
  0
ARC
  5
290
100
AcDbEntity
  8
0
390
0
  6
Continuous
 62
     7
100
AcDbCircle
 10
-66.729808
 20
2.58906
 30
0.0
 40
1.927907
210
0.0
220
0.0
230
1.0
100
AcDbArc
 50
120.269281
 51
179.730719
  0
LINE
  5
291
100
AcDbEntity
  8
0
390
0
  6
Continuous
 62
     7
100
AcDbLine
 10
-56.789254
 20
-4.254126
 30
0.0
 11
-61.28933
 21
-6.852246
 31
0.0
  0
LINE
  5
292
100
AcDbEntity
  8
0
390
0
  6
Continuous
 62
     7
100
AcDbLine
 10
-61.28933
 20
-6.852246
 30
0.0
 11
-62.039216
 21
-5.553406
 31
0.0
  0
LINE
  5
293
100
AcDbEntity
  8
0
390
0
  6
Continuous
 62
     7
100
AcDbLine
 10
-68.657694
 20
-2.59812
 30
0.0
 11
-68.657694
 21
2.598121
 31
0.0
  0
LINE
  5
294
100
AcDbEntity
  8
0
390
0
  6
Continuous
 62
     7
100
AcDbLine
 10
-68.657694
 20
-2.59812
 30
0.0
 11
-67.157922
 21
-2.59812
 31
0.0
  0
ARC
  5
295
100
AcDbEntity
  8
0
390
0
  6
Continuous
 62
     7
100
AcDbCircle
 10
-66.729808
 20
-2.589059
 30
0.0
 40
1.927907
210
0.0
220
0.0
230
1.0
100
AcDbArc
 50
180.269281
 51
239.730719
  0
LINE
  5
296
100
AcDbEntity
  8
0
390
0
  6
Continuous
 62
     7
100
AcDbLine
 10
-67.701598
 20
-4.254126
 30
0.0
 11
-66.951712
 21
-2.955286
 31
0.0
  0
LINE
  5
297
100
AcDbEntity
  8
0
390
0
  6
Continuous
 62
     7
100
AcDbLine
 10
-63.201522
 20
-6.852246
 30
0.0
 11
-67.701598
 21
-4.254126
 31
0.0
  0
LINE
  5
298
100
AcDbEntity
  8
0
390
0
  6
Continuous
 62
     7
100
AcDbLine
 10
-63.201522
 20
-6.852246
 30
0.0
 11
-62.451636
 21
-5.553406
 31
0.0
  0
ARC
  5
299
100
AcDbEntity
  8
0
390
0
  6
Continuous
 62
     7
100
AcDbCircle
 10
-62.245426
 20
-5.178757
 30
0.0
 40
1.927352
210
0.0
220
0.0
230
1.0
100
AcDbArc
 50
240.259858
 51
299.740142
  0
LINE
  5
29A
100
AcDbEntity
  8
0
390
0
  6
Continuous
 62
     7
100
AcDbLine
 10
-61.28933
 20
-6.852246
 30
0.0
 11
-61.265966
 21
-6.892714
 31
0.0
  0
LINE
  5
29B
100
AcDbEntity
  8
0
390
0
  6
Continuous
 62
     7
100
AcDbLine
 10
-61.525776
 20
-7.019094
 30
0.0
 11
-61.265966
 21
-6.892714
 31
0.0
  0
ARC
  5
29C
100
AcDbEntity
  8
0
390
0
  6
Continuous
 62
     7
100
AcDbCircle
 10
-62.245426
 20
-5.183359
 30
0.0
 40
1.971756
210
0.0
220
0.0
230
1.0
100
AcDbArc
 50
248.593685
 51
291.406315
  0
LINE
  5
29D
100
AcDbEntity
  8
0
390
0
  6
Continuous
 62
     7
100
AcDbLine
 10
-63.224885
 20
-6.892714
 30
0.0
 11
-62.965076
 21
-7.019094
 31
0.0
  0
LINE
  5
29E
100
AcDbEntity
  8
0
390
0
  6
Continuous
 62
     7
100
AcDbLine
 10
-63.201522
 20
-6.852246
 30
0.0
 11
-63.224885
 21
-6.892714
 31
0.0
  0
LINE
  5
29F
100
AcDbEntity
  8
0
390
0
  6
Continuous
 62
     7
100
AcDbLine
 10
-63.201522
 20
6.852247
 30
0.0
 11
-63.224885
 21
6.892714
 31
0.0
  0
LINE
  5
2A0
100
AcDbEntity
  8
0
390
0
  6
Continuous
 62
     7
100
AcDbLine
 10
-62.965076
 20
7.019095
 30
0.0
 11
-63.224885
 21
6.892714
 31
0.0
  0
ARC
  5
2A1
100
AcDbEntity
  8
0
390
0
  6
Continuous
 62
     7
100
AcDbCircle
 10
-62.245426
 20
5.18336
 30
0.0
 40
1.971756
210
0.0
220
0.0
230
1.0
100
AcDbArc
 50
68.593685
 51
111.406315
  0
LINE
  5
2A2
100
AcDbEntity
  8
0
390
0
  6
Continuous
 62
     7
100
AcDbLine
 10
-61.265966
 20
6.892714
 30
0.0
 11
-61.525776
 21
7.019095
 31
0.0
  0
LINE
  5
2A3
100
AcDbEntity
  8
0
390
0
  6
Continuous
 62
     7
100
AcDbLine
 10
-61.28933
 20
6.852247
 30
0.0
 11
-61.265966
 21
6.892714
 31
0.0
  0
LINE
  5
2A4
100
AcDbEntity
  8
0
390
0
  6
Continuous
 62
     7
100
AcDbLine
 10
-67.701598
 20
-4.254126
 30
0.0
 11
-67.724961
 21
-4.294593
 31
0.0
  0
LINE
  5
2A5
100
AcDbEntity
  8
0
390
0
  6
Continuous
 62
     7
100
AcDbLine
 10
-67.964315
 20
-4.132782
 30
0.0
 11
-67.724961
 21
-4.294593
 31
0.0
  0
ARC
  5
2A6
100
AcDbEntity
  8
0
390
0
  6
Continuous
 62
     7
100
AcDbCircle
 10
-66.734347
 20
-2.591679
 30
0.0
 40
1.971756
210
0.0
220
0.0
230
1.0
100
AcDbArc
 50
188.593685
 51
231.406315
  0
LINE
  5
2A7
100
AcDbEntity
  8
0
390
0
  6
Continuous
 62
     7
100
AcDbLine
 10
-68.704421
 20
-2.59812
 30
0.0
 11
-68.683965
 21
-2.886311
 31
0.0
  0
LINE
  5
2A8
100
AcDbEntity
  8
0
390
0
  6
Continuous
 62
     7
100
AcDbLine
 10
-68.657694
 20
-2.59812
 30
0.0
 11
-68.704421
 21
-2.59812
 31
0.0
  0
LINE
  5
2A9
100
AcDbEntity
  8
0
390
0
  6
Continuous
 62
     7
100
AcDbLine
 10
-68.657694
 20
2.598121
 30
0.0
 11
-68.704421
 21
2.598121
 31
0.0
  0
LINE
  5
2AA
100
AcDbEntity
  8
0
390
0
  6
Continuous
 62
     7
100
AcDbLine
 10
-68.683965
 20
2.886312
 30
0.0
 11
-68.704421
 21
2.598121
 31
0.0
  0
ARC
  5
2AB
100
AcDbEntity
  8
0
390
0
  6
Continuous
 62
     7
100
AcDbCircle
 10
-66.734347
 20
2.59168
 30
0.0
 40
1.971756
210
0.0
220
0.0
230
1.0
100
AcDbArc
 50
128.593685
 51
171.406315
  0
LINE
  5
2AC
100
AcDbEntity
  8
0
390
0
  6
Continuous
 62
     7
100
AcDbLine
 10
-67.724961
 20
4.294594
 30
0.0
 11
-67.964315
 21
4.132783
 31
0.0
  0
LINE
  5
2AD
100
AcDbEntity
  8
0
390
0
  6
Continuous
 62
     7
100
AcDbLine
 10
-67.701598
 20
4.254127
 30
0.0
 11
-67.724961
 21
4.294594
 31
0.0
  0
LINE
  5
2AE
100
AcDbEntity
  8
0
390
0
  6
Continuous
 62
     7
100
AcDbLine
 10
-55.833158
 20
-2.59812
 30
0.0
 11
-55.786431
 21
-2.59812
 31
0.0
  0
LINE
  5
2AF
100
AcDbEntity
  8
0
390
0
  6
Continuous
 62
     7
100
AcDbLine
 10
-55.806886
 20
-2.886311
 30
0.0
 11
-55.786431
 21
-2.59812
 31
0.0
  0
ARC
  5
2B0
100
AcDbEntity
  8
0
390
0
  6
Continuous
 62
     7
100
AcDbCircle
 10
-57.756505
 20
-2.591679
 30
0.0
 40
1.971756
210
0.0
220
0.0
230
1.0
100
AcDbArc
 50
308.593685
 51
351.406315
  0
LINE
  5
2B1
100
AcDbEntity
  8
0
390
0
  6
Continuous
 62
     7
100
AcDbLine
 10
-56.76589
 20
-4.294593
 30
0.0
 11
-56.526537
 21
-4.132782
 31
0.0
  0
LINE
  5
2B2
100
AcDbEntity
  8
0
390
0
  6
Continuous
 62
     7
100
AcDbLine
 10
-56.789254
 20
-4.254126
 30
0.0
 11
-56.76589
 21
-4.294593
 31
0.0
  0
LINE
  5
2B3
100
AcDbEntity
  8
0
390
0
  6
Continuous
 62
     7
100
AcDbLine
 10
-56.789254
 20
4.254127
 30
0.0
 11
-56.76589
 21
4.294594
 31
0.0
  0
LINE
  5
2B4
100
AcDbEntity
  8
0
390
0
  6
Continuous
 62
     7
100
AcDbLine
 10
-56.526537
 20
4.132783
 30
0.0
 11
-56.76589
 21
4.294594
 31
0.0
  0
ARC
  5
2B5
100
AcDbEntity
  8
0
390
0
  6
Continuous
 62
     7
100
AcDbCircle
 10
-57.756505
 20
2.59168
 30
0.0
 40
1.971756
210
0.0
220
0.0
230
1.0
100
AcDbArc
 50
8.593685
 51
51.406315
  0
LINE
  5
2B6
100
AcDbEntity
  8
0
390
0
  6
Continuous
 62
     7
100
AcDbLine
 10
-55.786431
 20
2.598121
 30
0.0
 11
-55.806886
 21
2.886312
 31
0.0
  0
LINE
  5
2B7
100
AcDbEntity
  8
0
390
0
  6
Continuous
 62
     7
100
AcDbLine
 10
-55.833158
 20
2.598121
 30
0.0
 11
-55.786431
 21
2.598121
 31
0.0
  0
LINE
  5
2B8
100
AcDbEntity
  8
0
390
0
  6
Continuous
 62
     7
100
AcDbLine
 10
-59.61322
 20
5.933855
 30
0.0
 11
-61.265966
 21
6.892714
 31
0.0
  0
LINE
  5
2B9
100
AcDbEntity
  8
0
390
0
  6
Continuous
 62
     7
100
AcDbLine
 10
-58.42266
 20
5.246485
 30
0.0
 11
-59.61322
 21
5.933855
 31
0.0
  0
LINE
  5
2BA
100
AcDbEntity
  8
0
390
0
  6
Continuous
 62
     7
100
AcDbLine
 10
-56.76589
 20
4.294594
 30
0.0
 11
-58.42266
 21
5.246485
 31
0.0
  0
LINE
  5
2BB
100
AcDbEntity
  8
0
390
0
  6
Continuous
 62
     7
100
AcDbLine
 10
-55.790454
 20
0.68737
 30
0.0
 11
-55.786431
 21
2.598121
 31
0.0
  0
LINE
  5
2BC
100
AcDbEntity
  8
0
390
0
  6
Continuous
 62
     7
100
AcDbLine
 10
-55.790454
 20
-0.687369
 30
0.0
 11
-55.790454
 21
0.68737
 31
0.0
  0
LINE
  5
2BD
100
AcDbEntity
  8
0
390
0
  6
Continuous
 62
     7
100
AcDbLine
 10
-55.786431
 20
-2.59812
 30
0.0
 11
-55.790454
 21
-0.687369
 31
0.0
  0
LINE
  5
2BE
100
AcDbEntity
  8
0
390
0
  6
Continuous
 62
     7
100
AcDbLine
 10
-66.068191
 20
5.246485
 30
0.0
 11
-67.724961
 21
4.294594
 31
0.0
  0
LINE
  5
2BF
100
AcDbEntity
  8
0
390
0
  6
Continuous
 62
     7
100
AcDbLine
 10
-64.877632
 20
5.933855
 30
0.0
 11
-66.068191
 21
5.246485
 31
0.0
  0
LINE
  5
2C0
100
AcDbEntity
  8
0
390
0
  6
Continuous
 62
     7
100
AcDbLine
 10
-63.224885
 20
6.892714
 30
0.0
 11
-64.877632
 21
5.933855
 31
0.0
  0
LINE
  5
2C1
100
AcDbEntity
  8
0
390
0
  6
Continuous
 62
     7
100
AcDbLine
 10
-58.42266
 20
-5.246484
 30
0.0
 11
-56.76589
 21
-4.294593
 31
0.0
  0
LINE
  5
2C2
100
AcDbEntity
  8
0
390
0
  6
Continuous
 62
     7
100
AcDbLine
 10
-59.61322
 20
-5.933854
 30
0.0
 11
-58.42266
 21
-5.246484
 31
0.0
  0
LINE
  5
2C3
100
AcDbEntity
  8
0
390
0
  6
Continuous
 62
     7
100
AcDbLine
 10
-61.265966
 20
-6.892714
 30
0.0
 11
-59.61322
 21
-5.933854
 31
0.0
  0
LINE
  5
2C4
100
AcDbEntity
  8
0
390
0
  6
Continuous
 62
     7
100
AcDbLine
 10
-68.704421
 20
2.598121
 30
0.0
 11
-68.700397
 21
0.68737
 31
0.0
  0
LINE
  5
2C5
100
AcDbEntity
  8
0
390
0
  6
Continuous
 62
     7
100
AcDbLine
 10
-68.700397
 20
-0.687369
 30
0.0
 11
-68.704421
 21
-2.59812
 31
0.0
  0
LINE
  5
2C6
100
AcDbEntity
  8
0
390
0
  6
Continuous
 62
     7
100
AcDbLine
 10
-68.700397
 20
0.68737
 30
0.0
 11
-68.700397
 21
-0.687369
 31
0.0
  0
LINE
  5
2C7
100
AcDbEntity
  8
0
390
0
  6
Continuous
 62
     7
100
AcDbLine
 10
-64.877632
 20
-5.933854
 30
0.0
 11
-63.224885
 21
-6.892714
 31
0.0
  0
LINE
  5
2C8
100
AcDbEntity
  8
0
390
0
  6
Continuous
 62
     7
100
AcDbLine
 10
-66.068191
 20
-5.246484
 30
0.0
 11
-64.877632
 21
-5.933854
 31
0.0
  0
LINE
  5
2C9
100
AcDbEntity
  8
0
390
0
  6
Continuous
 62
     7
100
AcDbLine
 10
-67.724961
 20
-4.294593
 30
0.0
 11
-66.068191
 21
-5.246484
 31
0.0
  0
LINE
  5
2CA
100
AcDbEntity
  8
0
390
0
  6
Continuous
 62
     7
100
AcDbLine
 10
-66.392434
 20
-5.936056
 30
0.0
 11
-67.821679
 21
-4.915652
 31
0.0
  0
ELLIPSE
  5
2CB
100
AcDbEntity
  8
0
390
0
  6
Continuous
 62
     7
100
AcDbEllipse
 10
-68.474847
 20
-5.593434
 30
0.0
 11
0.74553189855113
 21
1.3016075400222316
 31
0.0
210
0.0
220
0.0
230
1.0
 40
0.193149
 41
5.3665794455263898
 42
6.2653970158185794
  0
ELLIPSE
  5
2CC
100
AcDbEntity
  8
0
390
0
  6
Continuous
 62
     7
100
AcDbEllipse
 10
-66.818077
 20
-6.545324
 30
0.0
 11
0.7488750618637741
 21
1.2996869398891608
 31
0.0
210
0.0
220
0.0
230
1.0
 40
0.049539
 41
5.2286188109343055
 42
6.265710557204951
  0
ELLIPSE
  5
2CD
100
AcDbEntity
  8
0
390
0
  6
Continuous
 62
     7
100
AcDbEllipse
 10
-65.627518
 20
7.232695
 30
0.0
 11
-0.7511243759789898
 21
1.2983882977792571
 31
0.0
210
0.0
220
0.0
230
1.0
 40
0.049539
 41
2.0870261573445896
 42
3.1241179036151969
  0
LINE
  5
2CE
100
AcDbEntity
  8
0
390
0
  6
Continuous
 62
     7
100
AcDbLine
 10
-65.312697
 20
6.559444
 30
0.0
 11
-63.71438
 21
7.287003
 31
0.0
  0
ELLIPSE
  5
2CF
100
AcDbEntity
  8
0
390
0
  6
Continuous
 62
     7
100
AcDbEllipse
 10
-63.974771
 20
8.191555
 30
0.0
 11
-0.7544592319868454
 21
1.2964533417249569
 31
0.0
210
0.0
220
0.0
230
1.0
 40
0.193149
 41
2.2249867939776631
 42
3.1238043641982225
  0
LINE
  5
2D0
100
AcDbEntity
  8
0
390
0
  6
Continuous
 62
     7
100
AcDbLine
 10
-59.178154
 20
-6.559443
 30
0.0
 11
-60.776472
 21
-7.287002
 31
0.0
  0
ELLIPSE
  5
2D1
100
AcDbEntity
  8
0
390
0
  6
Continuous
 62
     7
100
AcDbEllipse
 10
-60.516081
 20
-8.191554
 30
0.0
 11
-0.75445924614094
 21
1.2964533334881012
 31
0.0
210
0.0
220
0.0
230
1.0
 40
0.193149
 41
5.366579445525856
 42
6.265397015818527
  0
ELLIPSE
  5
2D2
100
AcDbEntity
  8
0
390
0
  6
Continuous
 62
     7
100
AcDbEllipse
 10
-58.863334
 20
-7.232694
 30
0.0
 11
-0.7511243759790037
 21
1.2983882977792849
 31
0.0
210
0.0
220
0.0
230
1.0
 40
0.049539
 41
5.2286188109342602
 42
6.2657105572046916
  0
ELLIPSE
  5
2D3
100
AcDbEntity
  8
0
390
0
  6
Continuous
 62
     7
100
AcDbEllipse
 10
-57.672774
 20
6.545325
 30
0.0
 11
0.7488750618637741
 21
1.2996869398891886
 31
0.0
210
0.0
220
0.0
230
1.0
 40
0.049539
 41
2.0870261573445941
 42
3.1241179036151481
  0
LINE
  5
2D4
100
AcDbEntity
  8
0
390
0
  6
Continuous
 62
     7
100
AcDbLine
 10
-58.098417
 20
5.936057
 30
0.0
 11
-56.669173
 21
4.915653
 31
0.0
  0
ELLIPSE
  5
2D5
100
AcDbEntity
  8
0
390
0
  6
Continuous
 62
     7
100
AcDbEllipse
 10
-56.016004
 20
5.593435
 30
0.0
 11
0.7455319127670917
 21
1.3016075318796339
 31
0.0
210
0.0
220
0.0
230
1.0
 40
0.193149
 41
2.2249867939789665
 42
3.1238043641990614
  0
LINE
  5
2D6
100
AcDbEntity
  8
0
390
0
  6
Continuous
 62
     7
100
AcDbLine
 10
-55.031146
 20
-0.623386
 30
0.0
 11
-55.200219
 21
-2.37135
 31
0.0
  0
ELLIPSE
  5
2D7
100
AcDbEntity
  8
0
390
0
  6
Continuous
 62
     7
100
AcDbEllipse
 10
-54.286659
 20
-2.59812
 30
0.0
 11
-1.4999911446922087
 21
-0.0051542065340471
 31
0.0
210
0.0
220
0.0
230
0.9999999999999999
 40
0.193149
 41
5.3665794455258649
 42
6.2653970158185608
  0
ELLIPSE
  5
2D8
100
AcDbEntity
  8
0
390
0
  6
Continuous
 62
     7
100
AcDbEllipse
 10
-54.290683
 20
-0.687369
 30
0.0
 11
-1.4999994378427917
 21
-0.0012986421099037
 31
0.0
210
0.0
220
0.0
230
0.9999999999999999
 40
0.049539
 41
5.2286188109342948
 42
6.2657105572049261
  0
ELLIPSE
  5
2D9
100
AcDbEntity
  8
0
390
0
  6
Continuous
 62
     7
100
AcDbEllipse
 10
-70.200169
 20
0.68737
 30
0.0
 11
-1.4999994378427639
 21
-0.0012986421099037
 31
0.0
210
0.0
220
0.0
230
0.9999999999999999
 40
0.049539
 41
2.0870261573444457
 42
3.1241179036150957
  0
LINE
  5
2DA
100
AcDbEntity
  8
0
390
0
  6
Continuous
 62
     7
100
AcDbLine
 10
-69.459706
 20
0.623387
 30
0.0
 11
-69.290632
 21
2.371351
 31
0.0
  0
ELLIPSE
  5
2DB
100
AcDbEntity
  8
0
390
0
  6
Continuous
 62
     7
100
AcDbEllipse
 10
-70.204193
 20
2.598121
 30
0.0
 11
-1.4999911447464986
 21
-0.0051541907291064
 31
0.0
210
0.0
220
0.0
230
1.0
 40
0.193149
 41
2.2249867939044763
 42
3.123804362209941
  0
LINE
  5
2DC
100
AcDbEntity
  8
0
390
0
  6
Continuous
 62
     7
100
AcDbLine
 10
-63.71438
 20
-7.287002
 30
0.0
 11
-65.312697
 21
-6.559443
 31
0.0
  0
ELLIPSE
  5
2DD
100
AcDbEntity
  8
0
390
0
  6
Continuous
 62
     7
100
AcDbEllipse
 10
-65.627518
 20
-7.232694
 30
0.0
 11
0.7511243759790037
 21
1.2983882977792571
 31
0.0
210
0.0
220
0.0
230
1.0
 40
0.049539
 41
0.0174747499744378
 42
1.0545664962451449
  0
ELLIPSE
  5
2DE
100
AcDbEntity
  8
0
390
0
  6
Continuous
 62
     7
100
AcDbEllipse
 10
-63.974771
 20
-8.191554
 30
0.0
 11
0.7544592461403293
 21
1.296453333488462
 31
0.0
210
0.0
220
0.0
230
1.0
 40
0.193149
 41
0.0177882934666002
 42
0.9166058617125759
  0
LINE
  5
2DF
100
AcDbEntity
  8
0
390
0
  6
Continuous
 62
     7
100
AcDbLine
 10
-69.290632
 20
-2.37135
 30
0.0
 11
-69.459706
 21
-0.623386
 31
0.0
  0
ELLIPSE
  5
2E0
100
AcDbEntity
  8
0
390
0
  6
Continuous
 62
     7
100
AcDbEllipse
 10
-70.200169
 20
-0.687369
 30
0.0
 11
-1.4999994378427639
 21
0.0012986421099037
 31
0.0
210
0.0
220
0.0
230
0.9999999999999999
 40
0.049539
 41
3.1590674035644901
 42
4.1961591498351405
  0
ELLIPSE
  5
2E1
100
AcDbEntity
  8
0
390
0
  6
Continuous
 62
     7
100
AcDbEllipse
 10
-70.204193
 20
-2.59812
 30
0.0
 11
1.499991144692181
 21
-0.0051542065333532
 31
0.0
210
0.0
220
0.0
230
1.0
 40
0.193149
 41
0.0177882934666706
 42
0.9166058617125082
  0
LINE
  5
2E2
100
AcDbEntity
  8
0
390
0
  6
Continuous
 62
     7
100
AcDbLine
 10
-55.200219
 20
2.371351
 30
0.0
 11
-55.031146
 21
0.623387
 31
0.0
  0
ELLIPSE
  5
2E3
100
AcDbEntity
  8
0
390
0
  6
Continuous
 62
     7
100
AcDbEllipse
 10
-54.290683
 20
0.68737
 30
0.0
 11
-1.4999994378427917
 21
0.0012986421099037
 31
0.0
210
0.0
220
0.0
230
0.9999999999999999
 40
0.049539
 41
0.0174747499746788
 42
1.0545664962453107
  0
ELLIPSE
  5
2E4
100
AcDbEntity
  8
0
390
0
  6
Continuous
 62
     7
100
AcDbEllipse
 10
-54.286659
 20
2.598121
 30
0.0
 11
1.4999911446900438
 21
-0.0051542071669852
 31
0.0
210
0.0
220
0.0
230
1.0
 40
0.193149
 41
3.1593809471379766
 42
4.0581985153838556
  0
ELLIPSE
  5
2E5
100
AcDbEntity
  8
0
390
0
  6
Continuous
 62
     7
100
AcDbEllipse
 10
-60.516081
 20
8.191555
 30
0.0
 11
0.7544592466879885
 21
1.2964533331697448
 31
0.0
210
0.0
220
0.0
230
1.0
 40
0.193149
 41
3.1593809471380019
 42
4.058198515383876
  0
LINE
  5
2E6
100
AcDbEntity
  8
0
390
0
  6
Continuous
 62
     7
100
AcDbLine
 10
-60.776472
 20
7.287003
 30
0.0
 11
-59.178154
 21
6.559444
 31
0.0
  0
ELLIPSE
  5
2E7
100
AcDbEntity
  8
0
390
0
  6
Continuous
 62
     7
100
AcDbEllipse
 10
-58.863334
 20
7.232695
 30
0.0
 11
0.7511243759790176
 21
1.2983882977792849
 31
0.0
210
0.0
220
0.0
230
1.0
 40
0.049539
 41
3.1590674035645363
 42
4.1961591498350614
  0
ELLIPSE
  5
2E8
100
AcDbEntity
  8
0
390
0
  6
Continuous
 62
     7
100
AcDbEllipse
 10
-68.474847
 20
5.593435
 30
0.0
 11
-0.7455318980018333
 21
1.301607540336841
 31
0.0
210
0.0
220
0.0
230
0.9999999999999999
 40
0.193149
 41
3.1593809471387249
 42
4.0581985153839568
  0
LINE
  5
2E9
100
AcDbEntity
  8
0
390
0
  6
Continuous
 62
     7
100
AcDbLine
 10
-67.821679
 20
4.915653
 30
0.0
 11
-66.392434
 21
5.936057
 31
0.0
  0
ELLIPSE
  5
2EA
100
AcDbEntity
  8
0
390
0
  6
Continuous
 62
     7
100
AcDbEllipse
 10
-66.818077
 20
6.545325
 30
0.0
 11
-0.7488750618637879
 21
1.2996869398891886
 31
0.0
210
0.0
220
0.0
230
0.9999999999999999
 40
0.049539
 41
3.1590674035644226
 42
4.1961591498350677
  0
LINE
  5
2EB
100
AcDbEntity
  8
0
390
0
  6
Continuous
 62
     7
100
AcDbLine
 10
-56.669173
 20
-4.915652
 30
0.0
 11
-58.098417
 21
-5.936056
 31
0.0
  0
ELLIPSE
  5
2EC
100
AcDbEntity
  8
0
390
0
  6
Continuous
 62
     7
100
AcDbEllipse
 10
-57.672774
 20
-6.545324
 30
0.0
 11
-0.7488750618637741
 21
1.2996869398891886
 31
0.0
210
0.0
220
0.0
230
1.0
 40
0.049539
 41
0.0174747499747691
 42
1.0545664962453265
  0
ELLIPSE
  5
2ED
100
AcDbEntity
  8
0
390
0
  6
Continuous
 62
     7
100
AcDbEllipse
 10
-56.016004
 20
-5.593434
 30
0.0
 11
-0.7455318985518655
 21
1.3016075400218152
 31
0.0
210
0.0
220
0.0
230
1.0
 40
0.193149
 41
0.0177882934674326
 42
0.916605861712558
  0
LINE
  5
2EE
100
AcDbEntity
  8
0
390
0
  6
Continuous
 62
     7
100
AcDbLine
 10
-55.031146
 20
0.623387
 30
0.0
 11
-55.031146
 21
-0.623386
 31
0.0
  0
LINE
  5
2EF
100
AcDbEntity
  8
0
390
0
  6
Continuous
 62
     7
100
AcDbLine
 10
-58.098417
 20
-5.936056
 30
0.0
 11
-59.178154
 21
-6.559443
 31
0.0
  0
LINE
  5
2F0
100
AcDbEntity
  8
0
390
0
  6
Continuous
 62
     7
100
AcDbLine
 10
-59.178154
 20
6.559444
 30
0.0
 11
-58.098417
 21
5.936057
 31
0.0
  0
LINE
  5
2F1
100
AcDbEntity
  8
0
390
0
  6
Continuous
 62
     7
100
AcDbLine
 10
-66.392434
 20
5.936057
 30
0.0
 11
-65.312697
 21
6.559444
 31
0.0
  0
LINE
  5
2F2
100
AcDbEntity
  8
0
390
0
  6
Continuous
 62
     7
100
AcDbLine
 10
-65.312697
 20
-6.559443
 30
0.0
 11
-66.392434
 21
-5.936056
 31
0.0
  0
LINE
  5
2F3
100
AcDbEntity
  8
0
390
0
  6
Continuous
 62
     7
100
AcDbLine
 10
-69.459706
 20
-0.623386
 30
0.0
 11
-69.459706
 21
0.623387
 31
0.0
  0
ELLIPSE
  5
2F4
100
AcDbEntity
  8
0
390
0
  6
Continuous
 62
     7
100
AcDbEllipse
 10
-70.166734
 20
3.111506
 30
0.0
 11
-1.4833760727347434
 21
0.2227003072249323
 31
0.0
210
0.0
220
0.0
230
0.9999999999999999
 40
0.097185
 41
2.3118302922934864
 42
3.1240608554576323
  0
ARC
  5
2F5
100
AcDbEntity
  8
0
390
0
  6
Continuous
 62
     7
100
AcDbCircle
 10
-65.632798
 20
1.955701
 30
0.0
 40
3.660683
210
0.0
220
0.0
230
1.0
100
AcDbArc
 50
134.218078
 51
165.781922
  0
ELLIPSE
  5
2F6
100
AcDbEntity
  8
0
390
0
  6
Continuous
 62
     7
100
AcDbEllipse
 10
-68.900723
 20
5.304302
 30
0.0
 11
-0.9345521588081662
 21
1.1732912095754611
 31
0.0
210
0.0
220
0.0
230
1.0
 40
0.097185
 41
3.1591244517226289
 42
3.9713550147442644
  0
ELLIPSE
  5
2F7
100
AcDbEntity
  8
0
390
0
  6
Continuous
 62
     7
100
AcDbEllipse
 10
-63.511437
 20
8.415807
 30
0.0
 11
-0.5488239128806777
 21
1.3959915159664771
 31
0.0
210
0.0
220
0.0
230
1.0
 40
0.097185
 41
2.3118302928347658
 42
3.124060855457087
  0
ARC
  5
2F8
100
AcDbEntity
  8
0
390
0
  6
Continuous
 62
     7
100
AcDbCircle
 10
-62.245426
 20
3.913518
 30
0.0
 40
3.658646
210
0.0
220
0.0
230
1.0
100
AcDbArc
 50
74.209063
 51
105.790937
  0
ELLIPSE
  5
2F9
100
AcDbEntity
  8
0
390
0
  6
Continuous
 62
     7
100
AcDbEllipse
 10
-60.979414
 20
8.415807
 30
0.0
 11
0.5488239141261814
 21
1.3959915154768132
 31
0.0
210
0.0
220
0.0
230
1.0
 40
0.097185
 41
3.1591244517226271
 42
3.9713550147437982
  0
ARC
  5
2FA
100
AcDbEntity
  8
0
390
0
  6
Continuous
 62
     7
100
AcDbCircle
 10
-65.632798
 20
-1.9557
 30
0.0
 40
3.660683
210
0.0
220
0.0
230
1.0
100
AcDbArc
 50
194.218078
 51
225.781922
  0
ELLIPSE
  5
2FB
100
AcDbEntity
  8
0
390
0
  6
Continuous
 62
     7
100
AcDbEllipse
 10
-70.166734
 20
-3.111505
 30
0.0
 11
1.483376072904552
 21
0.2227003060937538
 31
0.0
210
0.0
220
0.0
230
0.9999999999999999
 40
0.097185
 41
0.0175317981203252
 42
0.8297623611414493
  0
ELLIPSE
  5
2FC
100
AcDbEntity
  8
0
390
0
  6
Continuous
 62
     7
100
AcDbEllipse
 10
-68.900723
 20
-5.304301
 30
0.0
 11
0.9345521561452269
 21
1.1732912116965144
 31
0.0
210
0.0
220
0.0
230
1.0
 40
0.097185
 41
5.4534229461171027
 42
6.2656535087395193
  0
ELLIPSE
  5
2FD
100
AcDbEntity
  8
0
390
0
  6
Continuous
 62
     7
100
AcDbEllipse
 10
-55.590129
 20
5.304302
 30
0.0
 11
0.9345521589210343
 21
1.173291209485533
 31
0.0
210
0.0
220
0.0
230
1.0
 40
0.097185
 41
2.3118302924837852
 42
3.1240608554563045
  0
ARC
  5
2FE
100
AcDbEntity
  8
0
390
0
  6
Continuous
 62
     7
100
AcDbCircle
 10
-58.858053
 20
1.955701
 30
0.0
 40
3.660683
210
0.0
220
0.0
230
1.0
100
AcDbArc
 50
14.218078
 51
45.781922
  0
ELLIPSE
  5
2FF
100
AcDbEntity
  8
0
390
0
  6
Continuous
 62
     7
100
AcDbEllipse
 10
-54.324118
 20
3.111506
 30
0.0
 11
1.4833760727604173
 21
0.2227003070539302
 31
0.0
210
0.0
220
0.0
230
1.0
 40
0.097185
 41
3.1591244517221364
 42
3.9713550143948346
  0
ARC
  5
300
100
AcDbEntity
  8
0
390
0
  6
Continuous
 62
     7
100
AcDbCircle
 10
-58.858053
 20
-1.9557
 30
0.0
 40
3.660683
210
0.0
220
0.0
230
1.0
100
AcDbArc
 50
314.218078
 51
345.781922
  0
ELLIPSE
  5
301
100
AcDbEntity
  8
0
390
0
  6
Continuous
 62
     7
100
AcDbEllipse
 10
-55.590129
 20
-5.304301
 30
0.0
 11
-0.9345521598868589
 21
1.1732912087162317
 31
0.0
210
0.0
220
0.0
230
0.9999999999999999
 40
0.097185
 41
0.0175317981185503
 42
0.8297623607915539
  0
ELLIPSE
  5
302
100
AcDbEntity
  8
0
390
0
  6
Continuous
 62
     7
100
AcDbEllipse
 10
-54.324118
 20
-3.111505
 30
0.0
 11
-1.4833760735485091
 21
0.2227003018045459
 31
0.0
210
0.0
220
0.0
230
1.0
 40
0.097185
 41
5.4534229457959853
 42
6.2656535087685299
  0
ARC
  5
303
100
AcDbEntity
  8
0
390
0
  6
Continuous
 62
     7
100
AcDbCircle
 10
-62.245426
 20
-3.9114
 30
0.0
 40
3.660683
210
0.0
220
0.0
230
1.0
100
AcDbArc
 50
254.218078
 51
285.781922
  0
ELLIPSE
  5
304
100
AcDbEntity
  8
0
390
0
  6
Continuous
 62
     7
100
AcDbEllipse
 10
-63.511437
 20
-8.415806
 30
0.0
 11
0.5488239128434436
 21
1.3959915159811043
 31
0.0
210
0.0
220
0.0
230
1.0
 40
0.097185
 41
0.0175317981185464
 42
0.8297623607912106
  0
ELLIPSE
  5
305
100
AcDbEntity
  8
0
390
0
  6
Continuous
 62
     7
100
AcDbEllipse
 10
-60.979414
 20
-8.415806
 30
0.0
 11
-0.5488239179807924
 21
1.3959915139613865
 31
0.0
210
0.0
220
0.0
230
1.0
 40
0.097185
 41
5.4534229457962056
 42
6.265653508768624
  0
LINE
  5
306
100
AcDbEntity
  8
0
390
0
  6
Continuous
 62
     7
100
AcDbLine
 10
-55.200219
 20
-2.37135
 30
0.0
 11
-55.309505
 21
-2.854812
 31
0.0
  0
LINE
  5
307
100
AcDbEntity
  8
0
390
0
  6
Continuous
 62
     7
100
AcDbLine
 10
-56.669173
 20
4.915653
 30
0.0
 11
-56.305125
 21
4.579278
 31
0.0
  0
LINE
  5
308
100
AcDbEntity
  8
0
390
0
  6
Continuous
 62
     7
100
AcDbLine
 10
-60.776472
 20
-7.287002
 30
0.0
 11
-61.249806
 21
-7.43409
 31
0.0
  0
LINE
  5
309
100
AcDbEntity
  8
0
390
0
  6
Continuous
 62
     7
100
AcDbLine
 10
-63.71438
 20
7.287003
 30
0.0
 11
-63.241046
 21
7.434091
 31
0.0
  0
LINE
  5
30A
100
AcDbEntity
  8
0
390
0
  6
Continuous
 62
     7
100
AcDbLine
 10
-67.821679
 20
-4.915652
 30
0.0
 11
-68.185727
 21
-4.579277
 31
0.0
  0
LINE
  5
30B
100
AcDbEntity
  8
0
390
0
  6
Continuous
 62
     7
100
AcDbLine
 10
-69.290632
 20
2.371351
 30
0.0
 11
-69.181347
 21
2.854813
 31
0.0
  0
LINE
  5
30C
100
AcDbEntity
  8
0
390
0
  6
Continuous
 62
     7
100
AcDbLine
 10
-63.241046
 20
-7.43409
 30
0.0
 11
-63.71438
 21
-7.287002
 31
0.0
  0
LINE
  5
30D
100
AcDbEntity
  8
0
390
0
  6
Continuous
 62
     7
100
AcDbLine
 10
-55.309505
 20
2.854813
 30
0.0
 11
-55.200219
 21
2.371351
 31
0.0
  0
LINE
  5
30E
100
AcDbEntity
  8
0
390
0
  6
Continuous
 62
     7
100
AcDbLine
 10
-69.181347
 20
-2.854812
 30
0.0
 11
-69.290632
 21
-2.37135
 31
0.0
  0
LINE
  5
30F
100
AcDbEntity
  8
0
390
0
  6
Continuous
 62
     7
100
AcDbLine
 10
-61.249806
 20
7.434091
 30
0.0
 11
-60.776472
 21
7.287003
 31
0.0
  0
LINE
  5
310
100
AcDbEntity
  8
0
390
0
  6
Continuous
 62
     7
100
AcDbLine
 10
-68.185727
 20
4.579278
 30
0.0
 11
-67.821679
 21
4.915653
 31
0.0
  0
LINE
  5
311
100
AcDbEntity
  8
0
390
0
  6
Continuous
 62
     7
100
AcDbLine
 10
-56.305125
 20
-4.579277
 30
0.0
 11
-56.669173
 21
-4.915652
 31
0.0
  0
LINE
  5
312
100
AcDbEntity
  8
0
390
0
  6
Continuous
 62
     7
100
AcDbLine
 10
-55.814636
 20
4.743436
 30
0.0
 11
-54.922096
 21
3.19751
 31
0.0
  0
ELLIPSE
  5
313
100
AcDbEntity
  8
0
390
0
  6
Continuous
 62
     7
100
AcDbEllipse
 10
-56.294892
 20
2.598121
 30
0.0
 11
-1.3698661551131697
 21
-0.6111192331087201
 31
0.0
210
0.0
220
0.0
230
1.0
 40
0.149941
 41
2.3045370537565932
 42
3.0886335172730384
  0
ELLIPSE
  5
314
100
AcDbEntity
  8
0
390
0
  6
Continuous
 62
     7
100
AcDbEllipse
 10
-57.020121
 20
3.854254
 30
0.0
 11
-1.2141778571025663
 21
-0.8807792750296917
 31
0.0
210
0.0
220
0.0
230
1.0
 40
0.149941
 41
3.1945517898668352
 42
3.9786482534746761
  0
LINE
  5
315
100
AcDbEntity
  8
0
390
0
  6
Continuous
 62
     7
100
AcDbLine
 10
-54.922096
 20
-3.197509
 30
0.0
 11
-55.814636
 21
-4.743435
 31
0.0
  0
ELLIPSE
  5
316
100
AcDbEntity
  8
0
390
0
  6
Continuous
 62
     7
100
AcDbEllipse
 10
-57.020121
 20
-3.854253
 30
0.0
 11
-1.2141778581699902
 21
0.8807792735582021
 31
0.0
210
0.0
220
0.0
230
1.0
 40
0.149941
 41
2.3045370537561531
 42
3.0886335172730033
  0
ELLIPSE
  5
317
100
AcDbEntity
  8
0
390
0
  6
Continuous
 62
     7
100
AcDbEllipse
 10
-56.294892
 20
-2.59812
 30
0.0
 11
-1.3698661558537162
 21
0.6111192314487701
 31
0.0
210
0.0
220
0.0
230
1.0
 40
0.149941
 41
3.1945517898667695
 42
3.9786482534745007
  0
LINE
  5
318
100
AcDbEntity
  8
0
390
0
  6
Continuous
 62
     7
100
AcDbLine
 10
-61.352885
 20
-7.940945
 30
0.0
 11
-63.137966
 21
-7.940945
 31
0.0
  0
ELLIPSE
  5
319
100
AcDbEntity
  8
0
390
0
  6
Continuous
 62
     7
100
AcDbEllipse
 10
-62.970655
 20
-6.452373
 30
0.0
 11
0.1556882969431656
 21
1.4918985066668944
 31
0.0
210
0.0
220
0.0
230
1.0
 40
0.149941
 41
2.3045370537565146
 42
3.0886335172728772
  0
ELLIPSE
  5
31A
100
AcDbEntity
  8
0
390
0
  6
Continuous
 62
     7
100
AcDbEllipse
 10
-61.520197
 20
-6.452373
 30
0.0
 11
-0.1556882987505531
 21
1.4918985064782952
 31
0.0
210
0.0
220
0.0
230
1.0
 40
0.149941
 41
3.194551789866714
 42
3.9786482534742436
  0
LINE
  5
31B
100
AcDbEntity
  8
0
390
0
  6
Continuous
 62
     7
100
AcDbLine
 10
-68.676216
 20
-4.743435
 30
0.0
 11
-69.568756
 21
-3.197509
 31
0.0
  0
ELLIPSE
  5
31C
100
AcDbEntity
  8
0
390
0
  6
Continuous
 62
     7
100
AcDbEllipse
 10
-68.19596
 20
-2.59812
 30
0.0
 11
-1.3698661525898825
 21
-0.6111192387648901
 31
0.0
210
0.0
220
0.0
230
1.0
 40
0.149941
 41
5.4461297064568894
 42
6.2302261702437507
  0
ELLIPSE
  5
31D
100
AcDbEntity
  8
0
390
0
  6
Continuous
 62
     7
100
AcDbEllipse
 10
-67.470731
 20
-3.854253
 30
0.0
 11
-1.2141778534661558
 21
-0.8807792800425707
 31
0.0
210
0.0
220
0.0
230
1.0
 40
0.149941
 41
0.0529591356577268
 42
0.8370555989948451
  0
LINE
  5
31E
100
AcDbEntity
  8
0
390
0
  6
Continuous
 62
     7
100
AcDbLine
 10
-63.137966
 20
7.940945
 30
0.0
 11
-61.352885
 21
7.940945
 31
0.0
  0
ELLIPSE
  5
31F
100
AcDbEntity
  8
0
390
0
  6
Continuous
 62
     7
100
AcDbEllipse
 10
-61.520197
 20
6.452374
 30
0.0
 11
0.1556882907830515
 21
1.4918985073097413
 31
0.0
210
0.0
220
0.0
230
1.0
 40
0.149941
 41
5.4461297064568415
 42
6.2302261702437427
  0
ELLIPSE
  5
320
100
AcDbEntity
  8
0
390
0
  6
Continuous
 62
     7
100
AcDbEllipse
 10
-62.970655
 20
6.452374
 30
0.0
 11
-0.1556883049098762
 21
1.4918985058355316
 31
0.0
210
0.0
220
0.0
230
1.0
 40
0.149941
 41
0.0529591356579093
 42
0.8370555989948069
  0
LINE
  5
321
100
AcDbEntity
  8
0
390
0
  6
Continuous
 62
     7
100
AcDbLine
 10
-69.568756
 20
3.19751
 30
0.0
 11
-68.676216
 21
4.743436
 31
0.0
  0
ELLIPSE
  5
322
100
AcDbEntity
  8
0
390
0
  6
Continuous
 62
     7
100
AcDbEllipse
 10
-67.470731
 20
3.854254
 30
0.0
 11
-1.214177861807983
 21
0.8807792685431304
 31
0.0
210
0.0
220
0.0
230
1.0
 40
0.149941
 41
5.4461297064562686
 42
6.2302261702434318
  0
ELLIPSE
  5
323
100
AcDbEntity
  8
0
390
0
  6
Continuous
 62
     7
100
AcDbEllipse
 10
-68.19596
 20
2.598121
 30
0.0
 11
-1.3698661583771699
 21
0.6111192257922948
 31
0.0
210
0.0
220
0.0
230
1.0
 40
0.149941
 41
0.0529591356577604
 42
0.8370555984152687
  0
ARC
  5
324
100
AcDbEntity
  8
0
390
0
  6
Continuous
 62
     7
100
AcDbCircle
 10
-62.299968
 20
0.138392
 30
0.0
 40
7.847426
210
0.0
220
0.0
230
1.0
100
AcDbArc
 50
96.130099
 51
115.128607
  0
LINE
  5
325
100
AcDbEntity
  8
0
390
0
  6
Continuous
 62
     7
100
AcDbLine
 10
-65.632389
 20
7.243112
 30
0.0
 11
-65.312697
 21
6.559444
 31
0.0
  0
ARC
  5
326
100
AcDbEntity
  8
0
390
0
  6
Continuous
 62
     7
100
AcDbCircle
 10
-62.190884
 20
-0.138391
 30
0.0
 40
7.847426
210
0.0
220
0.0
230
1.0
100
AcDbArc
 50
276.130099
 51
295.128607
  0
LINE
  5
327
100
AcDbEntity
  8
0
390
0
  6
Continuous
 62
     7
100
AcDbLine
 10
-59.178154
 20
-6.559443
 30
0.0
 11
-58.858463
 21
-7.243111
 31
0.0
  0
ARC
  5
328
100
AcDbEntity
  8
0
390
0
  6
Continuous
 62
     7
100
AcDbCircle
 10
-62.098305
 20
-0.02196
 30
0.0
 40
7.847426
210
0.0
220
0.0
230
1.0
100
AcDbArc
 50
336.130099
 51
355.128607
  0
LINE
  5
329
100
AcDbEntity
  8
0
390
0
  6
Continuous
 62
     7
100
AcDbLine
 10
-55.031146
 20
-0.623386
 30
0.0
 11
-54.279225
 21
-0.688359
 31
0.0
  0
ARC
  5
32A
100
AcDbEntity
  8
0
390
0
  6
Continuous
 62
     7
100
AcDbCircle
 10
-62.392547
 20
0.021961
 30
0.0
 40
7.847426
210
0.0
220
0.0
230
1.0
100
AcDbArc
 50
156.130099
 51
175.128607
  0
LINE
  5
32B
100
AcDbEntity
  8
0
390
0
  6
Continuous
 62
     7
100
AcDbLine
 10
-70.211626
 20
0.68836
 30
0.0
 11
-69.459706
 21
0.623387
 31
0.0
  0
ARC
  5
32C
100
AcDbEntity
  8
0
390
0
  6
Continuous
 62
     7
100
AcDbCircle
 10
-62.338005
 20
-0.11643
 30
0.0
 40
7.847426
210
0.0
220
0.0
230
0.9999999999999999
100
AcDbArc
 50
216.130099
 51
235.128607
  0
LINE
  5
32D
100
AcDbEntity
  8
0
390
0
  6
Continuous
 62
     7
100
AcDbLine
 10
-66.824663
 20
-6.554752
 30
0.0
 11
-66.392434
 21
-5.936056
 31
0.0
  0
ARC
  5
32E
100
AcDbEntity
  8
0
390
0
  6
Continuous
 62
     7
100
AcDbCircle
 10
-62.152847
 20
0.116431
 30
0.0
 40
7.847426
210
0.0
220
0.0
230
0.9999999999999999
100
AcDbArc
 50
36.130099
 51
55.128607
  0
LINE
  5
32F
100
AcDbEntity
  8
0
390
0
  6
Continuous
 62
     7
100
AcDbLine
 10
-58.098417
 20
5.936057
 30
0.0
 11
-57.666188
 21
6.554752
 31
0.0
  0
ARC
  5
330
100
AcDbEntity
  8
0
390
0
  6
Continuous
 62
     7
100
AcDbCircle
 10
-62.386614
 20
-0.02044
 30
0.0
 40
7.853466
210
0.0
220
0.0
230
1.0
100
AcDbArc
 50
184.878767
 51
203.862527
  0
LINE
  5
331
100
AcDbEntity
  8
0
390
0
  6
Continuous
 62
     7
100
AcDbLine
 10
-70.211626
 20
-0.688359
 30
0.0
 11
-69.459706
 21
-0.623386
 31
0.0
  0
ARC
  5
332
100
AcDbEntity
  8
0
390
0
  6
Continuous
 62
     7
100
AcDbCircle
 10
-62.298318
 20
-0.132493
 30
0.0
 40
7.853466
210
0.0
220
0.0
230
1.0
100
AcDbArc
 50
244.878767
 51
263.862527
  0
LINE
  5
333
100
AcDbEntity
  8
0
390
0
  6
Continuous
 62
     7
100
AcDbLine
 10
-65.312697
 20
-6.559443
 30
0.0
 11
-65.632389
 21
-7.243111
 31
0.0
  0
ARC
  5
334
100
AcDbEntity
  8
0
390
0
  6
Continuous
 62
     7
100
AcDbCircle
 10
-62.333722
 20
0.112053
 30
0.0
 40
7.853466
210
0.0
220
0.0
230
1.0
100
AcDbArc
 50
124.878767
 51
143.862527
  0
LINE
  5
335
100
AcDbEntity
  8
0
390
0
  6
Continuous
 62
     7
100
AcDbLine
 10
-66.824663
 20
6.554752
 30
0.0
 11
-66.392434
 21
5.936057
 31
0.0
  0
ARC
  5
336
100
AcDbEntity
  8
0
390
0
  6
Continuous
 62
     7
100
AcDbCircle
 10
-62.192534
 20
0.132494
 30
0.0
 40
7.853466
210
0.0
220
0.0
230
1.0
100
AcDbArc
 50
64.878767
 51
83.862527
  0
LINE
  5
337
100
AcDbEntity
  8
0
390
0
  6
Continuous
 62
     7
100
AcDbLine
 10
-58.858463
 20
7.243112
 30
0.0
 11
-59.178154
 21
6.559444
 31
0.0
  0
ARC
  5
338
100
AcDbEntity
  8
0
390
0
  6
Continuous
 62
     7
100
AcDbCircle
 10
-62.104237
 20
0.020441
 30
0.0
 40
7.853466
210
0.0
220
0.0
230
1.0
100
AcDbArc
 50
4.878767
 51
23.862527
  0
LINE
  5
339
100
AcDbEntity
  8
0
390
0
  6
Continuous
 62
     7
100
AcDbLine
 10
-55.031146
 20
0.623387
 30
0.0
 11
-54.279225
 21
0.68836
 31
0.0
  0
ARC
  5
33A
100
AcDbEntity
  8
0
390
0
  6
Continuous
 62
     7
100
AcDbCircle
 10
-62.157129
 20
-0.112052
 30
0.0
 40
7.853466
210
0.0
220
0.0
230
1.0
100
AcDbArc
 50
304.878767
 51
323.862527
  0
LINE
  5
33B
100
AcDbEntity
  8
0
390
0
  6
Continuous
 62
     7
100
AcDbLine
 10
-58.098417
 20
-5.936056
 30
0.0
 11
-57.666188
 21
-6.554752
 31
0.0
  0
ARC
  5
33C
100
AcDbEntity
  8
0
390
0
  6
Continuous
 62
     7
100
AcDbCircle
 10
-62.245426
 20
0.0
 30
0.0
 40
7.995886
210
0.0
220
0.0
230
1.0
100
AcDbArc
 50
355.061335
 51
4.938665
  0
ARC
  5
33D
100
AcDbEntity
  8
0
390
0
  6
Continuous
 62
     7
100
AcDbCircle
 10
-62.245426
 20
0.0
 30
0.0
 40
7.995886
210
0.0
220
0.0
230
1.0
100
AcDbArc
 50
295.061335
 51
304.938665
  0
ARC
  5
33E
100
AcDbEntity
  8
0
390
0
  6
Continuous
 62
     7
100
AcDbCircle
 10
-62.245426
 20
0.0
 30
0.0
 40
7.995886
210
0.0
220
0.0
230
1.0
100
AcDbArc
 50
55.061335
 51
64.938665
  0
ARC
  5
33F
100
AcDbEntity
  8
0
390
0
  6
Continuous
 62
     7
100
AcDbCircle
 10
-62.245426
 20
0.0
 30
0.0
 40
7.995886
210
0.0
220
0.0
230
1.0
100
AcDbArc
 50
115.061335
 51
124.938665
  0
ARC
  5
340
100
AcDbEntity
  8
0
390
0
  6
Continuous
 62
     7
100
AcDbCircle
 10
-62.245426
 20
0.0
 30
0.0
 40
7.995886
210
0.0
220
0.0
230
1.0
100
AcDbArc
 50
235.061335
 51
244.938665
  0
ARC
  5
341
100
AcDbEntity
  8
0
390
0
  6
Continuous
 62
     7
100
AcDbCircle
 10
-62.245426
 20
0.0
 30
0.0
 40
7.995886
210
0.0
220
0.0
230
1.0
100
AcDbArc
 50
175.061335
 51
184.938665
  0
CIRCLE
  5
342
100
AcDbEntity
  8
0
390
0
  6
Continuous
 62
     7
100
AcDbCircle
 10
-62.245426
 20
0.0
 30
0.0
 40
8.094334
210
0.0
220
0.0
230
1.0
  0
POINT
  5
343
100
AcDbEntity
  8
0
390
0
 62
     7
100
AcDbPoint
 10
0.0
 20
0.0
 30
0.0
  0
ENDSEC
  0
SECTION
  2
OBJECTS
  0
DICTIONARY
  5
19
100
AcDbDictionary
280
     0
281
     1
  3
ACAD_GROUP
350
1A
  3
ACAD_MLINESTYLE
350
1B
  3
ACAD_LAYOUT
350
1E
  3
ACAD_PLOTSETTINGS
350
22
  3
ACAD_PLOTSTYLENAME
350
1F
  3
ACAD_WIPEOUT_VARS
350
23
  0
DICTIONARY
  5
1A
102
{ACAD_REACTORS
330
19
102
}
100
AcDbDictionary
280
     0
281
     1
  0
DICTIONARY
  5
1B
102
{ACAD_REACTORS
330
19
102
}
100
AcDbDictionary
280
     0
281
     1
  3
Standard
350
1C
  0
MLINESTYLE
  5
1C
102
{ACAD_REACTORS
330
1B
102
}
100
AcDbMlineStyle
  2
Standard
 70
     0
  3

 62
     0
 51
90.0
 52
90.0
 71
     2
 49
0.5
 62
   256
  6
ByLayer
 49
-0.5
 62
   256
  6
ByLayer
  0
ACDBDICTIONARYWDFLT
  5
1F
102
{ACAD_REACTORS
330
19
102
}
100
AcDbDictionary
281
     1
  3
Normal
350
1D
100
AcDbDictionaryWithDefault
340
1D
  0
ACDBPLACEHOLDER
  5
1D
102
{ACAD_REACTORS
330
1F
102
}
  0
LAYOUT
  5
20
102
{ACAD_REACTORS
330
1E
102
}
100
AcDbPlotSettings
  1

  2

  4

  6

 40
0.0
 41
0.0
 42
0.0
 43
0.0
 44
0.0
 45
0.0
 46
0.0
 47
0.0
 48
0.0
 49
0.0
140
0.0
141
0.0
142
1.0
143
1.0
 70
  1024
 72
     0
 73
     0
 74
     0
  7

 75
     0
147
1.0
148
0.0
149
0.0
100
AcDbLayout
  1
Model
 70
     0
 71
     1
 10
0.0
 20
0.0
 11
0.0
 21
0.0
 12
0.0
 22
0.0
 32
0.0
 14
0.0
 24
0.0
 34
0.0
 15
0.0
 25
0.0
 35
0.0
146
0.0
 13
0.0
 23
0.0
 33
0.0
 16
0.0
 26
0.0
 36
0.0
 17
0.0
 27
0.0
 37
0.0
 76
     0
330
A
331
0
345
0
346
0
  0
LAYOUT
  5
21
102
{ACAD_REACTORS
330
1E
102
}
100
AcDbPlotSettings
  1

  2

  4

  6

 40
0.0
 41
0.0
 42
0.0
 43
0.0
 44
0.0
 45
0.0
 46
0.0
 47
0.0
 48
0.0
 49
0.0
140
0.0
141
0.0
142
1.0
143
1.0
 70
     0
 72
     0
 73
     0
 74
     0
  7

 75
     0
147
1.0
148
0.0
149
0.0
100
AcDbLayout
  1
Layout1
 70
     0
 71
     2
 10
0.0
 20
0.0
 11
0.0
 21
0.0
 12
0.0
 22
0.0
 32
0.0
 14
0.0
 24
0.0
 34
0.0
 15
0.0
 25
0.0
 35
0.0
146
0.0
 13
0.0
 23
0.0
 33
0.0
 16
0.0
 26
0.0
 36
0.0
 17
0.0
 27
0.0
 37
0.0
 76
     0
330
B
331
0
345
0
346
0
  0
DICTIONARY
  5
1E
102
{ACAD_REACTORS
330
19
102
}
100
AcDbDictionary
280
     0
281
     1
  3
Layout1
350
21
  3
Model
350
20
  0
DICTIONARY
  5
22
102
{ACAD_REACTORS
330
19
102
}
100
AcDbDictionary
280
     0
281
     1
  0
WIPEOUTVARIABLES
  5
23
100
AcDbWipeoutVariables
 70
     1
  0
ENDSEC
  0
EOF
