  0
SECTION
  2
HEADER
  9
$ACADVER
  1
AC1015
  9
$ACADMAINTVER
 70
     6
  9
$DWGCODEPAGE
  3
DOS932
  9
$INSBASE
 10
0.0
 20
0.0
 30
0.0
  9
$EXTMIN
 10
-131.415352
 20
-25.230594
 30
0.0
  9
$EXTMAX
 10
251.984846
 20
180.10008
 30
9.906
  9
$LIMMIN
 10
-131.415352
 20
-25.230594
  9
$LIMMAX
 10
251.984846
 20
180.10008
  9
$ORTHOMODE
 70
     0
  9
$REGENMODE
 70
     1
  9
$FILLMODE
 70
     1
  9
$QTEXTMODE
 70
     0
  9
$MIRRTEXT
 70
     1
  9
$LTSCALE
 40
10.0
  9
$ATTMODE
 70
     1
  9
$TEXTSIZE
 40
0.2
  9
$TRACEWID
 40
0.05
  9
$TEXTSTYLE
  7
Standard
  9
$CLAYER
  8
0
  9
$CELTYPE
  6
Continuous
  9
$CECOLOR
 62
   256
  9
$CELTSCALE
 40
1.0
  9
$DISPSILH
 70
     0
  9
$DIMSCALE
 40
1.0
  9
$DIMASZ
 40
1.40208
  9
$DIMEXO
 40
1.40208
  9
$DIMDLI
 40
0.38
  9
$DIMRND
 40
0.0
  9
$DIMDLE
 40
0.0
  9
$DIMEXE
 40
1.05156
  9
$DIMTP
 40
0.0
  9
$DIMTM
 40
0.0
  9
$DIMTXT
 40
3.5052
  9
$DIMCEN
 40
0.09
  9
$DIMTSZ
 40
0.0
  9
$DIMTOL
 70
     0
  9
$DIMLIM
 70
     0
  9
$DIMTIH
 70
     0
  9
$DIMTOH
 70
     0
  9
$DIMSE1
 70
     0
  9
$DIMSE2
 70
     0
  9
$DIMTAD
 70
     1
  9
$DIMZIN
 70
     0
  9
$DIMBLK
  1

  9
$DIMASO
 70
     1
  9
$DIMSHO
 70
     1
  9
$DIMPOST
  1

  9
$DIMAPOST
  1

  9
$DIMALT
 70
     0
  9
$DIMALTD
 70
     2
  9
$DIMALTF
 40
25.4
  9
$DIMLFAC
 40
1.0
  9
$DIMTOFL
 70
     0
  9
$DIMTVP
 40
0.0
  9
$DIMTIX
 70
     0
  9
$DIMSOXD
 70
     0
  9
$DIMSAH
 70
     0
  9
$DIMBLK1
  1

  9
$DIMBLK2
  1

  9
$DIMSTYLE
  2
Standard
  9
$DIMCLRD
 70
     7
  9
$DIMCLRE
 70
     7
  9
$DIMCLRT
 70
     7
  9
$DIMTFAC
 40
0.5
  9
$DIMGAP
 40
1.7526
  9
$DIMJUST
 70
     0
  9
$DIMSD1
 70
     0
  9
$DIMSD2
 70
     0
  9
$DIMTOLJ
 70
     1
  9
$DIMTZIN
 70
     0
  9
$DIMALTZ
 70
     0
  9
$DIMALTTZ
 70
     0
  9
$DIMUPT
 70
     0
  9
$DIMDEC
 70
     2
  9
$DIMTDEC
 70
     4
  9
$DIMALTU
 70
     2
  9
$DIMALTTD
 70
     2
  9
$DIMTXSTY
  7
Standard
  9
$DIMAUNIT
 70
     0
  9
$DIMADEC
 70
     0
  9
$DIMALTRND
 40
0.0
  9
$DIMAZIN
 70
     0
  9
$DIMDSEP
 70
     0
  9
$DIMATFIT
 70
     3
  9
$DIMFRAC
 70
     0
  9
$DIMLDRBLK
  1

  9
$DIMLUNIT
 70
     2
  9
$DIMLWD
 70
     0
  9
$DIMLWE
 70
     0
  9
$DIMTMOVE
 70
     0
  9
$LUNITS
 70
     2
  9
$LUPREC
 70
     4
  9
$SKETCHINC
 40
0.1
  9
$FILLETRAD
 40
0.0
  9
$AUNITS
 70
     0
  9
$AUPREC
 70
     0
  9
$MENU
  1
acad
  9
$ELEVATION
 40
0.0
  9
$PELEVATION
 40
0.0
  9
$THICKNESS
 40
0.0
  9
$LIMCHECK
 70
     0
  9
$CHAMFERA
 40
0.0
  9
$CHAMFERB
 40
0.0
  9
$CHAMFERC
 40
0.0
  9
$CHAMFERD
 40
0.0
  9
$SKPOLY
 70
     0
  9
$TDCREATE
 40
2459788.618495370
  9
$TDUCREATE
 40
0.000000000
  9
$TDUPDATE
 40
2459788.243414352
  9
$TDUUPDATE
 40
0.000000000
  9
$TDINDWG
 40
0.0000000000
  9
$TDUSRTIMER
 40
0.0000000000
  9
$USRTIMER
 70
     1
  9
$ANGBASE
 50
0.0
  9
$ANGDIR
 70
     0
  9
$PDMODE
 70
     0
  9
$PDSIZE
 40
0.0
  9
$PLINEWID
 40
0.0
  9
$SPLFRAME
 70
     0
  9
$SPLINETYPE
 70
     6
  9
$SPLINESEGS
 70
     8
  9
$HANDSEED
  5
332
  9
$SURFTAB1
 70
     6
  9
$SURFTAB2
 70
     6
  9
$SURFTYPE
 70
     6
  9
$SURFU
 70
     6
  9
$SURFV
 70
     6
  9
$UCSBASE
  2

  9
$UCSNAME
  2

  9
$UCSORG
 10
0.0
 20
0.0
 30
0.0
  9
$UCSXDIR
 10
1.0
 20
0.0
 30
0.0
  9
$UCSYDIR
 10
0.0
 20
1.0
 30
0.0
  9
$UCSORTHOREF
  2

  9
$UCSORTHOVIEW
 70
     0
  9
$UCSORGTOP
 10
0.0
 20
0.0
 30
0.0
  9
$UCSORGBOTTOM
 10
0.0
 20
0.0
 30
0.0
  9
$UCSORGLEFT
 10
0.0
 20
0.0
 30
0.0
  9
$UCSORGRIGHT
 10
0.0
 20
0.0
 30
0.0
  9
$UCSORGFRONT
 10
0.0
 20
0.0
 30
0.0
  9
$UCSORGBACK
 10
0.0
 20
0.0
 30
0.0
  9
$PUCSBASE
  2

  9
$PUCSNAME
  2

  9
$PUCSORG
 10
0.0
 20
0.0
 30
0.0
  9
$PUCSXDIR
 10
1.0
 20
0.0
 30
0.0
  9
$PUCSYDIR
 10
0.0
 20
1.0
 30
0.0
  9
$PUCSORTHOREF
  2

  9
$PUCSORTHOVIEW
 70
     0
  9
$PUCSORGTOP
 10
0.0
 20
0.0
 30
0.0
  9
$PUCSORGBOTTOM
 10
0.0
 20
0.0
 30
0.0
  9
$PUCSORGLEFT
 10
0.0
 20
0.0
 30
0.0
  9
$PUCSORGRIGHT
 10
0.0
 20
0.0
 30
0.0
  9
$PUCSORGFRONT
 10
0.0
 20
0.0
 30
0.0
  9
$PUCSORGBACK
 10
0.0
 20
0.0
 30
0.0
  9
$USERI1
 70
     0
  9
$USERI2
 70
     0
  9
$USERI3
 70
     0
  9
$USERI4
 70
     0
  9
$USERI5
 70
     0
  9
$USERR1
 40
0.0
  9
$USERR2
 40
0.0
  9
$USERR3
 40
0.0
  9
$USERR4
 40
0.0
  9
$USERR5
 40
0.0
  9
$WORLDVIEW
 70
     1
  9
$SHADEDGE
 70
     3
  9
$SHADEDIF
 70
    70
  9
$TILEMODE
 70
     1
  9
$MAXACTVP
 70
    16
  9
$PINSBASE
 10
0.0
 20
0.0
 30
0.0
  9
$PLIMCHECK
 70
     0
  9
$PEXTMIN
 10
1.000000E+20
 20
1.000000E+20
 30
1.000000E+20
  9
$PEXTMAX
 10
-1.000000E+20
 20
-1.000000E+20
 30
-1.000000E+20
  9
$PLIMMIN
 10
0.0
 20
0.0
  9
$PLIMMAX
 10
12.0
 20
9.0
  9
$UNITMODE
 70
     0
  9
$VISRETAIN
 70
     0
  9
$PLINEGEN
 70
     1
  9
$PSLTSCALE
 70
     0
  9
$TREEDEPTH
 70
  3020
  9
$CMLSTYLE
  2
Standard
  9
$CMLJUST
 70
     0
  9
$CMLSCALE
 40
1.0
  9
$PROXYGRAPHICS
 70
     0
  9
$MEASUREMENT
 70
     0
  9
$CELWEIGHT
370
     0
  9
$ENDCAPS
280
     0
  9
$JOINSTYLE
280
     0
  9
$LWDISPLAY
290
     0
  9
$INSUNITS
 70
     0
  9
$HYPERLINKBASE
  1

  9
$STYLESHEET
  1

  9
$XEDIT
290
     1
  9
$CEPSNTYPE
380
     0
  9
$PSTYLEMODE
290
     1
  9
$FINGERPRINTGUID
  2

  9
$VERSIONGUID
  2

  9
$EXTNAMES
290
     1
  9
$PSVPSCALE
 40
0.0
  0
ENDSEC
  0
SECTION
  2
CLASSES
  0
CLASS
  1
LWPOLYLINE
  2
AcDbPolyline
  3
AutoCAD 2000
 90
        0
280
     0
281
     1
  0
CLASS
  1
IMAGE
  2
AcDbRasterImage
  3
ISM
 90
      127
280
     0
281
     1
  0
CLASS
  1
OLE2FRAME
  2
AcDbOle2Frame
  3
AutoCAD 2000
 90
        0
280
     0
281
     1
  0
CLASS
  1
HATCH
  2
AcDbHatch
  3
AutoCAD 2000
 90
        0
280
     0
281
     1
  0
CLASS
  1
DICTIONARYVAR
  2
AcDbDictionaryVar
  3
AutoCAD 2000
 90
        0
280
     0
281
     0
  0
CLASS
  1
RASTERVARIABLES
  2
AcDbRasterVariables
  3
ISM
 90
        0
280
     0
281
     0
  0
CLASS
  1
IMAGEDEF
  2
AcDbRasterImageDef
  3
ISM
 90
        0
280
     0
281
     0
  0
CLASS
  1
IMAGEDEF_REACTOR
  2
AcDbRasterImageDefReactor
  3
ISM
 90
        1
280
     0
281
     0
  0
CLASS
  1
IDBUFFER
  2
AcDbIdBuffer
  3
AutoCAD 2000
 90
        0
280
     0
281
     0
  0
CLASS
  1
SPATIAL_FILTER
  2
AcDbSpatialFilter
  3
AutoCAD 2000
 90
        0
280
     0
281
     0
  0
CLASS
  1
XRECORD
  2
AcDbXrecord
  3
AutoCAD 2000
 90
        0
280
     0
281
     0
  0
CLASS
  1
SORTENTSTABLE
  2
AcDbSortentsTable
  3
AutoCAD 2000
 90
        0
280
     0
281
     0
  0
CLASS
  1
LAYER_INDEX
  2
AcDbLayerIndex
  3
AutoCAD 2000
 90
        0
280
     0
281
     0
  0
CLASS
  1
SPATIAL_INDEX
  2
AcDbSpatialIndex
  3
AutoCAD 2000
 90
        0
280
     0
281
     0
  0
CLASS
  1
OBJECT_PTR
  2
CAseDLPNTableRecord
  3
"ASE-LPNTableRecord"
 90
        1
280
     0
281
     0
  0
CLASS
  1
LAYOUT
  2
AcDbLayout
  3
AutoCAD 2000
 90
        0
280
     0
281
     0
  0
CLASS
  1
PLOTSETTINGS
  2
AcDbPlotSettings
  3
AutoCAD 2000
 90
        0
280
     0
281
     0
  0
CLASS
  1
ACDBDICTIONARYWDFLT
  2
AcDbDictionaryWithDefault
  3
AutoCAD 2000
 90
        0
280
     0
281
     0
  0
CLASS
  1
ACDBPLACEHOLDER
  2
AcDbPlaceHolder
  3
AutoCAD 2000
 90
        0
280
     0
281
     0
  0
CLASS
  1
VBA_PROJECT
  2
AcDbVbaProject
  3
acadvba
 90
        0
280
     0
281
     0
  0
CLASS
  1
WIPEOUT
  2
AcDbWipeout
  3
WipeOut|AutoCAD Express Tool|expresstools@autodesk.com
 90
      127
280
     0
281
     1
  0
CLASS
  1
WIPEOUTVARIABLES
  2
AcDbWipeoutVariables
  3
WipeOut|AutoCAD Express Tool|expresstools@autodesk.com
 90
        0
280
     0
281
     0
  0
CLASS
  1
RTEXT
  2
RText
  3
RText|AutoCAD Express Tool|expresstools@autodesk.com
 90
        0
280
     0
281
     1
  0
CLASS
  1
ARCALIGNEDTEXT
  2
AcDbArcAlignedText
  3
ATEXT|AutoCAD Express Tool|expresstools@autodesk.com
 90
        0
280
     0
281
     1
  0
ENDSEC
  0
SECTION
  2
TABLES
  0
TABLE
  2
VPORT
  5
7
100
AcDbSymbolTable
 70
     1
  0
VPORT
  5
15
100
AcDbSymbolTableRecord
100
AcDbViewportTableRecord
  2
*ACTIVE
 70
     0
 10
0.0
 20
0.0
 11
1.0
 21
1.0
 12
6.591288
 22
4.579184
 13
0.0
 23
0.0
 14
1.0
 24
1.0
 15
0.0
 25
0.0
 16
0.0
 26
0.0
 36
1.0
 17
0.0
 27
0.0
 37
0.0
 40
9.158369
 41
0.688564
 42
50.0
 43
0.0
 44
0.0
 50
0.0
 51
0.0
 71
     0
 72
   100
 73
     1
 74
     1
 75
     0
 76
     0
 77
     0
 78
     0
281
     0
 65
     0
110
0.0
120
0.0
130
0.0
111
1.0
121
0.0
131
0.0
112
0.0
122
1.0
132
0.0
345
0
346
0
 79
     0
146
0.0
  0
ENDTAB
  0
TABLE
  2
LTYPE
  5
4
100
AcDbSymbolTable
 70
     3
  0
LTYPE
  5
11
100
AcDbSymbolTableRecord
100
AcDbLinetypeTableRecord
  2
ByBlock
 70
    64
  3

 72
    65
 73
     0
 40
0.0
  0
LTYPE
  5
12
100
AcDbSymbolTableRecord
100
AcDbLinetypeTableRecord
  2
ByLayer
 70
    64
  3

 72
    65
 73
     0
 40
0.0
  0
LTYPE
  5
13
100
AcDbSymbolTableRecord
100
AcDbLinetypeTableRecord
  2
Continuous
 70
    64
  3
Solid line
 72
    65
 73
     0
 40
0.0
  0
ENDTAB
  0
TABLE
  2
LAYER
  5
2
100
AcDbSymbolTable
 70
     1
  0
LAYER
  5
14
100
AcDbSymbolTableRecord
100
AcDbLayerTableRecord
  2
0
 70
     0
 62
     7
  6
Continuous
290
     1
370
    -3
390
1D
  0
ENDTAB
  0
TABLE
  2
STYLE
  5
3
100
AcDbSymbolTable
 70
     1
  0
STYLE
  5
17
100
AcDbSymbolTableRecord
100
AcDbTextStyleTableRecord
  2
Standard
 70
     0
 40
0.0
 41
1.0
 50
0.0
 71
     0
 42
0.0
  3
FG教科書体NT-M
  4

1001
ACAD
1000
FG教科書体NT-M
1071
        0
  0
ENDTAB
  0
TABLE
  2
VIEW
  5
5
100
AcDbSymbolTable
 70
     0
  0
ENDTAB
  0
TABLE
  2
UCS
  5
6
100
AcDbSymbolTable
 70
     0
  0
ENDTAB
  0
TABLE
  2
APPID
  5
8
100
AcDbSymbolTable
 70
     2
  0
APPID
  5
16
100
AcDbSymbolTableRecord
100
AcDbRegAppTableRecord
  2
ACAD
 70
     0
  0
APPID
  5
26
100
AcDbSymbolTableRecord
100
AcDbRegAppTableRecord
  2
TOPsolid_Design
 70
     0
  0
ENDTAB
  0
TABLE
  2
DIMSTYLE
  5
9
100
AcDbSymbolTable
 70
     1
100
AcDbDimStyleTable
 71
     0
  0
DIMSTYLE
105
18
100
AcDbSymbolTableRecord
100
AcDbDimStyleTableRecord
  2
Standard
 70
     0
  3

  4

 40
1.0
 41
1.40208
 42
1.40208
 43
0.38
 44
1.05156
 45
0.0
 46
0.0
 47
0.0
 48
0.0
 71
     0
 72
     0
 73
     0
 74
     0
 75
     0
 76
     0
 77
     1
 78
     0
 79
     0
140
3.5052
141
0.09
142
0.0
143
25.4
144
1.0
145
0.0
146
0.5
147
1.7526
148
0.0
170
     0
171
     2
172
     0
173
     0
174
     0
175
     0
176
     7
177
     7
178
     7
179
     0
271
     2
272
     4
273
     2
274
     2
275
     0
276
     0
277
     2
278
    46
279
     0
280
     0
281
     0
282
     0
283
     1
284
     0
285
     0
286
     0
288
     0
289
     3
340
17
341
0
342
0
343
0
344
0
371
    -2
372
    -2
  0
ENDTAB
  0
TABLE
  2
BLOCK_RECORD
  5
1
100
AcDbSymbolTable
 70
     0
  0
BLOCK_RECORD
  5
A
100
AcDbSymbolTableRecord
100
AcDbBlockTableRecord
  2
*MODEL_SPACE
340
20
  0
BLOCK_RECORD
  5
B
100
AcDbSymbolTableRecord
100
AcDbBlockTableRecord
  2
*PAPER_SPACE
340
21
  0
ENDTAB
  0
ENDSEC
  0
SECTION
  2
BLOCKS
  0
BLOCK
  5
D
100
AcDbEntity
  8
0
390
0
100
AcDbBlockBegin
  2
*MODEL_SPACE
 70
     0
 10
0.0
 20
0.0
 30
0.0
  3
*MODEL_SPACE
  1

  0
ENDBLK
  5
E
100
AcDbEntity
  8
0
390
0
100
AcDbBlockEnd
  0
BLOCK
  5
F
100
AcDbEntity
 67
     1
  8
0
390
0
100
AcDbBlockBegin
  2
*PAPER_SPACE
 70
     0
 10
0.0
 20
0.0
 30
0.0
  3
*PAPER_SPACE
  1

  0
ENDBLK
  5
10
100
AcDbEntity
 67
     1
  8
0
390
0
100
AcDbBlockEnd
  0
ENDSEC
  0
SECTION
  2
ENTITIES
  0
LINE
  5
27
100
AcDbEntity
  8
0
390
0
  6
Continuous
 62
     7
100
AcDbLine
 10
10.95
 20
-25.230594
 30
0.0
 11
10.95
 21
0.0
 31
0.0
  0
LINE
  5
28
100
AcDbEntity
  8
0
390
0
  6
Continuous
 62
     7
100
AcDbLine
 10
6.348757
 20
24.989453
 30
0.0
 11
6.409953
 21
24.927698
 31
0.0
  0
LINE
  5
29
100
AcDbEntity
  8
0
390
0
  6
Continuous
 62
     7
100
AcDbLine
 10
6.409953
 20
24.927698
 30
0.0
 11
6.41916
 21
24.881803
 31
0.0
  0
LINE
  5
2A
100
AcDbEntity
  8
0
390
0
  6
Continuous
 62
     7
100
AcDbLine
 10
6.409953
 20
-24.927698
 30
0.0
 11
6.348757
 21
-24.989453
 31
0.0
  0
LINE
  5
2B
100
AcDbEntity
  8
0
390
0
  6
Continuous
 62
     7
100
AcDbLine
 10
6.41916
 20
-24.881803
 30
0.0
 11
6.409953
 21
-24.927698
 31
0.0
  0
LINE
  5
2C
100
AcDbEntity
  8
0
390
0
  6
Continuous
 62
     7
100
AcDbLine
 10
6.41916
 20
-14.481689
 30
0.0
 11
6.41916
 21
-24.881803
 31
0.0
  0
LINE
  5
2D
100
AcDbEntity
  8
0
390
0
  6
Continuous
 62
     7
100
AcDbLine
 10
6.409953
 20
-14.023401
 30
0.0
 11
6.41916
 21
-14.481689
 31
0.0
  0
ARC
  5
2E
100
AcDbEntity
  8
0
390
0
  6
Continuous
 62
     7
100
AcDbCircle
 10
26.246502
 20
-12.463849
 30
0.0
 40
19.89776
210
0.0
220
0.0
230
1.0
100
AcDbArc
 50
175.504647
 51
184.495353
  0
LINE
  5
2F
100
AcDbEntity
  8
0
390
0
  6
Continuous
 62
     7
100
AcDbLine
 10
6.41916
 20
-10.400114
 30
0.0
 11
6.409953
 21
-10.904298
 31
0.0
  0
LINE
  5
30
100
AcDbEntity
  8
0
390
0
  6
Continuous
 62
     7
100
AcDbLine
 10
6.41916
 20
10.400114
 30
0.0
 11
6.41916
 21
-10.400114
 31
0.0
  0
LINE
  5
31
100
AcDbEntity
  8
0
390
0
  6
Continuous
 62
     7
100
AcDbLine
 10
6.409953
 20
10.904298
 30
0.0
 11
6.41916
 21
10.400114
 31
0.0
  0
ARC
  5
32
100
AcDbEntity
  8
0
390
0
  6
Continuous
 62
     7
100
AcDbCircle
 10
26.24088
 20
12.463849
 30
0.0
 40
19.892156
210
0.0
220
0.0
230
1.0
100
AcDbArc
 50
175.503378
 51
184.496622
  0
LINE
  5
33
100
AcDbEntity
  8
0
390
0
  6
Continuous
 62
     7
100
AcDbLine
 10
6.41916
 20
14.481689
 30
0.0
 11
6.409953
 21
14.023401
 31
0.0
  0
LINE
  5
34
100
AcDbEntity
  8
0
390
0
  6
Continuous
 62
     7
100
AcDbLine
 10
6.41916
 20
24.881803
 30
0.0
 11
6.41916
 21
14.481689
 31
0.0
  0
LINE
  5
35
100
AcDbEntity
  8
0
390
0
  6
Continuous
 62
     7
100
AcDbLine
 10
10.95
 20
0.0
 30
0.0
 11
10.95
 21
25.230594
 31
0.0
  0
ELLIPSE
  5
36
100
AcDbEntity
  8
0
390
0
  6
Continuous
 62
     7
100
AcDbEllipse
 10
6.55
 20
-9.361243
 30
0.0
 11
-2.5000000000000022
 21
-0.0000000000000278
 31
0.0
210
0.0
220
0.0
230
1.0
 40
0.416119
 41
0.564644482995051
 42
1.5184364492350637
  0
LINE
  5
37
100
AcDbEntity
  8
0
390
0
  6
Continuous
 62
     7
100
AcDbLine
 10
4.368013
 20
-9.334772
 30
0.0
 11
4.438053
 21
-9.917921
 31
0.0
  0
ARC
  5
38
100
AcDbEntity
  8
0
390
0
  6
Continuous
 62
     7
100
AcDbCircle
 10
144.85914
 20
0.0
 30
0.0
 40
140.800904
210
0.0
220
0.0
230
1.0
100
AcDbArc
 50
176.198635
 51
183.801365
  0
LINE
  5
39
100
AcDbEntity
  8
0
390
0
  6
Continuous
 62
     7
100
AcDbLine
 10
4.438053
 20
9.917922
 30
0.0
 11
4.368013
 21
9.334772
 31
0.0
  0
ELLIPSE
  5
3A
100
AcDbEntity
  8
0
390
0
  6
Continuous
 62
     7
100
AcDbEllipse
 10
6.55
 20
9.361243
 30
0.0
 11
-2.5000000000000022
 21
0.0
 31
0.0
210
0.0
220
0.0
230
1.0
 40
0.416119
 41
4.7647488579445199
 42
5.7185408241834024
  0
ELLIPSE
  5
3B
100
AcDbEntity
  8
0
390
0
  6
Continuous
 62
     7
100
AcDbEllipse
 10
2.186027
 20
-9.815042
 30
0.0
 11
-2.4405308612620855
 21
-0.5420416176156462
 31
0.0
210
0.0
220
0.0
230
0.9999999999999999
 40
0.003785
 41
1.5878344057367679
 42
2.6762884266393669
  0
POLYLINE
  5
3C
100
AcDbEntity
  8
0
390
0
  6
Continuous
 62
     7
100
AcDb2dPolyline
 66
     1
 10
0.0
 20
0.0
 30
0.0
 40
0.1
 41
0.1
  0
VERTEX
  5
3D
100
AcDbEntity
  8
0
390
0
 62
     7
100
AcDbVertex
100
AcDb2dVertex
 10
2.229658
 20
-9.815042
 30
0.0
 42
-0.054378
  0
VERTEX
  5
3E
100
AcDbEntity
  8
0
390
0
 62
     7
100
AcDbVertex
100
AcDb2dVertex
 10
1.626165
 20
-2.646763
 30
0.0
 42
-0.053606
  0
VERTEX
  5
3F
100
AcDbEntity
  8
0
390
0
 62
     7
100
AcDbVertex
100
AcDb2dVertex
 10
2.229658
 20
9.815043
 30
0.0
  0
SEQEND
  5
40
100
AcDbEntity
  8
0
390
0
  0
ELLIPSE
  5
41
100
AcDbEntity
  8
0
390
0
  6
Continuous
 62
     7
100
AcDbEllipse
 10
2.186027
 20
9.815043
 30
0.0
 11
-2.4405308612718555
 21
0.5420416175715703
 31
0.0
210
0.0
220
0.0
230
0.9999999999999999
 40
0.003785
 41
3.6068968805201314
 42
4.6953509006854182
  0
LINE
  5
42
100
AcDbEntity
  8
0
390
0
  6
Continuous
 62
     7
100
AcDbLine
 10
4.470625
 20
10.357927
 30
0.0
 11
4.438053
 21
9.917922
 31
0.0
  0
ELLIPSE
  5
43
100
AcDbEntity
  8
0
390
0
  6
Continuous
 62
     7
100
AcDbEllipse
 10
6.540793
 20
9.815043
 30
0.0
 11
-2.4978043054839363
 21
-0.1047551979901085
 31
0.0
210
0.0
220
0.0
230
0.9999999999999999
 40
0.437766
 41
4.7464287220957226
 42
5.6707331540431589
  0
ELLIPSE
  5
44
100
AcDbEntity
  8
0
390
0
  6
Continuous
 62
     7
100
AcDbEllipse
 10
6.540793
 20
-9.815042
 30
0.0
 11
-2.4978043055238484
 21
0.1047551970382865
 31
0.0
210
0.0
220
0.0
230
1.0
 40
0.437766
 41
0.6124521529256624
 42
1.5367565849158844
  0
LINE
  5
45
100
AcDbEntity
  8
0
390
0
  6
Continuous
 62
     7
100
AcDbLine
 10
4.438053
 20
-9.917921
 30
0.0
 11
4.470625
 21
-10.357927
 31
0.0
  0
ELLIPSE
  5
46
100
AcDbEntity
  8
0
390
0
  6
Continuous
 62
     7
100
AcDbEllipse
 10
6.540793
 20
-12.622571
 30
0.0
 11
-2.4974178975990249
 21
-0.1135950912325157
 31
0.0
210
0.0
220
0.0
230
1.0
 40
0.559067
 41
0.5686710928617978
 42
1.4929755248098635
  0
LINE
  5
47
100
AcDbEntity
  8
0
390
0
  6
Continuous
 62
     7
100
AcDbLine
 10
4.470625
 20
-10.357927
 30
0.0
 11
4.470625
 21
-13.470173
 31
0.0
  0
LINE
  5
48
100
AcDbEntity
  8
0
390
0
  6
Continuous
 62
     7
100
AcDbLine
 10
4.470625
 20
13.470173
 30
0.0
 11
4.470625
 21
10.357927
 31
0.0
  0
ELLIPSE
  5
49
100
AcDbEntity
  8
0
390
0
  6
Continuous
 62
     7
100
AcDbEllipse
 10
6.540793
 20
12.622571
 30
0.0
 11
-2.4974178976455708
 21
0.1135950902088623
 31
0.0
210
0.0
220
0.0
230
1.0
 40
0.559067
 41
4.7902097821417282
 42
5.7145142141314764
  0
LINE
  5
4A
100
AcDbEntity
  8
0
390
0
  6
Continuous
 62
     7
100
AcDbLine
 10
2.229658
 20
9.815043
 30
0.0
 11
2.36973
 21
10.19266
 31
0.0
  0
ELLIPSE
  5
4B
100
AcDbEntity
  8
0
390
0
  6
Continuous
 62
     7
100
AcDbEllipse
 10
2.326105
 20
10.4746
 30
0.0
 11
-2.4513450982718012
 21
0.490822991697476
 31
0.0
210
0.0
220
0.0
230
1.0
 40
0.107238
 41
1.6100577745209519
 42
2.6301815523584056
  0
ELLIPSE
  5
4C
100
AcDbEntity
  8
0
390
0
  6
Continuous
 62
     7
100
AcDbEllipse
 10
2.326105
 20
-10.4746
 30
0.0
 11
-2.4513450982731335
 21
-0.4908229916907869
 31
0.0
210
0.0
220
0.0
230
1.0
 40
0.107238
 41
3.6530037548204861
 42
4.6731275326581416
  0
LINE
  5
4D
100
AcDbEntity
  8
0
390
0
  6
Continuous
 62
     7
100
AcDbLine
 10
2.36973
 20
-10.19266
 30
0.0
 11
2.229658
 21
-9.815042
 31
0.0
  0
LINE
  5
4E
100
AcDbEntity
  8
0
390
0
  6
Continuous
 62
     7
100
AcDbLine
 10
2.36973
 20
10.19266
 30
0.0
 11
2.444072
 21
10.43793
 31
0.0
  0
ELLIPSE
  5
4F
100
AcDbEntity
  8
0
390
0
  6
Continuous
 62
     7
100
AcDbEllipse
 10
2.400457
 20
10.900812
 30
0.0
 11
-2.4736880014485099
 21
0.361756370351185
 31
0.0
210
0.0
220
0.0
230
1.0
 40
0.180855
 41
1.6148650021610595
 42
2.5882541176710943
  0
ELLIPSE
  5
50
100
AcDbEntity
  8
0
390
0
  6
Continuous
 62
     7
100
AcDbEllipse
 10
2.400457
 20
-10.900812
 30
0.0
 11
-2.4736880014595286
 21
-0.3617563702759119
 31
0.0
210
0.0
220
0.0
230
0.9999999999999999
 40
0.180855
 41
3.6949311895462316
 42
4.668320305009118
  0
LINE
  5
51
100
AcDbEntity
  8
0
390
0
  6
Continuous
 62
     7
100
AcDbLine
 10
2.444072
 20
-10.43793
 30
0.0
 11
2.36973
 21
-10.19266
 31
0.0
  0
ARC
  5
52
100
AcDbEntity
  8
0
390
0
  6
Continuous
 62
     7
100
AcDbCircle
 10
-1.412819
 20
11.429926
 30
0.0
 40
3.982419
210
0.0
220
0.0
230
1.0
100
AcDbArc
 50
345.576103
 51
14.423897
  0
ELLIPSE
  5
53
100
AcDbEntity
  8
0
390
0
  6
Continuous
 62
     7
100
AcDbEllipse
 10
2.400457
 20
14.317775
 30
0.0
 11
-2.4409632785945545
 21
-0.5400909854393898
 31
0.0
210
0.0
220
0.0
230
1.0
 40
0.752352
 41
1.4234686285697999
 42
2.3968577440322765
  0
ELLIPSE
  5
54
100
AcDbEntity
  8
0
390
0
  6
Continuous
 62
     7
100
AcDbEllipse
 10
2.400457
 20
-14.317774
 30
0.0
 11
-2.4409632786351612
 21
0.5400909852559532
 31
0.0
210
0.0
220
0.0
230
1.0
 40
0.752352
 41
3.8863275630572978
 42
4.8597166785679882
  0
POLYLINE
  5
55
100
AcDbEntity
  8
0
390
0
  6
Continuous
 62
     7
100
AcDb2dPolyline
 66
     1
 10
0.0
 20
0.0
 30
0.0
 40
0.1
 41
0.1
  0
VERTEX
  5
56
100
AcDbEntity
  8
0
390
0
 62
     7
100
AcDbVertex
100
AcDb2dVertex
 10
2.444072
 20
-12.421922
 30
0.0
  0
VERTEX
  5
57
100
AcDbEntity
  8
0
390
0
 62
     7
100
AcDbVertex
100
AcDb2dVertex
 10
2.498086
 20
-12.247607
 30
0.0
 42
0.106117
  0
VERTEX
  5
58
100
AcDbEntity
  8
0
390
0
 62
     7
100
AcDbVertex
100
AcDb2dVertex
 10
2.444072
 20
-10.43793
 30
0.0
  0
SEQEND
  5
59
100
AcDbEntity
  8
0
390
0
  0
ELLIPSE
  5
5A
100
AcDbEntity
  8
0
390
0
  6
Continuous
 62
     7
100
AcDbEllipse
 10
6.55
 20
-13.035108
 30
0.0
 11
-2.5000000000000022
 21
0.0
 31
0.0
210
0.0
220
0.0
230
1.0
 40
0.579426
 41
0.564644482995638
 42
1.5184364492350688
  0
LINE
  5
5B
100
AcDbEntity
  8
0
390
0
  6
Continuous
 62
     7
100
AcDbLine
 10
4.470625
 20
-13.470173
 30
0.0
 11
4.438053
 21
-13.810258
 31
0.0
  0
LINE
  5
5C
100
AcDbEntity
  8
0
390
0
  6
Continuous
 62
     7
100
AcDbLine
 10
4.438053
 20
13.810258
 30
0.0
 11
4.470625
 21
13.470173
 31
0.0
  0
ELLIPSE
  5
5D
100
AcDbEntity
  8
0
390
0
  6
Continuous
 62
     7
100
AcDbEllipse
 10
6.55
 20
13.035108
 30
0.0
 11
-2.5000000000000022
 21
-0.0000000000000278
 31
0.0
210
0.0
220
0.0
230
1.0
 40
0.579426
 41
4.7647488579445154
 42
5.7185408241840472
  0
LINE
  5
5E
100
AcDbEntity
  8
0
390
0
  6
Continuous
 62
     7
100
AcDbLine
 10
-8.493631
 20
12.618592
 30
0.0
 11
-8.493631
 21
9.815043
 31
0.0
  0
LINE
  5
5F
100
AcDbEntity
  8
0
390
0
  6
Continuous
 62
     7
100
AcDbLine
 10
-8.493631
 20
12.618592
 30
0.0
 11
2.229658
 21
12.780691
 31
0.0
  0
LINE
  5
60
100
AcDbEntity
  8
0
390
0
  6
Continuous
 62
     7
100
AcDbLine
 10
2.36973
 20
12.575459
 30
0.0
 11
2.229658
 21
12.780691
 31
0.0
  0
LINE
  5
61
100
AcDbEntity
  8
0
390
0
  6
Continuous
 62
     7
100
AcDbLine
 10
2.444072
 20
12.421922
 30
0.0
 11
2.36973
 21
12.575459
 31
0.0
  0
LINE
  5
62
100
AcDbEntity
  8
0
390
0
  6
Continuous
 62
     7
100
AcDbLine
 10
-8.493631
 20
9.815043
 30
0.0
 11
2.229658
 21
9.815043
 31
0.0
  0
LINE
  5
63
100
AcDbEntity
  8
0
390
0
  6
Continuous
 62
     7
100
AcDbLine
 10
-8.493631
 20
-9.815042
 30
0.0
 11
-8.493631
 21
-12.618592
 31
0.0
  0
LINE
  5
64
100
AcDbEntity
  8
0
390
0
  6
Continuous
 62
     7
100
AcDbLine
 10
-8.493631
 20
-9.815042
 30
0.0
 11
2.229658
 21
-9.815042
 31
0.0
  0
LINE
  5
65
100
AcDbEntity
  8
0
390
0
  6
Continuous
 62
     7
100
AcDbLine
 10
2.36973
 20
-12.575459
 30
0.0
 11
2.444072
 21
-12.421922
 31
0.0
  0
LINE
  5
66
100
AcDbEntity
  8
0
390
0
  6
Continuous
 62
     7
100
AcDbLine
 10
2.229658
 20
-12.780691
 30
0.0
 11
2.36973
 21
-12.575459
 31
0.0
  0
LINE
  5
67
100
AcDbEntity
  8
0
390
0
  6
Continuous
 62
     7
100
AcDbLine
 10
-8.493631
 20
-12.618592
 30
0.0
 11
2.229658
 21
-12.780691
 31
0.0
  0
LINE
  5
68
100
AcDbEntity
  8
0
390
0
  6
Continuous
 62
     7
100
AcDbLine
 10
-10.95
 20
9.815043
 30
0.0
 11
-10.95
 21
10.453858
 31
0.0
  0
ELLIPSE
  5
69
100
AcDbEntity
  8
0
390
0
  6
Continuous
 62
     7
100
AcDbEllipse
 10
-8.45
 20
10.453858
 30
0.0
 11
-2.5000000000000022
 21
0.0
 31
0.0
210
0.0
220
0.0
230
1.0
 40
0.866025
 41
4.7298422729046292
 42
6.2831853071795649
  0
LINE
  5
6A
100
AcDbEntity
  8
0
390
0
  6
Continuous
 62
     7
100
AcDbLine
 10
-10.95
 20
9.815043
 30
0.0
 11
-8.493631
 21
9.815043
 31
0.0
  0
ELLIPSE
  5
6B
100
AcDbEntity
  8
0
390
0
  6
Continuous
 62
     7
100
AcDbEllipse
 10
-8.45
 20
-10.453858
 30
0.0
 11
2.5000000000000022
 21
-0.0000000000000833
 31
0.0
210
0.0
220
0.0
230
1.0
 40
0.866025
 41
3.141592653589814
 42
4.6949356878647821
  0
LINE
  5
6C
100
AcDbEntity
  8
0
390
0
  6
Continuous
 62
     7
100
AcDbLine
 10
-10.95
 20
-10.453858
 30
0.0
 11
-10.95
 21
-9.815042
 31
0.0
  0
LINE
  5
6D
100
AcDbEntity
  8
0
390
0
  6
Continuous
 62
     7
100
AcDbLine
 10
-8.493631
 20
-9.815042
 30
0.0
 11
-10.95
 21
-9.815042
 31
0.0
  0
LINE
  5
6E
100
AcDbEntity
  8
0
390
0
  6
Continuous
 62
     7
100
AcDbLine
 10
-8.493631
 20
9.815043
 30
0.0
 11
-8.493631
 21
-9.815042
 31
0.0
  0
LINE
  5
6F
100
AcDbEntity
  8
0
390
0
  6
Continuous
 62
     7
100
AcDbLine
 10
4.368013
 20
14.214114
 30
0.0
 11
4.438053
 21
13.810258
 31
0.0
  0
POLYLINE
  5
70
100
AcDbEntity
  8
0
390
0
  6
Continuous
 62
     7
100
AcDb2dPolyline
 66
     1
 10
0.0
 20
0.0
 30
0.0
 40
0.1
 41
0.1
  0
VERTEX
  5
71
100
AcDbEntity
  8
0
390
0
 62
     7
100
AcDbVertex
100
AcDb2dVertex
 10
4.368013
 20
23.548887
 30
0.0
  0
VERTEX
  5
72
100
AcDbEntity
  8
0
390
0
 62
     7
100
AcDbVertex
100
AcDb2dVertex
 10
4.225203
 20
23.03727
 30
0.0
 42
0.052554
  0
VERTEX
  5
73
100
AcDbEntity
  8
0
390
0
 62
     7
100
AcDbVertex
100
AcDb2dVertex
 10
4.368013
 20
14.214114
 30
0.0
  0
SEQEND
  5
74
100
AcDbEntity
  8
0
390
0
  0
LINE
  5
75
100
AcDbEntity
  8
0
390
0
  6
Continuous
 62
     7
100
AcDbLine
 10
4.438053
 20
23.72818
 30
0.0
 11
4.368013
 21
23.548887
 31
0.0
  0
ELLIPSE
  5
76
100
AcDbEntity
  8
0
390
0
  6
Continuous
 62
     7
100
AcDbEllipse
 10
6.55
 20
22.396351
 30
0.0
 11
2.5000000000000022
 21
0.0000000000003331
 31
0.0
210
0.0
220
0.0
230
1.0
 40
0.995545
 41
1.6231562043545886
 42
2.5769481705934409
  0
ELLIPSE
  5
77
100
AcDbEntity
  8
0
390
0
  6
Continuous
 62
     7
100
AcDbEllipse
 10
6.55
 20
-22.396351
 30
0.0
 11
-2.5000000000000022
 21
-0.0000000000001665
 31
0.0
210
0.0
220
0.0
230
1.0
 40
0.995545
 41
0.5646444829955063
 42
1.5184364492350066
  0
LINE
  5
78
100
AcDbEntity
  8
0
390
0
  6
Continuous
 62
     7
100
AcDbLine
 10
4.368013
 20
-23.548886
 30
0.0
 11
4.438053
 21
-23.72818
 31
0.0
  0
POLYLINE
  5
79
100
AcDbEntity
  8
0
390
0
  6
Continuous
 62
     7
100
AcDb2dPolyline
 66
     1
 10
0.0
 20
0.0
 30
0.0
 40
0.1
 41
0.1
  0
VERTEX
  5
7A
100
AcDbEntity
  8
0
390
0
 62
     7
100
AcDbVertex
100
AcDb2dVertex
 10
4.368013
 20
-14.214114
 30
0.0
 42
0.054834
  0
VERTEX
  5
7B
100
AcDbEntity
  8
0
390
0
 62
     7
100
AcDbVertex
100
AcDb2dVertex
 10
4.245013
 20
-23.126839
 30
0.0
  0
VERTEX
  5
7C
100
AcDbEntity
  8
0
390
0
 62
     7
100
AcDbVertex
100
AcDb2dVertex
 10
4.368013
 20
-23.548886
 30
0.0
  0
SEQEND
  5
7D
100
AcDbEntity
  8
0
390
0
  0
LINE
  5
7E
100
AcDbEntity
  8
0
390
0
  6
Continuous
 62
     7
100
AcDbLine
 10
4.438053
 20
-13.810258
 30
0.0
 11
4.368013
 21
-14.214114
 31
0.0
  0
LINE
  5
7F
100
AcDbEntity
  8
0
390
0
  6
Continuous
 62
     7
100
AcDbLine
 10
-10.95
 20
-9.815042
 30
0.0
 11
-10.95
 21
9.815043
 31
0.0
  0
ELLIPSE
  5
80
100
AcDbEntity
  8
0
390
0
  6
Continuous
 62
     7
100
AcDbEllipse
 10
2.326105
 20
-14.585409
 30
0.0
 11
-2.3695441229891756
 21
0.7970324016045582
 31
0.0
210
0.0
220
0.0
230
1.0
 40
0.790655
 41
3.9344044501852031
 42
4.954528228022923
  0
ELLIPSE
  5
81
100
AcDbEntity
  8
0
390
0
  6
Continuous
 62
     7
100
AcDbEllipse
 10
2.326105
 20
14.585409
 30
0.0
 11
-2.3695441229903413
 21
-0.7970324016010333
 31
0.0
210
0.0
220
0.0
230
1.0
 40
0.790655
 41
1.3286570791578263
 42
2.3487808569954809
  0
ELLIPSE
  5
82
100
AcDbEntity
  8
0
390
0
  6
Continuous
 62
     7
100
AcDbEllipse
 10
2.186027
 20
-14.945425
 30
0.0
 11
-2.2821866553172363
 21
1.0205998580696818
 31
0.0
210
0.0
220
0.0
230
1.0
 40
0.847311
 41
3.9682589830851569
 42
5.0567130032459762
  0
ELLIPSE
  5
83
100
AcDbEntity
  8
0
390
0
  6
Continuous
 62
     7
100
AcDbEllipse
 10
2.186027
 20
14.945425
 30
0.0
 11
-2.2821866552845407
 21
-1.0205998581428177
 31
0.0
210
0.0
220
0.0
230
1.0
 40
0.847311
 41
1.2264723031472284
 42
2.3149263240470868
  0
POLYLINE
  5
84
100
AcDbEntity
  8
0
390
0
  6
Continuous
 62
     7
100
AcDb2dPolyline
 66
     1
 10
0.0
 20
0.0
 30
0.0
 40
0.1
 41
0.1
  0
VERTEX
  5
85
100
AcDbEntity
  8
0
390
0
 62
     7
100
AcDbVertex
100
AcDb2dVertex
 10
2.229658
 20
12.780691
 30
0.0
  0
VERTEX
  5
86
100
AcDbEntity
  8
0
390
0
 62
     7
100
AcDbVertex
100
AcDb2dVertex
 10
2.010054
 20
13.363519
 30
0.0
 42
-0.070504
  0
VERTEX
  5
87
100
AcDbEntity
  8
0
390
0
 62
     7
100
AcDbVertex
100
AcDb2dVertex
 10
1.626165
 20
16.355708
 30
0.0
 42
-0.075408
  0
VERTEX
  5
88
100
AcDbEntity
  8
0
390
0
 62
     7
100
AcDbVertex
100
AcDb2dVertex
 10
1.953316
 20
21.82137
 30
0.0
  0
VERTEX
  5
89
100
AcDbEntity
  8
0
390
0
 62
     7
100
AcDbVertex
100
AcDb2dVertex
 10
2.229658
 20
22.595733
 30
0.0
  0
SEQEND
  5
8A
100
AcDbEntity
  8
0
390
0
  0
ELLIPSE
  5
8B
100
AcDbEntity
  8
0
390
0
  6
Continuous
 62
     7
100
AcDbEllipse
 10
2.186027
 20
24.760467
 30
0.0
 11
-2.2872434028096409
 21
1.0092163377115049
 31
0.0
210
0.0
220
0.0
230
1.0
 40
0.843526
 41
1.9449841908063674
 42
3.0334382109685838
  0
ELLIPSE
  5
8C
100
AcDbEntity
  8
0
390
0
  6
Continuous
 62
     7
100
AcDbEllipse
 10
2.186027
 20
-24.760467
 30
0.0
 11
-2.2872434027786106
 21
-1.009216337781782
 31
0.0
210
0.0
220
0.0
230
1.0
 40
0.843526
 41
3.2497470962048638
 42
4.3382011171047203
  0
POLYLINE
  5
8D
100
AcDbEntity
  8
0
390
0
  6
Continuous
 62
     7
100
AcDb2dPolyline
 66
     1
 10
0.0
 20
0.0
 30
0.0
 40
0.1
 41
0.1
  0
VERTEX
  5
8E
100
AcDbEntity
  8
0
390
0
 62
     7
100
AcDbVertex
100
AcDb2dVertex
 10
2.229658
 20
-22.595733
 30
0.0
 42
-0.104859
  0
VERTEX
  5
8F
100
AcDbEntity
  8
0
390
0
 62
     7
100
AcDbVertex
100
AcDb2dVertex
 10
1.626165
 20
-19.002471
 30
0.0
 42
-0.075825
  0
VERTEX
  5
90
100
AcDbEntity
  8
0
390
0
 62
     7
100
AcDbVertex
100
AcDb2dVertex
 10
1.953316
 20
-13.546699
 30
0.0
  0
VERTEX
  5
91
100
AcDbEntity
  8
0
390
0
 62
     7
100
AcDbVertex
100
AcDb2dVertex
 10
2.229658
 20
-12.780691
 30
0.0
  0
SEQEND
  5
92
100
AcDbEntity
  8
0
390
0
  0
LINE
  5
93
100
AcDbEntity
  8
0
390
0
  6
Continuous
 62
     7
100
AcDbLine
 10
-8.493631
 20
22.433635
 30
0.0
 11
-8.493631
 21
12.618592
 31
0.0
  0
LINE
  5
94
100
AcDbEntity
  8
0
390
0
  6
Continuous
 62
     7
100
AcDbLine
 10
-8.493631
 20
22.433635
 30
0.0
 11
2.229658
 21
22.595733
 31
0.0
  0
LINE
  5
95
100
AcDbEntity
  8
0
390
0
  6
Continuous
 62
     7
100
AcDbLine
 10
-8.493631
 20
-12.618592
 30
0.0
 11
-8.493631
 21
-22.433634
 31
0.0
  0
LINE
  5
96
100
AcDbEntity
  8
0
390
0
  6
Continuous
 62
     7
100
AcDbLine
 10
-8.493631
 20
-22.433634
 30
0.0
 11
2.229658
 21
-22.595733
 31
0.0
  0
LINE
  5
97
100
AcDbEntity
  8
0
390
0
  6
Continuous
 62
     7
100
AcDbLine
 10
-10.95
 20
10.453858
 30
0.0
 11
-10.95
 21
20.268901
 31
0.0
  0
ELLIPSE
  5
98
100
AcDbEntity
  8
0
390
0
  6
Continuous
 62
     7
100
AcDbEllipse
 10
-8.45
 20
20.268901
 30
0.0
 11
-2.5000000000000022
 21
0.0
 31
0.0
210
0.0
220
0.0
230
1.0
 40
0.866025
 41
4.7298422729046301
 42
6.2831853071795649
  0
ELLIPSE
  5
99
100
AcDbEntity
  8
0
390
0
  6
Continuous
 62
     7
100
AcDbEllipse
 10
-8.45
 20
-20.268901
 30
0.0
 11
2.5000000000000022
 21
-0.0000000000000833
 31
0.0
210
0.0
220
0.0
230
1.0
 40
0.866025
 41
3.1415926535898122
 42
4.6949356878647777
  0
LINE
  5
9A
100
AcDbEntity
  8
0
390
0
  6
Continuous
 62
     7
100
AcDbLine
 10
-10.95
 20
-20.268901
 30
0.0
 11
-10.95
 21
-10.453858
 31
0.0
  0
LINE
  5
9B
100
AcDbEntity
  8
0
390
0
  6
Continuous
 62
     7
100
AcDbLine
 10
2.229658
 20
22.595733
 30
0.0
 11
2.36973
 21
22.768119
 31
0.0
  0
ELLIPSE
  5
9C
100
AcDbEntity
  8
0
390
0
  6
Continuous
 62
     7
100
AcDbEllipse
 10
2.326105
 20
25.060009
 30
0.0
 11
2.2407920163629025
 21
-1.1085355832828325
 31
0.0
210
0.0
220
0.0
230
1.0
 40
0.897893
 41
5.1481970596059963
 42
6.1683208374433613
  0
ELLIPSE
  5
9D
100
AcDbEntity
  8
0
390
0
  6
Continuous
 62
     7
100
AcDbEllipse
 10
2.326105
 20
-25.060009
 30
0.0
 11
-2.2407920163642903
 21
-1.108535583280057
 31
0.0
210
0.0
220
0.0
230
0.9999999999999999
 40
0.897893
 41
3.256457123326534
 42
4.2765809011640208
  0
LINE
  5
9E
100
AcDbEntity
  8
0
390
0
  6
Continuous
 62
     7
100
AcDbLine
 10
2.36973
 20
-22.768119
 30
0.0
 11
2.229658
 21
-22.595733
 31
0.0
  0
LINE
  5
9F
100
AcDbEntity
  8
0
390
0
  6
Continuous
 62
     7
100
AcDbLine
 10
4.470625
 20
23.8281
 30
0.0
 11
4.438053
 21
23.72818
 31
0.0
  0
ELLIPSE
  5
A0
100
AcDbEntity
  8
0
390
0
  6
Continuous
 62
     7
100
AcDbEllipse
 10
6.540793
 20
22.437614
 30
0.0
 11
2.2016563789121757
 21
1.1843602446870993
 31
0.0
210
0.0
220
0.0
230
0.9999999999999999
 40
0.996833
 41
1.1309782754213895
 42
2.0552827073812923
  0
ELLIPSE
  5
A1
100
AcDbEntity
  8
0
390
0
  6
Continuous
 62
     7
100
AcDbEllipse
 10
6.540793
 20
-22.437614
 30
0.0
 11
-2.2016563811816656
 21
1.1843602404682518
 31
0.0
210
0.0
220
0.0
230
1.0
 40
0.996833
 41
1.0863099442675597
 42
2.0106143762571
  0
LINE
  5
A2
100
AcDbEntity
  8
0
390
0
  6
Continuous
 62
     7
100
AcDbLine
 10
4.438053
 20
-23.72818
 30
0.0
 11
4.470625
 21
-23.8281
 31
0.0
  0
ELLIPSE
  5
A3
100
AcDbEntity
  8
0
390
0
  6
Continuous
 62
     7
100
AcDbEllipse
 10
2.400457
 20
-25.218587
 30
0.0
 11
-2.295570224737614
 21
-0.9901299628321814
 31
0.0
210
0.0
220
0.0
230
0.9999999999999999
 40
0.933208
 41
3.3387027541725218
 42
4.3120918696348181
  0
LINE
  5
A4
100
AcDbEntity
  8
0
390
0
  6
Continuous
 62
     7
100
AcDbLine
 10
2.444072
 20
-22.859852
 30
0.0
 11
2.36973
 21
-22.768119
 31
0.0
  0
LINE
  5
A5
100
AcDbEntity
  8
0
390
0
  6
Continuous
 62
     7
100
AcDbLine
 10
2.36973
 20
22.768119
 30
0.0
 11
2.444072
 21
22.859852
 31
0.0
  0
ELLIPSE
  5
A6
100
AcDbEntity
  8
0
390
0
  6
Continuous
 62
     7
100
AcDbEllipse
 10
2.400457
 20
25.218587
 30
0.0
 11
2.2955702249012058
 21
-0.9901299624529014
 31
0.0
210
0.0
220
0.0
230
1.0
 40
0.933208
 41
5.1126860909681202
 42
6.0860752064922545
  0
LINE
  5
A7
100
AcDbEntity
  8
0
390
0
  6
Continuous
 62
     7
100
AcDbLine
 10
4.503597
 20
24.024358
 30
0.0
 11
4.470625
 21
23.8281
 31
0.0
  0
LINE
  5
A8
100
AcDbEntity
  8
0
390
0
  6
Continuous
 62
     7
100
AcDbLine
 10
4.470625
 20
-23.8281
 30
0.0
 11
4.503597
 21
-24.024357
 31
0.0
  0
LINE
  5
A9
100
AcDbEntity
  8
0
390
0
  6
Continuous
 62
     7
100
AcDbLine
 10
2.444072
 20
22.859852
 30
0.0
 11
2.571176
 21
23.056215
 31
0.0
  0
LINE
  5
AA
100
AcDbEntity
  8
0
390
0
  6
Continuous
 62
     7
100
AcDbLine
 10
2.571176
 20
-23.056215
 30
0.0
 11
2.444072
 21
-22.859852
 31
0.0
  0
LINE
  5
AB
100
AcDbEntity
  8
0
390
0
  6
Continuous
 62
     7
100
AcDbLine
 10
-8.493579
 20
22.863311
 30
0.0
 11
-8.493631
 21
22.433635
 31
0.0
  0
LINE
  5
AC
100
AcDbEntity
  8
0
390
0
  6
Continuous
 62
     7
100
AcDbLine
 10
-8.493631
 20
-22.433634
 30
0.0
 11
-8.493579
 21
-22.863311
 31
0.0
  0
LINE
  5
AD
100
AcDbEntity
  8
0
390
0
  6
Continuous
 62
     7
100
AcDbLine
 10
-10.95
 20
20.268901
 30
0.0
 11
-10.95
 21
20.36351
 31
0.0
  0
LINE
  5
AE
100
AcDbEntity
  8
0
390
0
  6
Continuous
 62
     7
100
AcDbLine
 10
-10.95
 20
-20.36351
 30
0.0
 11
-10.95
 21
-20.357527
 31
0.0
  0
LINE
  5
AF
100
AcDbEntity
  8
0
390
0
  6
Continuous
 62
     7
100
AcDbLine
 10
-10.95
 20
-20.357527
 30
0.0
 11
-10.95
 21
-20.268901
 31
0.0
  0
LINE
  5
B0
100
AcDbEntity
  8
0
390
0
  6
Continuous
 62
     7
100
AcDbLine
 10
10.95
 20
25.230594
 30
0.0
 11
6.348836
 21
24.989457
 31
0.0
  0
LINE
  5
B1
100
AcDbEntity
  8
0
390
0
  6
Continuous
 62
     7
100
AcDbLine
 10
6.348836
 20
-24.989457
 30
0.0
 11
10.95
 21
-25.230594
 31
0.0
  0
ARC
  5
B2
100
AcDbEntity
  8
0
390
0
  6
Continuous
 62
     7
100
AcDbCircle
 10
6.479597
 20
22.492879
 30
0.0
 40
2.5
210
0.0
220
0.0
230
1.0
100
AcDbArc
 50
93.0
 51
142.222899
  0
ARC
  5
B3
100
AcDbEntity
  8
0
390
0
  6
Continuous
 62
     7
100
AcDbCircle
 10
6.479597
 20
22.492879
 30
0.0
 40
2.5
210
0.0
220
0.0
230
1.0
100
AcDbArc
 50
142.222899
 51
143.658508
  0
ARC
  5
B4
100
AcDbEntity
  8
0
390
0
  6
Continuous
 62
     7
100
AcDbCircle
 10
6.479597
 20
-22.492879
 30
0.0
 40
2.5
210
0.0
220
0.0
230
1.0
100
AcDbArc
 50
216.341492
 51
217.777101
  0
ARC
  5
B5
100
AcDbEntity
  8
0
390
0
  6
Continuous
 62
     7
100
AcDbCircle
 10
6.479597
 20
-22.492879
 30
0.0
 40
2.5
210
0.0
220
0.0
230
1.0
100
AcDbArc
 50
217.777101
 51
267.0
  0
ARC
  5
B6
100
AcDbEntity
  8
0
390
0
  6
Continuous
 62
     7
100
AcDbCircle
 10
2.527597
 20
25.555836
 30
0.0
 40
2.5
210
0.0
220
0.0
230
1.0
100
AcDbArc
 50
270.998801
 51
322.222899
  0
ARC
  5
B7
100
AcDbEntity
  8
0
390
0
  6
Continuous
 62
     7
100
AcDbCircle
 10
2.527597
 20
-25.555835
 30
0.0
 40
2.5
210
0.0
220
0.0
230
1.0
100
AcDbArc
 50
37.777101
 51
89.001199
  0
LINE
  5
B8
100
AcDbEntity
  8
0
390
0
  6
Continuous
 62
     7
100
AcDbLine
 10
2.570898
 20
23.056211
 30
0.0
 11
-8.493579
 21
22.863311
 31
0.0
  0
LINE
  5
B9
100
AcDbEntity
  8
0
390
0
  6
Continuous
 62
     7
100
AcDbLine
 10
-8.493579
 20
-22.863311
 30
0.0
 11
2.570898
 21
-23.05621
 31
0.0
  0
ARC
  5
BA
100
AcDbEntity
  8
0
390
0
  6
Continuous
 62
     7
100
AcDbCircle
 10
-8.45
 20
20.363691
 30
0.0
 40
2.5
210
0.0
220
0.0
230
1.0
100
AcDbArc
 50
90.998801
 51
180.0
  0
ARC
  5
BB
100
AcDbEntity
  8
0
390
0
  6
Continuous
 62
     7
100
AcDbCircle
 10
-8.45
 20
-20.363691
 30
0.0
 40
2.5
210
0.0
220
0.0
230
1.0
100
AcDbArc
 50
180.0
 51
269.001199
  0
CIRCLE
  5
BC
100
AcDbEntity
  8
0
390
0
  6
Continuous
 62
     7
100
AcDbCircle
 10
106.178364
 20
0.0
 30
0.0
 40
25.230594
210
0.0
220
0.0
230
1.0
  0
CIRCLE
  5
BD
100
AcDbEntity
  8
0
390
0
  6
Continuous
 62
     7
100
AcDbCircle
 10
106.178364
 20
0.0
 30
0.0
 40
22.730594
210
0.0
220
0.0
230
1.0
  0
ARC
  5
BE
100
AcDbEntity
  8
0
390
0
  6
Continuous
 62
     7
100
AcDbCircle
 10
106.178364
 20
0.0
 30
0.0
 40
22.5
210
0.0
220
0.0
230
1.0
100
AcDbArc
 50
155.39346
 51
204.60654
  0
ARC
  5
BF
100
AcDbEntity
  8
0
390
0
  6
Continuous
 62
     7
100
AcDbCircle
 10
106.178364
 20
0.0
 30
0.0
 40
22.5
210
0.0
220
0.0
230
1.0
100
AcDbArc
 50
204.60654
 51
205.575097
  0
ARC
  5
C0
100
AcDbEntity
  8
0
390
0
  6
Continuous
 62
     7
100
AcDbCircle
 10
106.178364
 20
0.0
 30
0.0
 40
22.5
210
0.0
220
0.0
230
1.0
100
AcDbArc
 50
205.575097
 51
214.424903
  0
ARC
  5
C1
100
AcDbEntity
  8
0
390
0
  6
Continuous
 62
     7
100
AcDbCircle
 10
106.178364
 20
0.0
 30
0.0
 40
22.5
210
0.0
220
0.0
230
1.0
100
AcDbArc
 50
214.424903
 51
215.39346
  0
ARC
  5
C2
100
AcDbEntity
  8
0
390
0
  6
Continuous
 62
     7
100
AcDbCircle
 10
106.178364
 20
0.0
 30
0.0
 40
22.5
210
0.0
220
0.0
230
1.0
100
AcDbArc
 50
215.39346
 51
264.60654
  0
ARC
  5
C3
100
AcDbEntity
  8
0
390
0
  6
Continuous
 62
     7
100
AcDbCircle
 10
106.178364
 20
0.0
 30
0.0
 40
22.5
210
0.0
220
0.0
230
1.0
100
AcDbArc
 50
264.60654
 51
265.575097
  0
ARC
  5
C4
100
AcDbEntity
  8
0
390
0
  6
Continuous
 62
     7
100
AcDbCircle
 10
106.178364
 20
0.0
 30
0.0
 40
22.5
210
0.0
220
0.0
230
1.0
100
AcDbArc
 50
265.575097
 51
274.424903
  0
ARC
  5
C5
100
AcDbEntity
  8
0
390
0
  6
Continuous
 62
     7
100
AcDbCircle
 10
106.178364
 20
0.0
 30
0.0
 40
22.5
210
0.0
220
0.0
230
1.0
100
AcDbArc
 50
274.424903
 51
275.39346
  0
ARC
  5
C6
100
AcDbEntity
  8
0
390
0
  6
Continuous
 62
     7
100
AcDbCircle
 10
106.178364
 20
0.0
 30
0.0
 40
22.5
210
0.0
220
0.0
230
1.0
100
AcDbArc
 50
275.39346
 51
324.60654
  0
ARC
  5
C7
100
AcDbEntity
  8
0
390
0
  6
Continuous
 62
     7
100
AcDbCircle
 10
106.178364
 20
0.0
 30
0.0
 40
22.5
210
0.0
220
0.0
230
1.0
100
AcDbArc
 50
324.60654
 51
325.575097
  0
ARC
  5
C8
100
AcDbEntity
  8
0
390
0
  6
Continuous
 62
     7
100
AcDbCircle
 10
106.178364
 20
0.0
 30
0.0
 40
22.5
210
0.0
220
0.0
230
1.0
100
AcDbArc
 50
325.575097
 51
334.424903
  0
ARC
  5
C9
100
AcDbEntity
  8
0
390
0
  6
Continuous
 62
     7
100
AcDbCircle
 10
106.178364
 20
0.0
 30
0.0
 40
22.5
210
0.0
220
0.0
230
1.0
100
AcDbArc
 50
334.424903
 51
335.39346
  0
ARC
  5
CA
100
AcDbEntity
  8
0
390
0
  6
Continuous
 62
     7
100
AcDbCircle
 10
106.178364
 20
0.0
 30
0.0
 40
22.5
210
0.0
220
0.0
230
1.0
100
AcDbArc
 50
335.39346
 51
24.60654
  0
ARC
  5
CB
100
AcDbEntity
  8
0
390
0
  6
Continuous
 62
     7
100
AcDbCircle
 10
106.178364
 20
0.0
 30
0.0
 40
22.5
210
0.0
220
0.0
230
1.0
100
AcDbArc
 50
24.60654
 51
25.575097
  0
ARC
  5
CC
100
AcDbEntity
  8
0
390
0
  6
Continuous
 62
     7
100
AcDbCircle
 10
106.178364
 20
0.0
 30
0.0
 40
22.5
210
0.0
220
0.0
230
1.0
100
AcDbArc
 50
25.575097
 51
34.424903
  0
ARC
  5
CD
100
AcDbEntity
  8
0
390
0
  6
Continuous
 62
     7
100
AcDbCircle
 10
106.178364
 20
0.0
 30
0.0
 40
22.5
210
0.0
220
0.0
230
1.0
100
AcDbArc
 50
34.424903
 51
35.39346
  0
ARC
  5
CE
100
AcDbEntity
  8
0
390
0
  6
Continuous
 62
     7
100
AcDbCircle
 10
106.178364
 20
0.0
 30
0.0
 40
22.5
210
0.0
220
0.0
230
1.0
100
AcDbArc
 50
35.39346
 51
84.60654
  0
ARC
  5
CF
100
AcDbEntity
  8
0
390
0
  6
Continuous
 62
     7
100
AcDbCircle
 10
106.178364
 20
0.0
 30
0.0
 40
22.5
210
0.0
220
0.0
230
1.0
100
AcDbArc
 50
84.60654
 51
85.575097
  0
ARC
  5
D0
100
AcDbEntity
  8
0
390
0
  6
Continuous
 62
     7
100
AcDbCircle
 10
106.178364
 20
0.0
 30
0.0
 40
22.5
210
0.0
220
0.0
230
1.0
100
AcDbArc
 50
85.575097
 51
94.424903
  0
ARC
  5
D1
100
AcDbEntity
  8
0
390
0
  6
Continuous
 62
     7
100
AcDbCircle
 10
106.178364
 20
0.0
 30
0.0
 40
22.5
210
0.0
220
0.0
230
1.0
100
AcDbArc
 50
94.424903
 51
95.39346
  0
ARC
  5
D2
100
AcDbEntity
  8
0
390
0
  6
Continuous
 62
     7
100
AcDbCircle
 10
106.178364
 20
0.0
 30
0.0
 40
22.5
210
0.0
220
0.0
230
1.0
100
AcDbArc
 50
95.39346
 51
144.60654
  0
ARC
  5
D3
100
AcDbEntity
  8
0
390
0
  6
Continuous
 62
     7
100
AcDbCircle
 10
106.178364
 20
0.0
 30
0.0
 40
22.5
210
0.0
220
0.0
230
1.0
100
AcDbArc
 50
144.60654
 51
145.575097
  0
ARC
  5
D4
100
AcDbEntity
  8
0
390
0
  6
Continuous
 62
     7
100
AcDbCircle
 10
106.178364
 20
0.0
 30
0.0
 40
22.5
210
0.0
220
0.0
230
1.0
100
AcDbArc
 50
145.575097
 51
154.424903
  0
ARC
  5
D5
100
AcDbEntity
  8
0
390
0
  6
Continuous
 62
     7
100
AcDbCircle
 10
106.178364
 20
0.0
 30
0.0
 40
22.5
210
0.0
220
0.0
230
1.0
100
AcDbArc
 50
154.424903
 51
155.39346
  0
LINE
  5
D6
100
AcDbEntity
  8
0
390
0
  6
Continuous
 62
     7
100
AcDbLine
 10
88.22124
 20
-9.368653
 30
0.0
 11
88.22124
 21
9.368653
 31
0.0
  0
LINE
  5
D7
100
AcDbEntity
  8
0
390
0
  6
Continuous
 62
     7
100
AcDbLine
 10
85.721621
 20
-9.368653
 30
0.0
 11
88.22124
 21
-9.368653
 31
0.0
  0
LINE
  5
D8
100
AcDbEntity
  8
0
390
0
  6
Continuous
 62
     7
100
AcDbLine
 10
85.721621
 20
9.368653
 30
0.0
 11
85.721621
 21
-9.368653
 31
0.0
  0
LINE
  5
D9
100
AcDbEntity
  8
0
390
0
  6
Continuous
 62
     7
100
AcDbLine
 10
85.721621
 20
9.368653
 30
0.0
 11
88.22124
 21
9.368653
 31
0.0
  0
LINE
  5
DA
100
AcDbEntity
  8
0
390
0
  6
Continuous
 62
     7
100
AcDbLine
 10
89.086311
 20
10.866999
 30
0.0
 11
105.313294
 21
20.235652
 31
0.0
  0
LINE
  5
DB
100
AcDbEntity
  8
0
390
0
  6
Continuous
 62
     7
100
AcDbLine
 10
87.836501
 20
13.031733
 30
0.0
 11
89.086311
 21
10.866999
 31
0.0
  0
LINE
  5
DC
100
AcDbEntity
  8
0
390
0
  6
Continuous
 62
     7
100
AcDbLine
 10
104.063484
 20
22.400386
 30
0.0
 11
87.836501
 21
13.031733
 31
0.0
  0
LINE
  5
DD
100
AcDbEntity
  8
0
390
0
  6
Continuous
 62
     7
100
AcDbLine
 10
104.063484
 20
22.400386
 30
0.0
 11
105.313294
 21
20.235652
 31
0.0
  0
LINE
  5
DE
100
AcDbEntity
  8
0
390
0
  6
Continuous
 62
     7
100
AcDbLine
 10
88.721052
 20
10.656246
 30
0.0
 11
89.086311
 21
10.866999
 31
0.0
  0
ELLIPSE
  5
DF
100
AcDbEntity
  8
0
390
0
  6
Continuous
 62
     7
100
AcDbEllipse
 10
87.471243
 20
12.82098
 30
0.0
 11
-1.2488278368823491
 21
2.1657398352128707
 31
0.0
210
0.0
220
0.0
230
1.0
 40
0.030997
 41
3.159054337681316
 42
4.6478009674340148
  0
LINE
  5
E0
100
AcDbEntity
  8
0
390
0
  6
Continuous
 62
     7
100
AcDbLine
 10
105.313294
 20
-20.235652
 30
0.0
 11
89.086311
 21
-10.866999
 31
0.0
  0
LINE
  5
E1
100
AcDbEntity
  8
0
390
0
  6
Continuous
 62
     7
100
AcDbLine
 10
104.063484
 20
-22.400386
 30
0.0
 11
105.313294
 21
-20.235652
 31
0.0
  0
LINE
  5
E2
100
AcDbEntity
  8
0
390
0
  6
Continuous
 62
     7
100
AcDbLine
 10
87.836501
 20
-13.031733
 30
0.0
 11
104.063484
 21
-22.400386
 31
0.0
  0
LINE
  5
E3
100
AcDbEntity
  8
0
390
0
  6
Continuous
 62
     7
100
AcDbLine
 10
87.836501
 20
-13.031733
 30
0.0
 11
89.086311
 21
-10.866999
 31
0.0
  0
LINE
  5
E4
100
AcDbEntity
  8
0
390
0
  6
Continuous
 62
     7
100
AcDbLine
 10
88.221129
 20
-9.790353
 30
0.0
 11
88.22124
 21
-9.368653
 31
0.0
  0
ELLIPSE
  5
E5
100
AcDbEntity
  8
0
390
0
  6
Continuous
 62
     7
100
AcDbEllipse
 10
85.721509
 20
-9.790353
 30
0.0
 11
-2.4999996337234376
 21
0.001353285913136
 31
0.0
210
0.0
220
0.0
230
0.9999999999999999
 40
0.030997
 41
3.1590543376810478
 42
4.6478009674339971
  0
POLYLINE
  5
E6
100
AcDbEntity
  8
0
390
0
  6
Continuous
 62
     7
100
AcDb2dPolyline
 66
     1
 10
0.0
 20
0.0
 30
0.0
 40
0.1
 41
0.1
  0
VERTEX
  5
E7
100
AcDbEntity
  8
0
390
0
 62
     7
100
AcDbVertex
100
AcDb2dVertex
 10
88.221129
 20
9.790353
 30
0.0
  0
VERTEX
  5
E8
100
AcDbEntity
  8
0
390
0
 62
     7
100
AcDbVertex
100
AcDb2dVertex
 10
88.222081
 20
9.836661
 30
0.0
  0
VERTEX
  5
E9
100
AcDbEntity
  8
0
390
0
 62
     7
100
AcDbVertex
100
AcDb2dVertex
 10
88.225151
 20
9.882827
 30
0.0
  0
VERTEX
  5
EA
100
AcDbEntity
  8
0
390
0
 62
     7
100
AcDbVertex
100
AcDb2dVertex
 10
88.230328
 20
9.928765
 30
0.0
  0
VERTEX
  5
EB
100
AcDbEntity
  8
0
390
0
 62
     7
100
AcDbVertex
100
AcDb2dVertex
 10
88.237607
 20
9.974388
 30
0.0
  0
VERTEX
  5
EC
100
AcDbEntity
  8
0
390
0
 62
     7
100
AcDbVertex
100
AcDb2dVertex
 10
88.246978
 20
10.01961
 30
0.0
  0
VERTEX
  5
ED
100
AcDbEntity
  8
0
390
0
 62
     7
100
AcDbVertex
100
AcDb2dVertex
 10
88.258435
 20
10.064346
 30
0.0
  0
VERTEX
  5
EE
100
AcDbEntity
  8
0
390
0
 62
     7
100
AcDbVertex
100
AcDb2dVertex
 10
88.268428
 20
10.097645
 30
0.0
  0
VERTEX
  5
EF
100
AcDbEntity
  8
0
390
0
 62
     7
100
AcDbVertex
100
AcDb2dVertex
 10
88.27962
 20
10.130678
 30
0.0
  0
VERTEX
  5
F0
100
AcDbEntity
  8
0
390
0
 62
     7
100
AcDbVertex
100
AcDb2dVertex
 10
88.291995
 20
10.163372
 30
0.0
  0
VERTEX
  5
F1
100
AcDbEntity
  8
0
390
0
 62
     7
100
AcDbVertex
100
AcDb2dVertex
 10
88.30554
 20
10.195654
 30
0.0
  0
VERTEX
  5
F2
100
AcDbEntity
  8
0
390
0
 62
     7
100
AcDbVertex
100
AcDb2dVertex
 10
88.320707
 20
10.22842
 30
0.0
  0
VERTEX
  5
F3
100
AcDbEntity
  8
0
390
0
 62
     7
100
AcDbVertex
100
AcDb2dVertex
 10
88.337104
 20
10.260688
 30
0.0
  0
VERTEX
  5
F4
100
AcDbEntity
  8
0
390
0
 62
     7
100
AcDbVertex
100
AcDb2dVertex
 10
88.354682
 20
10.292355
 30
0.0
  0
VERTEX
  5
F5
100
AcDbEntity
  8
0
390
0
 62
     7
100
AcDbVertex
100
AcDb2dVertex
 10
88.373391
 20
10.323322
 30
0.0
  0
VERTEX
  5
F6
100
AcDbEntity
  8
0
390
0
 62
     7
100
AcDbVertex
100
AcDb2dVertex
 10
88.387849
 20
10.34561
 30
0.0
  0
VERTEX
  5
F7
100
AcDbEntity
  8
0
390
0
 62
     7
100
AcDbVertex
100
AcDb2dVertex
 10
88.402888
 20
10.36748
 30
0.0
  0
VERTEX
  5
F8
100
AcDbEntity
  8
0
390
0
 62
     7
100
AcDbVertex
100
AcDb2dVertex
 10
88.427276
 20
10.400457
 30
0.0
  0
VERTEX
  5
F9
100
AcDbEntity
  8
0
390
0
 62
     7
100
AcDbVertex
100
AcDb2dVertex
 10
88.452974
 20
10.432349
 30
0.0
  0
VERTEX
  5
FA
100
AcDbEntity
  8
0
390
0
 62
     7
100
AcDbVertex
100
AcDb2dVertex
 10
88.479894
 20
10.463076
 30
0.0
  0
VERTEX
  5
FB
100
AcDbEntity
  8
0
390
0
 62
     7
100
AcDbVertex
100
AcDb2dVertex
 10
88.507944
 20
10.492556
 30
0.0
  0
VERTEX
  5
FC
100
AcDbEntity
  8
0
390
0
 62
     7
100
AcDbVertex
100
AcDb2dVertex
 10
88.538069
 20
10.521685
 30
0.0
  0
VERTEX
  5
FD
100
AcDbEntity
  8
0
390
0
 62
     7
100
AcDbVertex
100
AcDb2dVertex
 10
88.569363
 20
10.549497
 30
0.0
  0
VERTEX
  5
FE
100
AcDbEntity
  8
0
390
0
 62
     7
100
AcDbVertex
100
AcDb2dVertex
 10
88.60177
 20
10.575958
 30
0.0
  0
VERTEX
  5
FF
100
AcDbEntity
  8
0
390
0
 62
     7
100
AcDbVertex
100
AcDb2dVertex
 10
88.635233
 20
10.601033
 30
0.0
  0
VERTEX
  5
100
100
AcDbEntity
  8
0
390
0
 62
     7
100
AcDbVertex
100
AcDb2dVertex
 10
88.663149
 20
10.620354
 30
0.0
  0
VERTEX
  5
101
100
AcDbEntity
  8
0
390
0
 62
     7
100
AcDbVertex
100
AcDb2dVertex
 10
88.691766
 20
10.638767
 30
0.0
  0
VERTEX
  5
102
100
AcDbEntity
  8
0
390
0
 62
     7
100
AcDbVertex
100
AcDb2dVertex
 10
88.721052
 20
10.656246
 30
0.0
  0
SEQEND
  5
103
100
AcDbEntity
  8
0
390
0
  0
ELLIPSE
  5
104
100
AcDbEntity
  8
0
390
0
  6
Continuous
 62
     7
100
AcDbEllipse
 10
85.721509
 20
9.790353
 30
0.0
 11
-2.4999996337234096
 21
-0.001353285913136
 31
0.0
210
0.0
220
0.0
230
0.9999999999999999
 40
0.030997
 41
1.6353843397456211
 42
3.1241309694985167
  0
LINE
  5
105
100
AcDbEntity
  8
0
390
0
  6
Continuous
 62
     7
100
AcDbLine
 10
124.520227
 20
13.031733
 30
0.0
 11
108.293244
 21
22.400386
 31
0.0
  0
LINE
  5
106
100
AcDbEntity
  8
0
390
0
  6
Continuous
 62
     7
100
AcDbLine
 10
123.270418
 20
10.866999
 30
0.0
 11
124.520227
 21
13.031733
 31
0.0
  0
LINE
  5
107
100
AcDbEntity
  8
0
390
0
  6
Continuous
 62
     7
100
AcDbLine
 10
107.043435
 20
20.235652
 30
0.0
 11
123.270418
 21
10.866999
 31
0.0
  0
LINE
  5
108
100
AcDbEntity
  8
0
390
0
  6
Continuous
 62
     7
100
AcDbLine
 10
107.043435
 20
20.235652
 30
0.0
 11
108.293244
 21
22.400386
 31
0.0
  0
POLYLINE
  5
109
100
AcDbEntity
  8
0
390
0
  6
Continuous
 62
     7
100
AcDb2dPolyline
 66
     1
 10
0.0
 20
0.0
 30
0.0
 40
0.1
 41
0.1
  0
VERTEX
  5
10A
100
AcDbEntity
  8
0
390
0
 62
     7
100
AcDbVertex
100
AcDb2dVertex
 10
88.721052
 20
-10.656246
 30
0.0
  0
VERTEX
  5
10B
100
AcDbEntity
  8
0
390
0
 62
     7
100
AcDbVertex
100
AcDb2dVertex
 10
88.681425
 20
-10.632267
 30
0.0
  0
VERTEX
  5
10C
100
AcDbEntity
  8
0
390
0
 62
     7
100
AcDbVertex
100
AcDb2dVertex
 10
88.642978
 20
-10.606526
 30
0.0
  0
VERTEX
  5
10D
100
AcDbEntity
  8
0
390
0
 62
     7
100
AcDbVertex
100
AcDb2dVertex
 10
88.605784
 20
-10.579073
 30
0.0
  0
VERTEX
  5
10E
100
AcDbEntity
  8
0
390
0
 62
     7
100
AcDbVertex
100
AcDb2dVertex
 10
88.569912
 20
-10.549958
 30
0.0
  0
VERTEX
  5
10F
100
AcDbEntity
  8
0
390
0
 62
     7
100
AcDbVertex
100
AcDb2dVertex
 10
88.535434
 20
-10.519231
 30
0.0
  0
VERTEX
  5
110
100
AcDbEntity
  8
0
390
0
 62
     7
100
AcDbVertex
100
AcDb2dVertex
 10
88.50242
 20
-10.486941
 30
0.0
  0
VERTEX
  5
111
100
AcDbEntity
  8
0
390
0
 62
     7
100
AcDbVertex
100
AcDb2dVertex
 10
88.478579
 20
-10.461637
 30
0.0
  0
VERTEX
  5
112
100
AcDbEntity
  8
0
390
0
 62
     7
100
AcDbVertex
100
AcDb2dVertex
 10
88.455568
 20
-10.435428
 30
0.0
  0
VERTEX
  5
113
100
AcDbEntity
  8
0
390
0
 62
     7
100
AcDbVertex
100
AcDb2dVertex
 10
88.433442
 20
-10.408364
 30
0.0
  0
VERTEX
  5
114
100
AcDbEntity
  8
0
390
0
 62
     7
100
AcDbVertex
100
AcDb2dVertex
 10
88.412257
 20
-10.380493
 30
0.0
  0
VERTEX
  5
115
100
AcDbEntity
  8
0
390
0
 62
     7
100
AcDbVertex
100
AcDb2dVertex
 10
88.391464
 20
-10.350975
 30
0.0
  0
VERTEX
  5
116
100
AcDbEntity
  8
0
390
0
 62
     7
100
AcDbVertex
100
AcDb2dVertex
 10
88.371718
 20
-10.320641
 30
0.0
  0
VERTEX
  5
117
100
AcDbEntity
  8
0
390
0
 62
     7
100
AcDbVertex
100
AcDb2dVertex
 10
88.353082
 20
-10.289585
 30
0.0
  0
VERTEX
  5
118
100
AcDbEntity
  8
0
390
0
 62
     7
100
AcDbVertex
100
AcDb2dVertex
 10
88.335619
 20
-10.257899
 30
0.0
  0
VERTEX
  5
119
100
AcDbEntity
  8
0
390
0
 62
     7
100
AcDbVertex
100
AcDb2dVertex
 10
88.323546
 20
-10.234233
 30
0.0
  0
VERTEX
  5
11A
100
AcDbEntity
  8
0
390
0
 62
     7
100
AcDbVertex
100
AcDb2dVertex
 10
88.312126
 20
-10.210274
 30
0.0
  0
VERTEX
  5
11B
100
AcDbEntity
  8
0
390
0
 62
     7
100
AcDbVertex
100
AcDb2dVertex
 10
88.29576
 20
-10.172665
 30
0.0
  0
VERTEX
  5
11C
100
AcDbEntity
  8
0
390
0
 62
     7
100
AcDbVertex
100
AcDb2dVertex
 10
88.28099
 20
-10.134463
 30
0.0
  0
VERTEX
  5
11D
100
AcDbEntity
  8
0
390
0
 62
     7
100
AcDbVertex
100
AcDb2dVertex
 10
88.267839
 20
-10.095787
 30
0.0
  0
VERTEX
  5
11E
100
AcDbEntity
  8
0
390
0
 62
     7
100
AcDbVertex
100
AcDb2dVertex
 10
88.256334
 20
-10.056755
 30
0.0
  0
VERTEX
  5
11F
100
AcDbEntity
  8
0
390
0
 62
     7
100
AcDbVertex
100
AcDb2dVertex
 10
88.246171
 20
-10.016101
 30
0.0
  0
VERTEX
  5
120
100
AcDbEntity
  8
0
390
0
 62
     7
100
AcDbVertex
100
AcDb2dVertex
 10
88.237731
 20
-9.975094
 30
0.0
  0
VERTEX
  5
121
100
AcDbEntity
  8
0
390
0
 62
     7
100
AcDbVertex
100
AcDb2dVertex
 10
88.231018
 20
-9.933798
 30
0.0
  0
VERTEX
  5
122
100
AcDbEntity
  8
0
390
0
 62
     7
100
AcDbVertex
100
AcDb2dVertex
 10
88.226035
 20
-9.892281
 30
0.0
  0
VERTEX
  5
123
100
AcDbEntity
  8
0
390
0
 62
     7
100
AcDbVertex
100
AcDb2dVertex
 10
88.223261
 20
-9.858444
 30
0.0
  0
VERTEX
  5
124
100
AcDbEntity
  8
0
390
0
 62
     7
100
AcDbVertex
100
AcDb2dVertex
 10
88.221623
 20
-9.824455
 30
0.0
  0
VERTEX
  5
125
100
AcDbEntity
  8
0
390
0
 62
     7
100
AcDbVertex
100
AcDb2dVertex
 10
88.221129
 20
-9.790353
 30
0.0
  0
SEQEND
  5
126
100
AcDbEntity
  8
0
390
0
  0
ELLIPSE
  5
127
100
AcDbEntity
  8
0
390
0
  6
Continuous
 62
     7
100
AcDbEllipse
 10
87.471243
 20
-12.82098
 30
0.0
 11
-1.2488278368823491
 21
-2.1657398352128432
 31
0.0
210
0.0
220
0.0
230
1.0
 40
0.030997
 41
1.6353843397455929
 42
3.1241309694985042
  0
LINE
  5
128
100
AcDbEntity
  8
0
390
0
  6
Continuous
 62
     7
100
AcDbLine
 10
88.22124
 20
9.368653
 30
0.0
 11
88.221129
 21
9.790353
 31
0.0
  0
LINE
  5
129
100
AcDbEntity
  8
0
390
0
  6
Continuous
 62
     7
100
AcDbLine
 10
89.086311
 20
-10.866999
 30
0.0
 11
88.721052
 21
-10.656246
 31
0.0
  0
ELLIPSE
  5
12A
100
AcDbEntity
  8
0
390
0
  6
Continuous
 62
     7
100
AcDbEllipse
 10
124.885486
 20
12.82098
 30
0.0
 11
-1.2488278368823214
 21
-2.1657398352128707
 31
0.0
210
0.0
220
0.0
230
1.0
 40
0.030997
 41
4.7769769933353867
 42
6.2657236230883964
  0
LINE
  5
12B
100
AcDbEntity
  8
0
390
0
  6
Continuous
 62
     7
100
AcDbLine
 10
123.270418
 20
10.866999
 30
0.0
 11
123.635676
 21
10.656246
 31
0.0
  0
ELLIPSE
  5
12C
100
AcDbEntity
  8
0
390
0
  6
Continuous
 62
     7
100
AcDbEllipse
 10
107.928098
 20
-22.611332
 30
0.0
 11
-1.2511717968410885
 21
2.1643865492997074
 31
0.0
210
0.0
220
0.0
230
1.0
 40
0.030997
 41
4.7769769933353841
 42
6.2657236230883679
  0
LINE
  5
12D
100
AcDbEntity
  8
0
390
0
  6
Continuous
 62
     7
100
AcDbLine
 10
107.043435
 20
-20.235652
 30
0.0
 11
106.678288
 21
-20.446599
 31
0.0
  0
LINE
  5
12E
100
AcDbEntity
  8
0
390
0
  6
Continuous
 62
     7
100
AcDbLine
 10
107.043435
 20
-20.235652
 30
0.0
 11
108.293244
 21
-22.400386
 31
0.0
  0
LINE
  5
12F
100
AcDbEntity
  8
0
390
0
  6
Continuous
 62
     7
100
AcDbLine
 10
105.67844
 20
-20.446599
 30
0.0
 11
105.313294
 21
-20.235652
 31
0.0
  0
ELLIPSE
  5
130
100
AcDbEntity
  8
0
390
0
  6
Continuous
 62
     7
100
AcDbEllipse
 10
104.428631
 20
-22.611332
 30
0.0
 11
1.2511717968410607
 21
2.1643865492997074
 31
0.0
210
0.0
220
0.0
230
1.0
 40
0.030997
 41
0.0174616840910486
 42
1.5062083138442022
  0
LINE
  5
131
100
AcDbEntity
  8
0
390
0
  6
Continuous
 62
     7
100
AcDbLine
 10
108.293244
 20
-22.400386
 30
0.0
 11
124.520227
 21
-13.031733
 31
0.0
  0
LINE
  5
132
100
AcDbEntity
  8
0
390
0
  6
Continuous
 62
     7
100
AcDbLine
 10
123.270418
 20
-10.866999
 30
0.0
 11
107.043435
 21
-20.235652
 31
0.0
  0
LINE
  5
133
100
AcDbEntity
  8
0
390
0
  6
Continuous
 62
     7
100
AcDbLine
 10
123.270418
 20
-10.866999
 30
0.0
 11
124.520227
 21
-13.031733
 31
0.0
  0
POLYLINE
  5
134
100
AcDbEntity
  8
0
390
0
  6
Continuous
 62
     7
100
AcDb2dPolyline
 66
     1
 10
0.0
 20
0.0
 30
0.0
 40
0.1
 41
0.1
  0
VERTEX
  5
135
100
AcDbEntity
  8
0
390
0
 62
     7
100
AcDbVertex
100
AcDb2dVertex
 10
105.67844
 20
20.446599
 30
0.0
  0
VERTEX
  5
136
100
AcDbEntity
  8
0
390
0
 62
     7
100
AcDbVertex
100
AcDb2dVertex
 10
105.718694
 20
20.46876
 30
0.0
  0
VERTEX
  5
137
100
AcDbEntity
  8
0
390
0
 62
     7
100
AcDbVertex
100
AcDb2dVertex
 10
105.759803
 20
20.489019
 30
0.0
  0
VERTEX
  5
138
100
AcDbEntity
  8
0
390
0
 62
     7
100
AcDbVertex
100
AcDb2dVertex
 10
105.801683
 20
20.507344
 30
0.0
  0
VERTEX
  5
139
100
AcDbEntity
  8
0
390
0
 62
     7
100
AcDbVertex
100
AcDb2dVertex
 10
105.845154
 20
20.524029
 30
0.0
  0
VERTEX
  5
13A
100
AcDbEntity
  8
0
390
0
 62
     7
100
AcDbVertex
100
AcDb2dVertex
 10
105.889415
 20
20.538692
 30
0.0
  0
VERTEX
  5
13B
100
AcDbEntity
  8
0
390
0
 62
     7
100
AcDbVertex
100
AcDb2dVertex
 10
105.934379
 20
20.551287
 30
0.0
  0
VERTEX
  5
13C
100
AcDbEntity
  8
0
390
0
 62
     7
100
AcDbVertex
100
AcDb2dVertex
 10
105.968213
 20
20.559282
 30
0.0
  0
VERTEX
  5
13D
100
AcDbEntity
  8
0
390
0
 62
     7
100
AcDbVertex
100
AcDb2dVertex
 10
106.002416
 20
20.566106
 30
0.0
  0
VERTEX
  5
13E
100
AcDbEntity
  8
0
390
0
 62
     7
100
AcDbVertex
100
AcDb2dVertex
 10
106.036918
 20
20.571736
 30
0.0
  0
VERTEX
  5
13F
100
AcDbEntity
  8
0
390
0
 62
     7
100
AcDbVertex
100
AcDb2dVertex
 10
106.071647
 20
20.576147
 30
0.0
  0
VERTEX
  5
140
100
AcDbEntity
  8
0
390
0
 62
     7
100
AcDbVertex
100
AcDb2dVertex
 10
106.107607
 20
20.579395
 30
0.0
  0
VERTEX
  5
141
100
AcDbEntity
  8
0
390
0
 62
     7
100
AcDbVertex
100
AcDb2dVertex
 10
106.14375
 20
20.581329
 30
0.0
  0
VERTEX
  5
142
100
AcDbEntity
  8
0
390
0
 62
     7
100
AcDbVertex
100
AcDb2dVertex
 10
106.179964
 20
20.581939
 30
0.0
  0
VERTEX
  5
143
100
AcDbEntity
  8
0
390
0
 62
     7
100
AcDbVertex
100
AcDb2dVertex
 10
106.216136
 20
20.58122
 30
0.0
  0
VERTEX
  5
144
100
AcDbEntity
  8
0
390
0
 62
     7
100
AcDbVertex
100
AcDb2dVertex
 10
106.242653
 20
20.579844
 30
0.0
  0
VERTEX
  5
145
100
AcDbEntity
  8
0
390
0
 62
     7
100
AcDbVertex
100
AcDb2dVertex
 10
106.269127
 20
20.577754
 30
0.0
  0
VERTEX
  5
146
100
AcDbEntity
  8
0
390
0
 62
     7
100
AcDbVertex
100
AcDb2dVertex
 10
106.30988
 20
20.573122
 30
0.0
  0
VERTEX
  5
147
100
AcDbEntity
  8
0
390
0
 62
     7
100
AcDbVertex
100
AcDb2dVertex
 10
106.350349
 20
20.566813
 30
0.0
  0
VERTEX
  5
148
100
AcDbEntity
  8
0
390
0
 62
     7
100
AcDbVertex
100
AcDb2dVertex
 10
106.390419
 20
20.558863
 30
0.0
  0
VERTEX
  5
149
100
AcDbEntity
  8
0
390
0
 62
     7
100
AcDbVertex
100
AcDb2dVertex
 10
106.429974
 20
20.549311
 30
0.0
  0
VERTEX
  5
14A
100
AcDbEntity
  8
0
390
0
 62
     7
100
AcDbVertex
100
AcDb2dVertex
 10
106.470263
 20
20.537786
 30
0.0
  0
VERTEX
  5
14B
100
AcDbEntity
  8
0
390
0
 62
     7
100
AcDbVertex
100
AcDb2dVertex
 10
106.509996
 20
20.524591
 30
0.0
  0
VERTEX
  5
14C
100
AcDbEntity
  8
0
390
0
 62
     7
100
AcDbVertex
100
AcDb2dVertex
 10
106.549116
 20
20.509757
 30
0.0
  0
VERTEX
  5
14D
100
AcDbEntity
  8
0
390
0
 62
     7
100
AcDbVertex
100
AcDb2dVertex
 10
106.587563
 20
20.493314
 30
0.0
  0
VERTEX
  5
14E
100
AcDbEntity
  8
0
390
0
 62
     7
100
AcDbVertex
100
AcDb2dVertex
 10
106.63337
 20
20.471177
 30
0.0
  0
VERTEX
  5
14F
100
AcDbEntity
  8
0
390
0
 62
     7
100
AcDbVertex
100
AcDb2dVertex
 10
106.655961
 20
20.459184
 30
0.0
  0
VERTEX
  5
150
100
AcDbEntity
  8
0
390
0
 62
     7
100
AcDbVertex
100
AcDb2dVertex
 10
106.678288
 20
20.446599
 30
0.0
  0
SEQEND
  5
151
100
AcDbEntity
  8
0
390
0
  0
ELLIPSE
  5
152
100
AcDbEntity
  8
0
390
0
  6
Continuous
 62
     7
100
AcDbEllipse
 10
104.428631
 20
22.611333
 30
0.0
 11
-1.2511717968410885
 21
2.1643865492996794
 31
0.0
210
0.0
220
0.0
230
1.0
 40
0.030997
 41
1.6353843397455823
 42
3.1241309694984958
  0
ELLIPSE
  5
153
100
AcDbEntity
  8
0
390
0
  6
Continuous
 62
     7
100
AcDbEllipse
 10
107.928098
 20
22.611333
 30
0.0
 11
1.2511717968410885
 21
2.1643865492997074
 31
0.0
210
0.0
220
0.0
230
1.0
 40
0.030997
 41
3.1590543376810363
 42
4.6478009674339971
  0
ELLIPSE
  5
154
100
AcDbEntity
  8
0
390
0
  6
Continuous
 62
     7
100
AcDbEllipse
 10
126.635219
 20
-9.790353
 30
0.0
 11
-2.4999996337234376
 21
-0.001353285913136
 31
0.0
210
0.0
220
0.0
230
1.0
 40
0.030997
 41
4.7769769933354054
 42
6.2657236230883759
  0
LINE
  5
155
100
AcDbEntity
  8
0
390
0
  6
Continuous
 62
     7
100
AcDbLine
 10
124.135488
 20
-9.368653
 30
0.0
 11
124.1356
 21
-9.790353
 31
0.0
  0
LINE
  5
156
100
AcDbEntity
  8
0
390
0
  6
Continuous
 62
     7
100
AcDbLine
 10
124.135488
 20
-9.368653
 30
0.0
 11
126.635107
 21
-9.368653
 31
0.0
  0
POLYLINE
  5
157
100
AcDbEntity
  8
0
390
0
  6
Continuous
 62
     7
100
AcDb2dPolyline
 66
     1
 10
0.0
 20
0.0
 30
0.0
 40
0.1
 41
0.1
  0
VERTEX
  5
158
100
AcDbEntity
  8
0
390
0
 62
     7
100
AcDbVertex
100
AcDb2dVertex
 10
106.678288
 20
-20.446599
 30
0.0
  0
VERTEX
  5
159
100
AcDbEntity
  8
0
390
0
 62
     7
100
AcDbVertex
100
AcDb2dVertex
 10
106.638034
 20
-20.46876
 30
0.0
  0
VERTEX
  5
15A
100
AcDbEntity
  8
0
390
0
 62
     7
100
AcDbVertex
100
AcDb2dVertex
 10
106.596925
 20
-20.489019
 30
0.0
  0
VERTEX
  5
15B
100
AcDbEntity
  8
0
390
0
 62
     7
100
AcDbVertex
100
AcDb2dVertex
 10
106.555046
 20
-20.507344
 30
0.0
  0
VERTEX
  5
15C
100
AcDbEntity
  8
0
390
0
 62
     7
100
AcDbVertex
100
AcDb2dVertex
 10
106.511574
 20
-20.524029
 30
0.0
  0
VERTEX
  5
15D
100
AcDbEntity
  8
0
390
0
 62
     7
100
AcDbVertex
100
AcDb2dVertex
 10
106.467314
 20
-20.538692
 30
0.0
  0
VERTEX
  5
15E
100
AcDbEntity
  8
0
390
0
 62
     7
100
AcDbVertex
100
AcDb2dVertex
 10
106.42235
 20
-20.551287
 30
0.0
  0
VERTEX
  5
15F
100
AcDbEntity
  8
0
390
0
 62
     7
100
AcDbVertex
100
AcDb2dVertex
 10
106.388516
 20
-20.559282
 30
0.0
  0
VERTEX
  5
160
100
AcDbEntity
  8
0
390
0
 62
     7
100
AcDbVertex
100
AcDb2dVertex
 10
106.354312
 20
-20.566106
 30
0.0
  0
VERTEX
  5
161
100
AcDbEntity
  8
0
390
0
 62
     7
100
AcDbVertex
100
AcDb2dVertex
 10
106.319811
 20
-20.571736
 30
0.0
  0
VERTEX
  5
162
100
AcDbEntity
  8
0
390
0
 62
     7
100
AcDbVertex
100
AcDb2dVertex
 10
106.285081
 20
-20.576147
 30
0.0
  0
VERTEX
  5
163
100
AcDbEntity
  8
0
390
0
 62
     7
100
AcDbVertex
100
AcDb2dVertex
 10
106.249121
 20
-20.579395
 30
0.0
  0
VERTEX
  5
164
100
AcDbEntity
  8
0
390
0
 62
     7
100
AcDbVertex
100
AcDb2dVertex
 10
106.212979
 20
-20.581329
 30
0.0
  0
VERTEX
  5
165
100
AcDbEntity
  8
0
390
0
 62
     7
100
AcDbVertex
100
AcDb2dVertex
 10
106.176765
 20
-20.581939
 30
0.0
  0
VERTEX
  5
166
100
AcDbEntity
  8
0
390
0
 62
     7
100
AcDbVertex
100
AcDb2dVertex
 10
106.140592
 20
-20.58122
 30
0.0
  0
VERTEX
  5
167
100
AcDbEntity
  8
0
390
0
 62
     7
100
AcDbVertex
100
AcDb2dVertex
 10
106.114076
 20
-20.579844
 30
0.0
  0
VERTEX
  5
168
100
AcDbEntity
  8
0
390
0
 62
     7
100
AcDbVertex
100
AcDb2dVertex
 10
106.087602
 20
-20.577754
 30
0.0
  0
VERTEX
  5
169
100
AcDbEntity
  8
0
390
0
 62
     7
100
AcDbVertex
100
AcDb2dVertex
 10
106.046849
 20
-20.573122
 30
0.0
  0
VERTEX
  5
16A
100
AcDbEntity
  8
0
390
0
 62
     7
100
AcDbVertex
100
AcDb2dVertex
 10
106.00638
 20
-20.566813
 30
0.0
  0
VERTEX
  5
16B
100
AcDbEntity
  8
0
390
0
 62
     7
100
AcDbVertex
100
AcDb2dVertex
 10
105.96631
 20
-20.558863
 30
0.0
  0
VERTEX
  5
16C
100
AcDbEntity
  8
0
390
0
 62
     7
100
AcDbVertex
100
AcDb2dVertex
 10
105.926754
 20
-20.549311
 30
0.0
  0
VERTEX
  5
16D
100
AcDbEntity
  8
0
390
0
 62
     7
100
AcDbVertex
100
AcDb2dVertex
 10
105.886466
 20
-20.537786
 30
0.0
  0
VERTEX
  5
16E
100
AcDbEntity
  8
0
390
0
 62
     7
100
AcDbVertex
100
AcDb2dVertex
 10
105.846733
 20
-20.524591
 30
0.0
  0
VERTEX
  5
16F
100
AcDbEntity
  8
0
390
0
 62
     7
100
AcDbVertex
100
AcDb2dVertex
 10
105.807613
 20
-20.509757
 30
0.0
  0
VERTEX
  5
170
100
AcDbEntity
  8
0
390
0
 62
     7
100
AcDbVertex
100
AcDb2dVertex
 10
105.769166
 20
-20.493314
 30
0.0
  0
VERTEX
  5
171
100
AcDbEntity
  8
0
390
0
 62
     7
100
AcDbVertex
100
AcDb2dVertex
 10
105.723359
 20
-20.471177
 30
0.0
  0
VERTEX
  5
172
100
AcDbEntity
  8
0
390
0
 62
     7
100
AcDbVertex
100
AcDb2dVertex
 10
105.700768
 20
-20.459184
 30
0.0
  0
VERTEX
  5
173
100
AcDbEntity
  8
0
390
0
 62
     7
100
AcDbVertex
100
AcDb2dVertex
 10
105.67844
 20
-20.446599
 30
0.0
  0
SEQEND
  5
174
100
AcDbEntity
  8
0
390
0
  0
LINE
  5
175
100
AcDbEntity
  8
0
390
0
  6
Continuous
 62
     7
100
AcDbLine
 10
105.313294
 20
20.235652
 30
0.0
 11
105.67844
 21
20.446599
 31
0.0
  0
LINE
  5
176
100
AcDbEntity
  8
0
390
0
  6
Continuous
 62
     7
100
AcDbLine
 10
126.635107
 20
-9.368653
 30
0.0
 11
126.635107
 21
9.368653
 31
0.0
  0
LINE
  5
177
100
AcDbEntity
  8
0
390
0
  6
Continuous
 62
     7
100
AcDbLine
 10
124.135488
 20
9.368653
 30
0.0
 11
124.135488
 21
-9.368653
 31
0.0
  0
LINE
  5
178
100
AcDbEntity
  8
0
390
0
  6
Continuous
 62
     7
100
AcDbLine
 10
124.135488
 20
9.368653
 30
0.0
 11
126.635107
 21
9.368653
 31
0.0
  0
LINE
  5
179
100
AcDbEntity
  8
0
390
0
  6
Continuous
 62
     7
100
AcDbLine
 10
106.678288
 20
20.446599
 30
0.0
 11
107.043435
 21
20.235652
 31
0.0
  0
LINE
  5
17A
100
AcDbEntity
  8
0
390
0
  6
Continuous
 62
     7
100
AcDbLine
 10
123.635676
 20
-10.656246
 30
0.0
 11
123.270418
 21
-10.866999
 31
0.0
  0
ELLIPSE
  5
17B
100
AcDbEntity
  8
0
390
0
  6
Continuous
 62
     7
100
AcDbEllipse
 10
124.885486
 20
-12.82098
 30
0.0
 11
-1.2488278368823491
 21
2.1657398352128432
 31
0.0
210
0.0
220
0.0
230
1.0
 40
0.030997
 41
0.0174616840914586
 42
1.5062083138442117
  0
POLYLINE
  5
17C
100
AcDbEntity
  8
0
390
0
  6
Continuous
 62
     7
100
AcDb2dPolyline
 66
     1
 10
0.0
 20
0.0
 30
0.0
 40
0.1
 41
0.1
  0
VERTEX
  5
17D
100
AcDbEntity
  8
0
390
0
 62
     7
100
AcDbVertex
100
AcDb2dVertex
 10
124.1356
 20
-9.790353
 30
0.0
  0
VERTEX
  5
17E
100
AcDbEntity
  8
0
390
0
 62
     7
100
AcDbVertex
100
AcDb2dVertex
 10
124.134647
 20
-9.836661
 30
0.0
  0
VERTEX
  5
17F
100
AcDbEntity
  8
0
390
0
 62
     7
100
AcDbVertex
100
AcDb2dVertex
 10
124.131578
 20
-9.882827
 30
0.0
  0
VERTEX
  5
180
100
AcDbEntity
  8
0
390
0
 62
     7
100
AcDbVertex
100
AcDb2dVertex
 10
124.1264
 20
-9.928765
 30
0.0
  0
VERTEX
  5
181
100
AcDbEntity
  8
0
390
0
 62
     7
100
AcDbVertex
100
AcDb2dVertex
 10
124.119122
 20
-9.974388
 30
0.0
  0
VERTEX
  5
182
100
AcDbEntity
  8
0
390
0
 62
     7
100
AcDbVertex
100
AcDb2dVertex
 10
124.10975
 20
-10.01961
 30
0.0
  0
VERTEX
  5
183
100
AcDbEntity
  8
0
390
0
 62
     7
100
AcDbVertex
100
AcDb2dVertex
 10
124.098294
 20
-10.064346
 30
0.0
  0
VERTEX
  5
184
100
AcDbEntity
  8
0
390
0
 62
     7
100
AcDbVertex
100
AcDb2dVertex
 10
124.088301
 20
-10.097645
 30
0.0
  0
VERTEX
  5
185
100
AcDbEntity
  8
0
390
0
 62
     7
100
AcDbVertex
100
AcDb2dVertex
 10
124.077109
 20
-10.130678
 30
0.0
  0
VERTEX
  5
186
100
AcDbEntity
  8
0
390
0
 62
     7
100
AcDbVertex
100
AcDb2dVertex
 10
124.064733
 20
-10.163372
 30
0.0
  0
VERTEX
  5
187
100
AcDbEntity
  8
0
390
0
 62
     7
100
AcDbVertex
100
AcDb2dVertex
 10
124.051189
 20
-10.195654
 30
0.0
  0
VERTEX
  5
188
100
AcDbEntity
  8
0
390
0
 62
     7
100
AcDbVertex
100
AcDb2dVertex
 10
124.036022
 20
-10.22842
 30
0.0
  0
VERTEX
  5
189
100
AcDbEntity
  8
0
390
0
 62
     7
100
AcDbVertex
100
AcDb2dVertex
 10
124.019625
 20
-10.260687
 30
0.0
  0
VERTEX
  5
18A
100
AcDbEntity
  8
0
390
0
 62
     7
100
AcDbVertex
100
AcDb2dVertex
 10
124.002047
 20
-10.292355
 30
0.0
  0
VERTEX
  5
18B
100
AcDbEntity
  8
0
390
0
 62
     7
100
AcDbVertex
100
AcDb2dVertex
 10
123.983338
 20
-10.323322
 30
0.0
  0
VERTEX
  5
18C
100
AcDbEntity
  8
0
390
0
 62
     7
100
AcDbVertex
100
AcDb2dVertex
 10
123.96888
 20
-10.34561
 30
0.0
  0
VERTEX
  5
18D
100
AcDbEntity
  8
0
390
0
 62
     7
100
AcDbVertex
100
AcDb2dVertex
 10
123.953841
 20
-10.367479
 30
0.0
  0
VERTEX
  5
18E
100
AcDbEntity
  8
0
390
0
 62
     7
100
AcDbVertex
100
AcDb2dVertex
 10
123.929453
 20
-10.400457
 30
0.0
  0
VERTEX
  5
18F
100
AcDbEntity
  8
0
390
0
 62
     7
100
AcDbVertex
100
AcDb2dVertex
 10
123.903754
 20
-10.432349
 30
0.0
  0
VERTEX
  5
190
100
AcDbEntity
  8
0
390
0
 62
     7
100
AcDbVertex
100
AcDb2dVertex
 10
123.876835
 20
-10.463076
 30
0.0
  0
VERTEX
  5
191
100
AcDbEntity
  8
0
390
0
 62
     7
100
AcDbVertex
100
AcDb2dVertex
 10
123.848785
 20
-10.492556
 30
0.0
  0
VERTEX
  5
192
100
AcDbEntity
  8
0
390
0
 62
     7
100
AcDbVertex
100
AcDb2dVertex
 10
123.81866
 20
-10.521685
 30
0.0
  0
VERTEX
  5
193
100
AcDbEntity
  8
0
390
0
 62
     7
100
AcDbVertex
100
AcDb2dVertex
 10
123.787366
 20
-10.549497
 30
0.0
  0
VERTEX
  5
194
100
AcDbEntity
  8
0
390
0
 62
     7
100
AcDbVertex
100
AcDb2dVertex
 10
123.754959
 20
-10.575958
 30
0.0
  0
VERTEX
  5
195
100
AcDbEntity
  8
0
390
0
 62
     7
100
AcDbVertex
100
AcDb2dVertex
 10
123.721496
 20
-10.601033
 30
0.0
  0
VERTEX
  5
196
100
AcDbEntity
  8
0
390
0
 62
     7
100
AcDbVertex
100
AcDb2dVertex
 10
123.69358
 20
-10.620354
 30
0.0
  0
VERTEX
  5
197
100
AcDbEntity
  8
0
390
0
 62
     7
100
AcDbVertex
100
AcDb2dVertex
 10
123.664963
 20
-10.638767
 30
0.0
  0
VERTEX
  5
198
100
AcDbEntity
  8
0
390
0
 62
     7
100
AcDbVertex
100
AcDb2dVertex
 10
123.635676
 20
-10.656246
 30
0.0
  0
SEQEND
  5
199
100
AcDbEntity
  8
0
390
0
  0
ELLIPSE
  5
19A
100
AcDbEntity
  8
0
390
0
  6
Continuous
 62
     7
100
AcDbEllipse
 10
126.635219
 20
9.790353
 30
0.0
 11
-2.4999996337234376
 21
0.0013532859131637
 31
0.0
210
0.0
220
0.0
230
1.0
 40
0.030997
 41
0.0174616840912992
 42
1.5062083138442064
  0
POLYLINE
  5
19B
100
AcDbEntity
  8
0
390
0
  6
Continuous
 62
     7
100
AcDb2dPolyline
 66
     1
 10
0.0
 20
0.0
 30
0.0
 40
0.1
 41
0.1
  0
VERTEX
  5
19C
100
AcDbEntity
  8
0
390
0
 62
     7
100
AcDbVertex
100
AcDb2dVertex
 10
123.635676
 20
10.656246
 30
0.0
  0
VERTEX
  5
19D
100
AcDbEntity
  8
0
390
0
 62
     7
100
AcDbVertex
100
AcDb2dVertex
 10
123.675304
 20
10.632267
 30
0.0
  0
VERTEX
  5
19E
100
AcDbEntity
  8
0
390
0
 62
     7
100
AcDbVertex
100
AcDb2dVertex
 10
123.713751
 20
10.606526
 30
0.0
  0
VERTEX
  5
19F
100
AcDbEntity
  8
0
390
0
 62
     7
100
AcDbVertex
100
AcDb2dVertex
 10
123.750945
 20
10.579073
 30
0.0
  0
VERTEX
  5
1A0
100
AcDbEntity
  8
0
390
0
 62
     7
100
AcDbVertex
100
AcDb2dVertex
 10
123.786816
 20
10.549958
 30
0.0
  0
VERTEX
  5
1A1
100
AcDbEntity
  8
0
390
0
 62
     7
100
AcDbVertex
100
AcDb2dVertex
 10
123.821294
 20
10.519231
 30
0.0
  0
VERTEX
  5
1A2
100
AcDbEntity
  8
0
390
0
 62
     7
100
AcDbVertex
100
AcDb2dVertex
 10
123.854308
 20
10.486941
 30
0.0
  0
VERTEX
  5
1A3
100
AcDbEntity
  8
0
390
0
 62
     7
100
AcDbVertex
100
AcDb2dVertex
 10
123.878149
 20
10.461637
 30
0.0
  0
VERTEX
  5
1A4
100
AcDbEntity
  8
0
390
0
 62
     7
100
AcDbVertex
100
AcDb2dVertex
 10
123.901161
 20
10.435429
 30
0.0
  0
VERTEX
  5
1A5
100
AcDbEntity
  8
0
390
0
 62
     7
100
AcDbVertex
100
AcDb2dVertex
 10
123.923287
 20
10.408364
 30
0.0
  0
VERTEX
  5
1A6
100
AcDbEntity
  8
0
390
0
 62
     7
100
AcDbVertex
100
AcDb2dVertex
 10
123.944471
 20
10.380493
 30
0.0
  0
VERTEX
  5
1A7
100
AcDbEntity
  8
0
390
0
 62
     7
100
AcDbVertex
100
AcDb2dVertex
 10
123.965265
 20
10.350975
 30
0.0
  0
VERTEX
  5
1A8
100
AcDbEntity
  8
0
390
0
 62
     7
100
AcDbVertex
100
AcDb2dVertex
 10
123.985011
 20
10.320641
 30
0.0
  0
VERTEX
  5
1A9
100
AcDbEntity
  8
0
390
0
 62
     7
100
AcDbVertex
100
AcDb2dVertex
 10
124.003646
 20
10.289585
 30
0.0
  0
VERTEX
  5
1AA
100
AcDbEntity
  8
0
390
0
 62
     7
100
AcDbVertex
100
AcDb2dVertex
 10
124.02111
 20
10.257899
 30
0.0
  0
VERTEX
  5
1AB
100
AcDbEntity
  8
0
390
0
 62
     7
100
AcDbVertex
100
AcDb2dVertex
 10
124.033183
 20
10.234234
 30
0.0
  0
VERTEX
  5
1AC
100
AcDbEntity
  8
0
390
0
 62
     7
100
AcDbVertex
100
AcDb2dVertex
 10
124.044603
 20
10.210274
 30
0.0
  0
VERTEX
  5
1AD
100
AcDbEntity
  8
0
390
0
 62
     7
100
AcDbVertex
100
AcDb2dVertex
 10
124.060968
 20
10.172665
 30
0.0
  0
VERTEX
  5
1AE
100
AcDbEntity
  8
0
390
0
 62
     7
100
AcDbVertex
100
AcDb2dVertex
 10
124.075739
 20
10.134463
 30
0.0
  0
VERTEX
  5
1AF
100
AcDbEntity
  8
0
390
0
 62
     7
100
AcDbVertex
100
AcDb2dVertex
 10
124.088889
 20
10.095787
 30
0.0
  0
VERTEX
  5
1B0
100
AcDbEntity
  8
0
390
0
 62
     7
100
AcDbVertex
100
AcDb2dVertex
 10
124.100395
 20
10.056755
 30
0.0
  0
VERTEX
  5
1B1
100
AcDbEntity
  8
0
390
0
 62
     7
100
AcDbVertex
100
AcDb2dVertex
 10
124.110558
 20
10.016101
 30
0.0
  0
VERTEX
  5
1B2
100
AcDbEntity
  8
0
390
0
 62
     7
100
AcDbVertex
100
AcDb2dVertex
 10
124.118997
 20
9.975094
 30
0.0
  0
VERTEX
  5
1B3
100
AcDbEntity
  8
0
390
0
 62
     7
100
AcDbVertex
100
AcDb2dVertex
 10
124.12571
 20
9.933798
 30
0.0
  0
VERTEX
  5
1B4
100
AcDbEntity
  8
0
390
0
 62
     7
100
AcDbVertex
100
AcDb2dVertex
 10
124.130694
 20
9.892281
 30
0.0
  0
VERTEX
  5
1B5
100
AcDbEntity
  8
0
390
0
 62
     7
100
AcDbVertex
100
AcDb2dVertex
 10
124.133468
 20
9.858445
 30
0.0
  0
VERTEX
  5
1B6
100
AcDbEntity
  8
0
390
0
 62
     7
100
AcDbVertex
100
AcDb2dVertex
 10
124.135106
 20
9.824455
 30
0.0
  0
VERTEX
  5
1B7
100
AcDbEntity
  8
0
390
0
 62
     7
100
AcDbVertex
100
AcDb2dVertex
 10
124.1356
 20
9.790353
 30
0.0
  0
SEQEND
  5
1B8
100
AcDbEntity
  8
0
390
0
  0
LINE
  5
1B9
100
AcDbEntity
  8
0
390
0
  6
Continuous
 62
     7
100
AcDbLine
 10
124.1356
 20
9.790353
 30
0.0
 11
124.135488
 21
9.368653
 31
0.0
  0
LINE
  5
1BA
100
AcDbEntity
  8
0
390
0
  6
Continuous
 62
     7
100
AcDbLine
 10
88.44019
 20
-9.663877
 30
0.0
 11
88.221129
 21
-9.790353
 31
0.0
  0
ELLIPSE
  5
1BB
100
AcDbEntity
  8
0
390
0
  6
Continuous
 62
     7
100
AcDbEllipse
 10
89.440343
 20
-9.663701
 30
0.0
 11
-0.866201292594071
 21
-0.5001015494515704
 31
0.0
210
0.0
220
0.0
230
0.9999999999999999
 40
0.999797
 41
5.7596744625918612
 42
6.8066961517673139
  0
LINE
  5
1BC
100
AcDbEntity
  8
0
390
0
  6
Continuous
 62
     7
100
AcDbLine
 10
88.721052
 20
-10.656246
 30
0.0
 11
88.940114
 21
-10.529771
 31
0.0
  0
LINE
  5
1BD
100
AcDbEntity
  8
0
390
0
  6
Continuous
 62
     7
100
AcDbLine
 10
106.678288
 20
20.193648
 30
0.0
 11
106.678288
 21
20.446599
 31
0.0
  0
ELLIPSE
  5
1BE
100
AcDbEntity
  8
0
390
0
  6
Continuous
 62
     7
100
AcDbEllipse
 10
106.178364
 20
19.327403
 30
0.0
 11
0.0
 21
1.0002030989031963
 31
0.0
210
0.0
220
0.0
230
1.0
 40
0.999797
 41
5.759674462591863
 42
6.8066961517673006
  0
LINE
  5
1BF
100
AcDbEntity
  8
0
390
0
  6
Continuous
 62
     7
100
AcDbLine
 10
105.67844
 20
20.446599
 30
0.0
 11
105.67844
 21
20.193648
 31
0.0
  0
LINE
  5
1C0
100
AcDbEntity
  8
0
390
0
  6
Continuous
 62
     7
100
AcDbLine
 10
88.940114
 20
10.529771
 30
0.0
 11
88.721052
 21
10.656246
 31
0.0
  0
ELLIPSE
  5
1C1
100
AcDbEntity
  8
0
390
0
  6
Continuous
 62
     7
100
AcDbEllipse
 10
89.440343
 20
9.663701
 30
0.0
 11
-0.866201292594071
 21
0.5001015494515981
 31
0.0
210
0.0
220
0.0
230
1.0
 40
0.999797
 41
5.7596744625918541
 42
6.8066961517673139
  0
LINE
  5
1C2
100
AcDbEntity
  8
0
390
0
  6
Continuous
 62
     7
100
AcDbLine
 10
88.221129
 20
9.790353
 30
0.0
 11
88.44019
 21
9.663877
 31
0.0
  0
LINE
  5
1C3
100
AcDbEntity
  8
0
390
0
  6
Continuous
 62
     7
100
AcDbLine
 10
105.67844
 20
-20.193648
 30
0.0
 11
105.67844
 21
-20.446599
 31
0.0
  0
ELLIPSE
  5
1C4
100
AcDbEntity
  8
0
390
0
  6
Continuous
 62
     7
100
AcDbEllipse
 10
106.178364
 20
-19.327403
 30
0.0
 11
0.0
 21
-1.0002030989031963
 31
0.0
210
0.0
220
0.0
230
1.0
 40
0.999797
 41
5.7596744625918594
 42
6.8066961517673148
  0
LINE
  5
1C5
100
AcDbEntity
  8
0
390
0
  6
Continuous
 62
     7
100
AcDbLine
 10
106.678288
 20
-20.446599
 30
0.0
 11
106.678288
 21
-20.193648
 31
0.0
  0
LINE
  5
1C6
100
AcDbEntity
  8
0
390
0
  6
Continuous
 62
     7
100
AcDbLine
 10
123.416615
 20
-10.529771
 30
0.0
 11
123.635676
 21
-10.656246
 31
0.0
  0
ELLIPSE
  5
1C7
100
AcDbEntity
  8
0
390
0
  6
Continuous
 62
     7
100
AcDbEllipse
 10
122.916386
 20
-9.663701
 30
0.0
 11
0.8662012925940987
 21
-0.5001015494515981
 31
0.0
210
0.0
220
0.0
230
1.0
 40
0.999797
 41
5.7596744625918621
 42
6.8066961517673121
  0
LINE
  5
1C8
100
AcDbEntity
  8
0
390
0
  6
Continuous
 62
     7
100
AcDbLine
 10
124.1356
 20
-9.790353
 30
0.0
 11
123.916538
 21
-9.663877
 31
0.0
  0
LINE
  5
1C9
100
AcDbEntity
  8
0
390
0
  6
Continuous
 62
     7
100
AcDbLine
 10
123.916538
 20
9.663877
 30
0.0
 11
124.1356
 21
9.790353
 31
0.0
  0
ELLIPSE
  5
1CA
100
AcDbEntity
  8
0
390
0
  6
Continuous
 62
     7
100
AcDbEllipse
 10
122.916386
 20
9.663701
 30
0.0
 11
0.866201292594071
 21
0.5001015494515981
 31
0.0
210
0.0
220
0.0
230
1.0
 40
0.999797
 41
5.7596744625918594
 42
6.8066961517673112
  0
LINE
  5
1CB
100
AcDbEntity
  8
0
390
0
  6
Continuous
 62
     7
100
AcDbLine
 10
123.635676
 20
10.656246
 30
0.0
 11
123.416615
 21
10.529771
 31
0.0
  0
LINE
  5
1CC
100
AcDbEntity
  8
0
390
0
  6
Continuous
 62
     7
100
AcDbLine
 10
88.44019
 20
-9.663877
 30
0.0
 11
88.44019
 21
9.663877
 31
0.0
  0
LINE
  5
1CD
100
AcDbEntity
  8
0
390
0
  6
Continuous
 62
     7
100
AcDbLine
 10
88.940114
 20
10.529771
 30
0.0
 11
105.67844
 21
20.193648
 31
0.0
  0
LINE
  5
1CE
100
AcDbEntity
  8
0
390
0
  6
Continuous
 62
     7
100
AcDbLine
 10
105.67844
 20
-20.193648
 30
0.0
 11
88.940114
 21
-10.529771
 31
0.0
  0
LINE
  5
1CF
100
AcDbEntity
  8
0
390
0
  6
Continuous
 62
     7
100
AcDbLine
 10
106.678288
 20
20.193648
 30
0.0
 11
123.416615
 21
10.529771
 31
0.0
  0
LINE
  5
1D0
100
AcDbEntity
  8
0
390
0
  6
Continuous
 62
     7
100
AcDbLine
 10
123.416615
 20
-10.529771
 30
0.0
 11
106.678288
 21
-20.193648
 31
0.0
  0
LINE
  5
1D1
100
AcDbEntity
  8
0
390
0
  6
Continuous
 62
     7
100
AcDbLine
 10
123.916538
 20
9.663877
 30
0.0
 11
123.916538
 21
-9.663877
 31
0.0
  0
ARC
  5
1D2
100
AcDbEntity
  8
0
390
0
  6
Continuous
 62
     7
100
AcDbCircle
 10
-89.212085
 20
-9.799177
 30
0.0
 40
3.264779
210
0.0
220
0.0
230
1.0
100
AcDbArc
 50
300.278435
 51
359.721565
  0
LINE
  5
1D3
100
AcDbEntity
  8
0
390
0
  6
Continuous
 62
     7
100
AcDbLine
 10
-87.565975
 20
-12.618592
 30
0.0
 11
-88.815785
 21
-10.453858
 31
0.0
  0
POLYLINE
  5
1D4
100
AcDbEntity
  8
0
390
0
  6
Continuous
 62
     7
100
AcDb2dPolyline
 66
     1
 10
0.0
 20
0.0
 30
0.0
 40
0.1
 41
0.1
  0
VERTEX
  5
1D5
100
AcDbEntity
  8
0
390
0
 62
     7
100
AcDbVertex
100
AcDb2dVertex
 10
-88.815785
 20
-10.453858
 30
0.0
  0
VERTEX
  5
1D6
100
AcDbEntity
  8
0
390
0
 62
     7
100
AcDbVertex
100
AcDb2dVertex
 10
-88.786389
 20
-10.435824
 30
0.0
  0
VERTEX
  5
1D7
100
AcDbEntity
  8
0
390
0
 62
     7
100
AcDbVertex
100
AcDb2dVertex
 10
-88.757936
 20
-10.416255
 30
0.0
  0
VERTEX
  5
1D8
100
AcDbEntity
  8
0
390
0
 62
     7
100
AcDbVertex
100
AcDb2dVertex
 10
-88.730505
 20
-10.395271
 30
0.0
  0
VERTEX
  5
1D9
100
AcDbEntity
  8
0
390
0
 62
     7
100
AcDbVertex
100
AcDb2dVertex
 10
-88.704174
 20
-10.372989
 30
0.0
  0
VERTEX
  5
1DA
100
AcDbEntity
  8
0
390
0
 62
     7
100
AcDbVertex
100
AcDb2dVertex
 10
-88.677942
 20
-10.348482
 30
0.0
  0
VERTEX
  5
1DB
100
AcDbEntity
  8
0
390
0
 62
     7
100
AcDbVertex
100
AcDb2dVertex
 10
-88.652902
 20
-10.322699
 30
0.0
  0
VERTEX
  5
1DC
100
AcDbEntity
  8
0
390
0
 62
     7
100
AcDbVertex
100
AcDb2dVertex
 10
-88.62911
 20
-10.295756
 30
0.0
  0
VERTEX
  5
1DD
100
AcDbEntity
  8
0
390
0
 62
     7
100
AcDbVertex
100
AcDb2dVertex
 10
-88.606623
 20
-10.267767
 30
0.0
  0
VERTEX
  5
1DE
100
AcDbEntity
  8
0
390
0
 62
     7
100
AcDbVertex
100
AcDb2dVertex
 10
-88.583048
 20
-10.235315
 30
0.0
  0
VERTEX
  5
1DF
100
AcDbEntity
  8
0
390
0
 62
     7
100
AcDbVertex
100
AcDb2dVertex
 10
-88.561129
 20
-10.201692
 30
0.0
  0
VERTEX
  5
1E0
100
AcDbEntity
  8
0
390
0
 62
     7
100
AcDbVertex
100
AcDb2dVertex
 10
-88.54094
 20
-10.167031
 30
0.0
  0
VERTEX
  5
1E1
100
AcDbEntity
  8
0
390
0
 62
     7
100
AcDbVertex
100
AcDb2dVertex
 10
-88.522099
 20
-10.130535
 30
0.0
  0
VERTEX
  5
1E2
100
AcDbEntity
  8
0
390
0
 62
     7
100
AcDbVertex
100
AcDb2dVertex
 10
-88.505159
 20
-10.093089
 30
0.0
  0
VERTEX
  5
1E3
100
AcDbEntity
  8
0
390
0
 62
     7
100
AcDbVertex
100
AcDb2dVertex
 10
-88.490212
 20
-10.054835
 30
0.0
  0
VERTEX
  5
1E4
100
AcDbEntity
  8
0
390
0
 62
     7
100
AcDbVertex
100
AcDb2dVertex
 10
-88.480547
 20
-10.02628
 30
0.0
  0
VERTEX
  5
1E5
100
AcDbEntity
  8
0
390
0
 62
     7
100
AcDbVertex
100
AcDb2dVertex
 10
-88.472017
 20
-9.997339
 30
0.0
  0
VERTEX
  5
1E6
100
AcDbEntity
  8
0
390
0
 62
     7
100
AcDbVertex
100
AcDb2dVertex
 10
-88.464666
 20
-9.968078
 30
0.0
  0
VERTEX
  5
1E7
100
AcDbEntity
  8
0
390
0
 62
     7
100
AcDbVertex
100
AcDb2dVertex
 10
-88.458536
 20
-9.938563
 30
0.0
  0
VERTEX
  5
1E8
100
AcDbEntity
  8
0
390
0
 62
     7
100
AcDbVertex
100
AcDb2dVertex
 10
-88.453541
 20
-9.907926
 30
0.0
  0
VERTEX
  5
1E9
100
AcDbEntity
  8
0
390
0
 62
     7
100
AcDbVertex
100
AcDb2dVertex
 10
-88.449917
 20
-9.877064
 30
0.0
  0
VERTEX
  5
1EA
100
AcDbEntity
  8
0
390
0
 62
     7
100
AcDbVertex
100
AcDb2dVertex
 10
-88.44771
 20
-9.846071
 30
0.0
  0
VERTEX
  5
1EB
100
AcDbEntity
  8
0
390
0
 62
     7
100
AcDbVertex
100
AcDb2dVertex
 10
-88.446964
 20
-9.815042
 30
0.0
  0
SEQEND
  5
1EC
100
AcDbEntity
  8
0
390
0
  0
LINE
  5
1ED
100
AcDbEntity
  8
0
390
0
  6
Continuous
 62
     7
100
AcDbLine
 10
-85.947345
 20
-9.815042
 30
0.0
 11
-88.446964
 21
-9.815042
 31
0.0
  0
POLYLINE
  5
1EE
100
AcDbEntity
  8
0
390
0
  6
Continuous
 62
     7
100
AcDb2dPolyline
 66
     1
 10
0.0
 20
0.0
 30
0.0
 40
0.1
 41
0.1
  0
VERTEX
  5
1EF
100
AcDbEntity
  8
0
390
0
 62
     7
100
AcDbVertex
100
AcDb2dVertex
 10
-88.446964
 20
9.815043
 30
0.0
  0
VERTEX
  5
1F0
100
AcDbEntity
  8
0
390
0
 62
     7
100
AcDbVertex
100
AcDb2dVertex
 10
-88.447885
 20
9.849517
 30
0.0
  0
VERTEX
  5
1F1
100
AcDbEntity
  8
0
390
0
 62
     7
100
AcDbVertex
100
AcDb2dVertex
 10
-88.450605
 20
9.883943
 30
0.0
  0
VERTEX
  5
1F2
100
AcDbEntity
  8
0
390
0
 62
     7
100
AcDbVertex
100
AcDb2dVertex
 10
-88.455062
 20
9.918191
 30
0.0
  0
VERTEX
  5
1F3
100
AcDbEntity
  8
0
390
0
 62
     7
100
AcDbVertex
100
AcDb2dVertex
 10
-88.461194
 20
9.952135
 30
0.0
  0
VERTEX
  5
1F4
100
AcDbEntity
  8
0
390
0
 62
     7
100
AcDbVertex
100
AcDb2dVertex
 10
-88.469302
 20
9.987107
 30
0.0
  0
VERTEX
  5
1F5
100
AcDbEntity
  8
0
390
0
 62
     7
100
AcDbVertex
100
AcDb2dVertex
 10
-88.47911
 20
10.021683
 30
0.0
  0
VERTEX
  5
1F6
100
AcDbEntity
  8
0
390
0
 62
     7
100
AcDbVertex
100
AcDb2dVertex
 10
-88.490547
 20
10.055758
 30
0.0
  0
VERTEX
  5
1F7
100
AcDbEntity
  8
0
390
0
 62
     7
100
AcDbVertex
100
AcDb2dVertex
 10
-88.503543
 20
10.089227
 30
0.0
  0
VERTEX
  5
1F8
100
AcDbEntity
  8
0
390
0
 62
     7
100
AcDbVertex
100
AcDb2dVertex
 10
-88.51986
 20
10.12587
 30
0.0
  0
VERTEX
  5
1F9
100
AcDbEntity
  8
0
390
0
 62
     7
100
AcDbVertex
100
AcDb2dVertex
 10
-88.538019
 20
10.161665
 30
0.0
  0
VERTEX
  5
1FA
100
AcDbEntity
  8
0
390
0
 62
     7
100
AcDbVertex
100
AcDb2dVertex
 10
-88.557942
 20
10.196479
 30
0.0
  0
VERTEX
  5
1FB
100
AcDbEntity
  8
0
390
0
 62
     7
100
AcDbVertex
100
AcDb2dVertex
 10
-88.580127
 20
10.231044
 30
0.0
  0
VERTEX
  5
1FC
100
AcDbEntity
  8
0
390
0
 62
     7
100
AcDbVertex
100
AcDb2dVertex
 10
-88.604087
 20
10.264437
 30
0.0
  0
VERTEX
  5
1FD
100
AcDbEntity
  8
0
390
0
 62
     7
100
AcDbVertex
100
AcDb2dVertex
 10
-88.629742
 20
10.296508
 30
0.0
  0
VERTEX
  5
1FE
100
AcDbEntity
  8
0
390
0
 62
     7
100
AcDbVertex
100
AcDb2dVertex
 10
-88.64964
 20
10.319156
 30
0.0
  0
VERTEX
  5
1FF
100
AcDbEntity
  8
0
390
0
 62
     7
100
AcDbVertex
100
AcDb2dVertex
 10
-88.670438
 20
10.341014
 30
0.0
  0
VERTEX
  5
200
100
AcDbEntity
  8
0
390
0
 62
     7
100
AcDbVertex
100
AcDb2dVertex
 10
-88.692103
 20
10.362011
 30
0.0
  0
VERTEX
  5
201
100
AcDbEntity
  8
0
390
0
 62
     7
100
AcDbVertex
100
AcDb2dVertex
 10
-88.714599
 20
10.382077
 30
0.0
  0
VERTEX
  5
202
100
AcDbEntity
  8
0
390
0
 62
     7
100
AcDbVertex
100
AcDb2dVertex
 10
-88.738634
 20
10.401721
 30
0.0
  0
VERTEX
  5
203
100
AcDbEntity
  8
0
390
0
 62
     7
100
AcDbVertex
100
AcDb2dVertex
 10
-88.763549
 20
10.420291
 30
0.0
  0
VERTEX
  5
204
100
AcDbEntity
  8
0
390
0
 62
     7
100
AcDbVertex
100
AcDb2dVertex
 10
-88.789286
 20
10.437698
 30
0.0
  0
VERTEX
  5
205
100
AcDbEntity
  8
0
390
0
 62
     7
100
AcDbVertex
100
AcDb2dVertex
 10
-88.815785
 20
10.453858
 30
0.0
  0
SEQEND
  5
206
100
AcDbEntity
  8
0
390
0
  0
LINE
  5
207
100
AcDbEntity
  8
0
390
0
  6
Continuous
 62
     7
100
AcDbLine
 10
-88.815785
 20
10.453858
 30
0.0
 11
-87.565975
 21
12.618592
 31
0.0
  0
ARC
  5
208
100
AcDbEntity
  8
0
390
0
  6
Continuous
 62
     7
100
AcDbCircle
 10
-89.212085
 20
9.799177
 30
0.0
 40
3.264779
210
0.0
220
0.0
230
1.0
100
AcDbArc
 50
0.278435
 51
59.721565
  0
LINE
  5
209
100
AcDbEntity
  8
0
390
0
  6
Continuous
 62
     7
100
AcDbLine
 10
-88.446964
 20
9.815043
 30
0.0
 11
-85.947345
 21
9.815043
 31
0.0
  0
ARC
  5
20A
100
AcDbEntity
  8
0
390
0
  6
Continuous
 62
     7
100
AcDbCircle
 10
-106.184758
 20
-19.599797
 30
0.0
 40
3.263525
210
0.0
220
0.0
230
1.0
100
AcDbArc
 50
240.265875
 51
299.734125
  0
LINE
  5
20B
100
AcDbEntity
  8
0
390
0
  6
Continuous
 62
     7
100
AcDbLine
 10
-107.803388
 20
-22.433634
 30
0.0
 11
-106.553578
 21
-20.268901
 31
0.0
  0
POLYLINE
  5
20C
100
AcDbEntity
  8
0
390
0
  6
Continuous
 62
     7
100
AcDb2dPolyline
 66
     1
 10
0.0
 20
0.0
 30
0.0
 40
0.1
 41
0.1
  0
VERTEX
  5
20D
100
AcDbEntity
  8
0
390
0
 62
     7
100
AcDbVertex
100
AcDb2dVertex
 10
-106.553578
 20
-20.268901
 30
0.0
  0
VERTEX
  5
20E
100
AcDbEntity
  8
0
390
0
 62
     7
100
AcDbVertex
100
AcDb2dVertex
 10
-106.523262
 20
-20.285341
 30
0.0
  0
VERTEX
  5
20F
100
AcDbEntity
  8
0
390
0
 62
     7
100
AcDbVertex
100
AcDb2dVertex
 10
-106.492089
 20
-20.300198
 30
0.0
  0
VERTEX
  5
210
100
AcDbEntity
  8
0
390
0
 62
     7
100
AcDbVertex
100
AcDb2dVertex
 10
-106.4602
 20
-20.313462
 30
0.0
  0
VERTEX
  5
211
100
AcDbEntity
  8
0
390
0
 62
     7
100
AcDbVertex
100
AcDb2dVertex
 10
-106.427738
 20
-20.325124
 30
0.0
  0
VERTEX
  5
212
100
AcDbEntity
  8
0
390
0
 62
     7
100
AcDbVertex
100
AcDb2dVertex
 10
-106.393398
 20
-20.335588
 30
0.0
  0
VERTEX
  5
213
100
AcDbEntity
  8
0
390
0
 62
     7
100
AcDbVertex
100
AcDb2dVertex
 10
-106.35855
 20
-20.344382
 30
0.0
  0
VERTEX
  5
214
100
AcDbEntity
  8
0
390
0
 62
     7
100
AcDbVertex
100
AcDb2dVertex
 10
-106.323321
 20
-20.351515
 30
0.0
  0
VERTEX
  5
215
100
AcDbEntity
  8
0
390
0
 62
     7
100
AcDbVertex
100
AcDb2dVertex
 10
-106.287838
 20
-20.356994
 30
0.0
  0
VERTEX
  5
216
100
AcDbEntity
  8
0
390
0
 62
     7
100
AcDbVertex
100
AcDb2dVertex
 10
-106.247946
 20
-20.361186
 30
0.0
  0
VERTEX
  5
217
100
AcDbEntity
  8
0
390
0
 62
     7
100
AcDbVertex
100
AcDb2dVertex
 10
-106.207867
 20
-20.363356
 30
0.0
  0
VERTEX
  5
218
100
AcDbEntity
  8
0
390
0
 62
     7
100
AcDbVertex
100
AcDb2dVertex
 10
-106.167756
 20
-20.36351
 30
0.0
  0
VERTEX
  5
219
100
AcDbEntity
  8
0
390
0
 62
     7
100
AcDbVertex
100
AcDb2dVertex
 10
-106.126729
 20
-20.361579
 30
0.0
  0
VERTEX
  5
21A
100
AcDbEntity
  8
0
390
0
 62
     7
100
AcDbVertex
100
AcDb2dVertex
 10
-106.08583
 20
-20.357526
 30
0.0
  0
VERTEX
  5
21B
100
AcDbEntity
  8
0
390
0
 62
     7
100
AcDbVertex
100
AcDb2dVertex
 10
-106.045228
 20
-20.351344
 30
0.0
  0
VERTEX
  5
21C
100
AcDbEntity
  8
0
390
0
 62
     7
100
AcDbVertex
100
AcDb2dVertex
 10
-106.015665
 20
-20.345436
 30
0.0
  0
VERTEX
  5
21D
100
AcDbEntity
  8
0
390
0
 62
     7
100
AcDbVertex
100
AcDb2dVertex
 10
-105.986337
 20
-20.338353
 30
0.0
  0
VERTEX
  5
21E
100
AcDbEntity
  8
0
390
0
 62
     7
100
AcDbVertex
100
AcDb2dVertex
 10
-105.957321
 20
-20.330089
 30
0.0
  0
VERTEX
  5
21F
100
AcDbEntity
  8
0
390
0
 62
     7
100
AcDbVertex
100
AcDb2dVertex
 10
-105.928695
 20
-20.32064
 30
0.0
  0
VERTEX
  5
220
100
AcDbEntity
  8
0
390
0
 62
     7
100
AcDbVertex
100
AcDb2dVertex
 10
-105.899665
 20
-20.309647
 30
0.0
  0
VERTEX
  5
221
100
AcDbEntity
  8
0
390
0
 62
     7
100
AcDbVertex
100
AcDb2dVertex
 10
-105.871126
 20
-20.297354
 30
0.0
  0
VERTEX
  5
222
100
AcDbEntity
  8
0
390
0
 62
     7
100
AcDbVertex
100
AcDb2dVertex
 10
-105.843182
 20
-20.283769
 30
0.0
  0
VERTEX
  5
223
100
AcDbEntity
  8
0
390
0
 62
     7
100
AcDbVertex
100
AcDb2dVertex
 10
-105.815937
 20
-20.268901
 30
0.0
  0
SEQEND
  5
224
100
AcDbEntity
  8
0
390
0
  0
LINE
  5
225
100
AcDbEntity
  8
0
390
0
  6
Continuous
 62
     7
100
AcDbLine
 10
-104.566128
 20
-22.433634
 30
0.0
 11
-105.815937
 21
-20.268901
 31
0.0
  0
POLYLINE
  5
226
100
AcDbEntity
  8
0
390
0
  6
Continuous
 62
     7
100
AcDb2dPolyline
 66
     1
 10
0.0
 20
0.0
 30
0.0
 40
0.1
 41
0.1
  0
VERTEX
  5
227
100
AcDbEntity
  8
0
390
0
 62
     7
100
AcDbVertex
100
AcDb2dVertex
 10
-105.815937
 20
20.268901
 30
0.0
  0
VERTEX
  5
228
100
AcDbEntity
  8
0
390
0
 62
     7
100
AcDbVertex
100
AcDb2dVertex
 10
-105.846254
 20
20.285341
 30
0.0
  0
VERTEX
  5
229
100
AcDbEntity
  8
0
390
0
 62
     7
100
AcDbVertex
100
AcDb2dVertex
 10
-105.877427
 20
20.300198
 30
0.0
  0
VERTEX
  5
22A
100
AcDbEntity
  8
0
390
0
 62
     7
100
AcDbVertex
100
AcDb2dVertex
 10
-105.909315
 20
20.313462
 30
0.0
  0
VERTEX
  5
22B
100
AcDbEntity
  8
0
390
0
 62
     7
100
AcDbVertex
100
AcDb2dVertex
 10
-105.941778
 20
20.325124
 30
0.0
  0
VERTEX
  5
22C
100
AcDbEntity
  8
0
390
0
 62
     7
100
AcDbVertex
100
AcDb2dVertex
 10
-105.976118
 20
20.335588
 30
0.0
  0
VERTEX
  5
22D
100
AcDbEntity
  8
0
390
0
 62
     7
100
AcDbVertex
100
AcDb2dVertex
 10
-106.010966
 20
20.344382
 30
0.0
  0
VERTEX
  5
22E
100
AcDbEntity
  8
0
390
0
 62
     7
100
AcDbVertex
100
AcDb2dVertex
 10
-106.046195
 20
20.351515
 30
0.0
  0
VERTEX
  5
22F
100
AcDbEntity
  8
0
390
0
 62
     7
100
AcDbVertex
100
AcDb2dVertex
 10
-106.081678
 20
20.356994
 30
0.0
  0
VERTEX
  5
230
100
AcDbEntity
  8
0
390
0
 62
     7
100
AcDbVertex
100
AcDb2dVertex
 10
-106.121569
 20
20.361186
 30
0.0
  0
VERTEX
  5
231
100
AcDbEntity
  8
0
390
0
 62
     7
100
AcDbVertex
100
AcDb2dVertex
 10
-106.161648
 20
20.363356
 30
0.0
  0
VERTEX
  5
232
100
AcDbEntity
  8
0
390
0
 62
     7
100
AcDbVertex
100
AcDb2dVertex
 10
-106.20176
 20
20.36351
 30
0.0
  0
VERTEX
  5
233
100
AcDbEntity
  8
0
390
0
 62
     7
100
AcDbVertex
100
AcDb2dVertex
 10
-106.242786
 20
20.361579
 30
0.0
  0
VERTEX
  5
234
100
AcDbEntity
  8
0
390
0
 62
     7
100
AcDbVertex
100
AcDb2dVertex
 10
-106.283685
 20
20.357526
 30
0.0
  0
VERTEX
  5
235
100
AcDbEntity
  8
0
390
0
 62
     7
100
AcDbVertex
100
AcDb2dVertex
 10
-106.324287
 20
20.351344
 30
0.0
  0
VERTEX
  5
236
100
AcDbEntity
  8
0
390
0
 62
     7
100
AcDbVertex
100
AcDb2dVertex
 10
-106.35385
 20
20.345436
 30
0.0
  0
VERTEX
  5
237
100
AcDbEntity
  8
0
390
0
 62
     7
100
AcDbVertex
100
AcDb2dVertex
 10
-106.383179
 20
20.338353
 30
0.0
  0
VERTEX
  5
238
100
AcDbEntity
  8
0
390
0
 62
     7
100
AcDbVertex
100
AcDb2dVertex
 10
-106.412195
 20
20.330089
 30
0.0
  0
VERTEX
  5
239
100
AcDbEntity
  8
0
390
0
 62
     7
100
AcDbVertex
100
AcDb2dVertex
 10
-106.44082
 20
20.32064
 30
0.0
  0
VERTEX
  5
23A
100
AcDbEntity
  8
0
390
0
 62
     7
100
AcDbVertex
100
AcDb2dVertex
 10
-106.469851
 20
20.309647
 30
0.0
  0
VERTEX
  5
23B
100
AcDbEntity
  8
0
390
0
 62
     7
100
AcDbVertex
100
AcDb2dVertex
 10
-106.49839
 20
20.297354
 30
0.0
  0
VERTEX
  5
23C
100
AcDbEntity
  8
0
390
0
 62
     7
100
AcDbVertex
100
AcDb2dVertex
 10
-106.526334
 20
20.283769
 30
0.0
  0
VERTEX
  5
23D
100
AcDbEntity
  8
0
390
0
 62
     7
100
AcDbVertex
100
AcDb2dVertex
 10
-106.553578
 20
20.268901
 30
0.0
  0
SEQEND
  5
23E
100
AcDbEntity
  8
0
390
0
  0
LINE
  5
23F
100
AcDbEntity
  8
0
390
0
  6
Continuous
 62
     7
100
AcDbLine
 10
-106.553578
 20
20.268901
 30
0.0
 11
-107.803388
 21
22.433635
 31
0.0
  0
ARC
  5
240
100
AcDbEntity
  8
0
390
0
  6
Continuous
 62
     7
100
AcDbCircle
 10
-106.184758
 20
19.599797
 30
0.0
 40
3.263525
210
0.0
220
0.0
230
1.0
100
AcDbArc
 50
60.265875
 51
119.734125
  0
LINE
  5
241
100
AcDbEntity
  8
0
390
0
  6
Continuous
 62
     7
100
AcDbLine
 10
-105.815937
 20
20.268901
 30
0.0
 11
-104.566128
 21
22.433635
 31
0.0
  0
ARC
  5
242
100
AcDbEntity
  8
0
390
0
  6
Continuous
 62
     7
100
AcDbCircle
 10
-123.15743
 20
-9.799177
 30
0.0
 40
3.264779
210
0.0
220
0.0
230
1.0
100
AcDbArc
 50
180.278435
 51
239.721565
  0
LINE
  5
243
100
AcDbEntity
  8
0
390
0
  6
Continuous
 62
     7
100
AcDbLine
 10
-126.42217
 20
-9.815042
 30
0.0
 11
-123.922551
 21
-9.815042
 31
0.0
  0
POLYLINE
  5
244
100
AcDbEntity
  8
0
390
0
  6
Continuous
 62
     7
100
AcDb2dPolyline
 66
     1
 10
0.0
 20
0.0
 30
0.0
 40
0.1
 41
0.1
  0
VERTEX
  5
245
100
AcDbEntity
  8
0
390
0
 62
     7
100
AcDbVertex
100
AcDb2dVertex
 10
-123.922551
 20
-9.815042
 30
0.0
  0
VERTEX
  5
246
100
AcDbEntity
  8
0
390
0
 62
     7
100
AcDbVertex
100
AcDb2dVertex
 10
-123.921847
 20
-9.845198
 30
0.0
  0
VERTEX
  5
247
100
AcDbEntity
  8
0
390
0
 62
     7
100
AcDbVertex
100
AcDb2dVertex
 10
-123.919761
 20
-9.87532
 30
0.0
  0
VERTEX
  5
248
100
AcDbEntity
  8
0
390
0
 62
     7
100
AcDbVertex
100
AcDb2dVertex
 10
-123.916336
 20
-9.905322
 30
0.0
  0
VERTEX
  5
249
100
AcDbEntity
  8
0
390
0
 62
     7
100
AcDbVertex
100
AcDb2dVertex
 10
-123.911611
 20
-9.935118
 30
0.0
  0
VERTEX
  5
24A
100
AcDbEntity
  8
0
390
0
 62
     7
100
AcDbVertex
100
AcDb2dVertex
 10
-123.905412
 20
-9.965608
 30
0.0
  0
VERTEX
  5
24B
100
AcDbEntity
  8
0
390
0
 62
     7
100
AcDbVertex
100
AcDb2dVertex
 10
-123.897908
 20
-9.995831
 30
0.0
  0
VERTEX
  5
24C
100
AcDbEntity
  8
0
390
0
 62
     7
100
AcDbVertex
100
AcDb2dVertex
 10
-123.889146
 20
-10.025717
 30
0.0
  0
VERTEX
  5
24D
100
AcDbEntity
  8
0
390
0
 62
     7
100
AcDbVertex
100
AcDb2dVertex
 10
-123.879174
 20
-10.055193
 30
0.0
  0
VERTEX
  5
24E
100
AcDbEntity
  8
0
390
0
 62
     7
100
AcDbVertex
100
AcDb2dVertex
 10
-123.864559
 20
-10.092608
 30
0.0
  0
VERTEX
  5
24F
100
AcDbEntity
  8
0
390
0
 62
     7
100
AcDbVertex
100
AcDb2dVertex
 10
-123.848036
 20
-10.129251
 30
0.0
  0
VERTEX
  5
250
100
AcDbEntity
  8
0
390
0
 62
     7
100
AcDbVertex
100
AcDb2dVertex
 10
-123.829693
 20
-10.164989
 30
0.0
  0
VERTEX
  5
251
100
AcDbEntity
  8
0
390
0
 62
     7
100
AcDbVertex
100
AcDb2dVertex
 10
-123.809068
 20
-10.200584
 30
0.0
  0
VERTEX
  5
252
100
AcDbEntity
  8
0
390
0
 62
     7
100
AcDbVertex
100
AcDb2dVertex
 10
-123.786622
 20
-10.235091
 30
0.0
  0
VERTEX
  5
253
100
AcDbEntity
  8
0
390
0
 62
     7
100
AcDbVertex
100
AcDb2dVertex
 10
-123.762433
 20
-10.268365
 30
0.0
  0
VERTEX
  5
254
100
AcDbEntity
  8
0
390
0
 62
     7
100
AcDbVertex
100
AcDb2dVertex
 10
-123.740859
 20
-10.295218
 30
0.0
  0
VERTEX
  5
255
100
AcDbEntity
  8
0
390
0
 62
     7
100
AcDbVertex
100
AcDb2dVertex
 10
-123.718084
 20
-10.321107
 30
0.0
  0
VERTEX
  5
256
100
AcDbEntity
  8
0
390
0
 62
     7
100
AcDbVertex
100
AcDb2dVertex
 10
-123.694159
 20
-10.345933
 30
0.0
  0
VERTEX
  5
257
100
AcDbEntity
  8
0
390
0
 62
     7
100
AcDbVertex
100
AcDb2dVertex
 10
-123.669132
 20
-10.369595
 30
0.0
  0
VERTEX
  5
258
100
AcDbEntity
  8
0
390
0
 62
     7
100
AcDbVertex
100
AcDb2dVertex
 10
-123.647506
 20
-10.388319
 30
0.0
  0
VERTEX
  5
259
100
AcDbEntity
  8
0
390
0
 62
     7
100
AcDbVertex
100
AcDb2dVertex
 10
-123.625108
 20
-10.406175
 30
0.0
  0
VERTEX
  5
25A
100
AcDbEntity
  8
0
390
0
 62
     7
100
AcDbVertex
100
AcDb2dVertex
 10
-123.601983
 20
-10.423095
 30
0.0
  0
VERTEX
  5
25B
100
AcDbEntity
  8
0
390
0
 62
     7
100
AcDbVertex
100
AcDb2dVertex
 10
-123.578176
 20
-10.439012
 30
0.0
  0
VERTEX
  5
25C
100
AcDbEntity
  8
0
390
0
 62
     7
100
AcDbVertex
100
AcDb2dVertex
 10
-123.55373
 20
-10.453858
 30
0.0
  0
SEQEND
  5
25D
100
AcDbEntity
  8
0
390
0
  0
LINE
  5
25E
100
AcDbEntity
  8
0
390
0
  6
Continuous
 62
     7
100
AcDbLine
 10
-124.80354
 20
-12.618592
 30
0.0
 11
-123.55373
 21
-10.453858
 31
0.0
  0
POLYLINE
  5
25F
100
AcDbEntity
  8
0
390
0
  6
Continuous
 62
     7
100
AcDb2dPolyline
 66
     1
 10
0.0
 20
0.0
 30
0.0
 40
0.1
 41
0.1
  0
VERTEX
  5
260
100
AcDbEntity
  8
0
390
0
 62
     7
100
AcDbVertex
100
AcDb2dVertex
 10
-123.55373
 20
10.453858
 30
0.0
  0
VERTEX
  5
261
100
AcDbEntity
  8
0
390
0
 62
     7
100
AcDbVertex
100
AcDb2dVertex
 10
-123.583126
 20
10.435824
 30
0.0
  0
VERTEX
  5
262
100
AcDbEntity
  8
0
390
0
 62
     7
100
AcDbVertex
100
AcDb2dVertex
 10
-123.611579
 20
10.416255
 30
0.0
  0
VERTEX
  5
263
100
AcDbEntity
  8
0
390
0
 62
     7
100
AcDbVertex
100
AcDb2dVertex
 10
-123.639011
 20
10.395271
 30
0.0
  0
VERTEX
  5
264
100
AcDbEntity
  8
0
390
0
 62
     7
100
AcDbVertex
100
AcDb2dVertex
 10
-123.665341
 20
10.372989
 30
0.0
  0
VERTEX
  5
265
100
AcDbEntity
  8
0
390
0
 62
     7
100
AcDbVertex
100
AcDb2dVertex
 10
-123.691574
 20
10.348482
 30
0.0
  0
VERTEX
  5
266
100
AcDbEntity
  8
0
390
0
 62
     7
100
AcDbVertex
100
AcDb2dVertex
 10
-123.716614
 20
10.322699
 30
0.0
  0
VERTEX
  5
267
100
AcDbEntity
  8
0
390
0
 62
     7
100
AcDbVertex
100
AcDb2dVertex
 10
-123.740405
 20
10.295757
 30
0.0
  0
VERTEX
  5
268
100
AcDbEntity
  8
0
390
0
 62
     7
100
AcDbVertex
100
AcDb2dVertex
 10
-123.762892
 20
10.267767
 30
0.0
  0
VERTEX
  5
269
100
AcDbEntity
  8
0
390
0
 62
     7
100
AcDbVertex
100
AcDb2dVertex
 10
-123.786468
 20
10.235315
 30
0.0
  0
VERTEX
  5
26A
100
AcDbEntity
  8
0
390
0
 62
     7
100
AcDbVertex
100
AcDb2dVertex
 10
-123.808386
 20
10.201692
 30
0.0
  0
VERTEX
  5
26B
100
AcDbEntity
  8
0
390
0
 62
     7
100
AcDbVertex
100
AcDb2dVertex
 10
-123.828576
 20
10.167031
 30
0.0
  0
VERTEX
  5
26C
100
AcDbEntity
  8
0
390
0
 62
     7
100
AcDbVertex
100
AcDb2dVertex
 10
-123.847416
 20
10.130535
 30
0.0
  0
VERTEX
  5
26D
100
AcDbEntity
  8
0
390
0
 62
     7
100
AcDbVertex
100
AcDb2dVertex
 10
-123.864356
 20
10.093089
 30
0.0
  0
VERTEX
  5
26E
100
AcDbEntity
  8
0
390
0
 62
     7
100
AcDbVertex
100
AcDb2dVertex
 10
-123.879303
 20
10.054836
 30
0.0
  0
VERTEX
  5
26F
100
AcDbEntity
  8
0
390
0
 62
     7
100
AcDbVertex
100
AcDb2dVertex
 10
-123.888968
 20
10.02628
 30
0.0
  0
VERTEX
  5
270
100
AcDbEntity
  8
0
390
0
 62
     7
100
AcDbVertex
100
AcDb2dVertex
 10
-123.897498
 20
9.997339
 30
0.0
  0
VERTEX
  5
271
100
AcDbEntity
  8
0
390
0
 62
     7
100
AcDbVertex
100
AcDb2dVertex
 10
-123.90485
 20
9.968078
 30
0.0
  0
VERTEX
  5
272
100
AcDbEntity
  8
0
390
0
 62
     7
100
AcDbVertex
100
AcDb2dVertex
 10
-123.910979
 20
9.938563
 30
0.0
  0
VERTEX
  5
273
100
AcDbEntity
  8
0
390
0
 62
     7
100
AcDbVertex
100
AcDb2dVertex
 10
-123.915975
 20
9.907926
 30
0.0
  0
VERTEX
  5
274
100
AcDbEntity
  8
0
390
0
 62
     7
100
AcDbVertex
100
AcDb2dVertex
 10
-123.919598
 20
9.877064
 30
0.0
  0
VERTEX
  5
275
100
AcDbEntity
  8
0
390
0
 62
     7
100
AcDbVertex
100
AcDb2dVertex
 10
-123.921805
 20
9.846071
 30
0.0
  0
VERTEX
  5
276
100
AcDbEntity
  8
0
390
0
 62
     7
100
AcDbVertex
100
AcDb2dVertex
 10
-123.922551
 20
9.815043
 30
0.0
  0
SEQEND
  5
277
100
AcDbEntity
  8
0
390
0
  0
LINE
  5
278
100
AcDbEntity
  8
0
390
0
  6
Continuous
 62
     7
100
AcDbLine
 10
-123.922551
 20
9.815043
 30
0.0
 11
-126.42217
 21
9.815043
 31
0.0
  0
ARC
  5
279
100
AcDbEntity
  8
0
390
0
  6
Continuous
 62
     7
100
AcDbCircle
 10
-123.15743
 20
9.799177
 30
0.0
 40
3.264779
210
0.0
220
0.0
230
1.0
100
AcDbArc
 50
120.278435
 51
179.721565
  0
LINE
  5
27A
100
AcDbEntity
  8
0
390
0
  6
Continuous
 62
     7
100
AcDbLine
 10
-123.55373
 20
10.453858
 30
0.0
 11
-124.80354
 21
12.618592
 31
0.0
  0
LINE
  5
27B
100
AcDbEntity
  8
0
390
0
  6
Continuous
 62
     7
100
AcDbLine
 10
-106.553578
 20
20.268901
 30
0.0
 11
-123.55373
 21
10.453858
 31
0.0
  0
LINE
  5
27C
100
AcDbEntity
  8
0
390
0
  6
Continuous
 62
     7
100
AcDbLine
 10
-88.815785
 20
10.453858
 30
0.0
 11
-105.815937
 21
20.268901
 31
0.0
  0
LINE
  5
27D
100
AcDbEntity
  8
0
390
0
  6
Continuous
 62
     7
100
AcDbLine
 10
-88.446964
 20
-9.815042
 30
0.0
 11
-88.446964
 21
9.815043
 31
0.0
  0
LINE
  5
27E
100
AcDbEntity
  8
0
390
0
  6
Continuous
 62
     7
100
AcDbLine
 10
-105.815937
 20
-20.268901
 30
0.0
 11
-88.815785
 21
-10.453858
 31
0.0
  0
LINE
  5
27F
100
AcDbEntity
  8
0
390
0
  6
Continuous
 62
     7
100
AcDbLine
 10
-123.55373
 20
-10.453858
 30
0.0
 11
-106.553578
 21
-20.268901
 31
0.0
  0
LINE
  5
280
100
AcDbEntity
  8
0
390
0
  6
Continuous
 62
     7
100
AcDbLine
 10
-123.922551
 20
9.815043
 30
0.0
 11
-123.922551
 21
-9.815042
 31
0.0
  0
LINE
  5
281
100
AcDbEntity
  8
0
390
0
  6
Continuous
 62
     7
100
AcDbLine
 10
-107.803388
 20
-22.433634
 30
0.0
 11
-124.80354
 21
-12.618592
 31
0.0
  0
LINE
  5
282
100
AcDbEntity
  8
0
390
0
  6
Continuous
 62
     7
100
AcDbLine
 10
-87.565975
 20
-12.618592
 30
0.0
 11
-104.566128
 21
-22.433634
 31
0.0
  0
LINE
  5
283
100
AcDbEntity
  8
0
390
0
  6
Continuous
 62
     7
100
AcDbLine
 10
-126.42217
 20
-9.815042
 30
0.0
 11
-126.42217
 21
9.815043
 31
0.0
  0
LINE
  5
284
100
AcDbEntity
  8
0
390
0
  6
Continuous
 62
     7
100
AcDbLine
 10
-124.80354
 20
12.618592
 30
0.0
 11
-107.803388
 21
22.433635
 31
0.0
  0
LINE
  5
285
100
AcDbEntity
  8
0
390
0
  6
Continuous
 62
     7
100
AcDbLine
 10
-85.947345
 20
9.815043
 30
0.0
 11
-85.947345
 21
-9.815042
 31
0.0
  0
LINE
  5
286
100
AcDbEntity
  8
0
390
0
  6
Continuous
 62
     7
100
AcDbLine
 10
-104.566128
 20
22.433635
 30
0.0
 11
-87.565975
 21
12.618592
 31
0.0
  0
LINE
  5
287
100
AcDbEntity
  8
0
390
0
  6
Continuous
 62
     7
100
AcDbLine
 10
-126.42217
 20
9.815043
 30
0.0
 11
-126.609346
 21
9.815043
 31
0.0
  0
LINE
  5
288
100
AcDbEntity
  8
0
390
0
  6
Continuous
 62
     7
100
AcDbLine
 10
-126.590382
 20
10.19266
 30
0.0
 11
-126.609346
 21
9.815043
 31
0.0
  0
LINE
  5
289
100
AcDbEntity
  8
0
390
0
  6
Continuous
 62
     7
100
AcDbLine
 10
-126.554699
 20
10.43793
 30
0.0
 11
-126.590382
 21
10.19266
 31
0.0
  0
ARC
  5
28A
100
AcDbEntity
  8
0
390
0
  6
Continuous
 62
     7
100
AcDbCircle
 10
-123.173424
 20
9.808411
 30
0.0
 40
3.439377
210
0.0
220
0.0
230
1.0
100
AcDbArc
 50
130.546461
 51
169.453539
  0
LINE
  5
28B
100
AcDbEntity
  8
0
390
0
  6
Continuous
 62
     7
100
AcDbLine
 10
-125.214673
 20
12.575459
 30
0.0
 11
-125.409241
 21
12.421922
 31
0.0
  0
LINE
  5
28C
100
AcDbEntity
  8
0
390
0
  6
Continuous
 62
     7
100
AcDbLine
 10
-124.897128
 20
12.780691
 30
0.0
 11
-125.214673
 21
12.575459
 31
0.0
  0
LINE
  5
28D
100
AcDbEntity
  8
0
390
0
  6
Continuous
 62
     7
100
AcDbLine
 10
-124.80354
 20
12.618592
 30
0.0
 11
-124.897128
 21
12.780691
 31
0.0
  0
LINE
  5
28E
100
AcDbEntity
  8
0
390
0
  6
Continuous
 62
     7
100
AcDbLine
 10
-104.566128
 20
-22.433634
 30
0.0
 11
-104.47254
 21
-22.595733
 31
0.0
  0
LINE
  5
28F
100
AcDbEntity
  8
0
390
0
  6
Continuous
 62
     7
100
AcDbLine
 10
-104.809048
 20
-22.768119
 30
0.0
 11
-104.47254
 21
-22.595733
 31
0.0
  0
LINE
  5
290
100
AcDbEntity
  8
0
390
0
  6
Continuous
 62
     7
100
AcDbLine
 10
-105.039299
 20
-22.859852
 30
0.0
 11
-104.809048
 21
-22.768119
 31
0.0
  0
ARC
  5
291
100
AcDbEntity
  8
0
390
0
  6
Continuous
 62
     7
100
AcDbCircle
 10
-106.184758
 20
-19.616822
 30
0.0
 40
3.439377
210
0.0
220
0.0
230
1.0
100
AcDbArc
 50
250.546461
 51
289.453539
  0
LINE
  5
292
100
AcDbEntity
  8
0
390
0
  6
Continuous
 62
     7
100
AcDbLine
 10
-107.560467
 20
-22.768119
 30
0.0
 11
-107.330216
 21
-22.859852
 31
0.0
  0
LINE
  5
293
100
AcDbEntity
  8
0
390
0
  6
Continuous
 62
     7
100
AcDbLine
 10
-107.896976
 20
-22.595733
 30
0.0
 11
-107.560467
 21
-22.768119
 31
0.0
  0
LINE
  5
294
100
AcDbEntity
  8
0
390
0
  6
Continuous
 62
     7
100
AcDbLine
 10
-107.803388
 20
-22.433634
 30
0.0
 11
-107.896976
 21
-22.595733
 31
0.0
  0
LINE
  5
295
100
AcDbEntity
  8
0
390
0
  6
Continuous
 62
     7
100
AcDbLine
 10
-107.803388
 20
22.433635
 30
0.0
 11
-107.896976
 21
22.595733
 31
0.0
  0
LINE
  5
296
100
AcDbEntity
  8
0
390
0
  6
Continuous
 62
     7
100
AcDbLine
 10
-107.560467
 20
22.768119
 30
0.0
 11
-107.896976
 21
22.595733
 31
0.0
  0
LINE
  5
297
100
AcDbEntity
  8
0
390
0
  6
Continuous
 62
     7
100
AcDbLine
 10
-107.330216
 20
22.859852
 30
0.0
 11
-107.560467
 21
22.768119
 31
0.0
  0
ARC
  5
298
100
AcDbEntity
  8
0
390
0
  6
Continuous
 62
     7
100
AcDbCircle
 10
-106.184758
 20
19.617043
 30
0.0
 40
3.439169
210
0.0
220
0.0
230
0.9999999999999999
100
AcDbArc
 50
70.545234
 51
109.454766
  0
LINE
  5
299
100
AcDbEntity
  8
0
390
0
  6
Continuous
 62
     7
100
AcDbLine
 10
-104.809048
 20
22.768119
 30
0.0
 11
-105.039299
 21
22.859852
 31
0.0
  0
LINE
  5
29A
100
AcDbEntity
  8
0
390
0
  6
Continuous
 62
     7
100
AcDbLine
 10
-104.47254
 20
22.595733
 30
0.0
 11
-104.809048
 21
22.768119
 31
0.0
  0
LINE
  5
29B
100
AcDbEntity
  8
0
390
0
  6
Continuous
 62
     7
100
AcDbLine
 10
-104.566128
 20
22.433635
 30
0.0
 11
-104.47254
 21
22.595733
 31
0.0
  0
ARC
  5
29C
100
AcDbEntity
  8
0
390
0
  6
Continuous
 62
     7
100
AcDbCircle
 10
-123.173424
 20
-9.808411
 30
0.0
 40
3.439377
210
0.0
220
0.0
230
1.0
100
AcDbArc
 50
190.546461
 51
229.453539
  0
LINE
  5
29D
100
AcDbEntity
  8
0
390
0
  6
Continuous
 62
     7
100
AcDbLine
 10
-126.590382
 20
-10.19266
 30
0.0
 11
-126.554699
 21
-10.43793
 31
0.0
  0
LINE
  5
29E
100
AcDbEntity
  8
0
390
0
  6
Continuous
 62
     7
100
AcDbLine
 10
-126.609346
 20
-9.815042
 30
0.0
 11
-126.590382
 21
-10.19266
 31
0.0
  0
LINE
  5
29F
100
AcDbEntity
  8
0
390
0
  6
Continuous
 62
     7
100
AcDbLine
 10
-126.42217
 20
-9.815042
 30
0.0
 11
-126.609346
 21
-9.815042
 31
0.0
  0
LINE
  5
2A0
100
AcDbEntity
  8
0
390
0
  6
Continuous
 62
     7
100
AcDbLine
 10
-124.80354
 20
-12.618592
 30
0.0
 11
-124.897128
 21
-12.780691
 31
0.0
  0
LINE
  5
2A1
100
AcDbEntity
  8
0
390
0
  6
Continuous
 62
     7
100
AcDbLine
 10
-125.214673
 20
-12.575459
 30
0.0
 11
-124.897128
 21
-12.780691
 31
0.0
  0
LINE
  5
2A2
100
AcDbEntity
  8
0
390
0
  6
Continuous
 62
     7
100
AcDbLine
 10
-125.409241
 20
-12.421922
 30
0.0
 11
-125.214673
 21
-12.575459
 31
0.0
  0
LINE
  5
2A3
100
AcDbEntity
  8
0
390
0
  6
Continuous
 62
     7
100
AcDbLine
 10
-87.565975
 20
12.618592
 30
0.0
 11
-87.472387
 21
12.780691
 31
0.0
  0
LINE
  5
2A4
100
AcDbEntity
  8
0
390
0
  6
Continuous
 62
     7
100
AcDbLine
 10
-87.154843
 20
12.575459
 30
0.0
 11
-87.472387
 21
12.780691
 31
0.0
  0
LINE
  5
2A5
100
AcDbEntity
  8
0
390
0
  6
Continuous
 62
     7
100
AcDbLine
 10
-86.960274
 20
12.421922
 30
0.0
 11
-87.154843
 21
12.575459
 31
0.0
  0
ARC
  5
2A6
100
AcDbEntity
  8
0
390
0
  6
Continuous
 62
     7
100
AcDbCircle
 10
-89.196091
 20
9.808411
 30
0.0
 40
3.439377
210
0.0
220
0.0
230
1.0
100
AcDbArc
 50
10.546461
 51
49.453539
  0
LINE
  5
2A7
100
AcDbEntity
  8
0
390
0
  6
Continuous
 62
     7
100
AcDbLine
 10
-85.779133
 20
10.19266
 30
0.0
 11
-85.814816
 21
10.43793
 31
0.0
  0
LINE
  5
2A8
100
AcDbEntity
  8
0
390
0
  6
Continuous
 62
     7
100
AcDbLine
 10
-85.760169
 20
9.815043
 30
0.0
 11
-85.779133
 21
10.19266
 31
0.0
  0
LINE
  5
2A9
100
AcDbEntity
  8
0
390
0
  6
Continuous
 62
     7
100
AcDbLine
 10
-85.947345
 20
9.815043
 30
0.0
 11
-85.760169
 21
9.815043
 31
0.0
  0
LINE
  5
2AA
100
AcDbEntity
  8
0
390
0
  6
Continuous
 62
     7
100
AcDbLine
 10
-85.947345
 20
-9.815042
 30
0.0
 11
-85.760169
 21
-9.815042
 31
0.0
  0
LINE
  5
2AB
100
AcDbEntity
  8
0
390
0
  6
Continuous
 62
     7
100
AcDbLine
 10
-85.779133
 20
-10.19266
 30
0.0
 11
-85.760169
 21
-9.815042
 31
0.0
  0
LINE
  5
2AC
100
AcDbEntity
  8
0
390
0
  6
Continuous
 62
     7
100
AcDbLine
 10
-85.814816
 20
-10.43793
 30
0.0
 11
-85.779133
 21
-10.19266
 31
0.0
  0
ARC
  5
2AD
100
AcDbEntity
  8
0
390
0
  6
Continuous
 62
     7
100
AcDbCircle
 10
-89.196091
 20
-9.808411
 30
0.0
 40
3.439377
210
0.0
220
0.0
230
1.0
100
AcDbArc
 50
310.546461
 51
349.453539
  0
LINE
  5
2AE
100
AcDbEntity
  8
0
390
0
  6
Continuous
 62
     7
100
AcDbLine
 10
-87.154843
 20
-12.575459
 30
0.0
 11
-86.960274
 21
-12.421922
 31
0.0
  0
LINE
  5
2AF
100
AcDbEntity
  8
0
390
0
  6
Continuous
 62
     7
100
AcDbLine
 10
-87.472387
 20
-12.780691
 30
0.0
 11
-87.154843
 21
-12.575459
 31
0.0
  0
LINE
  5
2B0
100
AcDbEntity
  8
0
390
0
  6
Continuous
 62
     7
100
AcDbLine
 10
-87.565975
 20
-12.618592
 30
0.0
 11
-87.472387
 21
-12.780691
 31
0.0
  0
LINE
  5
2B1
100
AcDbEntity
  8
0
390
0
  6
Continuous
 62
     7
100
AcDbLine
 10
-124.897128
 20
-12.780691
 30
0.0
 11
-107.896976
 21
-22.595733
 31
0.0
  0
LINE
  5
2B2
100
AcDbEntity
  8
0
390
0
  6
Continuous
 62
     7
100
AcDbLine
 10
-126.609346
 20
9.815043
 30
0.0
 11
-126.609346
 21
-9.815042
 31
0.0
  0
LINE
  5
2B3
100
AcDbEntity
  8
0
390
0
  6
Continuous
 62
     7
100
AcDbLine
 10
-104.47254
 20
-22.595733
 30
0.0
 11
-87.472387
 21
-12.780691
 31
0.0
  0
LINE
  5
2B4
100
AcDbEntity
  8
0
390
0
  6
Continuous
 62
     7
100
AcDbLine
 10
-107.896976
 20
22.595733
 30
0.0
 11
-124.897128
 21
12.780691
 31
0.0
  0
LINE
  5
2B5
100
AcDbEntity
  8
0
390
0
  6
Continuous
 62
     7
100
AcDbLine
 10
-85.760169
 20
-9.815042
 30
0.0
 11
-85.760169
 21
9.815043
 31
0.0
  0
LINE
  5
2B6
100
AcDbEntity
  8
0
390
0
  6
Continuous
 62
     7
100
AcDbLine
 10
-87.472387
 20
12.780691
 30
0.0
 11
-104.47254
 21
22.595733
 31
0.0
  0
ARC
  5
2B7
100
AcDbEntity
  8
0
390
0
  6
Continuous
 62
     7
100
AcDbCircle
 10
-132.212439
 20
0.0
 30
0.0
 40
48.732558
210
0.0
220
0.0
230
0.9999999999999999
100
AcDbArc
 50
348.956685
 51
11.043315
  0
ELLIPSE
  5
2B8
100
AcDbEntity
  8
0
390
0
  6
Continuous
 62
     7
100
AcDbEllipse
 10
-83.26055
 20
-9.815042
 30
0.0
 11
-2.4999812135503841
 21
-0.0096918468459883
 31
0.0
210
0.0
220
0.0
230
0.9999999999999999
 40
0.216815
 41
5.1768526657413512
 42
6.2653066866439762
  0
ELLIPSE
  5
2B9
100
AcDbEntity
  8
0
390
0
  6
Continuous
 62
     7
100
AcDbEllipse
 10
-83.26055
 20
9.815043
 30
0.0
 11
-2.4999812135503841
 21
0.0096918468440732
 31
0.0
210
0.0
220
0.0
230
1.0
 40
0.216815
 41
0.0178786212927784
 42
1.1063326414580315
  0
ARC
  5
2BA
100
AcDbEntity
  8
0
390
0
  6
Continuous
 62
     7
100
AcDbCircle
 10
-119.198598
 20
-22.540633
 30
0.0
 40
48.732558
210
0.0
220
0.0
230
1.0
100
AcDbArc
 50
48.956685
 51
71.043315
  0
ELLIPSE
  5
2BB
100
AcDbEntity
  8
0
390
0
  6
Continuous
 62
     7
100
AcDbEllipse
 10
-86.222578
 20
14.945425
 30
0.0
 11
-1.2415972211969328
 21
-2.1698931633414853
 31
0.0
210
0.0
220
0.0
230
0.9999999999999999
 40
0.216815
 41
5.1768526657426452
 42
6.2653066866425107
  0
ELLIPSE
  5
2BC
100
AcDbEntity
  8
0
390
0
  6
Continuous
 62
     7
100
AcDbEllipse
 10
-103.22273
 20
24.760467
 30
0.0
 11
-1.2583839923517859
 21
-2.1602013164963854
 31
0.0
210
0.0
220
0.0
230
1.0
 40
0.216815
 41
0.017878621294342
 42
1.1063326414565711
  0
ELLIPSE
  5
2BD
100
AcDbEntity
  8
0
390
0
  6
Continuous
 62
     7
100
AcDbEllipse
 10
-109.146785
 20
-24.760467
 30
0.0
 11
-1.2583839927249041
 21
-2.1602013162790588
 31
0.0
210
0.0
220
0.0
230
1.0
 40
0.216815
 41
3.1594712749215264
 42
4.2479252950841717
  0
ARC
  5
2BE
100
AcDbEntity
  8
0
390
0
  6
Continuous
 62
     7
100
AcDbCircle
 10
-93.152661
 20
22.572253
 30
0.0
 40
48.768393
210
0.0
220
0.0
230
1.0
100
AcDbArc
 50
228.964902
 51
251.035098
  0
ELLIPSE
  5
2BF
100
AcDbEntity
  8
0
390
0
  6
Continuous
 62
     7
100
AcDbEllipse
 10
-126.146937
 20
-14.945425
 30
0.0
 11
-1.2415972288624122
 21
-2.1698931589553547
 31
0.0
210
0.0
220
0.0
230
1.0
 40
0.216815
 41
2.0352600128991929
 42
3.1237140337577149
  0
ELLIPSE
  5
2C0
100
AcDbEntity
  8
0
390
0
  6
Continuous
 62
     7
100
AcDbEllipse
 10
-126.146937
 20
14.945425
 30
0.0
 11
-1.2415972208229542
 21
2.1698931635554808
 31
0.0
210
0.0
220
0.0
230
1.0
 40
0.216815
 41
3.159471274923332
 42
4.2479252950843147
  0
ARC
  5
2C1
100
AcDbEntity
  8
0
390
0
  6
Continuous
 62
     7
100
AcDbCircle
 10
-93.152661
 20
-22.572253
 30
0.0
 40
48.768393
210
0.0
220
0.0
230
1.0
100
AcDbArc
 50
108.964902
 51
131.035098
  0
ELLIPSE
  5
2C2
100
AcDbEntity
  8
0
390
0
  6
Continuous
 62
     7
100
AcDbEllipse
 10
-109.146785
 20
24.760467
 30
0.0
 11
-1.2583839847496447
 21
2.1602013209248705
 31
0.0
210
0.0
220
0.0
230
1.0
 40
0.216815
 41
2.0352600128949998
 42
3.1237140337560838
  0
ARC
  5
2C3
100
AcDbEntity
  8
0
390
0
  6
Continuous
 62
     7
100
AcDbCircle
 10
-119.198598
 20
22.540633
 30
0.0
 40
48.732558
210
0.0
220
0.0
230
1.0
100
AcDbArc
 50
288.956685
 51
311.043315
  0
ELLIPSE
  5
2C4
100
AcDbEntity
  8
0
390
0
  6
Continuous
 62
     7
100
AcDbEllipse
 10
-103.22273
 20
-24.760467
 30
0.0
 11
-1.2583839923534512
 21
2.1602013164954692
 31
0.0
210
0.0
220
0.0
230
1.0
 40
0.216815
 41
5.1768526657426319
 42
6.2653066866424965
  0
ELLIPSE
  5
2C5
100
AcDbEntity
  8
0
390
0
  6
Continuous
 62
     7
100
AcDbEllipse
 10
-86.222578
 20
-14.945425
 30
0.0
 11
-1.2415972211983206
 21
2.1698931633407081
 31
0.0
210
0.0
220
0.0
230
0.9999999999999999
 40
0.216815
 41
0.0178786212961665
 42
1.1063326414569916
  0
ELLIPSE
  5
2C6
100
AcDbEntity
  8
0
390
0
  6
Continuous
 62
     7
100
AcDbEllipse
 10
-129.108965
 20
-9.815042
 30
0.0
 11
-2.4999812135486907
 21
0.0096918472771157
 31
0.0
210
0.0
220
0.0
230
1.0
 40
0.216815
 41
3.1594712749236282
 42
4.247925295083955
  0
ARC
  5
2C7
100
AcDbEntity
  8
0
390
0
  6
Continuous
 62
     7
100
AcDbCircle
 10
-80.120565
 20
0.0
 30
0.0
 40
48.768393
210
0.0
220
0.0
230
0.9999999999999999
100
AcDbArc
 50
168.964902
 51
191.035098
  0
ELLIPSE
  5
2C8
100
AcDbEntity
  8
0
390
0
  6
Continuous
 62
     7
100
AcDbEllipse
 10
-129.108965
 20
9.815043
 30
0.0
 11
-2.4999812135845234
 21
-0.0096918380357025
 31
0.0
210
0.0
220
0.0
230
1.0
 40
0.216815
 41
2.0352600128974028
 42
3.1237140337560714
  0
LINE
  5
2C9
100
AcDbEntity
  8
0
390
0
  6
Continuous
 62
     7
100
AcDbLine
 10
-84.382279
 20
-9.334772
 30
0.0
 11
-84.51193
 21
-9.917921
 31
0.0
  0
ELLIPSE
  5
2CA
100
AcDbEntity
  8
0
390
0
  6
Continuous
 62
     7
100
AcDbEllipse
 10
-83.295465
 20
-10.4746
 30
0.0
 11
-2.4850106644331293
 21
0.2733532470149402
 31
0.0
210
0.0
220
0.0
230
1.0
 40
0.195197
 41
5.2452686200704157
 42
6.2653923979080419
  0
LINE
  5
2CB
100
AcDbEntity
  8
0
390
0
  6
Continuous
 62
     7
100
AcDbLine
 10
-109.001847
 20
23.548887
 30
0.0
 11
-108.431999
 21
23.72818
 31
0.0
  0
ELLIPSE
  5
2CC
100
AcDbEntity
  8
0
390
0
  6
Continuous
 62
     7
100
AcDbEllipse
 10
-108.558134
 20
25.060009
 30
0.0
 11
-1.0057744760985643
 21
2.2887589875800751
 31
0.0
210
0.0
220
0.0
230
1.0
 40
0.195197
 41
2.1036759664807589
 42
3.1237997443182151
  0
LINE
  5
2CD
100
AcDbEntity
  8
0
390
0
  6
Continuous
 62
     7
100
AcDbLine
 10
-87.199368
 20
14.214114
 30
0.0
 11
-86.759172
 21
13.810258
 31
0.0
  0
ELLIPSE
  5
2CE
100
AcDbEntity
  8
0
390
0
  6
Continuous
 62
     7
100
AcDbEllipse
 10
-85.668841
 20
14.585409
 30
0.0
 11
-1.4792361883360916
 21
-2.0154057405686041
 31
0.0
210
0.0
220
0.0
230
0.9999999999999999
 40
0.195197
 41
5.2452686200704086
 42
6.2653923979080526
  0
LINE
  5
2CF
100
AcDbEntity
  8
0
390
0
  6
Continuous
 62
     7
100
AcDbLine
 10
-103.367668
 20
-23.548886
 30
0.0
 11
-103.937516
 21
-23.72818
 31
0.0
  0
ELLIPSE
  5
2D0
100
AcDbEntity
  8
0
390
0
  6
Continuous
 62
     7
100
AcDbEllipse
 10
-103.811381
 20
-25.060009
 30
0.0
 11
-1.0057744760987031
 21
2.2887589875800476
 31
0.0
210
0.0
220
0.0
230
1.0
 40
0.195197
 41
5.2452686200705569
 42
6.2653923979080419
  0
LINE
  5
2D1
100
AcDbEntity
  8
0
390
0
  6
Continuous
 62
     7
100
AcDbLine
 10
-127.987236
 20
9.334772
 30
0.0
 11
-127.857585
 21
9.917922
 31
0.0
  0
ELLIPSE
  5
2D2
100
AcDbEntity
  8
0
390
0
  6
Continuous
 62
     7
100
AcDbEllipse
 10
-129.07405
 20
10.4746
 30
0.0
 11
-2.485010664434073
 21
0.2733532470063083
 31
0.0
210
0.0
220
0.0
230
0.9999999999999999
 40
0.195197
 41
2.1036759664808562
 42
3.1237997443182794
  0
LINE
  5
2D3
100
AcDbEntity
  8
0
390
0
  6
Continuous
 62
     7
100
AcDbLine
 10
-125.170147
 20
-14.214114
 30
0.0
 11
-125.610343
 21
-13.810258
 31
0.0
  0
ELLIPSE
  5
2D4
100
AcDbEntity
  8
0
390
0
  6
Continuous
 62
     7
100
AcDbEllipse
 10
-126.700674
 20
-14.585409
 30
0.0
 11
-1.4792361883358418
 21
-2.0154057405687711
 31
0.0
210
0.0
220
0.0
230
1.0
 40
0.195197
 41
2.1036759664807114
 42
3.1237997443182883
  0
LINE
  5
2D5
100
AcDbEntity
  8
0
390
0
  6
Continuous
 62
     7
100
AcDbLine
 10
-84.51193
 20
9.917922
 30
0.0
 11
-84.382279
 21
9.334772
 31
0.0
  0
ELLIPSE
  5
2D6
100
AcDbEntity
  8
0
390
0
  6
Continuous
 62
     7
100
AcDbEllipse
 10
-83.295465
 20
10.4746
 30
0.0
 11
-2.4850106644342116
 21
-0.273353247004976
 31
0.0
210
0.0
220
0.0
230
1.0
 40
0.195197
 41
0.0177929092715128
 42
1.0379166871089771
  0
LINE
  5
2D7
100
AcDbEntity
  8
0
390
0
  6
Continuous
 62
     7
100
AcDbLine
 10
-108.431999
 20
-23.72818
 30
0.0
 11
-109.001847
 21
-23.548886
 31
0.0
  0
ELLIPSE
  5
2D8
100
AcDbEntity
  8
0
390
0
  6
Continuous
 62
     7
100
AcDbEllipse
 10
-108.558134
 20
-25.060009
 30
0.0
 11
1.0057744761042819
 21
2.2887589875776051
 31
0.0
210
0.0
220
0.0
230
1.0
 40
0.195197
 41
0.0177929092715019
 42
1.0379166871088985
  0
LINE
  5
2D9
100
AcDbEntity
  8
0
390
0
  6
Continuous
 62
     7
100
AcDbLine
 10
-103.937516
 20
23.72818
 30
0.0
 11
-103.367668
 21
23.548887
 31
0.0
  0
ELLIPSE
  5
2DA
100
AcDbEntity
  8
0
390
0
  6
Continuous
 62
     7
100
AcDbEllipse
 10
-103.811381
 20
25.060009
 30
0.0
 11
1.0057744761040877
 21
2.2887589875776602
 31
0.0
210
0.0
220
0.0
230
0.9999999999999999
 40
0.195197
 41
3.1593855628613143
 42
4.1795093406986785
  0
ELLIPSE
  5
2DB
100
AcDbEntity
  8
0
390
0
  6
Continuous
 62
     7
100
AcDbEllipse
 10
-126.700674
 20
14.585409
 30
0.0
 11
-1.4792361883345095
 21
2.0154057405697703
 31
0.0
210
0.0
220
0.0
230
1.0
 40
0.195197
 41
3.1593855628613117
 42
4.1795093406987922
  0
LINE
  5
2DC
100
AcDbEntity
  8
0
390
0
  6
Continuous
 62
     7
100
AcDbLine
 10
-125.610343
 20
13.810258
 30
0.0
 11
-125.170147
 21
14.214114
 31
0.0
  0
LINE
  5
2DD
100
AcDbEntity
  8
0
390
0
  6
Continuous
 62
     7
100
AcDbLine
 10
-86.759172
 20
-13.810258
 30
0.0
 11
-87.199368
 21
-14.214114
 31
0.0
  0
ELLIPSE
  5
2DE
100
AcDbEntity
  8
0
390
0
  6
Continuous
 62
     7
100
AcDbEllipse
 10
-85.668841
 20
-14.585409
 30
0.0
 11
-1.4792361883341765
 21
2.0154057405700199
 31
0.0
210
0.0
220
0.0
230
1.0
 40
0.195197
 41
0.0177929092716964
 42
1.0379166871094334
  0
ELLIPSE
  5
2DF
100
AcDbEntity
  8
0
390
0
  6
Continuous
 62
     7
100
AcDbEllipse
 10
-129.07405
 20
-10.4746
 30
0.0
 11
-2.4850106644336289
 21
-0.2733532470104994
 31
0.0
210
0.0
220
0.0
230
1.0
 40
0.195197
 41
3.1593855628612775
 42
4.1795093406988197
  0
LINE
  5
2E0
100
AcDbEntity
  8
0
390
0
  6
Continuous
 62
     7
100
AcDbLine
 10
-127.857585
 20
-9.917921
 30
0.0
 11
-127.987236
 21
-9.334772
 31
0.0
  0
ARC
  5
2E1
100
AcDbEntity
  8
0
390
0
  6
Continuous
 62
     7
100
AcDbCircle
 10
-92.598122
 20
-7.844248
 30
0.0
 40
8.335578
210
0.0
220
0.0
230
1.0
100
AcDbArc
 50
317.551345
 51
342.448655
  0
ELLIPSE
  5
2E2
100
AcDbEntity
  8
0
390
0
  6
Continuous
 62
     7
100
AcDbEllipse
 10
-85.331213
 20
-14.317774
 30
0.0
 11
-1.6245474082417777
 21
1.9002225444339216
 31
0.0
210
0.0
220
0.0
230
0.9999999999999999
 40
0.142316
 41
0.0176262359468016
 42
0.9910153514575142
  0
ELLIPSE
  5
2E3
100
AcDbEntity
  8
0
390
0
  6
Continuous
 62
     7
100
AcDbEllipse
 10
-83.358429
 20
-10.900812
 30
0.0
 11
-2.4579147006347779
 21
0.456788051949153
 31
0.0
210
0.0
220
0.0
230
1.0
 40
0.142316
 41
5.2921699556958375
 42
6.2655590711587141
  0
ARC
  5
2E4
100
AcDbEntity
  8
0
390
0
  6
Continuous
 62
     7
100
AcDbCircle
 10
-92.598122
 20
7.844248
 30
0.0
 40
8.335578
210
0.0
220
0.0
230
0.9999999999999999
100
AcDbArc
 50
17.551345
 51
42.448655
  0
ELLIPSE
  5
2E5
100
AcDbEntity
  8
0
390
0
  6
Continuous
 62
     7
100
AcDbEllipse
 10
-83.358429
 20
10.900812
 30
0.0
 11
-2.4579147004450963
 21
-0.4567880529697532
 31
0.0
210
0.0
220
0.0
230
1.0
 40
0.142316
 41
0.0176262359468354
 42
0.9910153514569031
  0
ELLIPSE
  5
2E6
100
AcDbEntity
  8
0
390
0
  6
Continuous
 62
     7
100
AcDbEllipse
 10
-85.331213
 20
14.317775
 30
0.0
 11
-1.6245474074502442
 21
-1.9002225451106025
 31
0.0
210
0.0
220
0.0
230
1.0
 40
0.142316
 41
5.2921699556962318
 42
6.2655590711587452
  0
ARC
  5
2E7
100
AcDbEntity
  8
0
390
0
  6
Continuous
 62
     7
100
AcDbCircle
 10
-106.184758
 20
-15.699341
 30
0.0
 40
8.324988
210
0.0
220
0.0
230
0.9999999999999999
100
AcDbArc
 50
257.535255
 51
282.464745
  0
ELLIPSE
  5
2E8
100
AcDbEntity
  8
0
390
0
  6
Continuous
 62
     7
100
AcDbEllipse
 10
-108.157542
 20
-25.218587
 30
0.0
 11
0.8333672922058999
 21
2.3570105974054236
 31
0.0
210
0.0
220
0.0
230
1.0
 40
0.142316
 41
0.0176262359468919
 42
0.9910153514568396
  0
ELLIPSE
  5
2E9
100
AcDbEntity
  8
0
390
0
  6
Continuous
 62
     7
100
AcDbEllipse
 10
-104.211974
 20
-25.218587
 30
0.0
 11
-0.8333672931847835
 21
2.3570105970593112
 31
0.0
210
0.0
220
0.0
230
1.0
 40
0.142316
 41
5.2921699556964521
 42
6.2655590711587354
  0
ELLIPSE
  5
2EA
100
AcDbEntity
  8
0
390
0
  6
Continuous
 62
     7
100
AcDbEllipse
 10
-127.038303
 20
-14.317774
 30
0.0
 11
-1.6245474078012689
 21
-1.9002225448105092
 31
0.0
210
0.0
220
0.0
230
1.0
 40
0.142316
 41
2.1505773021097543
 42
3.1239664176064923
  0
ARC
  5
2EB
100
AcDbEntity
  8
0
390
0
  6
Continuous
 62
     7
100
AcDbCircle
 10
-119.771393
 20
-7.844248
 30
0.0
 40
8.335578
210
0.0
220
0.0
230
1.0
100
AcDbArc
 50
197.551345
 51
222.448655
  0
ELLIPSE
  5
2EC
100
AcDbEntity
  8
0
390
0
  6
Continuous
 62
     7
100
AcDbEllipse
 10
-129.011087
 20
-10.900812
 30
0.0
 11
-2.4579147006116573
 21
-0.4567880520735812
 31
0.0
210
0.0
220
0.0
230
1.0
 40
0.142316
 41
3.1592188895912368
 42
4.1326080051162357
  0
ELLIPSE
  5
2ED
100
AcDbEntity
  8
0
390
0
  6
Continuous
 62
     7
100
AcDbEllipse
 10
-108.157542
 20
25.218587
 30
0.0
 11
-0.8333672927496316
 21
2.3570105972131605
 31
0.0
210
0.0
220
0.0
230
1.0
 40
0.142316
 41
2.1505773021099253
 42
3.1239664176064186
  0
ARC
  5
2EE
100
AcDbEntity
  8
0
390
0
  6
Continuous
 62
     7
100
AcDbCircle
 10
-106.184758
 20
15.688496
 30
0.0
 40
8.335578
210
0.0
220
0.0
230
1.0
100
AcDbArc
 50
77.551345
 51
102.448655
  0
ELLIPSE
  5
2EF
100
AcDbEntity
  8
0
390
0
  6
Continuous
 62
     7
100
AcDbEllipse
 10
-104.211974
 20
25.218587
 30
0.0
 11
0.8333672930817826
 21
2.3570105970957265
 31
0.0
210
0.0
220
0.0
230
1.0
 40
0.142316
 41
3.1592188895921463
 42
4.1326080051162899
  0
ELLIPSE
  5
2F0
100
AcDbEntity
  8
0
390
0
  6
Continuous
 62
     7
100
AcDbEllipse
 10
-129.011087
 20
10.900812
 30
0.0
 11
-2.457914700500913
 21
0.4567880526694379
 31
0.0
210
0.0
220
0.0
230
1.0
 40
0.142316
 41
2.1505773021650718
 42
3.1239664176058839
  0
ARC
  5
2F1
100
AcDbEntity
  8
0
390
0
  6
Continuous
 62
     7
100
AcDbCircle
 10
-119.771393
 20
7.844248
 30
0.0
 40
8.335578
210
0.0
220
0.0
230
1.0
100
AcDbArc
 50
137.551345
 51
162.448655
  0
ELLIPSE
  5
2F2
100
AcDbEntity
  8
0
390
0
  6
Continuous
 62
     7
100
AcDbEllipse
 10
-127.038303
 20
14.317775
 30
0.0
 11
-1.6245474075466948
 21
1.9002225450281685
 31
0.0
210
0.0
220
0.0
230
1.0
 40
0.142316
 41
3.1592188895912923
 42
4.132608005116146
  0
LINE
  5
2F3
100
AcDbEntity
  8
0
390
0
  6
Continuous
 62
     7
100
AcDbLine
 10
-84.51193
 20
-9.917921
 30
0.0
 11
-84.65059
 21
-10.357927
 31
0.0
  0
LINE
  5
2F4
100
AcDbEntity
  8
0
390
0
  6
Continuous
 62
     7
100
AcDbLine
 10
-86.759172
 20
13.810258
 30
0.0
 11
-86.447445
 21
13.470173
 31
0.0
  0
LINE
  5
2F5
100
AcDbEntity
  8
0
390
0
  6
Continuous
 62
     7
100
AcDbLine
 10
-125.610343
 20
-13.810258
 30
0.0
 11
-125.92207
 21
-13.470173
 31
0.0
  0
LINE
  5
2F6
100
AcDbEntity
  8
0
390
0
  6
Continuous
 62
     7
100
AcDbLine
 10
-127.718926
 20
-10.357927
 30
0.0
 11
-127.857585
 21
-9.917921
 31
0.0
  0
LINE
  5
2F7
100
AcDbEntity
  8
0
390
0
  6
Continuous
 62
     7
100
AcDbLine
 10
-103.937516
 20
-23.72818
 30
0.0
 11
-104.387902
 21
-23.8281
 31
0.0
  0
LINE
  5
2F8
100
AcDbEntity
  8
0
390
0
  6
Continuous
 62
     7
100
AcDbLine
 10
-108.431999
 20
23.72818
 30
0.0
 11
-107.981613
 21
23.8281
 31
0.0
  0
LINE
  5
2F9
100
AcDbEntity
  8
0
390
0
  6
Continuous
 62
     7
100
AcDbLine
 10
-86.447445
 20
-13.470173
 30
0.0
 11
-86.759172
 21
-13.810258
 31
0.0
  0
LINE
  5
2FA
100
AcDbEntity
  8
0
390
0
  6
Continuous
 62
     7
100
AcDbLine
 10
-125.92207
 20
13.470173
 30
0.0
 11
-125.610343
 21
13.810258
 31
0.0
  0
LINE
  5
2FB
100
AcDbEntity
  8
0
390
0
  6
Continuous
 62
     7
100
AcDbLine
 10
-127.857585
 20
9.917922
 30
0.0
 11
-127.718926
 21
10.357927
 31
0.0
  0
LINE
  5
2FC
100
AcDbEntity
  8
0
390
0
  6
Continuous
 62
     7
100
AcDbLine
 10
-84.65059
 20
10.357927
 30
0.0
 11
-84.51193
 21
9.917922
 31
0.0
  0
LINE
  5
2FD
100
AcDbEntity
  8
0
390
0
  6
Continuous
 62
     7
100
AcDbLine
 10
-107.981613
 20
-23.8281
 30
0.0
 11
-108.431999
 21
-23.72818
 31
0.0
  0
LINE
  5
2FE
100
AcDbEntity
  8
0
390
0
  6
Continuous
 62
     7
100
AcDbLine
 10
-104.387902
 20
23.8281
 30
0.0
 11
-103.937516
 21
23.72818
 31
0.0
  0
ARC
  5
2FF
100
AcDbEntity
  8
0
390
0
  6
Continuous
 62
     7
100
AcDbCircle
 10
-106.184758
 20
0.0
 30
0.0
 40
24.993143
210
0.0
220
0.0
230
1.0
100
AcDbArc
 50
215.410215
 51
264.589785
  0
LINE
  5
300
100
AcDbEntity
  8
0
390
0
  6
Continuous
 62
     7
100
AcDbLine
 10
-126.554782
 20
-14.481689
 30
0.0
 11
-125.610343
 21
-13.810258
 31
0.0
  0
LINE
  5
301
100
AcDbEntity
  8
0
390
0
  6
Continuous
 62
     7
100
AcDbLine
 10
-108.431999
 20
-23.72818
 30
0.0
 11
-108.541256
 21
-24.881803
 31
0.0
  0
ARC
  5
302
100
AcDbEntity
  8
0
390
0
  6
Continuous
 62
     7
100
AcDbCircle
 10
-106.184758
 20
0.0
 30
0.0
 40
24.993143
210
0.0
220
0.0
230
1.0
100
AcDbArc
 50
275.410215
 51
324.589785
  0
LINE
  5
303
100
AcDbEntity
  8
0
390
0
  6
Continuous
 62
     7
100
AcDbLine
 10
-103.937516
 20
-23.72818
 30
0.0
 11
-103.828259
 21
-24.881803
 31
0.0
  0
LINE
  5
304
100
AcDbEntity
  8
0
390
0
  6
Continuous
 62
     7
100
AcDbLine
 10
-86.759172
 20
-13.810258
 30
0.0
 11
-85.814734
 21
-14.481689
 31
0.0
  0
ARC
  5
305
100
AcDbEntity
  8
0
390
0
  6
Continuous
 62
     7
100
AcDbCircle
 10
-106.184758
 20
0.0
 30
0.0
 40
24.993143
210
0.0
220
0.0
230
1.0
100
AcDbArc
 50
335.410215
 51
24.589785
  0
LINE
  5
306
100
AcDbEntity
  8
0
390
0
  6
Continuous
 62
     7
100
AcDbLine
 10
-84.51193
 20
-9.917921
 30
0.0
 11
-83.458235
 21
-10.400114
 31
0.0
  0
LINE
  5
307
100
AcDbEntity
  8
0
390
0
  6
Continuous
 62
     7
100
AcDbLine
 10
-84.51193
 20
9.917922
 30
0.0
 11
-83.458235
 21
10.400114
 31
0.0
  0
ARC
  5
308
100
AcDbEntity
  8
0
390
0
  6
Continuous
 62
     7
100
AcDbCircle
 10
-106.184758
 20
0.0
 30
0.0
 40
24.993143
210
0.0
220
0.0
230
1.0
100
AcDbArc
 50
155.410215
 51
204.589785
  0
LINE
  5
309
100
AcDbEntity
  8
0
390
0
  6
Continuous
 62
     7
100
AcDbLine
 10
-128.91128
 20
10.400114
 30
0.0
 11
-127.857585
 21
9.917922
 31
0.0
  0
LINE
  5
30A
100
AcDbEntity
  8
0
390
0
  6
Continuous
 62
     7
100
AcDbLine
 10
-128.91128
 20
-10.400114
 30
0.0
 11
-127.857585
 21
-9.917921
 31
0.0
  0
ARC
  5
30B
100
AcDbEntity
  8
0
390
0
  6
Continuous
 62
     7
100
AcDbCircle
 10
-106.184758
 20
0.0
 30
0.0
 40
24.993143
210
0.0
220
0.0
230
0.9999999999999999
100
AcDbArc
 50
95.410215
 51
144.589785
  0
LINE
  5
30C
100
AcDbEntity
  8
0
390
0
  6
Continuous
 62
     7
100
AcDbLine
 10
-108.541256
 20
24.881803
 30
0.0
 11
-108.431999
 21
23.72818
 31
0.0
  0
LINE
  5
30D
100
AcDbEntity
  8
0
390
0
  6
Continuous
 62
     7
100
AcDbLine
 10
-126.554782
 20
14.481689
 30
0.0
 11
-125.610343
 21
13.810258
 31
0.0
  0
ARC
  5
30E
100
AcDbEntity
  8
0
390
0
  6
Continuous
 62
     7
100
AcDbCircle
 10
-106.184758
 20
0.0
 30
0.0
 40
24.993143
210
0.0
220
0.0
230
1.0
100
AcDbArc
 50
35.410215
 51
84.589785
  0
LINE
  5
30F
100
AcDbEntity
  8
0
390
0
  6
Continuous
 62
     7
100
AcDbLine
 10
-86.759172
 20
13.810258
 30
0.0
 11
-85.814734
 21
14.481689
 31
0.0
  0
LINE
  5
310
100
AcDbEntity
  8
0
390
0
  6
Continuous
 62
     7
100
AcDbLine
 10
-103.828259
 20
24.881803
 30
0.0
 11
-103.937516
 21
23.72818
 31
0.0
  0
ARC
  5
311
100
AcDbEntity
  8
0
390
0
  6
Continuous
 62
     7
100
AcDbCircle
 10
-107.308752
 20
0.648938
 30
0.0
 40
26.28733
210
0.0
220
0.0
230
1.0
100
AcDbArc
 50
326.071873
 51
333.928127
  0
ELLIPSE
  5
312
100
AcDbEntity
  8
0
390
0
  6
Continuous
 62
     7
100
AcDbEllipse
 10
-87.563678
 20
-12.622571
 30
0.0
 11
-2.0721362939610799
 21
1.3986604946337744
 31
0.0
210
0.0
220
0.0
230
1.0
 40
0.037674
 41
2.1648911130341757
 42
3.0891955449822768
  0
ELLIPSE
  5
313
100
AcDbEntity
  8
0
390
0
  6
Continuous
 62
     7
100
AcDbEllipse
 10
-85.94275
 20
-9.815042
 30
0.0
 11
-2.2473436666564375
 21
1.0951924232476817
 31
0.0
210
0.0
220
0.0
230
1.0
 40
0.037674
 41
3.1939897621965492
 42
4.1182941941866913
  0
ARC
  5
314
100
AcDbEntity
  8
0
390
0
  6
Continuous
 62
     7
100
AcDbCircle
 10
-107.308752
 20
-0.648938
 30
0.0
 40
26.28733
210
0.0
220
0.0
230
1.0
100
AcDbArc
 50
26.071873
 51
33.928127
  0
ELLIPSE
  5
315
100
AcDbEntity
  8
0
390
0
  6
Continuous
 62
     7
100
AcDbEllipse
 10
-85.94275
 20
9.815043
 30
0.0
 11
-2.2473436666030633
 21
-1.0951924233572052
 31
0.0
210
0.0
220
0.0
230
1.0
 40
0.037674
 41
2.1648911130349133
 42
3.0891955449823683
  0
ELLIPSE
  5
316
100
AcDbEntity
  8
0
390
0
  6
Continuous
 62
     7
100
AcDbEllipse
 10
-87.563678
 20
12.622571
 30
0.0
 11
-2.0721362938930787
 21
-1.3986604947345549
 31
0.0
210
0.0
220
0.0
230
1.0
 40
0.037674
 41
3.1939897621964977
 42
4.1182941941864026
  0
ARC
  5
317
100
AcDbEntity
  8
0
390
0
  6
Continuous
 62
     7
100
AcDbCircle
 10
-106.184758
 20
1.297877
 30
0.0
 40
26.28733
210
0.0
220
0.0
230
0.9999999999999999
100
AcDbArc
 50
266.071873
 51
273.928127
  0
ELLIPSE
  5
318
100
AcDbEntity
  8
0
390
0
  6
Continuous
 62
     7
100
AcDbEllipse
 10
-107.805685
 20
-22.437614
 30
0.0
 11
0.1752073726419556
 21
2.4938529179909241
 31
0.0
210
0.0
220
0.0
230
1.0
 40
0.037674
 41
2.1648911130349777
 42
3.0891955449823465
  0
ELLIPSE
  5
319
100
AcDbEntity
  8
0
390
0
  6
Continuous
 62
     7
100
AcDbEllipse
 10
-104.56383
 20
-22.437614
 30
0.0
 11
-0.175207372763192
 21
2.4938529179824034
 31
0.0
210
0.0
220
0.0
230
0.9999999999999999
 40
0.037674
 41
3.1939897621965416
 42
4.1182941941860634
  0
ARC
  5
31A
100
AcDbEntity
  8
0
390
0
  6
Continuous
 62
     7
100
AcDbCircle
 10
-105.060764
 20
-0.648938
 30
0.0
 40
26.28733
210
0.0
220
0.0
230
1.0
100
AcDbArc
 50
146.071873
 51
153.928127
  0
ELLIPSE
  5
31B
100
AcDbEntity
  8
0
390
0
  6
Continuous
 62
     7
100
AcDbEllipse
 10
-124.805837
 20
12.622571
 30
0.0
 11
-2.0721362944246815
 21
1.3986604939469627
 31
0.0
210
0.0
220
0.0
230
1.0
 40
0.037674
 41
5.3064837665990181
 42
6.2307881985595257
  0
ELLIPSE
  5
31C
100
AcDbEntity
  8
0
390
0
  6
Continuous
 62
     7
100
AcDbEllipse
 10
-126.426765
 20
9.815043
 30
0.0
 11
-2.2473436670153166
 21
1.0951924225113541
 31
0.0
210
0.0
220
0.0
230
1.0
 40
0.037674
 41
0.052397108594191
 42
0.976701540571843
  0
ARC
  5
31D
100
AcDbEntity
  8
0
390
0
  6
Continuous
 62
     7
100
AcDbCircle
 10
-105.060764
 20
0.648938
 30
0.0
 40
26.28733
210
0.0
220
0.0
230
1.0
100
AcDbArc
 50
206.071873
 51
213.928127
  0
ELLIPSE
  5
31E
100
AcDbEntity
  8
0
390
0
  6
Continuous
 62
     7
100
AcDbEllipse
 10
-126.426765
 20
-9.815042
 30
0.0
 11
-2.2473436662399648
 21
-1.0951924241023592
 31
0.0
210
0.0
220
0.0
230
0.9999999999999999
 40
0.037674
 41
5.30648376659886
 42
6.2307881985596199
  0
ELLIPSE
  5
31F
100
AcDbEntity
  8
0
390
0
  6
Continuous
 62
     7
100
AcDbEllipse
 10
-124.805837
 20
-12.622571
 30
0.0
 11
-2.0721362934333909
 21
-1.3986604954155657
 31
0.0
210
0.0
220
0.0
230
1.0
 40
0.037674
 41
0.0523971085943903
 42
0.9767015405312756
  0
ARC
  5
320
100
AcDbEntity
  8
0
390
0
  6
Continuous
 62
     7
100
AcDbCircle
 10
-106.184758
 20
-1.297876
 30
0.0
 40
26.28733
210
0.0
220
0.0
230
0.9999999999999999
100
AcDbArc
 50
86.071873
 51
93.928127
  0
ELLIPSE
  5
321
100
AcDbEntity
  8
0
390
0
  6
Continuous
 62
     7
100
AcDbEllipse
 10
-104.56383
 20
22.437614
 30
0.0
 11
0.1752073718171709
 21
2.4938529180488778
 31
0.0
210
0.0
220
0.0
230
1.0
 40
0.037674
 41
5.3064837665997118
 42
6.2307881985596527
  0
ELLIPSE
  5
322
100
AcDbEntity
  8
0
390
0
  6
Continuous
 62
     7
100
AcDbEllipse
 10
-107.805685
 20
22.437614
 30
0.0
 11
-0.1752073735821758
 21
2.4938529179248659
 31
0.0
210
0.0
220
0.0
230
1.0
 40
0.037674
 41
0.052397108594528
 42
0.9767015405312012
  0
LINE
  5
323
100
AcDbEntity
  8
0
390
0
  6
Continuous
 62
     7
100
AcDbLine
 10
-85.497145
 20
-14.023401
 30
0.0
 11
-85.814734
 21
-14.481689
 31
0.0
  0
LINE
  5
324
100
AcDbEntity
  8
0
390
0
  6
Continuous
 62
     7
100
AcDbLine
 10
-83.69633
 20
10.904298
 30
0.0
 11
-83.458235
 21
10.400114
 31
0.0
  0
LINE
  5
325
100
AcDbEntity
  8
0
390
0
  6
Continuous
 62
     7
100
AcDbLine
 10
-107.985573
 20
-24.927698
 30
0.0
 11
-108.541256
 21
-24.881803
 31
0.0
  0
LINE
  5
326
100
AcDbEntity
  8
0
390
0
  6
Continuous
 62
     7
100
AcDbLine
 10
-104.383943
 20
24.927698
 30
0.0
 11
-103.828259
 21
24.881803
 31
0.0
  0
LINE
  5
327
100
AcDbEntity
  8
0
390
0
  6
Continuous
 62
     7
100
AcDbLine
 10
-128.673185
 20
-10.904298
 30
0.0
 11
-128.91128
 21
-10.400114
 31
0.0
  0
LINE
  5
328
100
AcDbEntity
  8
0
390
0
  6
Continuous
 62
     7
100
AcDbLine
 10
-126.87237
 20
14.023401
 30
0.0
 11
-126.554782
 21
14.481689
 31
0.0
  0
LINE
  5
329
100
AcDbEntity
  8
0
390
0
  6
Continuous
 62
     7
100
AcDbLine
 10
-128.91128
 20
10.400114
 30
0.0
 11
-128.673185
 21
10.904298
 31
0.0
  0
LINE
  5
32A
100
AcDbEntity
  8
0
390
0
  6
Continuous
 62
     7
100
AcDbLine
 10
-126.554782
 20
-14.481689
 30
0.0
 11
-126.87237
 21
-14.023401
 31
0.0
  0
LINE
  5
32B
100
AcDbEntity
  8
0
390
0
  6
Continuous
 62
     7
100
AcDbLine
 10
-108.541256
 20
24.881803
 30
0.0
 11
-107.985573
 21
24.927698
 31
0.0
  0
LINE
  5
32C
100
AcDbEntity
  8
0
390
0
  6
Continuous
 62
     7
100
AcDbLine
 10
-83.458235
 20
-10.400114
 30
0.0
 11
-83.69633
 21
-10.904298
 31
0.0
  0
LINE
  5
32D
100
AcDbEntity
  8
0
390
0
  6
Continuous
 62
     7
100
AcDbLine
 10
-103.828259
 20
-24.881803
 30
0.0
 11
-104.383943
 21
-24.927698
 31
0.0
  0
LINE
  5
32E
100
AcDbEntity
  8
0
390
0
  6
Continuous
 62
     7
100
AcDbLine
 10
-85.814734
 20
14.481689
 30
0.0
 11
-85.497145
 21
14.023401
 31
0.0
  0
CIRCLE
  5
32F
100
AcDbEntity
  8
0
390
0
  6
Continuous
 62
     7
100
AcDbCircle
 10
-106.184758
 20
0.0
 30
0.0
 40
25.230594
210
0.0
220
0.0
230
1.0
  0
POINT
  5
330
100
AcDbEntity
  8
0
390
0
 62
     7
100
AcDbPoint
 10
0.0
 20
0.0
 30
0.0
  0
POINT
  5
331
100
AcDbEntity
  8
0
390
0
 62
     7
100
AcDbPoint
 10
0.0
 20
0.0
 30
0.0
  0
ENDSEC
  0
SECTION
  2
OBJECTS
  0
DICTIONARY
  5
19
100
AcDbDictionary
280
     0
281
     1
  3
ACAD_GROUP
350
1A
  3
ACAD_MLINESTYLE
350
1B
  3
ACAD_LAYOUT
350
1E
  3
ACAD_PLOTSETTINGS
350
22
  3
ACAD_PLOTSTYLENAME
350
1F
  3
ACAD_WIPEOUT_VARS
350
23
  0
DICTIONARY
  5
1A
102
{ACAD_REACTORS
330
19
102
}
100
AcDbDictionary
280
     0
281
     1
  0
DICTIONARY
  5
1B
102
{ACAD_REACTORS
330
19
102
}
100
AcDbDictionary
280
     0
281
     1
  3
Standard
350
1C
  0
MLINESTYLE
  5
1C
102
{ACAD_REACTORS
330
1B
102
}
100
AcDbMlineStyle
  2
Standard
 70
     0
  3

 62
     0
 51
90.0
 52
90.0
 71
     2
 49
0.5
 62
   256
  6
ByLayer
 49
-0.5
 62
   256
  6
ByLayer
  0
ACDBDICTIONARYWDFLT
  5
1F
102
{ACAD_REACTORS
330
19
102
}
100
AcDbDictionary
281
     1
  3
Normal
350
1D
100
AcDbDictionaryWithDefault
340
1D
  0
ACDBPLACEHOLDER
  5
1D
102
{ACAD_REACTORS
330
1F
102
}
  0
LAYOUT
  5
20
102
{ACAD_REACTORS
330
1E
102
}
100
AcDbPlotSettings
  1

  2

  4

  6

 40
0.0
 41
0.0
 42
0.0
 43
0.0
 44
0.0
 45
0.0
 46
0.0
 47
0.0
 48
0.0
 49
0.0
140
0.0
141
0.0
142
1.0
143
1.0
 70
  1024
 72
     0
 73
     0
 74
     0
  7

 75
     0
147
1.0
148
0.0
149
0.0
100
AcDbLayout
  1
Model
 70
     0
 71
     1
 10
0.0
 20
0.0
 11
0.0
 21
0.0
 12
0.0
 22
0.0
 32
0.0
 14
0.0
 24
0.0
 34
0.0
 15
0.0
 25
0.0
 35
0.0
146
0.0
 13
0.0
 23
0.0
 33
0.0
 16
0.0
 26
0.0
 36
0.0
 17
0.0
 27
0.0
 37
0.0
 76
     0
330
A
331
0
345
0
346
0
  0
LAYOUT
  5
21
102
{ACAD_REACTORS
330
1E
102
}
100
AcDbPlotSettings
  1

  2

  4

  6

 40
0.0
 41
0.0
 42
0.0
 43
0.0
 44
0.0
 45
0.0
 46
0.0
 47
0.0
 48
0.0
 49
0.0
140
0.0
141
0.0
142
1.0
143
1.0
 70
     0
 72
     0
 73
     0
 74
     0
  7

 75
     0
147
1.0
148
0.0
149
0.0
100
AcDbLayout
  1
Layout1
 70
     0
 71
     2
 10
0.0
 20
0.0
 11
0.0
 21
0.0
 12
0.0
 22
0.0
 32
0.0
 14
0.0
 24
0.0
 34
0.0
 15
0.0
 25
0.0
 35
0.0
146
0.0
 13
0.0
 23
0.0
 33
0.0
 16
0.0
 26
0.0
 36
0.0
 17
0.0
 27
0.0
 37
0.0
 76
     0
330
B
331
0
345
0
346
0
  0
DICTIONARY
  5
1E
102
{ACAD_REACTORS
330
19
102
}
100
AcDbDictionary
280
     0
281
     1
  3
Layout1
350
21
  3
Model
350
20
  0
DICTIONARY
  5
22
102
{ACAD_REACTORS
330
19
102
}
100
AcDbDictionary
280
     0
281
     1
  0
WIPEOUTVARIABLES
  5
23
100
AcDbWipeoutVariables
 70
     1
  0
ENDSEC
  0
EOF
