  0
SECTION
  2
HEADER
  9
$ACADVER
  1
AC1015
  9
$ACADMAINTVER
 70
     6
  9
$DWGCODEPAGE
  3
DOS932
  9
$INSBASE
 10
0.0
 20
0.0
 30
0.0
  9
$EXTMIN
 10
-125.247949
 20
-22.672946
 30
0.0
  9
$EXTMAX
 10
125.250678
 20
22.672946
 30
0.0
  9
$LIMMIN
 10
-125.247949
 20
-22.672946
  9
$LIMMAX
 10
125.250678
 20
22.672946
  9
$ORTHOMODE
 70
     0
  9
$REGENMODE
 70
     1
  9
$FILLMODE
 70
     1
  9
$QTEXTMODE
 70
     0
  9
$MIRRTEXT
 70
     1
  9
$LTSCALE
 40
10.0
  9
$ATTMODE
 70
     1
  9
$TEXTSIZE
 40
0.2
  9
$TRACEWID
 40
0.05
  9
$TEXTSTYLE
  7
Standard
  9
$CLAYER
  8
0
  9
$CELTYPE
  6
Continuous
  9
$CECOLOR
 62
   256
  9
$CELTSCALE
 40
1.0
  9
$DISPSILH
 70
     0
  9
$DIMSCALE
 40
1.0
  9
$DIMASZ
 40
1.40208
  9
$DIMEXO
 40
1.40208
  9
$DIMDLI
 40
0.38
  9
$DIMRND
 40
0.0
  9
$DIMDLE
 40
0.0
  9
$DIMEXE
 40
1.05156
  9
$DIMTP
 40
0.0
  9
$DIMTM
 40
0.0
  9
$DIMTXT
 40
3.5052
  9
$DIMCEN
 40
0.09
  9
$DIMTSZ
 40
0.0
  9
$DIMTOL
 70
     0
  9
$DIMLIM
 70
     0
  9
$DIMTIH
 70
     0
  9
$DIMTOH
 70
     0
  9
$DIMSE1
 70
     0
  9
$DIMSE2
 70
     0
  9
$DIMTAD
 70
     1
  9
$DIMZIN
 70
     0
  9
$DIMBLK
  1

  9
$DIMASO
 70
     1
  9
$DIMSHO
 70
     1
  9
$DIMPOST
  1

  9
$DIMAPOST
  1

  9
$DIMALT
 70
     0
  9
$DIMALTD
 70
     2
  9
$DIMALTF
 40
25.4
  9
$DIMLFAC
 40
1.0
  9
$DIMTOFL
 70
     0
  9
$DIMTVP
 40
0.0
  9
$DIMTIX
 70
     0
  9
$DIMSOXD
 70
     0
  9
$DIMSAH
 70
     0
  9
$DIMBLK1
  1

  9
$DIMBLK2
  1

  9
$DIMSTYLE
  2
Standard
  9
$DIMCLRD
 70
     7
  9
$DIMCLRE
 70
     7
  9
$DIMCLRT
 70
     7
  9
$DIMTFAC
 40
0.5
  9
$DIMGAP
 40
1.7526
  9
$DIMJUST
 70
     0
  9
$DIMSD1
 70
     0
  9
$DIMSD2
 70
     0
  9
$DIMTOLJ
 70
     1
  9
$DIMTZIN
 70
     0
  9
$DIMALTZ
 70
     0
  9
$DIMALTTZ
 70
     0
  9
$DIMUPT
 70
     0
  9
$DIMDEC
 70
     2
  9
$DIMTDEC
 70
     4
  9
$DIMALTU
 70
     2
  9
$DIMALTTD
 70
     2
  9
$DIMTXSTY
  7
Standard
  9
$DIMAUNIT
 70
     0
  9
$DIMADEC
 70
     0
  9
$DIMALTRND
 40
0.0
  9
$DIMAZIN
 70
     0
  9
$DIMDSEP
 70
     0
  9
$DIMATFIT
 70
     3
  9
$DIMFRAC
 70
     0
  9
$DIMLDRBLK
  1

  9
$DIMLUNIT
 70
     2
  9
$DIMLWD
 70
     0
  9
$DIMLWE
 70
     0
  9
$DIMTMOVE
 70
     0
  9
$LUNITS
 70
     2
  9
$LUPREC
 70
     4
  9
$SKETCHINC
 40
0.1
  9
$FILLETRAD
 40
0.0
  9
$AUNITS
 70
     0
  9
$AUPREC
 70
     0
  9
$MENU
  1
acad
  9
$ELEVATION
 40
0.0
  9
$PELEVATION
 40
0.0
  9
$THICKNESS
 40
0.0
  9
$LIMCHECK
 70
     0
  9
$CHAMFERA
 40
0.0
  9
$CHAMFERB
 40
0.0
  9
$CHAMFERC
 40
0.0
  9
$CHAMFERD
 40
0.0
  9
$SKPOLY
 70
     0
  9
$TDCREATE
 40
2459788.611759259
  9
$TDUCREATE
 40
0.000000000
  9
$TDUPDATE
 40
2459788.236446759
  9
$TDUUPDATE
 40
0.000000000
  9
$TDINDWG
 40
0.0000000000
  9
$TDUSRTIMER
 40
0.0000000000
  9
$USRTIMER
 70
     1
  9
$ANGBASE
 50
0.0
  9
$ANGDIR
 70
     0
  9
$PDMODE
 70
     0
  9
$PDSIZE
 40
0.0
  9
$PLINEWID
 40
0.0
  9
$SPLFRAME
 70
     0
  9
$SPLINETYPE
 70
     6
  9
$SPLINESEGS
 70
     8
  9
$HANDSEED
  5
32A
  9
$SURFTAB1
 70
     6
  9
$SURFTAB2
 70
     6
  9
$SURFTYPE
 70
     6
  9
$SURFU
 70
     6
  9
$SURFV
 70
     6
  9
$UCSBASE
  2

  9
$UCSNAME
  2

  9
$UCSORG
 10
0.0
 20
0.0
 30
0.0
  9
$UCSXDIR
 10
1.0
 20
0.0
 30
0.0
  9
$UCSYDIR
 10
0.0
 20
1.0
 30
0.0
  9
$UCSORTHOREF
  2

  9
$UCSORTHOVIEW
 70
     0
  9
$UCSORGTOP
 10
0.0
 20
0.0
 30
0.0
  9
$UCSORGBOTTOM
 10
0.0
 20
0.0
 30
0.0
  9
$UCSORGLEFT
 10
0.0
 20
0.0
 30
0.0
  9
$UCSORGRIGHT
 10
0.0
 20
0.0
 30
0.0
  9
$UCSORGFRONT
 10
0.0
 20
0.0
 30
0.0
  9
$UCSORGBACK
 10
0.0
 20
0.0
 30
0.0
  9
$PUCSBASE
  2

  9
$PUCSNAME
  2

  9
$PUCSORG
 10
0.0
 20
0.0
 30
0.0
  9
$PUCSXDIR
 10
1.0
 20
0.0
 30
0.0
  9
$PUCSYDIR
 10
0.0
 20
1.0
 30
0.0
  9
$PUCSORTHOREF
  2

  9
$PUCSORTHOVIEW
 70
     0
  9
$PUCSORGTOP
 10
0.0
 20
0.0
 30
0.0
  9
$PUCSORGBOTTOM
 10
0.0
 20
0.0
 30
0.0
  9
$PUCSORGLEFT
 10
0.0
 20
0.0
 30
0.0
  9
$PUCSORGRIGHT
 10
0.0
 20
0.0
 30
0.0
  9
$PUCSORGFRONT
 10
0.0
 20
0.0
 30
0.0
  9
$PUCSORGBACK
 10
0.0
 20
0.0
 30
0.0
  9
$USERI1
 70
     0
  9
$USERI2
 70
     0
  9
$USERI3
 70
     0
  9
$USERI4
 70
     0
  9
$USERI5
 70
     0
  9
$USERR1
 40
0.0
  9
$USERR2
 40
0.0
  9
$USERR3
 40
0.0
  9
$USERR4
 40
0.0
  9
$USERR5
 40
0.0
  9
$WORLDVIEW
 70
     1
  9
$SHADEDGE
 70
     3
  9
$SHADEDIF
 70
    70
  9
$TILEMODE
 70
     1
  9
$MAXACTVP
 70
    16
  9
$PINSBASE
 10
0.0
 20
0.0
 30
0.0
  9
$PLIMCHECK
 70
     0
  9
$PEXTMIN
 10
1.000000E+20
 20
1.000000E+20
 30
1.000000E+20
  9
$PEXTMAX
 10
-1.000000E+20
 20
-1.000000E+20
 30
-1.000000E+20
  9
$PLIMMIN
 10
0.0
 20
0.0
  9
$PLIMMAX
 10
12.0
 20
9.0
  9
$UNITMODE
 70
     0
  9
$VISRETAIN
 70
     0
  9
$PLINEGEN
 70
     1
  9
$PSLTSCALE
 70
     0
  9
$TREEDEPTH
 70
  3020
  9
$CMLSTYLE
  2
Standard
  9
$CMLJUST
 70
     0
  9
$CMLSCALE
 40
1.0
  9
$PROXYGRAPHICS
 70
     0
  9
$MEASUREMENT
 70
     0
  9
$CELWEIGHT
370
     0
  9
$ENDCAPS
280
     0
  9
$JOINSTYLE
280
     0
  9
$LWDISPLAY
290
     0
  9
$INSUNITS
 70
     0
  9
$HYPERLINKBASE
  1

  9
$STYLESHEET
  1

  9
$XEDIT
290
     1
  9
$CEPSNTYPE
380
     0
  9
$PSTYLEMODE
290
     1
  9
$FINGERPRINTGUID
  2

  9
$VERSIONGUID
  2

  9
$EXTNAMES
290
     1
  9
$PSVPSCALE
 40
0.0
  0
ENDSEC
  0
SECTION
  2
CLASSES
  0
CLASS
  1
LWPOLYLINE
  2
AcDbPolyline
  3
AutoCAD 2000
 90
        0
280
     0
281
     1
  0
CLASS
  1
IMAGE
  2
AcDbRasterImage
  3
ISM
 90
      127
280
     0
281
     1
  0
CLASS
  1
OLE2FRAME
  2
AcDbOle2Frame
  3
AutoCAD 2000
 90
        0
280
     0
281
     1
  0
CLASS
  1
HATCH
  2
AcDbHatch
  3
AutoCAD 2000
 90
        0
280
     0
281
     1
  0
CLASS
  1
DICTIONARYVAR
  2
AcDbDictionaryVar
  3
AutoCAD 2000
 90
        0
280
     0
281
     0
  0
CLASS
  1
RASTERVARIABLES
  2
AcDbRasterVariables
  3
ISM
 90
        0
280
     0
281
     0
  0
CLASS
  1
IMAGEDEF
  2
AcDbRasterImageDef
  3
ISM
 90
        0
280
     0
281
     0
  0
CLASS
  1
IMAGEDEF_REACTOR
  2
AcDbRasterImageDefReactor
  3
ISM
 90
        1
280
     0
281
     0
  0
CLASS
  1
IDBUFFER
  2
AcDbIdBuffer
  3
AutoCAD 2000
 90
        0
280
     0
281
     0
  0
CLASS
  1
SPATIAL_FILTER
  2
AcDbSpatialFilter
  3
AutoCAD 2000
 90
        0
280
     0
281
     0
  0
CLASS
  1
XRECORD
  2
AcDbXrecord
  3
AutoCAD 2000
 90
        0
280
     0
281
     0
  0
CLASS
  1
SORTENTSTABLE
  2
AcDbSortentsTable
  3
AutoCAD 2000
 90
        0
280
     0
281
     0
  0
CLASS
  1
LAYER_INDEX
  2
AcDbLayerIndex
  3
AutoCAD 2000
 90
        0
280
     0
281
     0
  0
CLASS
  1
SPATIAL_INDEX
  2
AcDbSpatialIndex
  3
AutoCAD 2000
 90
        0
280
     0
281
     0
  0
CLASS
  1
OBJECT_PTR
  2
CAseDLPNTableRecord
  3
"ASE-LPNTableRecord"
 90
        1
280
     0
281
     0
  0
CLASS
  1
LAYOUT
  2
AcDbLayout
  3
AutoCAD 2000
 90
        0
280
     0
281
     0
  0
CLASS
  1
PLOTSETTINGS
  2
AcDbPlotSettings
  3
AutoCAD 2000
 90
        0
280
     0
281
     0
  0
CLASS
  1
ACDBDICTIONARYWDFLT
  2
AcDbDictionaryWithDefault
  3
AutoCAD 2000
 90
        0
280
     0
281
     0
  0
CLASS
  1
ACDBPLACEHOLDER
  2
AcDbPlaceHolder
  3
AutoCAD 2000
 90
        0
280
     0
281
     0
  0
CLASS
  1
VBA_PROJECT
  2
AcDbVbaProject
  3
acadvba
 90
        0
280
     0
281
     0
  0
CLASS
  1
WIPEOUT
  2
AcDbWipeout
  3
WipeOut|AutoCAD Express Tool|expresstools@autodesk.com
 90
      127
280
     0
281
     1
  0
CLASS
  1
WIPEOUTVARIABLES
  2
AcDbWipeoutVariables
  3
WipeOut|AutoCAD Express Tool|expresstools@autodesk.com
 90
        0
280
     0
281
     0
  0
CLASS
  1
RTEXT
  2
RText
  3
RText|AutoCAD Express Tool|expresstools@autodesk.com
 90
        0
280
     0
281
     1
  0
CLASS
  1
ARCALIGNEDTEXT
  2
AcDbArcAlignedText
  3
ATEXT|AutoCAD Express Tool|expresstools@autodesk.com
 90
        0
280
     0
281
     1
  0
ENDSEC
  0
SECTION
  2
TABLES
  0
TABLE
  2
VPORT
  5
7
100
AcDbSymbolTable
 70
     1
  0
VPORT
  5
15
100
AcDbSymbolTableRecord
100
AcDbViewportTableRecord
  2
*ACTIVE
 70
     0
 10
0.0
 20
0.0
 11
1.0
 21
1.0
 12
6.591288
 22
4.579184
 13
0.0
 23
0.0
 14
1.0
 24
1.0
 15
0.0
 25
0.0
 16
0.0
 26
0.0
 36
1.0
 17
0.0
 27
0.0
 37
0.0
 40
9.158369
 41
0.688564
 42
50.0
 43
0.0
 44
0.0
 50
0.0
 51
0.0
 71
     0
 72
   100
 73
     1
 74
     1
 75
     0
 76
     0
 77
     0
 78
     0
281
     0
 65
     0
110
0.0
120
0.0
130
0.0
111
1.0
121
0.0
131
0.0
112
0.0
122
1.0
132
0.0
345
0
346
0
 79
     0
146
0.0
  0
ENDTAB
  0
TABLE
  2
LTYPE
  5
4
100
AcDbSymbolTable
 70
     3
  0
LTYPE
  5
11
100
AcDbSymbolTableRecord
100
AcDbLinetypeTableRecord
  2
ByBlock
 70
    64
  3

 72
    65
 73
     0
 40
0.0
  0
LTYPE
  5
12
100
AcDbSymbolTableRecord
100
AcDbLinetypeTableRecord
  2
ByLayer
 70
    64
  3

 72
    65
 73
     0
 40
0.0
  0
LTYPE
  5
13
100
AcDbSymbolTableRecord
100
AcDbLinetypeTableRecord
  2
Continuous
 70
    64
  3
Solid line
 72
    65
 73
     0
 40
0.0
  0
ENDTAB
  0
TABLE
  2
LAYER
  5
2
100
AcDbSymbolTable
 70
     1
  0
LAYER
  5
14
100
AcDbSymbolTableRecord
100
AcDbLayerTableRecord
  2
0
 70
     0
 62
     7
  6
Continuous
290
     1
370
    -3
390
1D
  0
ENDTAB
  0
TABLE
  2
STYLE
  5
3
100
AcDbSymbolTable
 70
     1
  0
STYLE
  5
17
100
AcDbSymbolTableRecord
100
AcDbTextStyleTableRecord
  2
Standard
 70
     0
 40
0.0
 41
1.0
 50
0.0
 71
     0
 42
0.0
  3
FG教科書体NT-M
  4

1001
ACAD
1000
FG教科書体NT-M
1071
        0
  0
ENDTAB
  0
TABLE
  2
VIEW
  5
5
100
AcDbSymbolTable
 70
     0
  0
ENDTAB
  0
TABLE
  2
UCS
  5
6
100
AcDbSymbolTable
 70
     0
  0
ENDTAB
  0
TABLE
  2
APPID
  5
8
100
AcDbSymbolTable
 70
     2
  0
APPID
  5
16
100
AcDbSymbolTableRecord
100
AcDbRegAppTableRecord
  2
ACAD
 70
     0
  0
APPID
  5
26
100
AcDbSymbolTableRecord
100
AcDbRegAppTableRecord
  2
TOPsolid_Design
 70
     0
  0
ENDTAB
  0
TABLE
  2
DIMSTYLE
  5
9
100
AcDbSymbolTable
 70
     1
100
AcDbDimStyleTable
 71
     0
  0
DIMSTYLE
105
18
100
AcDbSymbolTableRecord
100
AcDbDimStyleTableRecord
  2
Standard
 70
     0
  3

  4

 40
1.0
 41
1.40208
 42
1.40208
 43
0.38
 44
1.05156
 45
0.0
 46
0.0
 47
0.0
 48
0.0
 71
     0
 72
     0
 73
     0
 74
     0
 75
     0
 76
     0
 77
     1
 78
     0
 79
     0
140
3.5052
141
0.09
142
0.0
143
25.4
144
1.0
145
0.0
146
0.5
147
1.7526
148
0.0
170
     0
171
     2
172
     0
173
     0
174
     0
175
     0
176
     7
177
     7
178
     7
179
     0
271
     2
272
     4
273
     2
274
     2
275
     0
276
     0
277
     2
278
    46
279
     0
280
     0
281
     0
282
     0
283
     1
284
     0
285
     0
286
     0
288
     0
289
     3
340
17
341
0
342
0
343
0
344
0
371
    -2
372
    -2
  0
ENDTAB
  0
TABLE
  2
BLOCK_RECORD
  5
1
100
AcDbSymbolTable
 70
     0
  0
BLOCK_RECORD
  5
A
100
AcDbSymbolTableRecord
100
AcDbBlockTableRecord
  2
*MODEL_SPACE
340
20
  0
BLOCK_RECORD
  5
B
100
AcDbSymbolTableRecord
100
AcDbBlockTableRecord
  2
*PAPER_SPACE
340
21
  0
ENDTAB
  0
ENDSEC
  0
SECTION
  2
BLOCKS
  0
BLOCK
  5
D
100
AcDbEntity
  8
0
390
0
100
AcDbBlockBegin
  2
*MODEL_SPACE
 70
     0
 10
0.0
 20
0.0
 30
0.0
  3
*MODEL_SPACE
  1

  0
ENDBLK
  5
E
100
AcDbEntity
  8
0
390
0
100
AcDbBlockEnd
  0
BLOCK
  5
F
100
AcDbEntity
 67
     1
  8
0
390
0
100
AcDbBlockBegin
  2
*PAPER_SPACE
 70
     0
 10
0.0
 20
0.0
 30
0.0
  3
*PAPER_SPACE
  1

  0
ENDBLK
  5
10
100
AcDbEntity
 67
     1
  8
0
390
0
100
AcDbBlockEnd
  0
ENDSEC
  0
SECTION
  2
ENTITIES
  0
LINE
  5
27
100
AcDbEntity
  8
0
390
0
  6
Continuous
 62
     7
100
AcDbLine
 10
-7.443631
 20
-8.660342
 30
0.0
 11
-7.443631
 21
-11.479008
 31
0.0
  0
ELLIPSE
  5
28
100
AcDbEntity
  8
0
390
0
  6
Continuous
 62
     7
100
AcDbEllipse
 10
-7.4
 20
-9.314274
 30
0.0
 11
2.5000000000000022
 21
-0.0000000000000278
 31
0.0
210
0.0
220
0.0
230
1.0
 40
0.866025
 41
3.1415926535898002
 42
4.6949356878647563
  0
LINE
  5
29
100
AcDbEntity
  8
0
390
0
  6
Continuous
 62
     7
100
AcDbLine
 10
-9.9
 20
-9.314274
 30
0.0
 11
-9.9
 21
-8.660342
 31
0.0
  0
LINE
  5
2A
100
AcDbEntity
  8
0
390
0
  6
Continuous
 62
     7
100
AcDbLine
 10
-7.443631
 20
-8.660342
 30
0.0
 11
-9.9
 21
-8.660342
 31
0.0
  0
LINE
  5
2B
100
AcDbEntity
  8
0
390
0
  6
Continuous
 62
     7
100
AcDbLine
 10
-9.9
 20
8.660342
 30
0.0
 11
-9.9
 21
9.314275
 31
0.0
  0
ELLIPSE
  5
2C
100
AcDbEntity
  8
0
390
0
  6
Continuous
 62
     7
100
AcDbEllipse
 10
-7.4
 20
9.314275
 30
0.0
 11
-2.5000000000000022
 21
0.0
 31
0.0
210
0.0
220
0.0
230
1.0
 40
0.866025
 41
4.7298422729046319
 42
6.28318530717958
  0
LINE
  5
2D
100
AcDbEntity
  8
0
390
0
  6
Continuous
 62
     7
100
AcDbLine
 10
-7.443631
 20
11.479008
 30
0.0
 11
-7.443631
 21
8.660342
 31
0.0
  0
LINE
  5
2E
100
AcDbEntity
  8
0
390
0
  6
Continuous
 62
     7
100
AcDbLine
 10
-9.9
 20
8.660342
 30
0.0
 11
-7.443631
 21
8.660342
 31
0.0
  0
LINE
  5
2F
100
AcDbEntity
  8
0
390
0
  6
Continuous
 62
     7
100
AcDbLine
 10
-7.443631
 20
-20.13935
 30
0.0
 11
-7.443579
 21
-20.571344
 31
0.0
  0
LINE
  5
30
100
AcDbEntity
  8
0
390
0
  6
Continuous
 62
     7
100
AcDbLine
 10
-9.9
 20
-18.071542
 30
0.0
 11
-9.9
 21
-17.974616
 31
0.0
  0
ELLIPSE
  5
31
100
AcDbEntity
  8
0
390
0
  6
Continuous
 62
     7
100
AcDbEllipse
 10
-7.4
 20
-17.974616
 30
0.0
 11
2.5000000000000022
 21
-0.0000000000000278
 31
0.0
210
0.0
220
0.0
230
1.0
 40
0.866025
 41
3.1415926535898002
 42
4.6949356878647546
  0
LINE
  5
32
100
AcDbEntity
  8
0
390
0
  6
Continuous
 62
     7
100
AcDbLine
 10
-9.9
 20
17.974617
 30
0.0
 11
-9.9
 21
18.071543
 31
0.0
  0
LINE
  5
33
100
AcDbEntity
  8
0
390
0
  6
Continuous
 62
     7
100
AcDbLine
 10
-7.443579
 20
20.571344
 30
0.0
 11
-7.443631
 21
20.13935
 31
0.0
  0
ELLIPSE
  5
34
100
AcDbEntity
  8
0
390
0
  6
Continuous
 62
     7
100
AcDbEllipse
 10
-7.4
 20
17.974617
 30
0.0
 11
-2.5000000000000022
 21
0.0
 31
0.0
210
0.0
220
0.0
230
1.0
 40
0.866025
 41
4.7298422729046319
 42
6.28318530717958
  0
LINE
  5
35
100
AcDbEntity
  8
0
390
0
  6
Continuous
 62
     7
100
AcDbLine
 10
-9.9
 20
9.314275
 30
0.0
 11
-9.9
 21
17.974617
 31
0.0
  0
LINE
  5
36
100
AcDbEntity
  8
0
390
0
  6
Continuous
 62
     7
100
AcDbLine
 10
-9.9
 20
-8.660342
 30
0.0
 11
-9.9
 21
8.660342
 31
0.0
  0
LINE
  5
37
100
AcDbEntity
  8
0
390
0
  6
Continuous
 62
     7
100
AcDbLine
 10
-9.9
 20
-17.974616
 30
0.0
 11
-9.9
 21
-9.314274
 31
0.0
  0
LINE
  5
38
100
AcDbEntity
  8
0
390
0
  6
Continuous
 62
     7
100
AcDbLine
 10
-7.443631
 20
-11.479008
 30
0.0
 11
-7.443631
 21
-20.13935
 31
0.0
  0
LINE
  5
39
100
AcDbEntity
  8
0
390
0
  6
Continuous
 62
     7
100
AcDbLine
 10
-7.443631
 20
8.660342
 30
0.0
 11
-7.443631
 21
-8.660342
 31
0.0
  0
LINE
  5
3A
100
AcDbEntity
  8
0
390
0
  6
Continuous
 62
     7
100
AcDbLine
 10
-7.443631
 20
20.13935
 30
0.0
 11
-7.443631
 21
11.479008
 31
0.0
  0
LINE
  5
3B
100
AcDbEntity
  8
0
390
0
  6
Continuous
 62
     7
100
AcDbLine
 10
-7.443631
 20
-8.660342
 30
0.0
 11
2.404305
 21
-8.660342
 31
0.0
  0
LINE
  5
3C
100
AcDbEntity
  8
0
390
0
  6
Continuous
 62
     7
100
AcDbLine
 10
2.420034
 20
-8.697678
 30
0.0
 11
2.404305
 21
-8.660342
 31
0.0
  0
LINE
  5
3D
100
AcDbEntity
  8
0
390
0
  6
Continuous
 62
     7
100
AcDbLine
 10
2.604316
 20
-9.248399
 30
0.0
 11
2.420034
 21
-8.697678
 31
0.0
  0
ARC
  5
3E
100
AcDbEntity
  8
0
390
0
  6
Continuous
 62
     7
100
AcDbCircle
 10
-1.712698
 20
-10.270124
 30
0.0
 40
4.436275
210
0.0
220
0.0
230
1.0
100
AcDbArc
 50
346.684579
 51
13.315421
  0
LINE
  5
3F
100
AcDbEntity
  8
0
390
0
  6
Continuous
 62
     7
100
AcDbLine
 10
2.420034
 20
-11.609263
 30
0.0
 11
2.604316
 21
-11.29185
 31
0.0
  0
LINE
  5
40
100
AcDbEntity
  8
0
390
0
  6
Continuous
 62
     7
100
AcDbLine
 10
2.404305
 20
-11.627874
 30
0.0
 11
2.420034
 21
-11.609263
 31
0.0
  0
LINE
  5
41
100
AcDbEntity
  8
0
390
0
  6
Continuous
 62
     7
100
AcDbLine
 10
-7.443631
 20
-11.479008
 30
0.0
 11
2.404305
 21
-11.627874
 31
0.0
  0
LINE
  5
42
100
AcDbEntity
  8
0
390
0
  6
Continuous
 62
     7
100
AcDbLine
 10
-7.443631
 20
11.479008
 30
0.0
 11
2.404305
 21
11.627875
 31
0.0
  0
LINE
  5
43
100
AcDbEntity
  8
0
390
0
  6
Continuous
 62
     7
100
AcDbLine
 10
2.420034
 20
11.609263
 30
0.0
 11
2.404305
 21
11.627875
 31
0.0
  0
LINE
  5
44
100
AcDbEntity
  8
0
390
0
  6
Continuous
 62
     7
100
AcDbLine
 10
2.604316
 20
11.291851
 30
0.0
 11
2.420034
 21
11.609263
 31
0.0
  0
ARC
  5
45
100
AcDbEntity
  8
0
390
0
  6
Continuous
 62
     7
100
AcDbCircle
 10
-1.68082
 20
10.270125
 30
0.0
 40
4.40526
210
0.0
220
0.0
230
1.0
100
AcDbArc
 50
346.58909
 51
13.41091
  0
LINE
  5
46
100
AcDbEntity
  8
0
390
0
  6
Continuous
 62
     7
100
AcDbLine
 10
2.420034
 20
8.697679
 30
0.0
 11
2.604316
 21
9.248399
 31
0.0
  0
LINE
  5
47
100
AcDbEntity
  8
0
390
0
  6
Continuous
 62
     7
100
AcDbLine
 10
2.404305
 20
8.660342
 30
0.0
 11
2.420034
 21
8.697679
 31
0.0
  0
LINE
  5
48
100
AcDbEntity
  8
0
390
0
  6
Continuous
 62
     7
100
AcDbLine
 10
-7.443631
 20
8.660342
 30
0.0
 11
2.404305
 21
8.660342
 31
0.0
  0
LINE
  5
49
100
AcDbEntity
  8
0
390
0
  6
Continuous
 62
     7
100
AcDbLine
 10
2.604316
 20
20.54025
 30
0.0
 11
2.72534
 21
20.748631
 31
0.0
  0
LINE
  5
4A
100
AcDbEntity
  8
0
390
0
  6
Continuous
 62
     7
100
AcDbLine
 10
2.420034
 20
20.306942
 30
0.0
 11
2.604316
 21
20.54025
 31
0.0
  0
LINE
  5
4B
100
AcDbEntity
  8
0
390
0
  6
Continuous
 62
     7
100
AcDbLine
 10
2.404305
 20
20.288217
 30
0.0
 11
2.420034
 21
20.306942
 31
0.0
  0
LINE
  5
4C
100
AcDbEntity
  8
0
390
0
  6
Continuous
 62
     7
100
AcDbLine
 10
-7.443631
 20
20.13935
 30
0.0
 11
2.404305
 21
20.288217
 31
0.0
  0
LINE
  5
4D
100
AcDbEntity
  8
0
390
0
  6
Continuous
 62
     7
100
AcDbLine
 10
-7.443631
 20
-20.13935
 30
0.0
 11
2.404305
 21
-20.288216
 31
0.0
  0
LINE
  5
4E
100
AcDbEntity
  8
0
390
0
  6
Continuous
 62
     7
100
AcDbLine
 10
2.420034
 20
-20.306941
 30
0.0
 11
2.404305
 21
-20.288216
 31
0.0
  0
LINE
  5
4F
100
AcDbEntity
  8
0
390
0
  6
Continuous
 62
     7
100
AcDbLine
 10
2.604316
 20
-20.540249
 30
0.0
 11
2.420034
 21
-20.306941
 31
0.0
  0
LINE
  5
50
100
AcDbEntity
  8
0
390
0
  6
Continuous
 62
     7
100
AcDbLine
 10
2.72534
 20
-20.74863
 30
0.0
 11
2.604316
 21
-20.540249
 31
0.0
  0
ARC
  5
51
100
AcDbEntity
  8
0
390
0
  6
Continuous
 62
     7
100
AcDbCircle
 10
102.682956
 20
0.0
 30
0.0
 40
98.540517
210
0.0
220
0.0
230
0.9999999999999999
100
AcDbArc
 50
175.253791
 51
184.746209
  0
ELLIPSE
  5
52
100
AcDbEntity
  8
0
390
0
  6
Continuous
 62
     7
100
AcDbEllipse
 10
2.360674
 20
-8.660342
 30
0.0
 11
-2.4301015601466416
 21
-0.5870318623148185
 31
0.0
210
0.0
220
0.0
230
1.0
 40
0.004099
 41
1.5877615886517302
 42
2.6295956717540134
  0
ELLIPSE
  5
53
100
AcDbEntity
  8
0
390
0
  6
Continuous
 62
     7
100
AcDbEllipse
 10
2.360674
 20
8.660342
 30
0.0
 11
-2.4301015601574938
 21
0.5870318622699655
 31
0.0
210
0.0
220
0.0
230
1.0
 40
0.004099
 41
3.6535896354062536
 42
4.6954237177125675
  0
ARC
  5
54
100
AcDbEntity
  8
0
390
0
  6
Continuous
 62
     7
100
AcDbCircle
 10
28.130425
 20
-17.062082
 30
0.0
 40
23.998884
210
0.0
220
0.0
230
1.0
100
AcDbArc
 50
170.219636
 51
189.780364
  0
ELLIPSE
  5
55
100
AcDbEntity
  8
0
390
0
  6
Continuous
 62
     7
100
AcDbEllipse
 10
2.360674
 20
-22.45295
 30
0.0
 11
-2.2541322820497642
 21
-1.081151078721726
 31
0.0
210
0.0
220
0.0
230
1.0
 40
0.839755
 41
3.2697053447027229
 42
4.3115394278050072
  0
ELLIPSE
  5
56
100
AcDbEntity
  8
0
390
0
  6
Continuous
 62
     7
100
AcDbEllipse
 10
2.360674
 20
-13.792608
 30
0.0
 11
-2.247909464756892
 21
1.0940306386278409
 31
0.0
210
0.0
220
0.0
230
0.9999999999999999
 40
0.843854
 41
4.0422905010633192
 42
5.0841245833673314
  0
ELLIPSE
  5
57
100
AcDbEntity
  8
0
390
0
  6
Continuous
 62
     7
100
AcDbEllipse
 10
2.360674
 20
13.792609
 30
0.0
 11
-2.2479094647216979
 21
-1.0940306387001164
 31
0.0
210
0.0
220
0.0
230
1.0
 40
0.843854
 41
1.1990607229675452
 42
2.2408948060698299
  0
ELLIPSE
  5
58
100
AcDbEntity
  8
0
390
0
  6
Continuous
 62
     7
100
AcDbEllipse
 10
2.360674
 20
22.452951
 30
0.0
 11
2.2541322856890753
 21
-1.08115107113399
 31
0.0
210
0.0
220
0.0
230
0.9999999999999999
 40
0.839755
 41
5.1132385310034634
 42
6.1550726125943767
  0
LINE
  5
59
100
AcDbEntity
  8
0
390
0
  6
Continuous
 62
     7
100
AcDbLine
 10
4.578053
 20
21.619117
 30
0.0
 11
4.561311
 21
21.413786
 31
0.0
  0
ELLIPSE
  5
5A
100
AcDbEntity
  8
0
390
0
  6
Continuous
 62
     7
100
AcDbEllipse
 10
2.5607
 20
22.890156
 30
0.0
 11
2.3359214635791936
 21
-0.8907698445670409
 31
0.0
210
0.0
220
0.0
230
1.0
 40
0.93139
 41
5.0712602025041944
 42
5.9928235783649715
  0
LINE
  5
5B
100
AcDbEntity
  8
0
390
0
  6
Continuous
 62
     7
100
AcDbLine
 10
4.561311
 20
-21.413785
 30
0.0
 11
4.578053
 21
-21.619117
 31
0.0
  0
ELLIPSE
  5
5C
100
AcDbEntity
  8
0
390
0
  6
Continuous
 62
     7
100
AcDbEllipse
 10
2.5607
 20
-22.890155
 30
0.0
 11
-2.3359214646082869
 21
-0.8907698418684495
 31
0.0
210
0.0
220
0.0
230
1.0
 40
0.93139
 41
3.4319543834923727
 42
4.3535177593368921
  0
LINE
  5
5D
100
AcDbEntity
  8
0
390
0
  6
Continuous
 62
     7
100
AcDbLine
 10
4.561311
 20
-9.172886
 30
0.0
 11
4.561311
 21
-12.240899
 31
0.0
  0
ELLIPSE
  5
5E
100
AcDbEntity
  8
0
390
0
  6
Continuous
 62
     7
100
AcDbEllipse
 10
2.5607
 20
-13.204725
 30
0.0
 11
-2.4496628801543574
 21
0.4991510528827015
 31
0.0
210
0.0
220
0.0
230
1.0
 40
0.760257
 41
3.9269202578545603
 42
4.8484836336676436
  0
ELLIPSE
  5
5F
100
AcDbEntity
  8
0
390
0
  6
Continuous
 62
     7
100
AcDbEllipse
 10
2.5607
 20
-9.68543
 30
0.0
 11
-2.4782419962771085
 21
-0.3291148855467108
 31
0.0
210
0.0
220
0.0
230
1.0
 40
0.171133
 41
3.7505066332770962
 42
4.6720700091211453
  0
LINE
  5
60
100
AcDbEntity
  8
0
390
0
  6
Continuous
 62
     7
100
AcDbLine
 10
4.561311
 20
12.2409
 30
0.0
 11
4.561311
 21
9.172886
 31
0.0
  0
ELLIPSE
  5
61
100
AcDbEntity
  8
0
390
0
  6
Continuous
 62
     7
100
AcDbEllipse
 10
2.5607
 20
9.685431
 30
0.0
 11
-2.4782419961972835
 21
0.3291148861477578
 31
0.0
210
0.0
220
0.0
230
0.9999999999999999
 40
0.171133
 41
1.6111152981068864
 42
2.532678673919031
  0
ELLIPSE
  5
62
100
AcDbEntity
  8
0
390
0
  6
Continuous
 62
     7
100
AcDbEllipse
 10
2.5607
 20
13.204726
 30
0.0
 11
-2.4496628802582743
 21
-0.4991510523726928
 31
0.0
210
0.0
220
0.0
230
1.0
 40
0.760257
 41
1.4347016736631619
 42
2.3562650495080937
  0
LINE
  5
63
100
AcDbEntity
  8
0
390
0
  6
Continuous
 62
     7
100
AcDbLine
 10
4.480337
 20
-8.153466
 30
0.0
 11
4.488202
 21
-8.210755
 31
0.0
  0
ELLIPSE
  5
64
100
AcDbEntity
  8
0
390
0
  6
Continuous
 62
     7
100
AcDbEllipse
 10
2.376403
 20
-8.725702
 30
0.0
 11
-2.4311152470564981
 21
-0.58281957373571
 31
0.0
210
0.0
220
0.0
230
1.0
 40
0.006833
 41
3.6582738806773856
 42
4.6928029459718887
  0
LINE
  5
65
100
AcDbEntity
  8
0
390
0
  6
Continuous
 62
     7
100
AcDbLine
 10
4.480337
 20
-21.138815
 30
0.0
 11
4.488202
 21
-21.158567
 31
0.0
  0
ELLIPSE
  5
66
100
AcDbEntity
  8
0
390
0
  6
Continuous
 62
     7
100
AcDbEllipse
 10
2.376403
 20
-22.485551
 30
0.0
 11
-2.2490705372813222
 21
-1.0916417536596112
 31
0.0
210
0.0
220
0.0
230
1.0
 40
0.84556
 41
3.2704609947864962
 42
4.3049900600804198
  0
LINE
  5
67
100
AcDbEntity
  8
0
390
0
  6
Continuous
 62
     7
100
AcDbLine
 10
4.480337
 20
12.98535
 30
0.0
 11
4.488202
 21
12.947812
 31
0.0
  0
ELLIPSE
  5
68
100
AcDbEntity
  8
0
390
0
  6
Continuous
 62
     7
100
AcDbEllipse
 10
2.376403
 20
13.759849
 30
0.0
 11
-2.2593297921100763
 21
-1.0702471165500993
 31
0.0
210
0.0
220
0.0
230
0.9999999999999999
 40
0.838727
 41
1.2105625450532442
 42
2.2450916103467766
  0
LINE
  5
69
100
AcDbEntity
  8
0
390
0
  6
Continuous
 62
     7
100
AcDbLine
 10
4.488202
 20
8.210756
 30
0.0
 11
4.480337
 21
8.153466
 31
0.0
  0
ELLIPSE
  5
6A
100
AcDbEntity
  8
0
390
0
  6
Continuous
 62
     7
100
AcDbEllipse
 10
2.376403
 20
8.725703
 30
0.0
 11
-2.4311152470549158
 21
0.5828195737422881
 31
0.0
210
0.0
220
0.0
230
1.0
 40
0.006833
 41
1.5903823612066084
 42
2.6249114265021527
  0
LINE
  5
6B
100
AcDbEntity
  8
0
390
0
  6
Continuous
 62
     7
100
AcDbLine
 10
4.488202
 20
-12.947811
 30
0.0
 11
4.480337
 21
-12.985349
 31
0.0
  0
ELLIPSE
  5
6C
100
AcDbEntity
  8
0
390
0
  6
Continuous
 62
     7
100
AcDbEllipse
 10
2.376403
 20
-13.759848
 30
0.0
 11
-2.2593297921037756
 21
1.0702471165633942
 31
0.0
210
0.0
220
0.0
230
0.9999999999999999
 40
0.838727
 41
4.038093696837799
 42
5.0726227621321147
  0
ELLIPSE
  5
6D
100
AcDbEntity
  8
0
390
0
  6
Continuous
 62
     7
100
AcDbEllipse
 10
2.376403
 20
22.485551
 30
0.0
 11
2.2490705372811282
 21
-1.0916417536599998
 31
0.0
210
0.0
220
0.0
230
1.0
 40
0.84556
 41
5.1197879006889693
 42
6.154316965983023
  0
LINE
  5
6E
100
AcDbEntity
  8
0
390
0
  6
Continuous
 62
     7
100
AcDbLine
 10
4.488202
 20
21.158567
 30
0.0
 11
4.480337
 21
21.138816
 31
0.0
  0
LINE
  5
6F
100
AcDbEntity
  8
0
390
0
  6
Continuous
 62
     7
100
AcDbLine
 10
4.488202
 20
12.947812
 30
0.0
 11
4.561311
 21
12.2409
 31
0.0
  0
LINE
  5
70
100
AcDbEntity
  8
0
390
0
  6
Continuous
 62
     7
100
AcDbLine
 10
4.488202
 20
-21.158567
 30
0.0
 11
4.561311
 21
-21.413785
 31
0.0
  0
LINE
  5
71
100
AcDbEntity
  8
0
390
0
  6
Continuous
 62
     7
100
AcDbLine
 10
4.561311
 20
21.413786
 30
0.0
 11
4.488202
 21
21.158567
 31
0.0
  0
LINE
  5
72
100
AcDbEntity
  8
0
390
0
  6
Continuous
 62
     7
100
AcDbLine
 10
4.561311
 20
-12.240899
 30
0.0
 11
4.488202
 21
-12.947811
 31
0.0
  0
LINE
  5
73
100
AcDbEntity
  8
0
390
0
  6
Continuous
 62
     7
100
AcDbLine
 10
4.488202
 20
-8.210755
 30
0.0
 11
4.561311
 21
-9.172886
 31
0.0
  0
LINE
  5
74
100
AcDbEntity
  8
0
390
0
  6
Continuous
 62
     7
100
AcDbLine
 10
4.561311
 20
9.172886
 30
0.0
 11
4.488202
 21
8.210756
 31
0.0
  0
ELLIPSE
  5
75
100
AcDbEntity
  8
0
390
0
  6
Continuous
 62
     7
100
AcDbEllipse
 10
6.6
 20
7.695809
 30
0.0
 11
-2.5000000000000022
 21
0.0
 31
0.0
210
0.0
220
0.0
230
1.0
 40
0.384856
 41
4.7647488579445199
 42
5.7184295488917201
  0
LINE
  5
76
100
AcDbEntity
  8
0
390
0
  6
Continuous
 62
     7
100
AcDbLine
 10
6.46916
 20
8.656631
 30
0.0
 11
6.46916
 21
-8.656631
 31
0.0
  0
ELLIPSE
  5
77
100
AcDbEntity
  8
0
390
0
  6
Continuous
 62
     7
100
AcDbEllipse
 10
6.6
 20
-7.695808
 30
0.0
 11
-2.5000000000000022
 21
0.0
 31
0.0
210
0.0
220
0.0
230
1.0
 40
0.384856
 41
0.5647557582877827
 42
1.5184364492350666
  0
ELLIPSE
  5
78
100
AcDbEntity
  8
0
390
0
  6
Continuous
 62
     7
100
AcDbEllipse
 10
6.6
 20
19.831583
 30
0.0
 11
2.5000000000000022
 21
0.0
 31
0.0
210
0.0
220
0.0
230
1.0
 40
0.991749
 41
1.6231562043547298
 42
2.5768368953020566
  0
LINE
  5
79
100
AcDbEntity
  8
0
390
0
  6
Continuous
 62
     7
100
AcDbLine
 10
6.46916
 20
22.307558
 30
0.0
 11
6.46916
 21
13.650928
 31
0.0
  0
ELLIPSE
  5
7A
100
AcDbEntity
  8
0
390
0
  6
Continuous
 62
     7
100
AcDbEllipse
 10
6.6
 20
12.135775
 30
0.0
 11
-2.5000000000000022
 21
0.0
 31
0.0
210
0.0
220
0.0
230
0.9999999999999999
 40
0.606893
 41
4.7647488579445199
 42
5.7184295488918861
  0
ELLIPSE
  5
7B
100
AcDbEntity
  8
0
390
0
  6
Continuous
 62
     7
100
AcDbEllipse
 10
6.6
 20
-12.135774
 30
0.0
 11
-2.5000000000000022
 21
0.0
 31
0.0
210
0.0
220
0.0
230
0.9999999999999999
 40
0.606893
 41
0.5647557582877636
 42
1.5184364492350675
  0
LINE
  5
7C
100
AcDbEntity
  8
0
390
0
  6
Continuous
 62
     7
100
AcDbLine
 10
6.46916
 20
-13.650927
 30
0.0
 11
6.46916
 21
-22.307558
 31
0.0
  0
ELLIPSE
  5
7D
100
AcDbEntity
  8
0
390
0
  6
Continuous
 62
     7
100
AcDbEllipse
 10
6.6
 20
-19.831583
 30
0.0
 11
-2.5000000000000022
 21
-0.0000000000000278
 31
0.0
210
0.0
220
0.0
230
1.0
 40
0.991749
 41
0.5647557582877189
 42
1.5184364492350555
  0
LINE
  5
7E
100
AcDbEntity
  8
0
390
0
  6
Continuous
 62
     7
100
AcDbLine
 10
6.343506
 20
22.486558
 30
0.0
 11
6.431083
 21
22.426853
 31
0.0
  0
ELLIPSE
  5
7F
100
AcDbEntity
  8
0
390
0
  6
Continuous
 62
     7
100
AcDbEllipse
 10
6.561923
 20
19.937416
 30
0.0
 11
1.7001258543388742
 21
1.8329135493548865
 31
0.0
210
0.0
220
0.0
230
1.0
 40
0.994486
 41
0.8031041835343814
 42
1.6822642827378784
  0
ARC
  5
80
100
AcDbEntity
  8
0
390
0
  6
Continuous
 62
     7
100
AcDbCircle
 10
18.974297
 20
11.213427
 30
0.0
 40
12.62926
210
0.0
220
0.0
230
1.0
100
AcDbArc
 50
173.307918
 51
186.692082
  0
ELLIPSE
  5
81
100
AcDbEntity
  8
0
390
0
  6
Continuous
 62
     7
100
AcDbEllipse
 10
6.561923
 20
8.660342
 30
0.0
 11
-2.4908644720285644
 21
-0.2135279419324954
 31
0.0
210
0.0
220
0.0
230
1.0
 40
0.435481
 41
4.7275904378510045
 42
5.6067505370219122
  0
ELLIPSE
  5
82
100
AcDbEntity
  8
0
390
0
  6
Continuous
 62
     7
100
AcDbEllipse
 10
6.561923
 20
11.277074
 30
0.0
 11
-2.4892286277480857
 21
0.2318207039919418
 31
0.0
210
0.0
220
0.0
230
1.0
 40
0.559005
 41
4.8169173889736667
 42
5.6960774881610865
  0
LINE
  5
83
100
AcDbEntity
  8
0
390
0
  6
Continuous
 62
     7
100
AcDbLine
 10
6.431083
 20
-22.426852
 30
0.0
 11
6.343506
 21
-22.486557
 31
0.0
  0
ELLIPSE
  5
84
100
AcDbEntity
  8
0
390
0
  6
Continuous
 62
     7
100
AcDbEllipse
 10
6.561923
 20
-19.937415
 30
0.0
 11
-1.7001258637522054
 21
1.8329135406234542
 31
0.0
210
0.0
220
0.0
230
1.0
 40
0.994486
 41
1.4593283657548319
 42
2.3384884649418565
  0
ARC
  5
85
100
AcDbEntity
  8
0
390
0
  6
Continuous
 62
     7
100
AcDbCircle
 10
19.261086
 20
-11.213426
 30
0.0
 40
12.914139
210
0.0
220
0.0
230
1.0
100
AcDbArc
 50
173.456194
 51
186.543806
  0
ELLIPSE
  5
86
100
AcDbEntity
  8
0
390
0
  6
Continuous
 62
     7
100
AcDbEllipse
 10
6.561923
 20
-11.277073
 30
0.0
 11
-2.4892286275468853
 21
-0.2318207061523803
 31
0.0
210
0.0
220
0.0
230
1.0
 40
0.559005
 41
0.5871078185549373
 42
1.4662679177269022
  0
ELLIPSE
  5
87
100
AcDbEntity
  8
0
390
0
  6
Continuous
 62
     7
100
AcDbEllipse
 10
6.561923
 20
-8.660342
 30
0.0
 11
-2.4908644722014541
 21
0.2135279399155809
 31
0.0
210
0.0
220
0.0
230
1.0
 40
0.435481
 41
0.6764347697832966
 42
1.5555948689698234
  0
LINE
  5
88
100
AcDbEntity
  8
0
390
0
  6
Continuous
 62
     7
100
AcDbLine
 10
6.431083
 20
9.741695
 30
0.0
 11
6.46916
 21
8.656631
 31
0.0
  0
LINE
  5
89
100
AcDbEntity
  8
0
390
0
  6
Continuous
 62
     7
100
AcDbLine
 10
6.431083
 20
-12.685158
 30
0.0
 11
6.46916
 21
-13.650927
 31
0.0
  0
LINE
  5
8A
100
AcDbEntity
  8
0
390
0
  6
Continuous
 62
     7
100
AcDbLine
 10
6.46916
 20
-8.656631
 30
0.0
 11
6.431083
 21
-9.741694
 31
0.0
  0
LINE
  5
8B
100
AcDbEntity
  8
0
390
0
  6
Continuous
 62
     7
100
AcDbLine
 10
6.46916
 20
-22.307558
 30
0.0
 11
6.431083
 21
-22.426852
 31
0.0
  0
LINE
  5
8C
100
AcDbEntity
  8
0
390
0
  6
Continuous
 62
     7
100
AcDbLine
 10
6.46916
 20
13.650928
 30
0.0
 11
6.431083
 21
12.685158
 31
0.0
  0
LINE
  5
8D
100
AcDbEntity
  8
0
390
0
  6
Continuous
 62
     7
100
AcDbLine
 10
6.431083
 20
22.426853
 30
0.0
 11
6.46916
 21
22.307558
 31
0.0
  0
LINE
  5
8E
100
AcDbEntity
  8
0
390
0
  6
Continuous
 62
     7
100
AcDbLine
 10
9.9
 20
-22.672945
 30
0.0
 11
9.9
 21
0.0
 31
0.0
  0
LINE
  5
8F
100
AcDbEntity
  8
0
390
0
  6
Continuous
 62
     7
100
AcDbLine
 10
9.9
 20
0.0
 30
0.0
 11
9.9
 21
22.672946
 31
0.0
  0
POLYLINE
  5
90
100
AcDbEntity
  8
0
390
0
  6
Continuous
 62
     7
100
AcDb2dPolyline
 66
     1
 10
0.0
 20
0.0
 30
0.0
 40
0.1
 41
0.1
  0
VERTEX
  5
91
100
AcDbEntity
  8
0
390
0
 62
     7
100
AcDbVertex
100
AcDb2dVertex
 10
2.404305
 20
-8.660342
 30
0.0
 42
-0.056313
  0
VERTEX
  5
92
100
AcDbEntity
  8
0
390
0
 62
     7
100
AcDbVertex
100
AcDb2dVertex
 10
1.752873
 20
-2.307006
 30
0.0
 42
-0.059227
  0
VERTEX
  5
93
100
AcDbEntity
  8
0
390
0
 62
     7
100
AcDbVertex
100
AcDb2dVertex
 10
2.404305
 20
8.660342
 30
0.0
  0
SEQEND
  5
94
100
AcDbEntity
  8
0
390
0
  0
POLYLINE
  5
95
100
AcDbEntity
  8
0
390
0
  6
Continuous
 62
     7
100
AcDb2dPolyline
 66
     1
 10
0.0
 20
0.0
 30
0.0
 40
0.1
 41
0.1
  0
VERTEX
  5
96
100
AcDbEntity
  8
0
390
0
 62
     7
100
AcDbVertex
100
AcDb2dVertex
 10
4.480337
 20
21.138816
 30
0.0
  0
VERTEX
  5
97
100
AcDbEntity
  8
0
390
0
 62
     7
100
AcDbVertex
100
AcDb2dVertex
 10
4.388839
 20
20.869412
 30
0.0
  0
VERTEX
  5
98
100
AcDbEntity
  8
0
390
0
 62
     7
100
AcDbVertex
100
AcDb2dVertex
 10
4.319328
 20
20.589237
 30
0.0
 42
0.066254
  0
VERTEX
  5
99
100
AcDbEntity
  8
0
390
0
 62
     7
100
AcDbVertex
100
AcDb2dVertex
 10
4.480337
 20
12.98535
 30
0.0
  0
SEQEND
  5
9A
100
AcDbEntity
  8
0
390
0
  0
POLYLINE
  5
9B
100
AcDbEntity
  8
0
390
0
  6
Continuous
 62
     7
100
AcDb2dPolyline
 66
     1
 10
0.0
 20
0.0
 30
0.0
 40
0.1
 41
0.1
  0
VERTEX
  5
9C
100
AcDbEntity
  8
0
390
0
 62
     7
100
AcDbVertex
100
AcDb2dVertex
 10
2.404305
 20
11.627875
 30
0.0
 42
-0.108685
  0
VERTEX
  5
9D
100
AcDbEntity
  8
0
390
0
 62
     7
100
AcDbVertex
100
AcDb2dVertex
 10
1.752873
 20
14.794695
 30
0.0
 42
-0.126049
  0
VERTEX
  5
9E
100
AcDbEntity
  8
0
390
0
 62
     7
100
AcDbVertex
100
AcDb2dVertex
 10
2.404305
 20
20.288217
 30
0.0
  0
SEQEND
  5
9F
100
AcDbEntity
  8
0
390
0
  0
POLYLINE
  5
A0
100
AcDbEntity
  8
0
390
0
  6
Continuous
 62
     7
100
AcDb2dPolyline
 66
     1
 10
0.0
 20
0.0
 30
0.0
 40
0.1
 41
0.1
  0
VERTEX
  5
A1
100
AcDbEntity
  8
0
390
0
 62
     7
100
AcDbVertex
100
AcDb2dVertex
 10
2.404305
 20
-20.288216
 30
0.0
 42
-0.107197
  0
VERTEX
  5
A2
100
AcDbEntity
  8
0
390
0
 62
     7
100
AcDbVertex
100
AcDb2dVertex
 10
1.752873
 20
-17.101701
 30
0.0
 42
-0.093128
  0
VERTEX
  5
A3
100
AcDbEntity
  8
0
390
0
 62
     7
100
AcDbVertex
100
AcDb2dVertex
 10
2.179305
 20
-12.168437
 30
0.0
  0
VERTEX
  5
A4
100
AcDbEntity
  8
0
390
0
 62
     7
100
AcDbVertex
100
AcDb2dVertex
 10
2.404305
 20
-11.627874
 30
0.0
  0
SEQEND
  5
A5
100
AcDbEntity
  8
0
390
0
  0
LINE
  5
A6
100
AcDbEntity
  8
0
390
0
  6
Continuous
 62
     7
100
AcDbLine
 10
9.9
 20
22.672946
 30
0.0
 11
6.344822
 21
22.486627
 31
0.0
  0
LINE
  5
A7
100
AcDbEntity
  8
0
390
0
  6
Continuous
 62
     7
100
AcDbLine
 10
6.344822
 20
-22.486626
 30
0.0
 11
9.9
 21
-22.672945
 31
0.0
  0
ARC
  5
A8
100
AcDbEntity
  8
0
390
0
  6
Continuous
 62
     7
100
AcDbCircle
 10
6.474346
 20
19.989984
 30
0.0
 40
2.5
210
0.0
220
0.0
230
1.0
100
AcDbArc
 50
93.0
 51
139.333629
  0
ARC
  5
A9
100
AcDbEntity
  8
0
390
0
  6
Continuous
 62
     7
100
AcDbCircle
 10
6.474346
 20
-19.989984
 30
0.0
 40
2.5
210
0.0
220
0.0
230
1.0
100
AcDbArc
 50
220.666371
 51
267.0
  0
ARC
  5
AA
100
AcDbEntity
  8
0
390
0
  6
Continuous
 62
     7
100
AcDbCircle
 10
2.681761
 20
23.248251
 30
0.0
 40
2.5
210
0.0
220
0.0
230
1.0
100
AcDbArc
 50
270.998801
 51
319.333629
  0
ARC
  5
AB
100
AcDbEntity
  8
0
390
0
  6
Continuous
 62
     7
100
AcDbCircle
 10
2.681761
 20
-23.24825
 30
0.0
 40
2.5
210
0.0
220
0.0
230
1.0
100
AcDbArc
 50
40.666371
 51
89.001199
  0
LINE
  5
AC
100
AcDbEntity
  8
0
390
0
  6
Continuous
 62
     7
100
AcDbLine
 10
2.725081
 20
20.748626
 30
0.0
 11
-7.443579
 21
20.571344
 31
0.0
  0
LINE
  5
AD
100
AcDbEntity
  8
0
390
0
  6
Continuous
 62
     7
100
AcDbLine
 10
-7.443579
 20
-20.571344
 30
0.0
 11
2.72513
 21
-20.748626
 31
0.0
  0
ARC
  5
AE
100
AcDbEntity
  8
0
390
0
  6
Continuous
 62
     7
100
AcDbCircle
 10
-7.4
 20
18.071724
 30
0.0
 40
2.5
210
0.0
220
0.0
230
1.0
100
AcDbArc
 50
90.998801
 51
180.0
  0
ARC
  5
AF
100
AcDbEntity
  8
0
390
0
  6
Continuous
 62
     7
100
AcDbCircle
 10
-7.4
 20
-18.071724
 30
0.0
 40
2.5
210
0.0
220
0.0
230
1.0
100
AcDbArc
 50
180.0
 51
269.001199
  0
CIRCLE
  5
B0
100
AcDbEntity
  8
0
390
0
  6
Continuous
 62
     7
100
AcDbCircle
 10
102.577732
 20
0.0
 30
0.0
 40
22.672946
210
0.0
220
0.0
230
1.0
  0
CIRCLE
  5
B1
100
AcDbEntity
  8
0
390
0
  6
Continuous
 62
     7
100
AcDbCircle
 10
102.577732
 20
0.0
 30
0.0
 40
20.172946
210
0.0
220
0.0
230
1.0
  0
ARC
  5
B2
100
AcDbEntity
  8
0
390
0
  6
Continuous
 62
     7
100
AcDbCircle
 10
102.577732
 20
0.0
 30
0.0
 40
20.0
210
0.0
220
0.0
230
1.0
100
AcDbArc
 50
157.344444
 51
202.655556
  0
ARC
  5
B3
100
AcDbEntity
  8
0
390
0
  6
Continuous
 62
     7
100
AcDbCircle
 10
102.577732
 20
0.0
 30
0.0
 40
20.0
210
0.0
220
0.0
230
1.0
100
AcDbArc
 50
202.655556
 51
205.074212
  0
ARC
  5
B4
100
AcDbEntity
  8
0
390
0
  6
Continuous
 62
     7
100
AcDbCircle
 10
102.577732
 20
0.0
 30
0.0
 40
20.0
210
0.0
220
0.0
230
1.0
100
AcDbArc
 50
205.074212
 51
214.925788
  0
ARC
  5
B5
100
AcDbEntity
  8
0
390
0
  6
Continuous
 62
     7
100
AcDbCircle
 10
102.577732
 20
0.0
 30
0.0
 40
20.0
210
0.0
220
0.0
230
1.0
100
AcDbArc
 50
214.925788
 51
217.344444
  0
ARC
  5
B6
100
AcDbEntity
  8
0
390
0
  6
Continuous
 62
     7
100
AcDbCircle
 10
102.577732
 20
0.0
 30
0.0
 40
20.0
210
0.0
220
0.0
230
1.0
100
AcDbArc
 50
217.344444
 51
262.655556
  0
ARC
  5
B7
100
AcDbEntity
  8
0
390
0
  6
Continuous
 62
     7
100
AcDbCircle
 10
102.577732
 20
0.0
 30
0.0
 40
20.0
210
0.0
220
0.0
230
1.0
100
AcDbArc
 50
262.655556
 51
265.074212
  0
ARC
  5
B8
100
AcDbEntity
  8
0
390
0
  6
Continuous
 62
     7
100
AcDbCircle
 10
102.577732
 20
0.0
 30
0.0
 40
20.0
210
0.0
220
0.0
230
1.0
100
AcDbArc
 50
265.074212
 51
274.925788
  0
ARC
  5
B9
100
AcDbEntity
  8
0
390
0
  6
Continuous
 62
     7
100
AcDbCircle
 10
102.577732
 20
0.0
 30
0.0
 40
20.0
210
0.0
220
0.0
230
1.0
100
AcDbArc
 50
274.925788
 51
277.344444
  0
ARC
  5
BA
100
AcDbEntity
  8
0
390
0
  6
Continuous
 62
     7
100
AcDbCircle
 10
102.577732
 20
0.0
 30
0.0
 40
20.0
210
0.0
220
0.0
230
1.0
100
AcDbArc
 50
277.344444
 51
322.655556
  0
ARC
  5
BB
100
AcDbEntity
  8
0
390
0
  6
Continuous
 62
     7
100
AcDbCircle
 10
102.577732
 20
0.0
 30
0.0
 40
20.0
210
0.0
220
0.0
230
1.0
100
AcDbArc
 50
322.655556
 51
325.074212
  0
ARC
  5
BC
100
AcDbEntity
  8
0
390
0
  6
Continuous
 62
     7
100
AcDbCircle
 10
102.577732
 20
0.0
 30
0.0
 40
20.0
210
0.0
220
0.0
230
1.0
100
AcDbArc
 50
325.074212
 51
334.925788
  0
ARC
  5
BD
100
AcDbEntity
  8
0
390
0
  6
Continuous
 62
     7
100
AcDbCircle
 10
102.577732
 20
0.0
 30
0.0
 40
20.0
210
0.0
220
0.0
230
1.0
100
AcDbArc
 50
334.925788
 51
337.344444
  0
ARC
  5
BE
100
AcDbEntity
  8
0
390
0
  6
Continuous
 62
     7
100
AcDbCircle
 10
102.577732
 20
0.0
 30
0.0
 40
20.0
210
0.0
220
0.0
230
1.0
100
AcDbArc
 50
337.344444
 51
22.655556
  0
ARC
  5
BF
100
AcDbEntity
  8
0
390
0
  6
Continuous
 62
     7
100
AcDbCircle
 10
102.577732
 20
0.0
 30
0.0
 40
20.0
210
0.0
220
0.0
230
1.0
100
AcDbArc
 50
22.655556
 51
25.074212
  0
ARC
  5
C0
100
AcDbEntity
  8
0
390
0
  6
Continuous
 62
     7
100
AcDbCircle
 10
102.577732
 20
0.0
 30
0.0
 40
20.0
210
0.0
220
0.0
230
1.0
100
AcDbArc
 50
25.074212
 51
34.925788
  0
ARC
  5
C1
100
AcDbEntity
  8
0
390
0
  6
Continuous
 62
     7
100
AcDbCircle
 10
102.577732
 20
0.0
 30
0.0
 40
20.0
210
0.0
220
0.0
230
1.0
100
AcDbArc
 50
34.925788
 51
37.344444
  0
ARC
  5
C2
100
AcDbEntity
  8
0
390
0
  6
Continuous
 62
     7
100
AcDbCircle
 10
102.577732
 20
0.0
 30
0.0
 40
20.0
210
0.0
220
0.0
230
1.0
100
AcDbArc
 50
37.344444
 51
82.655556
  0
ARC
  5
C3
100
AcDbEntity
  8
0
390
0
  6
Continuous
 62
     7
100
AcDbCircle
 10
102.577732
 20
0.0
 30
0.0
 40
20.0
210
0.0
220
0.0
230
1.0
100
AcDbArc
 50
82.655556
 51
85.074212
  0
ARC
  5
C4
100
AcDbEntity
  8
0
390
0
  6
Continuous
 62
     7
100
AcDbCircle
 10
102.577732
 20
0.0
 30
0.0
 40
20.0
210
0.0
220
0.0
230
1.0
100
AcDbArc
 50
85.074212
 51
94.925788
  0
ARC
  5
C5
100
AcDbEntity
  8
0
390
0
  6
Continuous
 62
     7
100
AcDbCircle
 10
102.577732
 20
0.0
 30
0.0
 40
20.0
210
0.0
220
0.0
230
1.0
100
AcDbArc
 50
94.925788
 51
97.344444
  0
ARC
  5
C6
100
AcDbEntity
  8
0
390
0
  6
Continuous
 62
     7
100
AcDbCircle
 10
102.577732
 20
0.0
 30
0.0
 40
20.0
210
0.0
220
0.0
230
1.0
100
AcDbArc
 50
97.344444
 51
142.655556
  0
ARC
  5
C7
100
AcDbEntity
  8
0
390
0
  6
Continuous
 62
     7
100
AcDbCircle
 10
102.577732
 20
0.0
 30
0.0
 40
20.0
210
0.0
220
0.0
230
1.0
100
AcDbArc
 50
142.655556
 51
145.074212
  0
ARC
  5
C8
100
AcDbEntity
  8
0
390
0
  6
Continuous
 62
     7
100
AcDbCircle
 10
102.577732
 20
0.0
 30
0.0
 40
20.0
210
0.0
220
0.0
230
1.0
100
AcDbArc
 50
145.074212
 51
154.925788
  0
ARC
  5
C9
100
AcDbEntity
  8
0
390
0
  6
Continuous
 62
     7
100
AcDbCircle
 10
102.577732
 20
0.0
 30
0.0
 40
20.0
210
0.0
220
0.0
230
1.0
100
AcDbArc
 50
154.925788
 51
157.344444
  0
LINE
  5
CA
100
AcDbEntity
  8
0
390
0
  6
Continuous
 62
     7
100
AcDbLine
 10
84.120989
 20
7.703807
 30
0.0
 11
84.120989
 21
-7.703806
 31
0.0
  0
LINE
  5
CB
100
AcDbEntity
  8
0
390
0
  6
Continuous
 62
     7
100
AcDbLine
 10
101.270862
 20
-17.671178
 30
0.0
 11
87.927478
 21
-9.967371
 31
0.0
  0
LINE
  5
CC
100
AcDbEntity
  8
0
390
0
  6
Continuous
 62
     7
100
AcDbLine
 10
100.021052
 20
-19.835911
 30
0.0
 11
101.270862
 21
-17.671178
 31
0.0
  0
LINE
  5
CD
100
AcDbEntity
  8
0
390
0
  6
Continuous
 62
     7
100
AcDbLine
 10
86.677668
 20
-12.132105
 30
0.0
 11
100.021052
 21
-19.835911
 31
0.0
  0
LINE
  5
CE
100
AcDbEntity
  8
0
390
0
  6
Continuous
 62
     7
100
AcDbLine
 10
86.677668
 20
-12.132105
 30
0.0
 11
87.927478
 21
-9.967371
 31
0.0
  0
LINE
  5
CF
100
AcDbEntity
  8
0
390
0
  6
Continuous
 62
     7
100
AcDbLine
 10
87.120031
 20
9.50177
 30
0.0
 11
87.927478
 21
9.967372
 31
0.0
  0
ELLIPSE
  5
D0
100
AcDbEntity
  8
0
390
0
  6
Continuous
 62
     7
100
AcDbEllipse
 10
85.870221
 20
11.666504
 30
0.0
 11
-1.2475459283118329
 21
2.1664785151837007
 31
0.0
210
0.0
220
0.0
230
1.0
 40
0.06478
 41
3.1590826862655175
 42
4.5752113198760602
  0
LINE
  5
D1
100
AcDbEntity
  8
0
390
0
  6
Continuous
 62
     7
100
AcDbLine
 10
86.677668
 20
12.132106
 30
0.0
 11
87.927478
 21
9.967372
 31
0.0
  0
LINE
  5
D2
100
AcDbEntity
  8
0
390
0
  6
Continuous
 62
     7
100
AcDbLine
 10
86.620608
 20
-7.703806
 30
0.0
 11
86.620608
 21
7.703807
 31
0.0
  0
LINE
  5
D3
100
AcDbEntity
  8
0
390
0
  6
Continuous
 62
     7
100
AcDbLine
 10
84.120989
 20
-7.703806
 30
0.0
 11
86.620608
 21
-7.703806
 31
0.0
  0
LINE
  5
D4
100
AcDbEntity
  8
0
390
0
  6
Continuous
 62
     7
100
AcDbLine
 10
84.120989
 20
7.703807
 30
0.0
 11
86.620608
 21
7.703807
 31
0.0
  0
LINE
  5
D5
100
AcDbEntity
  8
0
390
0
  6
Continuous
 62
     7
100
AcDbLine
 10
86.620608
 20
7.703807
 30
0.0
 11
86.620107
 21
8.635877
 31
0.0
  0
ELLIPSE
  5
D6
100
AcDbEntity
  8
0
390
0
  6
Continuous
 62
     7
100
AcDbEllipse
 10
84.120488
 20
8.635877
 30
0.0
 11
-2.4999983950582116
 21
-0.0028327912859616
 31
0.0
210
0.0
220
0.0
230
1.0
 40
0.06478
 41
1.7079739873035611
 42
3.1241026209141007
  0
LINE
  5
D7
100
AcDbEntity
  8
0
390
0
  6
Continuous
 62
     7
100
AcDbLine
 10
87.927478
 20
-9.967371
 30
0.0
 11
87.120031
 21
-9.50177
 31
0.0
  0
ELLIPSE
  5
D8
100
AcDbEntity
  8
0
390
0
  6
Continuous
 62
     7
100
AcDbEllipse
 10
85.870221
 20
-11.666504
 30
0.0
 11
-1.2475459283118329
 21
-2.1664785151837007
 31
0.0
210
0.0
220
0.0
230
1.0
 40
0.06478
 41
1.7079739873035134
 42
3.124102620913995
  0
LINE
  5
D9
100
AcDbEntity
  8
0
390
0
  6
Continuous
 62
     7
100
AcDbLine
 10
86.620107
 20
-8.635876
 30
0.0
 11
86.620608
 21
-7.703806
 31
0.0
  0
ELLIPSE
  5
DA
100
AcDbEntity
  8
0
390
0
  6
Continuous
 62
     7
100
AcDbEllipse
 10
84.120488
 20
-8.635876
 30
0.0
 11
-2.4999983950581561
 21
0.0028327912859616
 31
0.0
210
0.0
220
0.0
230
0.9999999999999999
 40
0.06478
 41
3.1590826862654966
 42
4.5752113198760274
  0
POLYLINE
  5
DB
100
AcDbEntity
  8
0
390
0
  6
Continuous
 62
     7
100
AcDb2dPolyline
 66
     1
 10
0.0
 20
0.0
 30
0.0
 40
0.1
 41
0.1
  0
VERTEX
  5
DC
100
AcDbEntity
  8
0
390
0
 62
     7
100
AcDbVertex
100
AcDb2dVertex
 10
86.620107
 20
8.635877
 30
0.0
  0
VERTEX
  5
DD
100
AcDbEntity
  8
0
390
0
 62
     7
100
AcDbVertex
100
AcDb2dVertex
 10
86.621234
 20
8.688352
 30
0.0
  0
VERTEX
  5
DE
100
AcDbEntity
  8
0
390
0
 62
     7
100
AcDbVertex
100
AcDb2dVertex
 10
86.625082
 20
8.740616
 30
0.0
  0
VERTEX
  5
DF
100
AcDbEntity
  8
0
390
0
 62
     7
100
AcDbVertex
100
AcDb2dVertex
 10
86.631656
 20
8.792606
 30
0.0
  0
VERTEX
  5
E0
100
AcDbEntity
  8
0
390
0
 62
     7
100
AcDbVertex
100
AcDb2dVertex
 10
86.640962
 20
8.844259
 30
0.0
  0
VERTEX
  5
E1
100
AcDbEntity
  8
0
390
0
 62
     7
100
AcDbVertex
100
AcDb2dVertex
 10
86.6485
 20
8.877683
 30
0.0
  0
VERTEX
  5
E2
100
AcDbEntity
  8
0
390
0
 62
     7
100
AcDbVertex
100
AcDb2dVertex
 10
86.657231
 20
8.910985
 30
0.0
  0
VERTEX
  5
E3
100
AcDbEntity
  8
0
390
0
 62
     7
100
AcDbVertex
100
AcDb2dVertex
 10
86.667159
 20
8.944106
 30
0.0
  0
VERTEX
  5
E4
100
AcDbEntity
  8
0
390
0
 62
     7
100
AcDbVertex
100
AcDb2dVertex
 10
86.678284
 20
8.976984
 30
0.0
  0
VERTEX
  5
E5
100
AcDbEntity
  8
0
390
0
 62
     7
100
AcDbVertex
100
AcDb2dVertex
 10
86.691028
 20
9.010602
 30
0.0
  0
VERTEX
  5
E6
100
AcDbEntity
  8
0
390
0
 62
     7
100
AcDbVertex
100
AcDb2dVertex
 10
86.70507
 20
9.043909
 30
0.0
  0
VERTEX
  5
E7
100
AcDbEntity
  8
0
390
0
 62
     7
100
AcDbVertex
100
AcDb2dVertex
 10
86.720372
 20
9.076785
 30
0.0
  0
VERTEX
  5
E8
100
AcDbEntity
  8
0
390
0
 62
     7
100
AcDbVertex
100
AcDb2dVertex
 10
86.736897
 20
9.109109
 30
0.0
  0
VERTEX
  5
E9
100
AcDbEntity
  8
0
390
0
 62
     7
100
AcDbVertex
100
AcDb2dVertex
 10
86.750295
 20
9.133323
 30
0.0
  0
VERTEX
  5
EA
100
AcDbEntity
  8
0
390
0
 62
     7
100
AcDbVertex
100
AcDb2dVertex
 10
86.764372
 20
9.157151
 30
0.0
  0
VERTEX
  5
EB
100
AcDbEntity
  8
0
390
0
 62
     7
100
AcDbVertex
100
AcDb2dVertex
 10
86.784784
 20
9.189189
 30
0.0
  0
VERTEX
  5
EC
100
AcDbEntity
  8
0
390
0
 62
     7
100
AcDbVertex
100
AcDb2dVertex
 10
86.806401
 20
9.220386
 30
0.0
  0
VERTEX
  5
ED
100
AcDbEntity
  8
0
390
0
 62
     7
100
AcDbVertex
100
AcDb2dVertex
 10
86.829125
 20
9.250634
 30
0.0
  0
VERTEX
  5
EE
100
AcDbEntity
  8
0
390
0
 62
     7
100
AcDbVertex
100
AcDb2dVertex
 10
86.852857
 20
9.279824
 30
0.0
  0
VERTEX
  5
EF
100
AcDbEntity
  8
0
390
0
 62
     7
100
AcDbVertex
100
AcDb2dVertex
 10
86.878576
 20
9.309046
 30
0.0
  0
VERTEX
  5
F0
100
AcDbEntity
  8
0
390
0
 62
     7
100
AcDbVertex
100
AcDb2dVertex
 10
86.905311
 20
9.337117
 30
0.0
  0
VERTEX
  5
F1
100
AcDbEntity
  8
0
390
0
 62
     7
100
AcDbVertex
100
AcDb2dVertex
 10
86.93299
 20
9.363998
 30
0.0
  0
VERTEX
  5
F2
100
AcDbEntity
  8
0
390
0
 62
     7
100
AcDbVertex
100
AcDb2dVertex
 10
86.961539
 20
9.389652
 30
0.0
  0
VERTEX
  5
F3
100
AcDbEntity
  8
0
390
0
 62
     7
100
AcDbVertex
100
AcDb2dVertex
 10
86.978682
 20
9.404134
 30
0.0
  0
VERTEX
  5
F4
100
AcDbEntity
  8
0
390
0
 62
     7
100
AcDbVertex
100
AcDb2dVertex
 10
87.012395
 20
9.430775
 30
0.0
  0
VERTEX
  5
F5
100
AcDbEntity
  8
0
390
0
 62
     7
100
AcDbVertex
100
AcDb2dVertex
 10
87.047209
 20
9.455938
 30
0.0
  0
VERTEX
  5
F6
100
AcDbEntity
  8
0
390
0
 62
     7
100
AcDbVertex
100
AcDb2dVertex
 10
87.083096
 20
9.479609
 30
0.0
  0
VERTEX
  5
F7
100
AcDbEntity
  8
0
390
0
 62
     7
100
AcDbVertex
100
AcDb2dVertex
 10
87.120031
 20
9.50177
 30
0.0
  0
SEQEND
  5
F8
100
AcDbEntity
  8
0
390
0
  0
POLYLINE
  5
F9
100
AcDbEntity
  8
0
390
0
  6
Continuous
 62
     7
100
AcDb2dPolyline
 66
     1
 10
0.0
 20
0.0
 30
0.0
 40
0.1
 41
0.1
  0
VERTEX
  5
FA
100
AcDbEntity
  8
0
390
0
 62
     7
100
AcDbVertex
100
AcDb2dVertex
 10
87.120031
 20
-9.50177
 30
0.0
  0
VERTEX
  5
FB
100
AcDbEntity
  8
0
390
0
 62
     7
100
AcDbVertex
100
AcDb2dVertex
 10
87.07515
 20
-9.474556
 30
0.0
  0
VERTEX
  5
FC
100
AcDbEntity
  8
0
390
0
 62
     7
100
AcDbVertex
100
AcDb2dVertex
 10
87.031811
 20
-9.445092
 30
0.0
  0
VERTEX
  5
FD
100
AcDbEntity
  8
0
390
0
 62
     7
100
AcDbVertex
100
AcDb2dVertex
 10
86.990073
 20
-9.413404
 30
0.0
  0
VERTEX
  5
FE
100
AcDbEntity
  8
0
390
0
 62
     7
100
AcDbVertex
100
AcDb2dVertex
 10
86.949994
 20
-9.379518
 30
0.0
  0
VERTEX
  5
FF
100
AcDbEntity
  8
0
390
0
 62
     7
100
AcDbVertex
100
AcDb2dVertex
 10
86.924817
 20
-9.356278
 30
0.0
  0
VERTEX
  5
100
100
AcDbEntity
  8
0
390
0
 62
     7
100
AcDbVertex
100
AcDb2dVertex
 10
86.900342
 20
-9.332065
 30
0.0
  0
VERTEX
  5
101
100
AcDbEntity
  8
0
390
0
 62
     7
100
AcDbVertex
100
AcDb2dVertex
 10
86.876622
 20
-9.306907
 30
0.0
  0
VERTEX
  5
102
100
AcDbEntity
  8
0
390
0
 62
     7
100
AcDbVertex
100
AcDb2dVertex
 10
86.853712
 20
-9.280833
 30
0.0
  0
VERTEX
  5
103
100
AcDbEntity
  8
0
390
0
 62
     7
100
AcDbVertex
100
AcDb2dVertex
 10
86.83097
 20
-9.252988
 30
0.0
  0
VERTEX
  5
104
100
AcDbEntity
  8
0
390
0
 62
     7
100
AcDbVertex
100
AcDb2dVertex
 10
86.809146
 20
-9.224173
 30
0.0
  0
VERTEX
  5
105
100
AcDbEntity
  8
0
390
0
 62
     7
100
AcDbVertex
100
AcDb2dVertex
 10
86.788326
 20
-9.194484
 30
0.0
  0
VERTEX
  5
106
100
AcDbEntity
  8
0
390
0
 62
     7
100
AcDbVertex
100
AcDb2dVertex
 10
86.768595
 20
-9.16401
 30
0.0
  0
VERTEX
  5
107
100
AcDbEntity
  8
0
390
0
 62
     7
100
AcDbVertex
100
AcDb2dVertex
 10
86.754324
 20
-9.140301
 30
0.0
  0
VERTEX
  5
108
100
AcDbEntity
  8
0
390
0
 62
     7
100
AcDbVertex
100
AcDb2dVertex
 10
86.740727
 20
-9.116196
 30
0.0
  0
VERTEX
  5
109
100
AcDbEntity
  8
0
390
0
 62
     7
100
AcDbVertex
100
AcDb2dVertex
 10
86.723187
 20
-9.082499
 30
0.0
  0
VERTEX
  5
10A
100
AcDbEntity
  8
0
390
0
 62
     7
100
AcDbVertex
100
AcDb2dVertex
 10
86.706978
 20
-9.04818
 30
0.0
  0
VERTEX
  5
10B
100
AcDbEntity
  8
0
390
0
 62
     7
100
AcDbVertex
100
AcDb2dVertex
 10
86.692144
 20
-9.013377
 30
0.0
  0
VERTEX
  5
10C
100
AcDbEntity
  8
0
390
0
 62
     7
100
AcDbVertex
100
AcDb2dVertex
 10
86.678731
 20
-8.978228
 30
0.0
  0
VERTEX
  5
10D
100
AcDbEntity
  8
0
390
0
 62
     7
100
AcDbVertex
100
AcDb2dVertex
 10
86.666284
 20
-8.941345
 30
0.0
  0
VERTEX
  5
10E
100
AcDbEntity
  8
0
390
0
 62
     7
100
AcDbVertex
100
AcDb2dVertex
 10
86.655341
 20
-8.904156
 30
0.0
  0
VERTEX
  5
10F
100
AcDbEntity
  8
0
390
0
 62
     7
100
AcDbVertex
100
AcDb2dVertex
 10
86.645901
 20
-8.866744
 30
0.0
  0
VERTEX
  5
110
100
AcDbEntity
  8
0
390
0
 62
     7
100
AcDbVertex
100
AcDb2dVertex
 10
86.637958
 20
-8.829194
 30
0.0
  0
VERTEX
  5
111
100
AcDbEntity
  8
0
390
0
 62
     7
100
AcDbVertex
100
AcDb2dVertex
 10
86.633988
 20
-8.807107
 30
0.0
  0
VERTEX
  5
112
100
AcDbEntity
  8
0
390
0
 62
     7
100
AcDbVertex
100
AcDb2dVertex
 10
86.627773
 20
-8.76459
 30
0.0
  0
VERTEX
  5
113
100
AcDbEntity
  8
0
390
0
 62
     7
100
AcDbVertex
100
AcDb2dVertex
 10
86.623388
 20
-8.721858
 30
0.0
  0
VERTEX
  5
114
100
AcDbEntity
  8
0
390
0
 62
     7
100
AcDbVertex
100
AcDb2dVertex
 10
86.620833
 20
-8.678943
 30
0.0
  0
VERTEX
  5
115
100
AcDbEntity
  8
0
390
0
 62
     7
100
AcDbVertex
100
AcDb2dVertex
 10
86.620107
 20
-8.635876
 30
0.0
  0
SEQEND
  5
116
100
AcDbEntity
  8
0
390
0
  0
LINE
  5
117
100
AcDbEntity
  8
0
390
0
  6
Continuous
 62
     7
100
AcDbLine
 10
87.927478
 20
9.967372
 30
0.0
 11
101.270862
 21
17.671178
 31
0.0
  0
LINE
  5
118
100
AcDbEntity
  8
0
390
0
  6
Continuous
 62
     7
100
AcDbLine
 10
100.021052
 20
19.835912
 30
0.0
 11
86.677668
 21
12.132106
 31
0.0
  0
LINE
  5
119
100
AcDbEntity
  8
0
390
0
  6
Continuous
 62
     7
100
AcDbLine
 10
100.021052
 20
19.835912
 30
0.0
 11
101.270862
 21
17.671178
 31
0.0
  0
LINE
  5
11A
100
AcDbEntity
  8
0
390
0
  6
Continuous
 62
     7
100
AcDbLine
 10
102.077808
 20
-18.137646
 30
0.0
 11
101.270862
 21
-17.671178
 31
0.0
  0
ELLIPSE
  5
11B
100
AcDbEntity
  8
0
390
0
  6
Continuous
 62
     7
100
AcDbEllipse
 10
100.827998
 20
-20.30238
 30
0.0
 11
1.2524524667463788
 21
2.1636457238977114
 31
0.0
210
0.0
220
0.0
230
1.0
 40
0.06478
 41
0.0174900326757196
 42
1.4336186662862307
  0
ELLIPSE
  5
11C
100
AcDbEntity
  8
0
390
0
  6
Continuous
 62
     7
100
AcDbEllipse
 10
104.327465
 20
-20.30238
 30
0.0
 11
-1.2524524667464343
 21
2.1636457238977114
 31
0.0
210
0.0
220
0.0
230
1.0
 40
0.06478
 41
4.8495666408933209
 42
6.2656952745038481
  0
LINE
  5
11D
100
AcDbEntity
  8
0
390
0
  6
Continuous
 62
     7
100
AcDbLine
 10
103.884602
 20
-17.671178
 30
0.0
 11
103.077656
 21
-18.137646
 31
0.0
  0
LINE
  5
11E
100
AcDbEntity
  8
0
390
0
  6
Continuous
 62
     7
100
AcDbLine
 10
103.884602
 20
-17.671178
 30
0.0
 11
105.134411
 21
-19.835911
 31
0.0
  0
LINE
  5
11F
100
AcDbEntity
  8
0
390
0
  6
Continuous
 62
     7
100
AcDbLine
 10
105.134411
 20
-19.835911
 30
0.0
 11
118.477795
 21
-12.132105
 31
0.0
  0
LINE
  5
120
100
AcDbEntity
  8
0
390
0
  6
Continuous
 62
     7
100
AcDbLine
 10
117.227986
 20
-9.967371
 30
0.0
 11
103.884602
 21
-17.671178
 31
0.0
  0
LINE
  5
121
100
AcDbEntity
  8
0
390
0
  6
Continuous
 62
     7
100
AcDbLine
 10
117.227986
 20
-9.967371
 30
0.0
 11
118.477795
 21
-12.132105
 31
0.0
  0
LINE
  5
122
100
AcDbEntity
  8
0
390
0
  6
Continuous
 62
     7
100
AcDbLine
 10
101.270862
 20
17.671178
 30
0.0
 11
102.077808
 21
18.137647
 31
0.0
  0
ELLIPSE
  5
123
100
AcDbEntity
  8
0
390
0
  6
Continuous
 62
     7
100
AcDbEllipse
 10
100.827998
 20
20.302381
 30
0.0
 11
-1.2524524667463788
 21
2.1636457238977669
 31
0.0
210
0.0
220
0.0
230
1.0
 40
0.06478
 41
1.7079739873035433
 42
3.124102620914079
  0
LINE
  5
124
100
AcDbEntity
  8
0
390
0
  6
Continuous
 62
     7
100
AcDbLine
 10
118.477795
 20
12.132106
 30
0.0
 11
105.134411
 21
19.835912
 31
0.0
  0
LINE
  5
125
100
AcDbEntity
  8
0
390
0
  6
Continuous
 62
     7
100
AcDbLine
 10
117.227986
 20
9.967372
 30
0.0
 11
118.477795
 21
12.132106
 31
0.0
  0
LINE
  5
126
100
AcDbEntity
  8
0
390
0
  6
Continuous
 62
     7
100
AcDbLine
 10
103.884602
 20
17.671178
 30
0.0
 11
117.227986
 21
9.967372
 31
0.0
  0
LINE
  5
127
100
AcDbEntity
  8
0
390
0
  6
Continuous
 62
     7
100
AcDbLine
 10
103.884602
 20
17.671178
 30
0.0
 11
105.134411
 21
19.835912
 31
0.0
  0
LINE
  5
128
100
AcDbEntity
  8
0
390
0
  6
Continuous
 62
     7
100
AcDbLine
 10
103.077656
 20
18.137647
 30
0.0
 11
103.884602
 21
17.671178
 31
0.0
  0
ELLIPSE
  5
129
100
AcDbEntity
  8
0
390
0
  6
Continuous
 62
     7
100
AcDbEllipse
 10
104.327465
 20
20.302381
 30
0.0
 11
1.2524524667463788
 21
2.1636457238977669
 31
0.0
210
0.0
220
0.0
230
1.0
 40
0.06478
 41
3.1590826862654828
 42
4.575211319876038
  0
POLYLINE
  5
12A
100
AcDbEntity
  8
0
390
0
  6
Continuous
 62
     7
100
AcDb2dPolyline
 66
     1
 10
0.0
 20
0.0
 30
0.0
 40
0.1
 41
0.1
  0
VERTEX
  5
12B
100
AcDbEntity
  8
0
390
0
 62
     7
100
AcDbVertex
100
AcDb2dVertex
 10
103.077656
 20
-18.137646
 30
0.0
  0
VERTEX
  5
12C
100
AcDbEntity
  8
0
390
0
 62
     7
100
AcDbVertex
100
AcDb2dVertex
 10
103.031858
 20
-18.162796
 30
0.0
  0
VERTEX
  5
12D
100
AcDbEntity
  8
0
390
0
 62
     7
100
AcDbVertex
100
AcDb2dVertex
 10
102.984955
 20
-18.185478
 30
0.0
  0
VERTEX
  5
12E
100
AcDbEntity
  8
0
390
0
 62
     7
100
AcDbVertex
100
AcDb2dVertex
 10
102.936434
 20
-18.205895
 30
0.0
  0
VERTEX
  5
12F
100
AcDbEntity
  8
0
390
0
 62
     7
100
AcDbVertex
100
AcDb2dVertex
 10
102.886764
 20
-18.223776
 30
0.0
  0
VERTEX
  5
130
100
AcDbEntity
  8
0
390
0
 62
     7
100
AcDbVertex
100
AcDb2dVertex
 10
102.854143
 20
-18.233935
 30
0.0
  0
VERTEX
  5
131
100
AcDbEntity
  8
0
390
0
 62
     7
100
AcDbVertex
100
AcDb2dVertex
 10
102.821058
 20
-18.242998
 30
0.0
  0
VERTEX
  5
132
100
AcDbEntity
  8
0
390
0
 62
     7
100
AcDbVertex
100
AcDb2dVertex
 10
102.787318
 20
-18.250987
 30
0.0
  0
VERTEX
  5
133
100
AcDbEntity
  8
0
390
0
 62
     7
100
AcDbVertex
100
AcDb2dVertex
 10
102.75316
 20
-18.257817
 30
0.0
  0
VERTEX
  5
134
100
AcDbEntity
  8
0
390
0
 62
     7
100
AcDbVertex
100
AcDb2dVertex
 10
102.717828
 20
-18.263572
 30
0.0
  0
VERTEX
  5
135
100
AcDbEntity
  8
0
390
0
 62
     7
100
AcDbVertex
100
AcDb2dVertex
 10
102.682163
 20
-18.268054
 30
0.0
  0
VERTEX
  5
136
100
AcDbEntity
  8
0
390
0
 62
     7
100
AcDbVertex
100
AcDb2dVertex
 10
102.645886
 20
-18.271259
 30
0.0
  0
VERTEX
  5
137
100
AcDbEntity
  8
0
390
0
 62
     7
100
AcDbVertex
100
AcDb2dVertex
 10
102.609429
 20
-18.273119
 30
0.0
  0
VERTEX
  5
138
100
AcDbEntity
  8
0
390
0
 62
     7
100
AcDbVertex
100
AcDb2dVertex
 10
102.581783
 20
-18.273624
 30
0.0
  0
VERTEX
  5
139
100
AcDbEntity
  8
0
390
0
 62
     7
100
AcDbVertex
100
AcDb2dVertex
 10
102.554087
 20
-18.273347
 30
0.0
  0
VERTEX
  5
13A
100
AcDbEntity
  8
0
390
0
 62
     7
100
AcDbVertex
100
AcDb2dVertex
 10
102.528892
 20
-18.272414
 30
0.0
  0
VERTEX
  5
13B
100
AcDbEntity
  8
0
390
0
 62
     7
100
AcDbVertex
100
AcDb2dVertex
 10
102.503752
 20
-18.270835
 30
0.0
  0
VERTEX
  5
13C
100
AcDbEntity
  8
0
390
0
 62
     7
100
AcDbVertex
100
AcDb2dVertex
 10
102.478712
 20
-18.268618
 30
0.0
  0
VERTEX
  5
13D
100
AcDbEntity
  8
0
390
0
 62
     7
100
AcDbVertex
100
AcDb2dVertex
 10
102.440976
 20
-18.264048
 30
0.0
  0
VERTEX
  5
13E
100
AcDbEntity
  8
0
390
0
 62
     7
100
AcDbVertex
100
AcDb2dVertex
 10
102.403606
 20
-18.258052
 30
0.0
  0
VERTEX
  5
13F
100
AcDbEntity
  8
0
390
0
 62
     7
100
AcDbVertex
100
AcDb2dVertex
 10
102.365569
 20
-18.250421
 30
0.0
  0
VERTEX
  5
140
100
AcDbEntity
  8
0
390
0
 62
     7
100
AcDbVertex
100
AcDb2dVertex
 10
102.328053
 20
-18.241353
 30
0.0
  0
VERTEX
  5
141
100
AcDbEntity
  8
0
390
0
 62
     7
100
AcDbVertex
100
AcDb2dVertex
 10
102.290804
 20
-18.230794
 30
0.0
  0
VERTEX
  5
142
100
AcDbEntity
  8
0
390
0
 62
     7
100
AcDbVertex
100
AcDb2dVertex
 10
102.254151
 20
-18.218845
 30
0.0
  0
VERTEX
  5
143
100
AcDbEntity
  8
0
390
0
 62
     7
100
AcDbVertex
100
AcDb2dVertex
 10
102.233038
 20
-18.21124
 30
0.0
  0
VERTEX
  5
144
100
AcDbEntity
  8
0
390
0
 62
     7
100
AcDbVertex
100
AcDb2dVertex
 10
102.193228
 20
-18.195412
 30
0.0
  0
VERTEX
  5
145
100
AcDbEntity
  8
0
390
0
 62
     7
100
AcDbVertex
100
AcDb2dVertex
 10
102.154176
 20
-18.177918
 30
0.0
  0
VERTEX
  5
146
100
AcDbEntity
  8
0
390
0
 62
     7
100
AcDbVertex
100
AcDb2dVertex
 10
102.115614
 20
-18.158627
 30
0.0
  0
VERTEX
  5
147
100
AcDbEntity
  8
0
390
0
 62
     7
100
AcDbVertex
100
AcDb2dVertex
 10
102.077808
 20
-18.137646
 30
0.0
  0
SEQEND
  5
148
100
AcDbEntity
  8
0
390
0
  0
POLYLINE
  5
149
100
AcDbEntity
  8
0
390
0
  6
Continuous
 62
     7
100
AcDb2dPolyline
 66
     1
 10
0.0
 20
0.0
 30
0.0
 40
0.1
 41
0.1
  0
VERTEX
  5
14A
100
AcDbEntity
  8
0
390
0
 62
     7
100
AcDbVertex
100
AcDb2dVertex
 10
102.077808
 20
18.137647
 30
0.0
  0
VERTEX
  5
14B
100
AcDbEntity
  8
0
390
0
 62
     7
100
AcDbVertex
100
AcDb2dVertex
 10
102.123606
 20
18.162796
 30
0.0
  0
VERTEX
  5
14C
100
AcDbEntity
  8
0
390
0
 62
     7
100
AcDbVertex
100
AcDb2dVertex
 10
102.170509
 20
18.185479
 30
0.0
  0
VERTEX
  5
14D
100
AcDbEntity
  8
0
390
0
 62
     7
100
AcDbVertex
100
AcDb2dVertex
 10
102.219029
 20
18.205896
 30
0.0
  0
VERTEX
  5
14E
100
AcDbEntity
  8
0
390
0
 62
     7
100
AcDbVertex
100
AcDb2dVertex
 10
102.2687
 20
18.223777
 30
0.0
  0
VERTEX
  5
14F
100
AcDbEntity
  8
0
390
0
 62
     7
100
AcDbVertex
100
AcDb2dVertex
 10
102.301321
 20
18.233935
 30
0.0
  0
VERTEX
  5
150
100
AcDbEntity
  8
0
390
0
 62
     7
100
AcDbVertex
100
AcDb2dVertex
 10
102.334406
 20
18.242998
 30
0.0
  0
VERTEX
  5
151
100
AcDbEntity
  8
0
390
0
 62
     7
100
AcDbVertex
100
AcDb2dVertex
 10
102.368146
 20
18.250988
 30
0.0
  0
VERTEX
  5
152
100
AcDbEntity
  8
0
390
0
 62
     7
100
AcDbVertex
100
AcDb2dVertex
 10
102.402304
 20
18.257817
 30
0.0
  0
VERTEX
  5
153
100
AcDbEntity
  8
0
390
0
 62
     7
100
AcDbVertex
100
AcDb2dVertex
 10
102.437636
 20
18.263572
 30
0.0
  0
VERTEX
  5
154
100
AcDbEntity
  8
0
390
0
 62
     7
100
AcDbVertex
100
AcDb2dVertex
 10
102.473301
 20
18.268054
 30
0.0
  0
VERTEX
  5
155
100
AcDbEntity
  8
0
390
0
 62
     7
100
AcDbVertex
100
AcDb2dVertex
 10
102.509578
 20
18.271259
 30
0.0
  0
VERTEX
  5
156
100
AcDbEntity
  8
0
390
0
 62
     7
100
AcDbVertex
100
AcDb2dVertex
 10
102.546034
 20
18.27312
 30
0.0
  0
VERTEX
  5
157
100
AcDbEntity
  8
0
390
0
 62
     7
100
AcDbVertex
100
AcDb2dVertex
 10
102.573681
 20
18.273624
 30
0.0
  0
VERTEX
  5
158
100
AcDbEntity
  8
0
390
0
 62
     7
100
AcDbVertex
100
AcDb2dVertex
 10
102.601377
 20
18.273347
 30
0.0
  0
VERTEX
  5
159
100
AcDbEntity
  8
0
390
0
 62
     7
100
AcDbVertex
100
AcDb2dVertex
 10
102.626572
 20
18.272414
 30
0.0
  0
VERTEX
  5
15A
100
AcDbEntity
  8
0
390
0
 62
     7
100
AcDbVertex
100
AcDb2dVertex
 10
102.651712
 20
18.270836
 30
0.0
  0
VERTEX
  5
15B
100
AcDbEntity
  8
0
390
0
 62
     7
100
AcDbVertex
100
AcDb2dVertex
 10
102.676752
 20
18.268619
 30
0.0
  0
VERTEX
  5
15C
100
AcDbEntity
  8
0
390
0
 62
     7
100
AcDbVertex
100
AcDb2dVertex
 10
102.714487
 20
18.264048
 30
0.0
  0
VERTEX
  5
15D
100
AcDbEntity
  8
0
390
0
 62
     7
100
AcDbVertex
100
AcDb2dVertex
 10
102.751858
 20
18.258053
 30
0.0
  0
VERTEX
  5
15E
100
AcDbEntity
  8
0
390
0
 62
     7
100
AcDbVertex
100
AcDb2dVertex
 10
102.789895
 20
18.250422
 30
0.0
  0
VERTEX
  5
15F
100
AcDbEntity
  8
0
390
0
 62
     7
100
AcDbVertex
100
AcDb2dVertex
 10
102.827411
 20
18.241353
 30
0.0
  0
VERTEX
  5
160
100
AcDbEntity
  8
0
390
0
 62
     7
100
AcDbVertex
100
AcDb2dVertex
 10
102.86466
 20
18.230794
 30
0.0
  0
VERTEX
  5
161
100
AcDbEntity
  8
0
390
0
 62
     7
100
AcDbVertex
100
AcDb2dVertex
 10
102.901312
 20
18.218846
 30
0.0
  0
VERTEX
  5
162
100
AcDbEntity
  8
0
390
0
 62
     7
100
AcDbVertex
100
AcDb2dVertex
 10
102.922425
 20
18.211241
 30
0.0
  0
VERTEX
  5
163
100
AcDbEntity
  8
0
390
0
 62
     7
100
AcDbVertex
100
AcDb2dVertex
 10
102.962236
 20
18.195413
 30
0.0
  0
VERTEX
  5
164
100
AcDbEntity
  8
0
390
0
 62
     7
100
AcDbVertex
100
AcDb2dVertex
 10
103.001288
 20
18.177919
 30
0.0
  0
VERTEX
  5
165
100
AcDbEntity
  8
0
390
0
 62
     7
100
AcDbVertex
100
AcDb2dVertex
 10
103.039849
 20
18.158628
 30
0.0
  0
VERTEX
  5
166
100
AcDbEntity
  8
0
390
0
 62
     7
100
AcDbVertex
100
AcDb2dVertex
 10
103.077656
 20
18.137647
 30
0.0
  0
SEQEND
  5
167
100
AcDbEntity
  8
0
390
0
  0
LINE
  5
168
100
AcDbEntity
  8
0
390
0
  6
Continuous
 62
     7
100
AcDbLine
 10
118.035433
 20
-9.50177
 30
0.0
 11
117.227986
 21
-9.967371
 31
0.0
  0
ELLIPSE
  5
169
100
AcDbEntity
  8
0
390
0
  6
Continuous
 62
     7
100
AcDbEllipse
 10
119.285242
 20
-11.666504
 30
0.0
 11
-1.2475459283118329
 21
2.1664785151837007
 31
0.0
210
0.0
220
0.0
230
1.0
 40
0.06478
 41
0.0174900326757237
 42
1.4336186662862715
  0
ELLIPSE
  5
16A
100
AcDbEntity
  8
0
390
0
  6
Continuous
 62
     7
100
AcDbEllipse
 10
121.034976
 20
-8.635876
 30
0.0
 11
-2.4999983950582116
 21
-0.0028327912859616
 31
0.0
210
0.0
220
0.0
230
1.0
 40
0.06478
 41
4.8495666408933786
 42
6.2656952745039174
  0
LINE
  5
16B
100
AcDbEntity
  8
0
390
0
  6
Continuous
 62
     7
100
AcDbLine
 10
118.534856
 20
-7.703806
 30
0.0
 11
118.535356
 21
-8.635876
 31
0.0
  0
LINE
  5
16C
100
AcDbEntity
  8
0
390
0
  6
Continuous
 62
     7
100
AcDbLine
 10
118.534856
 20
-7.703806
 30
0.0
 11
121.034475
 21
-7.703806
 31
0.0
  0
ELLIPSE
  5
16D
100
AcDbEntity
  8
0
390
0
  6
Continuous
 62
     7
100
AcDbEllipse
 10
119.285242
 20
11.666504
 30
0.0
 11
-1.2475459283118329
 21
-2.1664785151837007
 31
0.0
210
0.0
220
0.0
230
1.0
 40
0.06478
 41
4.8495666408933067
 42
6.2656952745038437
  0
LINE
  5
16E
100
AcDbEntity
  8
0
390
0
  6
Continuous
 62
     7
100
AcDbLine
 10
117.227986
 20
9.967372
 30
0.0
 11
118.035433
 21
9.50177
 31
0.0
  0
LINE
  5
16F
100
AcDbEntity
  8
0
390
0
  6
Continuous
 62
     7
100
AcDbLine
 10
118.534856
 20
7.703807
 30
0.0
 11
121.034475
 21
7.703807
 31
0.0
  0
LINE
  5
170
100
AcDbEntity
  8
0
390
0
  6
Continuous
 62
     7
100
AcDbLine
 10
118.535356
 20
8.635877
 30
0.0
 11
118.534856
 21
7.703807
 31
0.0
  0
ELLIPSE
  5
171
100
AcDbEntity
  8
0
390
0
  6
Continuous
 62
     7
100
AcDbEllipse
 10
121.034976
 20
8.635877
 30
0.0
 11
-2.4999983950582116
 21
0.0028327912859616
 31
0.0
210
0.0
220
0.0
230
1.0
 40
0.06478
 41
0.0174900326756922
 42
1.4336186662862107
  0
POLYLINE
  5
172
100
AcDbEntity
  8
0
390
0
  6
Continuous
 62
     7
100
AcDb2dPolyline
 66
     1
 10
0.0
 20
0.0
 30
0.0
 40
0.1
 41
0.1
  0
VERTEX
  5
173
100
AcDbEntity
  8
0
390
0
 62
     7
100
AcDbVertex
100
AcDb2dVertex
 10
118.535356
 20
-8.635876
 30
0.0
  0
VERTEX
  5
174
100
AcDbEntity
  8
0
390
0
 62
     7
100
AcDbVertex
100
AcDb2dVertex
 10
118.534229
 20
-8.688351
 30
0.0
  0
VERTEX
  5
175
100
AcDbEntity
  8
0
390
0
 62
     7
100
AcDbVertex
100
AcDb2dVertex
 10
118.530382
 20
-8.740616
 30
0.0
  0
VERTEX
  5
176
100
AcDbEntity
  8
0
390
0
 62
     7
100
AcDbVertex
100
AcDb2dVertex
 10
118.523808
 20
-8.792606
 30
0.0
  0
VERTEX
  5
177
100
AcDbEntity
  8
0
390
0
 62
     7
100
AcDbVertex
100
AcDb2dVertex
 10
118.514501
 20
-8.844259
 30
0.0
  0
VERTEX
  5
178
100
AcDbEntity
  8
0
390
0
 62
     7
100
AcDbVertex
100
AcDb2dVertex
 10
118.506964
 20
-8.877682
 30
0.0
  0
VERTEX
  5
179
100
AcDbEntity
  8
0
390
0
 62
     7
100
AcDbVertex
100
AcDb2dVertex
 10
118.498232
 20
-8.910985
 30
0.0
  0
VERTEX
  5
17A
100
AcDbEntity
  8
0
390
0
 62
     7
100
AcDbVertex
100
AcDb2dVertex
 10
118.488305
 20
-8.944106
 30
0.0
  0
VERTEX
  5
17B
100
AcDbEntity
  8
0
390
0
 62
     7
100
AcDbVertex
100
AcDb2dVertex
 10
118.477179
 20
-8.976983
 30
0.0
  0
VERTEX
  5
17C
100
AcDbEntity
  8
0
390
0
 62
     7
100
AcDbVertex
100
AcDb2dVertex
 10
118.464435
 20
-9.010602
 30
0.0
  0
VERTEX
  5
17D
100
AcDbEntity
  8
0
390
0
 62
     7
100
AcDbVertex
100
AcDb2dVertex
 10
118.450394
 20
-9.043909
 30
0.0
  0
VERTEX
  5
17E
100
AcDbEntity
  8
0
390
0
 62
     7
100
AcDbVertex
100
AcDb2dVertex
 10
118.435091
 20
-9.076784
 30
0.0
  0
VERTEX
  5
17F
100
AcDbEntity
  8
0
390
0
 62
     7
100
AcDbVertex
100
AcDb2dVertex
 10
118.418566
 20
-9.109109
 30
0.0
  0
VERTEX
  5
180
100
AcDbEntity
  8
0
390
0
 62
     7
100
AcDbVertex
100
AcDb2dVertex
 10
118.405169
 20
-9.133322
 30
0.0
  0
VERTEX
  5
181
100
AcDbEntity
  8
0
390
0
 62
     7
100
AcDbVertex
100
AcDb2dVertex
 10
118.391092
 20
-9.15715
 30
0.0
  0
VERTEX
  5
182
100
AcDbEntity
  8
0
390
0
 62
     7
100
AcDbVertex
100
AcDb2dVertex
 10
118.37068
 20
-9.189189
 30
0.0
  0
VERTEX
  5
183
100
AcDbEntity
  8
0
390
0
 62
     7
100
AcDbVertex
100
AcDb2dVertex
 10
118.349063
 20
-9.220386
 30
0.0
  0
VERTEX
  5
184
100
AcDbEntity
  8
0
390
0
 62
     7
100
AcDbVertex
100
AcDb2dVertex
 10
118.326339
 20
-9.250634
 30
0.0
  0
VERTEX
  5
185
100
AcDbEntity
  8
0
390
0
 62
     7
100
AcDbVertex
100
AcDb2dVertex
 10
118.302606
 20
-9.279824
 30
0.0
  0
VERTEX
  5
186
100
AcDbEntity
  8
0
390
0
 62
     7
100
AcDbVertex
100
AcDb2dVertex
 10
118.276888
 20
-9.309046
 30
0.0
  0
VERTEX
  5
187
100
AcDbEntity
  8
0
390
0
 62
     7
100
AcDbVertex
100
AcDb2dVertex
 10
118.250152
 20
-9.337116
 30
0.0
  0
VERTEX
  5
188
100
AcDbEntity
  8
0
390
0
 62
     7
100
AcDbVertex
100
AcDb2dVertex
 10
118.222473
 20
-9.363998
 30
0.0
  0
VERTEX
  5
189
100
AcDbEntity
  8
0
390
0
 62
     7
100
AcDbVertex
100
AcDb2dVertex
 10
118.193925
 20
-9.389652
 30
0.0
  0
VERTEX
  5
18A
100
AcDbEntity
  8
0
390
0
 62
     7
100
AcDbVertex
100
AcDb2dVertex
 10
118.176782
 20
-9.404133
 30
0.0
  0
VERTEX
  5
18B
100
AcDbEntity
  8
0
390
0
 62
     7
100
AcDbVertex
100
AcDb2dVertex
 10
118.143069
 20
-9.430774
 30
0.0
  0
VERTEX
  5
18C
100
AcDbEntity
  8
0
390
0
 62
     7
100
AcDbVertex
100
AcDb2dVertex
 10
118.108255
 20
-9.455938
 30
0.0
  0
VERTEX
  5
18D
100
AcDbEntity
  8
0
390
0
 62
     7
100
AcDbVertex
100
AcDb2dVertex
 10
118.072367
 20
-9.479608
 30
0.0
  0
VERTEX
  5
18E
100
AcDbEntity
  8
0
390
0
 62
     7
100
AcDbVertex
100
AcDb2dVertex
 10
118.035433
 20
-9.50177
 30
0.0
  0
SEQEND
  5
18F
100
AcDbEntity
  8
0
390
0
  0
POLYLINE
  5
190
100
AcDbEntity
  8
0
390
0
  6
Continuous
 62
     7
100
AcDb2dPolyline
 66
     1
 10
0.0
 20
0.0
 30
0.0
 40
0.1
 41
0.1
  0
VERTEX
  5
191
100
AcDbEntity
  8
0
390
0
 62
     7
100
AcDbVertex
100
AcDb2dVertex
 10
118.035433
 20
9.50177
 30
0.0
  0
VERTEX
  5
192
100
AcDbEntity
  8
0
390
0
 62
     7
100
AcDbVertex
100
AcDb2dVertex
 10
118.080314
 20
9.474557
 30
0.0
  0
VERTEX
  5
193
100
AcDbEntity
  8
0
390
0
 62
     7
100
AcDbVertex
100
AcDb2dVertex
 10
118.123652
 20
9.445093
 30
0.0
  0
VERTEX
  5
194
100
AcDbEntity
  8
0
390
0
 62
     7
100
AcDbVertex
100
AcDb2dVertex
 10
118.16539
 20
9.413404
 30
0.0
  0
VERTEX
  5
195
100
AcDbEntity
  8
0
390
0
 62
     7
100
AcDbVertex
100
AcDb2dVertex
 10
118.205469
 20
9.379518
 30
0.0
  0
VERTEX
  5
196
100
AcDbEntity
  8
0
390
0
 62
     7
100
AcDbVertex
100
AcDb2dVertex
 10
118.230646
 20
9.356279
 30
0.0
  0
VERTEX
  5
197
100
AcDbEntity
  8
0
390
0
 62
     7
100
AcDbVertex
100
AcDb2dVertex
 10
118.255121
 20
9.332065
 30
0.0
  0
VERTEX
  5
198
100
AcDbEntity
  8
0
390
0
 62
     7
100
AcDbVertex
100
AcDb2dVertex
 10
118.278841
 20
9.306908
 30
0.0
  0
VERTEX
  5
199
100
AcDbEntity
  8
0
390
0
 62
     7
100
AcDbVertex
100
AcDb2dVertex
 10
118.301751
 20
9.280834
 30
0.0
  0
VERTEX
  5
19A
100
AcDbEntity
  8
0
390
0
 62
     7
100
AcDbVertex
100
AcDb2dVertex
 10
118.324494
 20
9.252988
 30
0.0
  0
VERTEX
  5
19B
100
AcDbEntity
  8
0
390
0
 62
     7
100
AcDbVertex
100
AcDb2dVertex
 10
118.346318
 20
9.224174
 30
0.0
  0
VERTEX
  5
19C
100
AcDbEntity
  8
0
390
0
 62
     7
100
AcDbVertex
100
AcDb2dVertex
 10
118.367138
 20
9.194484
 30
0.0
  0
VERTEX
  5
19D
100
AcDbEntity
  8
0
390
0
 62
     7
100
AcDbVertex
100
AcDb2dVertex
 10
118.386869
 20
9.164011
 30
0.0
  0
VERTEX
  5
19E
100
AcDbEntity
  8
0
390
0
 62
     7
100
AcDbVertex
100
AcDb2dVertex
 10
118.401139
 20
9.140302
 30
0.0
  0
VERTEX
  5
19F
100
AcDbEntity
  8
0
390
0
 62
     7
100
AcDbVertex
100
AcDb2dVertex
 10
118.414737
 20
9.116197
 30
0.0
  0
VERTEX
  5
1A0
100
AcDbEntity
  8
0
390
0
 62
     7
100
AcDbVertex
100
AcDb2dVertex
 10
118.432277
 20
9.0825
 30
0.0
  0
VERTEX
  5
1A1
100
AcDbEntity
  8
0
390
0
 62
     7
100
AcDbVertex
100
AcDb2dVertex
 10
118.448486
 20
9.04818
 30
0.0
  0
VERTEX
  5
1A2
100
AcDbEntity
  8
0
390
0
 62
     7
100
AcDbVertex
100
AcDb2dVertex
 10
118.463319
 20
9.013377
 30
0.0
  0
VERTEX
  5
1A3
100
AcDbEntity
  8
0
390
0
 62
     7
100
AcDbVertex
100
AcDb2dVertex
 10
118.476732
 20
8.978229
 30
0.0
  0
VERTEX
  5
1A4
100
AcDbEntity
  8
0
390
0
 62
     7
100
AcDbVertex
100
AcDb2dVertex
 10
118.48918
 20
8.941345
 30
0.0
  0
VERTEX
  5
1A5
100
AcDbEntity
  8
0
390
0
 62
     7
100
AcDbVertex
100
AcDb2dVertex
 10
118.500122
 20
8.904156
 30
0.0
  0
VERTEX
  5
1A6
100
AcDbEntity
  8
0
390
0
 62
     7
100
AcDbVertex
100
AcDb2dVertex
 10
118.509563
 20
8.866745
 30
0.0
  0
VERTEX
  5
1A7
100
AcDbEntity
  8
0
390
0
 62
     7
100
AcDbVertex
100
AcDb2dVertex
 10
118.517505
 20
8.829194
 30
0.0
  0
VERTEX
  5
1A8
100
AcDbEntity
  8
0
390
0
 62
     7
100
AcDbVertex
100
AcDb2dVertex
 10
118.521475
 20
8.807107
 30
0.0
  0
VERTEX
  5
1A9
100
AcDbEntity
  8
0
390
0
 62
     7
100
AcDbVertex
100
AcDb2dVertex
 10
118.527691
 20
8.76459
 30
0.0
  0
VERTEX
  5
1AA
100
AcDbEntity
  8
0
390
0
 62
     7
100
AcDbVertex
100
AcDb2dVertex
 10
118.532076
 20
8.721859
 30
0.0
  0
VERTEX
  5
1AB
100
AcDbEntity
  8
0
390
0
 62
     7
100
AcDbVertex
100
AcDb2dVertex
 10
118.534631
 20
8.678944
 30
0.0
  0
VERTEX
  5
1AC
100
AcDbEntity
  8
0
390
0
 62
     7
100
AcDbVertex
100
AcDb2dVertex
 10
118.535356
 20
8.635877
 30
0.0
  0
SEQEND
  5
1AD
100
AcDbEntity
  8
0
390
0
  0
LINE
  5
1AE
100
AcDbEntity
  8
0
390
0
  6
Continuous
 62
     7
100
AcDbLine
 10
121.034475
 20
-7.703806
 30
0.0
 11
121.034475
 21
7.703807
 31
0.0
  0
LINE
  5
1AF
100
AcDbEntity
  8
0
390
0
  6
Continuous
 62
     7
100
AcDbLine
 10
118.534856
 20
7.703807
 30
0.0
 11
118.534856
 21
-7.703806
 31
0.0
  0
LINE
  5
1B0
100
AcDbEntity
  8
0
390
0
  6
Continuous
 62
     7
100
AcDbLine
 10
87.322027
 20
9.385148
 30
0.0
 11
87.120031
 21
9.50177
 31
0.0
  0
ELLIPSE
  5
1B1
100
AcDbEntity
  8
0
390
0
  6
Continuous
 62
     7
100
AcDbEllipse
 10
87.822255
 20
8.519079
 30
0.0
 11
-0.866201292594071
 21
0.5001015494515981
 31
0.0
210
0.0
220
0.0
230
1.0
 40
0.999797
 41
5.7596744625918586
 42
6.8066961517673095
  0
LINE
  5
1B2
100
AcDbEntity
  8
0
390
0
  6
Continuous
 62
     7
100
AcDbLine
 10
86.620107
 20
8.635877
 30
0.0
 11
86.822103
 21
8.519255
 31
0.0
  0
LINE
  5
1B3
100
AcDbEntity
  8
0
390
0
  6
Continuous
 62
     7
100
AcDbLine
 10
86.822103
 20
-8.519254
 30
0.0
 11
86.620107
 21
-8.635876
 31
0.0
  0
ELLIPSE
  5
1B4
100
AcDbEntity
  8
0
390
0
  6
Continuous
 62
     7
100
AcDbEllipse
 10
87.822255
 20
-8.519078
 30
0.0
 11
-0.866201292594071
 21
-0.5001015494515981
 31
0.0
210
0.0
220
0.0
230
1.0
 40
0.999797
 41
5.759674462591863
 42
6.8066961517673095
  0
LINE
  5
1B5
100
AcDbEntity
  8
0
390
0
  6
Continuous
 62
     7
100
AcDbLine
 10
87.120031
 20
-9.50177
 30
0.0
 11
87.322027
 21
-9.385148
 31
0.0
  0
LINE
  5
1B6
100
AcDbEntity
  8
0
390
0
  6
Continuous
 62
     7
100
AcDbLine
 10
103.077656
 20
17.904403
 30
0.0
 11
103.077656
 21
18.137647
 31
0.0
  0
ELLIPSE
  5
1B7
100
AcDbEntity
  8
0
390
0
  6
Continuous
 62
     7
100
AcDbEllipse
 10
102.577732
 20
17.038157
 30
0.0
 11
0.0
 21
1.0002030989031963
 31
0.0
210
0.0
220
0.0
230
1.0
 40
0.999797
 41
5.7596744625918612
 42
6.806696151767305
  0
LINE
  5
1B8
100
AcDbEntity
  8
0
390
0
  6
Continuous
 62
     7
100
AcDbLine
 10
102.077808
 20
18.137647
 30
0.0
 11
102.077808
 21
17.904403
 31
0.0
  0
LINE
  5
1B9
100
AcDbEntity
  8
0
390
0
  6
Continuous
 62
     7
100
AcDbLine
 10
118.333361
 20
8.519255
 30
0.0
 11
118.535356
 21
8.635877
 31
0.0
  0
ELLIPSE
  5
1BA
100
AcDbEntity
  8
0
390
0
  6
Continuous
 62
     7
100
AcDbEllipse
 10
117.333209
 20
8.519079
 30
0.0
 11
0.8662012925941265
 21
0.5001015494516259
 31
0.0
210
0.0
220
0.0
230
1.0
 40
0.999797
 41
5.759674462591863
 42
6.8066961517673086
  0
LINE
  5
1BB
100
AcDbEntity
  8
0
390
0
  6
Continuous
 62
     7
100
AcDbLine
 10
118.035433
 20
9.50177
 30
0.0
 11
117.833437
 21
9.385148
 31
0.0
  0
LINE
  5
1BC
100
AcDbEntity
  8
0
390
0
  6
Continuous
 62
     7
100
AcDbLine
 10
102.077808
 20
-17.904402
 30
0.0
 11
102.077808
 21
-18.137646
 31
0.0
  0
ELLIPSE
  5
1BD
100
AcDbEntity
  8
0
390
0
  6
Continuous
 62
     7
100
AcDbEllipse
 10
102.577732
 20
-17.038157
 30
0.0
 11
0.0
 21
-1.0002030989031963
 31
0.0
210
0.0
220
0.0
230
1.0
 40
0.999797
 41
5.759674462591863
 42
6.8066961517673121
  0
LINE
  5
1BE
100
AcDbEntity
  8
0
390
0
  6
Continuous
 62
     7
100
AcDbLine
 10
103.077656
 20
-18.137646
 30
0.0
 11
103.077656
 21
-17.904402
 31
0.0
  0
LINE
  5
1BF
100
AcDbEntity
  8
0
390
0
  6
Continuous
 62
     7
100
AcDbLine
 10
117.833437
 20
-9.385148
 30
0.0
 11
118.035433
 21
-9.50177
 31
0.0
  0
ELLIPSE
  5
1C0
100
AcDbEntity
  8
0
390
0
  6
Continuous
 62
     7
100
AcDbEllipse
 10
117.333209
 20
-8.519078
 30
0.0
 11
0.8662012925941265
 21
-0.5001015494516259
 31
0.0
210
0.0
220
0.0
230
1.0
 40
0.999797
 41
5.7596744625918594
 42
6.8066961517673095
  0
LINE
  5
1C1
100
AcDbEntity
  8
0
390
0
  6
Continuous
 62
     7
100
AcDbLine
 10
118.535356
 20
-8.635876
 30
0.0
 11
118.333361
 21
-8.519254
 31
0.0
  0
LINE
  5
1C2
100
AcDbEntity
  8
0
390
0
  6
Continuous
 62
     7
100
AcDbLine
 10
86.822103
 20
-8.519254
 30
0.0
 11
86.822103
 21
8.519255
 31
0.0
  0
LINE
  5
1C3
100
AcDbEntity
  8
0
390
0
  6
Continuous
 62
     7
100
AcDbLine
 10
87.322027
 20
9.385148
 30
0.0
 11
102.077808
 21
17.904403
 31
0.0
  0
LINE
  5
1C4
100
AcDbEntity
  8
0
390
0
  6
Continuous
 62
     7
100
AcDbLine
 10
103.077656
 20
17.904403
 30
0.0
 11
117.833437
 21
9.385148
 31
0.0
  0
LINE
  5
1C5
100
AcDbEntity
  8
0
390
0
  6
Continuous
 62
     7
100
AcDbLine
 10
102.077808
 20
-17.904402
 30
0.0
 11
87.322027
 21
-9.385148
 31
0.0
  0
LINE
  5
1C6
100
AcDbEntity
  8
0
390
0
  6
Continuous
 62
     7
100
AcDbLine
 10
117.833437
 20
-9.385148
 30
0.0
 11
103.077656
 21
-17.904402
 31
0.0
  0
LINE
  5
1C7
100
AcDbEntity
  8
0
390
0
  6
Continuous
 62
     7
100
AcDbLine
 10
118.333361
 20
8.519255
 30
0.0
 11
118.333361
 21
-8.519254
 31
0.0
  0
ARC
  5
1C8
100
AcDbEntity
  8
0
390
0
  6
Continuous
 62
     7
100
AcDbCircle
 10
-87.602483
 20
-8.644388
 30
0.0
 40
3.282387
210
0.0
220
0.0
230
1.0
100
AcDbArc
 50
300.278484
 51
359.721516
  0
LINE
  5
1C9
100
AcDbEntity
  8
0
390
0
  6
Continuous
 62
     7
100
AcDbLine
 10
-85.947493
 20
-11.479008
 30
0.0
 11
-87.197302
 21
-9.314274
 31
0.0
  0
POLYLINE
  5
1CA
100
AcDbEntity
  8
0
390
0
  6
Continuous
 62
     7
100
AcDb2dPolyline
 66
     1
 10
0.0
 20
0.0
 30
0.0
 40
0.1
 41
0.1
  0
VERTEX
  5
1CB
100
AcDbEntity
  8
0
390
0
 62
     7
100
AcDbVertex
100
AcDb2dVertex
 10
-87.197302
 20
-9.314274
 30
0.0
  0
VERTEX
  5
1CC
100
AcDbEntity
  8
0
390
0
 62
     7
100
AcDbVertex
100
AcDb2dVertex
 10
-87.167362
 20
-9.295919
 30
0.0
  0
VERTEX
  5
1CD
100
AcDbEntity
  8
0
390
0
 62
     7
100
AcDbVertex
100
AcDb2dVertex
 10
-87.138411
 20
-9.27604
 30
0.0
  0
VERTEX
  5
1CE
100
AcDbEntity
  8
0
390
0
 62
     7
100
AcDbVertex
100
AcDb2dVertex
 10
-87.110212
 20
-9.254495
 30
0.0
  0
VERTEX
  5
1CF
100
AcDbEntity
  8
0
390
0
 62
     7
100
AcDbVertex
100
AcDb2dVertex
 10
-87.083113
 20
-9.231582
 30
0.0
  0
VERTEX
  5
1D0
100
AcDbEntity
  8
0
390
0
 62
     7
100
AcDbVertex
100
AcDb2dVertex
 10
-87.056374
 20
-9.206631
 30
0.0
  0
VERTEX
  5
1D1
100
AcDbEntity
  8
0
390
0
 62
     7
100
AcDbVertex
100
AcDb2dVertex
 10
-87.030872
 20
-9.180417
 30
0.0
  0
VERTEX
  5
1D2
100
AcDbEntity
  8
0
390
0
 62
     7
100
AcDbVertex
100
AcDb2dVertex
 10
-87.00642
 20
-9.15277
 30
0.0
  0
VERTEX
  5
1D3
100
AcDbEntity
  8
0
390
0
 62
     7
100
AcDbVertex
100
AcDb2dVertex
 10
-86.983287
 20
-9.12401
 30
0.0
  0
VERTEX
  5
1D4
100
AcDbEntity
  8
0
390
0
 62
     7
100
AcDbVertex
100
AcDb2dVertex
 10
-86.965054
 20
-9.099272
 30
0.0
  0
VERTEX
  5
1D5
100
AcDbEntity
  8
0
390
0
 62
     7
100
AcDbVertex
100
AcDb2dVertex
 10
-86.947774
 20
-9.073859
 30
0.0
  0
VERTEX
  5
1D6
100
AcDbEntity
  8
0
390
0
 62
     7
100
AcDbVertex
100
AcDb2dVertex
 10
-86.925948
 20
-9.038478
 30
0.0
  0
VERTEX
  5
1D7
100
AcDbEntity
  8
0
390
0
 62
     7
100
AcDbVertex
100
AcDb2dVertex
 10
-86.905938
 20
-9.002008
 30
0.0
  0
VERTEX
  5
1D8
100
AcDbEntity
  8
0
390
0
 62
     7
100
AcDbVertex
100
AcDb2dVertex
 10
-86.887826
 20
-8.96459
 30
0.0
  0
VERTEX
  5
1D9
100
AcDbEntity
  8
0
390
0
 62
     7
100
AcDbVertex
100
AcDb2dVertex
 10
-86.875338
 20
-8.9355
 30
0.0
  0
VERTEX
  5
1DA
100
AcDbEntity
  8
0
390
0
 62
     7
100
AcDbVertex
100
AcDb2dVertex
 10
-86.864012
 20
-8.905938
 30
0.0
  0
VERTEX
  5
1DB
100
AcDbEntity
  8
0
390
0
 62
     7
100
AcDbVertex
100
AcDb2dVertex
 10
-86.854142
 20
-8.876776
 30
0.0
  0
VERTEX
  5
1DC
100
AcDbEntity
  8
0
390
0
 62
     7
100
AcDbVertex
100
AcDb2dVertex
 10
-86.845436
 20
-8.847246
 30
0.0
  0
VERTEX
  5
1DD
100
AcDbEntity
  8
0
390
0
 62
     7
100
AcDbVertex
100
AcDb2dVertex
 10
-86.837886
 20
-8.817192
 30
0.0
  0
VERTEX
  5
1DE
100
AcDbEntity
  8
0
390
0
 62
     7
100
AcDbVertex
100
AcDb2dVertex
 10
-86.831589
 20
-8.78685
 30
0.0
  0
VERTEX
  5
1DF
100
AcDbEntity
  8
0
390
0
 62
     7
100
AcDbVertex
100
AcDb2dVertex
 10
-86.826492
 20
-8.755588
 30
0.0
  0
VERTEX
  5
1E0
100
AcDbEntity
  8
0
390
0
 62
     7
100
AcDbVertex
100
AcDb2dVertex
 10
-86.822792
 20
-8.724131
 30
0.0
  0
VERTEX
  5
1E1
100
AcDbEntity
  8
0
390
0
 62
     7
100
AcDbVertex
100
AcDb2dVertex
 10
-86.82052
 20
-8.692272
 30
0.0
  0
VERTEX
  5
1E2
100
AcDbEntity
  8
0
390
0
 62
     7
100
AcDbVertex
100
AcDb2dVertex
 10
-86.819754
 20
-8.660342
 30
0.0
  0
SEQEND
  5
1E3
100
AcDbEntity
  8
0
390
0
  0
LINE
  5
1E4
100
AcDbEntity
  8
0
390
0
  6
Continuous
 62
     7
100
AcDbLine
 10
-84.320135
 20
-8.660342
 30
0.0
 11
-86.819754
 21
-8.660342
 31
0.0
  0
POLYLINE
  5
1E5
100
AcDbEntity
  8
0
390
0
  6
Continuous
 62
     7
100
AcDb2dPolyline
 66
     1
 10
0.0
 20
0.0
 30
0.0
 40
0.1
 41
0.1
  0
VERTEX
  5
1E6
100
AcDbEntity
  8
0
390
0
 62
     7
100
AcDbVertex
100
AcDb2dVertex
 10
-86.819754
 20
8.660342
 30
0.0
  0
VERTEX
  5
1E7
100
AcDbEntity
  8
0
390
0
 62
     7
100
AcDbVertex
100
AcDb2dVertex
 10
-86.82068
 20
8.695449
 30
0.0
  0
VERTEX
  5
1E8
100
AcDbEntity
  8
0
390
0
 62
     7
100
AcDbVertex
100
AcDb2dVertex
 10
-86.823421
 20
8.730461
 30
0.0
  0
VERTEX
  5
1E9
100
AcDbEntity
  8
0
390
0
 62
     7
100
AcDbVertex
100
AcDb2dVertex
 10
-86.827979
 20
8.765654
 30
0.0
  0
VERTEX
  5
1EA
100
AcDbEntity
  8
0
390
0
 62
     7
100
AcDbVertex
100
AcDb2dVertex
 10
-86.834273
 20
8.80058
 30
0.0
  0
VERTEX
  5
1EB
100
AcDbEntity
  8
0
390
0
 62
     7
100
AcDbVertex
100
AcDb2dVertex
 10
-86.842511
 20
8.836211
 30
0.0
  0
VERTEX
  5
1EC
100
AcDbEntity
  8
0
390
0
 62
     7
100
AcDbVertex
100
AcDb2dVertex
 10
-86.852462
 20
8.871404
 30
0.0
  0
VERTEX
  5
1ED
100
AcDbEntity
  8
0
390
0
 62
     7
100
AcDbVertex
100
AcDb2dVertex
 10
-86.864179
 20
8.906403
 30
0.0
  0
VERTEX
  5
1EE
100
AcDbEntity
  8
0
390
0
 62
     7
100
AcDbVertex
100
AcDb2dVertex
 10
-86.87752
 20
8.940817
 30
0.0
  0
VERTEX
  5
1EF
100
AcDbEntity
  8
0
390
0
 62
     7
100
AcDbVertex
100
AcDb2dVertex
 10
-86.889828
 20
8.968976
 30
0.0
  0
VERTEX
  5
1F0
100
AcDbEntity
  8
0
390
0
 62
     7
100
AcDbVertex
100
AcDb2dVertex
 10
-86.903196
 20
8.996647
 30
0.0
  0
VERTEX
  5
1F1
100
AcDbEntity
  8
0
390
0
 62
     7
100
AcDbVertex
100
AcDb2dVertex
 10
-86.922924
 20
9.03324
 30
0.0
  0
VERTEX
  5
1F2
100
AcDbEntity
  8
0
390
0
 62
     7
100
AcDbVertex
100
AcDb2dVertex
 10
-86.944502
 20
9.068804
 30
0.0
  0
VERTEX
  5
1F3
100
AcDbEntity
  8
0
390
0
 62
     7
100
AcDbVertex
100
AcDb2dVertex
 10
-86.967852
 20
9.103199
 30
0.0
  0
VERTEX
  5
1F4
100
AcDbEntity
  8
0
390
0
 62
     7
100
AcDbVertex
100
AcDb2dVertex
 10
-86.986801
 20
9.128558
 30
0.0
  0
VERTEX
  5
1F5
100
AcDbEntity
  8
0
390
0
 62
     7
100
AcDbVertex
100
AcDb2dVertex
 10
-87.006738
 20
9.153148
 30
0.0
  0
VERTEX
  5
1F6
100
AcDbEntity
  8
0
390
0
 62
     7
100
AcDbVertex
100
AcDb2dVertex
 10
-87.027058
 20
9.176276
 30
0.0
  0
VERTEX
  5
1F7
100
AcDbEntity
  8
0
390
0
 62
     7
100
AcDbVertex
100
AcDb2dVertex
 10
-87.048279
 20
9.198581
 30
0.0
  0
VERTEX
  5
1F8
100
AcDbEntity
  8
0
390
0
 62
     7
100
AcDbVertex
100
AcDb2dVertex
 10
-87.070532
 20
9.220147
 30
0.0
  0
VERTEX
  5
1F9
100
AcDbEntity
  8
0
390
0
 62
     7
100
AcDbVertex
100
AcDb2dVertex
 10
-87.09366
 20
9.240771
 30
0.0
  0
VERTEX
  5
1FA
100
AcDbEntity
  8
0
390
0
 62
     7
100
AcDbVertex
100
AcDb2dVertex
 10
-87.118185
 20
9.260816
 30
0.0
  0
VERTEX
  5
1FB
100
AcDbEntity
  8
0
390
0
 62
     7
100
AcDbVertex
100
AcDb2dVertex
 10
-87.143578
 20
9.27975
 30
0.0
  0
VERTEX
  5
1FC
100
AcDbEntity
  8
0
390
0
 62
     7
100
AcDbVertex
100
AcDb2dVertex
 10
-87.170033
 20
9.297646
 30
0.0
  0
VERTEX
  5
1FD
100
AcDbEntity
  8
0
390
0
 62
     7
100
AcDbVertex
100
AcDb2dVertex
 10
-87.197302
 20
9.314275
 30
0.0
  0
SEQEND
  5
1FE
100
AcDbEntity
  8
0
390
0
  0
LINE
  5
1FF
100
AcDbEntity
  8
0
390
0
  6
Continuous
 62
     7
100
AcDbLine
 10
-87.197302
 20
9.314275
 30
0.0
 11
-85.947493
 21
11.479008
 31
0.0
  0
ARC
  5
200
100
AcDbEntity
  8
0
390
0
  6
Continuous
 62
     7
100
AcDbCircle
 10
-87.602483
 20
8.644388
 30
0.0
 40
3.282387
210
0.0
220
0.0
230
1.0
100
AcDbArc
 50
0.278484
 51
59.721516
  0
LINE
  5
201
100
AcDbEntity
  8
0
390
0
  6
Continuous
 62
     7
100
AcDbLine
 10
-86.819754
 20
8.660342
 30
0.0
 11
-84.320135
 21
8.660342
 31
0.0
  0
ARC
  5
202
100
AcDbEntity
  8
0
390
0
  6
Continuous
 62
     7
100
AcDbCircle
 10
-102.575003
 20
-17.290237
 30
0.0
 40
3.281118
210
0.0
220
0.0
230
1.0
100
AcDbArc
 50
240.265832
 51
299.734168
  0
LINE
  5
203
100
AcDbEntity
  8
0
390
0
  6
Continuous
 62
     7
100
AcDbLine
 10
-104.20236
 20
-20.13935
 30
0.0
 11
-102.952551
 21
-17.974616
 31
0.0
  0
POLYLINE
  5
204
100
AcDbEntity
  8
0
390
0
  6
Continuous
 62
     7
100
AcDb2dPolyline
 66
     1
 10
0.0
 20
0.0
 30
0.0
 40
0.1
 41
0.1
  0
VERTEX
  5
205
100
AcDbEntity
  8
0
390
0
 62
     7
100
AcDbVertex
100
AcDb2dVertex
 10
-102.952551
 20
-17.974616
 30
0.0
  0
VERTEX
  5
206
100
AcDbEntity
  8
0
390
0
 62
     7
100
AcDbVertex
100
AcDb2dVertex
 10
-102.921541
 20
-17.991435
 30
0.0
  0
VERTEX
  5
207
100
AcDbEntity
  8
0
390
0
 62
     7
100
AcDbVertex
100
AcDb2dVertex
 10
-102.889657
 20
-18.00664
 30
0.0
  0
VERTEX
  5
208
100
AcDbEntity
  8
0
390
0
 62
     7
100
AcDbVertex
100
AcDb2dVertex
 10
-102.857043
 20
-18.020219
 30
0.0
  0
VERTEX
  5
209
100
AcDbEntity
  8
0
390
0
 62
     7
100
AcDbVertex
100
AcDb2dVertex
 10
-102.823842
 20
-18.032161
 30
0.0
  0
VERTEX
  5
20A
100
AcDbEntity
  8
0
390
0
 62
     7
100
AcDbVertex
100
AcDb2dVertex
 10
-102.788724
 20
-18.04288
 30
0.0
  0
VERTEX
  5
20B
100
AcDbEntity
  8
0
390
0
 62
     7
100
AcDbVertex
100
AcDb2dVertex
 10
-102.753086
 20
-18.051892
 30
0.0
  0
VERTEX
  5
20C
100
AcDbEntity
  8
0
390
0
 62
     7
100
AcDbVertex
100
AcDb2dVertex
 10
-102.717058
 20
-18.059205
 30
0.0
  0
VERTEX
  5
20D
100
AcDbEntity
  8
0
390
0
 62
     7
100
AcDbVertex
100
AcDb2dVertex
 10
-102.68077
 20
-18.064827
 30
0.0
  0
VERTEX
  5
20E
100
AcDbEntity
  8
0
390
0
 62
     7
100
AcDbVertex
100
AcDb2dVertex
 10
-102.639914
 20
-18.069137
 30
0.0
  0
VERTEX
  5
20F
100
AcDbEntity
  8
0
390
0
 62
     7
100
AcDbVertex
100
AcDb2dVertex
 10
-102.598865
 20
-18.071374
 30
0.0
  0
VERTEX
  5
210
100
AcDbEntity
  8
0
390
0
 62
     7
100
AcDbVertex
100
AcDb2dVertex
 10
-102.557782
 20
-18.071542
 30
0.0
  0
VERTEX
  5
211
100
AcDbEntity
  8
0
390
0
 62
     7
100
AcDbVertex
100
AcDb2dVertex
 10
-102.515758
 20
-18.06957
 30
0.0
  0
VERTEX
  5
212
100
AcDbEntity
  8
0
390
0
 62
     7
100
AcDbVertex
100
AcDb2dVertex
 10
-102.473865
 20
-18.065421
 30
0.0
  0
VERTEX
  5
213
100
AcDbEntity
  8
0
390
0
 62
     7
100
AcDbVertex
100
AcDb2dVertex
 10
-102.432276
 20
-18.059086
 30
0.0
  0
VERTEX
  5
214
100
AcDbEntity
  8
0
390
0
 62
     7
100
AcDbVertex
100
AcDb2dVertex
 10
-102.402
 20
-18.053032
 30
0.0
  0
VERTEX
  5
215
100
AcDbEntity
  8
0
390
0
 62
     7
100
AcDbVertex
100
AcDb2dVertex
 10
-102.371963
 20
-18.045773
 30
0.0
  0
VERTEX
  5
216
100
AcDbEntity
  8
0
390
0
 62
     7
100
AcDbVertex
100
AcDb2dVertex
 10
-102.342247
 20
-18.037305
 30
0.0
  0
VERTEX
  5
217
100
AcDbEntity
  8
0
390
0
 62
     7
100
AcDbVertex
100
AcDb2dVertex
 10
-102.312932
 20
-18.027621
 30
0.0
  0
VERTEX
  5
218
100
AcDbEntity
  8
0
390
0
 62
     7
100
AcDbVertex
100
AcDb2dVertex
 10
-102.283202
 20
-18.016357
 30
0.0
  0
VERTEX
  5
219
100
AcDbEntity
  8
0
390
0
 62
     7
100
AcDbVertex
100
AcDb2dVertex
 10
-102.253975
 20
-18.003762
 30
0.0
  0
VERTEX
  5
21A
100
AcDbEntity
  8
0
390
0
 62
     7
100
AcDbVertex
100
AcDb2dVertex
 10
-102.225357
 20
-17.989845
 30
0.0
  0
VERTEX
  5
21B
100
AcDbEntity
  8
0
390
0
 62
     7
100
AcDbVertex
100
AcDb2dVertex
 10
-102.197455
 20
-17.974616
 30
0.0
  0
SEQEND
  5
21C
100
AcDbEntity
  8
0
390
0
  0
LINE
  5
21D
100
AcDbEntity
  8
0
390
0
  6
Continuous
 62
     7
100
AcDbLine
 10
-100.947645
 20
-20.13935
 30
0.0
 11
-102.197455
 21
-17.974616
 31
0.0
  0
POLYLINE
  5
21E
100
AcDbEntity
  8
0
390
0
  6
Continuous
 62
     7
100
AcDb2dPolyline
 66
     1
 10
0.0
 20
0.0
 30
0.0
 40
0.1
 41
0.1
  0
VERTEX
  5
21F
100
AcDbEntity
  8
0
390
0
 62
     7
100
AcDbVertex
100
AcDb2dVertex
 10
-102.197455
 20
17.974617
 30
0.0
  0
VERTEX
  5
220
100
AcDbEntity
  8
0
390
0
 62
     7
100
AcDbVertex
100
AcDb2dVertex
 10
-102.228464
 20
17.991436
 30
0.0
  0
VERTEX
  5
221
100
AcDbEntity
  8
0
390
0
 62
     7
100
AcDbVertex
100
AcDb2dVertex
 10
-102.260348
 20
18.00664
 30
0.0
  0
VERTEX
  5
222
100
AcDbEntity
  8
0
390
0
 62
     7
100
AcDbVertex
100
AcDb2dVertex
 10
-102.292962
 20
18.020219
 30
0.0
  0
VERTEX
  5
223
100
AcDbEntity
  8
0
390
0
 62
     7
100
AcDbVertex
100
AcDb2dVertex
 10
-102.326163
 20
18.032162
 30
0.0
  0
VERTEX
  5
224
100
AcDbEntity
  8
0
390
0
 62
     7
100
AcDbVertex
100
AcDb2dVertex
 10
-102.361281
 20
18.042881
 30
0.0
  0
VERTEX
  5
225
100
AcDbEntity
  8
0
390
0
 62
     7
100
AcDbVertex
100
AcDb2dVertex
 10
-102.396919
 20
18.051892
 30
0.0
  0
VERTEX
  5
226
100
AcDbEntity
  8
0
390
0
 62
     7
100
AcDbVertex
100
AcDb2dVertex
 10
-102.432947
 20
18.059205
 30
0.0
  0
VERTEX
  5
227
100
AcDbEntity
  8
0
390
0
 62
     7
100
AcDbVertex
100
AcDb2dVertex
 10
-102.469236
 20
18.064827
 30
0.0
  0
VERTEX
  5
228
100
AcDbEntity
  8
0
390
0
 62
     7
100
AcDbVertex
100
AcDb2dVertex
 10
-102.510092
 20
18.069138
 30
0.0
  0
VERTEX
  5
229
100
AcDbEntity
  8
0
390
0
 62
     7
100
AcDbVertex
100
AcDb2dVertex
 10
-102.55114
 20
18.071375
 30
0.0
  0
VERTEX
  5
22A
100
AcDbEntity
  8
0
390
0
 62
     7
100
AcDbVertex
100
AcDb2dVertex
 10
-102.592223
 20
18.071543
 30
0.0
  0
VERTEX
  5
22B
100
AcDbEntity
  8
0
390
0
 62
     7
100
AcDbVertex
100
AcDb2dVertex
 10
-102.634247
 20
18.069571
 30
0.0
  0
VERTEX
  5
22C
100
AcDbEntity
  8
0
390
0
 62
     7
100
AcDbVertex
100
AcDb2dVertex
 10
-102.67614
 20
18.065421
 30
0.0
  0
VERTEX
  5
22D
100
AcDbEntity
  8
0
390
0
 62
     7
100
AcDbVertex
100
AcDb2dVertex
 10
-102.717729
 20
18.059087
 30
0.0
  0
VERTEX
  5
22E
100
AcDbEntity
  8
0
390
0
 62
     7
100
AcDbVertex
100
AcDb2dVertex
 10
-102.748006
 20
18.053033
 30
0.0
  0
VERTEX
  5
22F
100
AcDbEntity
  8
0
390
0
 62
     7
100
AcDbVertex
100
AcDb2dVertex
 10
-102.778042
 20
18.045774
 30
0.0
  0
VERTEX
  5
230
100
AcDbEntity
  8
0
390
0
 62
     7
100
AcDbVertex
100
AcDb2dVertex
 10
-102.807758
 20
18.037305
 30
0.0
  0
VERTEX
  5
231
100
AcDbEntity
  8
0
390
0
 62
     7
100
AcDbVertex
100
AcDb2dVertex
 10
-102.837074
 20
18.027622
 30
0.0
  0
VERTEX
  5
232
100
AcDbEntity
  8
0
390
0
 62
     7
100
AcDbVertex
100
AcDb2dVertex
 10
-102.866803
 20
18.016358
 30
0.0
  0
VERTEX
  5
233
100
AcDbEntity
  8
0
390
0
 62
     7
100
AcDbVertex
100
AcDb2dVertex
 10
-102.89603
 20
18.003763
 30
0.0
  0
VERTEX
  5
234
100
AcDbEntity
  8
0
390
0
 62
     7
100
AcDbVertex
100
AcDb2dVertex
 10
-102.924648
 20
17.989846
 30
0.0
  0
VERTEX
  5
235
100
AcDbEntity
  8
0
390
0
 62
     7
100
AcDbVertex
100
AcDb2dVertex
 10
-102.952551
 20
17.974617
 30
0.0
  0
SEQEND
  5
236
100
AcDbEntity
  8
0
390
0
  0
LINE
  5
237
100
AcDbEntity
  8
0
390
0
  6
Continuous
 62
     7
100
AcDbLine
 10
-102.952551
 20
17.974617
 30
0.0
 11
-104.20236
 21
20.13935
 31
0.0
  0
ARC
  5
238
100
AcDbEntity
  8
0
390
0
  6
Continuous
 62
     7
100
AcDbCircle
 10
-102.575003
 20
17.290238
 30
0.0
 40
3.281118
210
0.0
220
0.0
230
1.0
100
AcDbArc
 50
60.265832
 51
119.734168
  0
LINE
  5
239
100
AcDbEntity
  8
0
390
0
  6
Continuous
 62
     7
100
AcDbLine
 10
-102.197455
 20
17.974617
 30
0.0
 11
-100.947645
 21
20.13935
 31
0.0
  0
ARC
  5
23A
100
AcDbEntity
  8
0
390
0
  6
Continuous
 62
     7
100
AcDbCircle
 10
-117.547522
 20
-8.644388
 30
0.0
 40
3.282387
210
0.0
220
0.0
230
1.0
100
AcDbArc
 50
180.278484
 51
239.721516
  0
LINE
  5
23B
100
AcDbEntity
  8
0
390
0
  6
Continuous
 62
     7
100
AcDbLine
 10
-120.82987
 20
-8.660342
 30
0.0
 11
-118.330251
 21
-8.660342
 31
0.0
  0
POLYLINE
  5
23C
100
AcDbEntity
  8
0
390
0
  6
Continuous
 62
     7
100
AcDb2dPolyline
 66
     1
 10
0.0
 20
0.0
 30
0.0
 40
0.1
 41
0.1
  0
VERTEX
  5
23D
100
AcDbEntity
  8
0
390
0
 62
     7
100
AcDbVertex
100
AcDb2dVertex
 10
-118.330251
 20
-8.660342
 30
0.0
  0
VERTEX
  5
23E
100
AcDbEntity
  8
0
390
0
 62
     7
100
AcDbVertex
100
AcDb2dVertex
 10
-118.329531
 20
-8.691226
 30
0.0
  0
VERTEX
  5
23F
100
AcDbEntity
  8
0
390
0
 62
     7
100
AcDbVertex
100
AcDb2dVertex
 10
-118.327399
 20
-8.722076
 30
0.0
  0
VERTEX
  5
240
100
AcDbEntity
  8
0
390
0
 62
     7
100
AcDbVertex
100
AcDb2dVertex
 10
-118.323896
 20
-8.752804
 30
0.0
  0
VERTEX
  5
241
100
AcDbEntity
  8
0
390
0
 62
     7
100
AcDbVertex
100
AcDb2dVertex
 10
-118.319063
 20
-8.78332
 30
0.0
  0
VERTEX
  5
242
100
AcDbEntity
  8
0
390
0
 62
     7
100
AcDbVertex
100
AcDb2dVertex
 10
-118.31272
 20
-8.814547
 30
0.0
  0
VERTEX
  5
243
100
AcDbEntity
  8
0
390
0
 62
     7
100
AcDbVertex
100
AcDb2dVertex
 10
-118.305041
 20
-8.845502
 30
0.0
  0
VERTEX
  5
244
100
AcDbEntity
  8
0
390
0
 62
     7
100
AcDbVertex
100
AcDb2dVertex
 10
-118.296073
 20
-8.87611
 30
0.0
  0
VERTEX
  5
245
100
AcDbEntity
  8
0
390
0
 62
     7
100
AcDbVertex
100
AcDb2dVertex
 10
-118.285864
 20
-8.906298
 30
0.0
  0
VERTEX
  5
246
100
AcDbEntity
  8
0
390
0
 62
     7
100
AcDbVertex
100
AcDb2dVertex
 10
-118.270897
 20
-8.944619
 30
0.0
  0
VERTEX
  5
247
100
AcDbEntity
  8
0
390
0
 62
     7
100
AcDbVertex
100
AcDb2dVertex
 10
-118.253974
 20
-8.982148
 30
0.0
  0
VERTEX
  5
248
100
AcDbEntity
  8
0
390
0
 62
     7
100
AcDbVertex
100
AcDb2dVertex
 10
-118.235183
 20
-9.018748
 30
0.0
  0
VERTEX
  5
249
100
AcDbEntity
  8
0
390
0
 62
     7
100
AcDbVertex
100
AcDb2dVertex
 10
-118.214049
 20
-9.055202
 30
0.0
  0
VERTEX
  5
24A
100
AcDbEntity
  8
0
390
0
 62
     7
100
AcDbVertex
100
AcDb2dVertex
 10
-118.191047
 20
-9.09054
 30
0.0
  0
VERTEX
  5
24B
100
AcDbEntity
  8
0
390
0
 62
     7
100
AcDbVertex
100
AcDb2dVertex
 10
-118.166256
 20
-9.124612
 30
0.0
  0
VERTEX
  5
24C
100
AcDbEntity
  8
0
390
0
 62
     7
100
AcDbVertex
100
AcDb2dVertex
 10
-118.144174
 20
-9.152069
 30
0.0
  0
VERTEX
  5
24D
100
AcDbEntity
  8
0
390
0
 62
     7
100
AcDbVertex
100
AcDb2dVertex
 10
-118.120865
 20
-9.178541
 30
0.0
  0
VERTEX
  5
24E
100
AcDbEntity
  8
0
390
0
 62
     7
100
AcDbVertex
100
AcDb2dVertex
 10
-118.096379
 20
-9.203924
 30
0.0
  0
VERTEX
  5
24F
100
AcDbEntity
  8
0
390
0
 62
     7
100
AcDbVertex
100
AcDb2dVertex
 10
-118.070767
 20
-9.228116
 30
0.0
  0
VERTEX
  5
250
100
AcDbEntity
  8
0
390
0
 62
     7
100
AcDbVertex
100
AcDb2dVertex
 10
-118.048638
 20
-9.24726
 30
0.0
  0
VERTEX
  5
251
100
AcDbEntity
  8
0
390
0
 62
     7
100
AcDbVertex
100
AcDb2dVertex
 10
-118.025722
 20
-9.265515
 30
0.0
  0
VERTEX
  5
252
100
AcDbEntity
  8
0
390
0
 62
     7
100
AcDbVertex
100
AcDb2dVertex
 10
-118.002063
 20
-9.282814
 30
0.0
  0
VERTEX
  5
253
100
AcDbEntity
  8
0
390
0
 62
     7
100
AcDbVertex
100
AcDb2dVertex
 10
-117.977708
 20
-9.29909
 30
0.0
  0
VERTEX
  5
254
100
AcDbEntity
  8
0
390
0
 62
     7
100
AcDbVertex
100
AcDb2dVertex
 10
-117.952703
 20
-9.314274
 30
0.0
  0
SEQEND
  5
255
100
AcDbEntity
  8
0
390
0
  0
LINE
  5
256
100
AcDbEntity
  8
0
390
0
  6
Continuous
 62
     7
100
AcDbLine
 10
-119.202513
 20
-11.479008
 30
0.0
 11
-117.952703
 21
-9.314274
 31
0.0
  0
POLYLINE
  5
257
100
AcDbEntity
  8
0
390
0
  6
Continuous
 62
     7
100
AcDb2dPolyline
 66
     1
 10
0.0
 20
0.0
 30
0.0
 40
0.1
 41
0.1
  0
VERTEX
  5
258
100
AcDbEntity
  8
0
390
0
 62
     7
100
AcDbVertex
100
AcDb2dVertex
 10
-117.952703
 20
9.314275
 30
0.0
  0
VERTEX
  5
259
100
AcDbEntity
  8
0
390
0
 62
     7
100
AcDbVertex
100
AcDb2dVertex
 10
-117.982774
 20
9.295829
 30
0.0
  0
VERTEX
  5
25A
100
AcDbEntity
  8
0
390
0
 62
     7
100
AcDbVertex
100
AcDb2dVertex
 10
-118.011883
 20
9.275819
 30
0.0
  0
VERTEX
  5
25B
100
AcDbEntity
  8
0
390
0
 62
     7
100
AcDbVertex
100
AcDb2dVertex
 10
-118.03995
 20
9.254364
 30
0.0
  0
VERTEX
  5
25C
100
AcDbEntity
  8
0
390
0
 62
     7
100
AcDbVertex
100
AcDb2dVertex
 10
-118.066893
 20
9.231582
 30
0.0
  0
VERTEX
  5
25D
100
AcDbEntity
  8
0
390
0
 62
     7
100
AcDbVertex
100
AcDb2dVertex
 10
-118.093734
 20
9.206529
 30
0.0
  0
VERTEX
  5
25E
100
AcDbEntity
  8
0
390
0
 62
     7
100
AcDbVertex
100
AcDb2dVertex
 10
-118.119358
 20
9.180171
 30
0.0
  0
VERTEX
  5
25F
100
AcDbEntity
  8
0
390
0
 62
     7
100
AcDbVertex
100
AcDb2dVertex
 10
-118.143705
 20
9.152627
 30
0.0
  0
VERTEX
  5
260
100
AcDbEntity
  8
0
390
0
 62
     7
100
AcDbVertex
100
AcDb2dVertex
 10
-118.166718
 20
9.124011
 30
0.0
  0
VERTEX
  5
261
100
AcDbEntity
  8
0
390
0
 62
     7
100
AcDbVertex
100
AcDb2dVertex
 10
-118.190879
 20
9.090784
 30
0.0
  0
VERTEX
  5
262
100
AcDbEntity
  8
0
390
0
 62
     7
100
AcDbVertex
100
AcDb2dVertex
 10
-118.213341
 20
9.056353
 30
0.0
  0
VERTEX
  5
263
100
AcDbEntity
  8
0
390
0
 62
     7
100
AcDbVertex
100
AcDb2dVertex
 10
-118.234028
 20
9.020858
 30
0.0
  0
VERTEX
  5
264
100
AcDbEntity
  8
0
390
0
 62
     7
100
AcDbVertex
100
AcDb2dVertex
 10
-118.253332
 20
8.983478
 30
0.0
  0
VERTEX
  5
265
100
AcDbEntity
  8
0
390
0
 62
     7
100
AcDbVertex
100
AcDb2dVertex
 10
-118.270685
 20
8.945123
 30
0.0
  0
VERTEX
  5
266
100
AcDbEntity
  8
0
390
0
 62
     7
100
AcDbVertex
100
AcDb2dVertex
 10
-118.285994
 20
8.905939
 30
0.0
  0
VERTEX
  5
267
100
AcDbEntity
  8
0
390
0
 62
     7
100
AcDbVertex
100
AcDb2dVertex
 10
-118.295889
 20
8.876692
 30
0.0
  0
VERTEX
  5
268
100
AcDbEntity
  8
0
390
0
 62
     7
100
AcDbVertex
100
AcDb2dVertex
 10
-118.304621
 20
8.84705
 30
0.0
  0
VERTEX
  5
269
100
AcDbEntity
  8
0
390
0
 62
     7
100
AcDbVertex
100
AcDb2dVertex
 10
-118.312144
 20
8.817081
 30
0.0
  0
VERTEX
  5
26A
100
AcDbEntity
  8
0
390
0
 62
     7
100
AcDbVertex
100
AcDb2dVertex
 10
-118.318416
 20
8.786851
 30
0.0
  0
VERTEX
  5
26B
100
AcDbEntity
  8
0
390
0
 62
     7
100
AcDbVertex
100
AcDb2dVertex
 10
-118.323526
 20
8.755472
 30
0.0
  0
VERTEX
  5
26C
100
AcDbEntity
  8
0
390
0
 62
     7
100
AcDbVertex
100
AcDb2dVertex
 10
-118.327232
 20
8.723863
 30
0.0
  0
VERTEX
  5
26D
100
AcDbEntity
  8
0
390
0
 62
     7
100
AcDbVertex
100
AcDb2dVertex
 10
-118.329489
 20
8.692121
 30
0.0
  0
VERTEX
  5
26E
100
AcDbEntity
  8
0
390
0
 62
     7
100
AcDbVertex
100
AcDb2dVertex
 10
-118.330251
 20
8.660342
 30
0.0
  0
SEQEND
  5
26F
100
AcDbEntity
  8
0
390
0
  0
LINE
  5
270
100
AcDbEntity
  8
0
390
0
  6
Continuous
 62
     7
100
AcDbLine
 10
-118.330251
 20
8.660342
 30
0.0
 11
-120.82987
 21
8.660342
 31
0.0
  0
ARC
  5
271
100
AcDbEntity
  8
0
390
0
  6
Continuous
 62
     7
100
AcDbCircle
 10
-117.547522
 20
8.644388
 30
0.0
 40
3.282387
210
0.0
220
0.0
230
1.0
100
AcDbArc
 50
120.278484
 51
179.721516
  0
LINE
  5
272
100
AcDbEntity
  8
0
390
0
  6
Continuous
 62
     7
100
AcDbLine
 10
-117.952703
 20
9.314275
 30
0.0
 11
-119.202513
 21
11.479008
 31
0.0
  0
LINE
  5
273
100
AcDbEntity
  8
0
390
0
  6
Continuous
 62
     7
100
AcDbLine
 10
-102.952551
 20
17.974617
 30
0.0
 11
-117.952703
 21
9.314275
 31
0.0
  0
LINE
  5
274
100
AcDbEntity
  8
0
390
0
  6
Continuous
 62
     7
100
AcDbLine
 10
-87.197302
 20
9.314275
 30
0.0
 11
-102.197455
 21
17.974617
 31
0.0
  0
LINE
  5
275
100
AcDbEntity
  8
0
390
0
  6
Continuous
 62
     7
100
AcDbLine
 10
-86.819754
 20
-8.660342
 30
0.0
 11
-86.819754
 21
8.660342
 31
0.0
  0
LINE
  5
276
100
AcDbEntity
  8
0
390
0
  6
Continuous
 62
     7
100
AcDbLine
 10
-102.197455
 20
-17.974616
 30
0.0
 11
-87.197302
 21
-9.314274
 31
0.0
  0
LINE
  5
277
100
AcDbEntity
  8
0
390
0
  6
Continuous
 62
     7
100
AcDbLine
 10
-117.952703
 20
-9.314274
 30
0.0
 11
-102.952551
 21
-17.974616
 31
0.0
  0
LINE
  5
278
100
AcDbEntity
  8
0
390
0
  6
Continuous
 62
     7
100
AcDbLine
 10
-118.330251
 20
8.660342
 30
0.0
 11
-118.330251
 21
-8.660342
 31
0.0
  0
LINE
  5
279
100
AcDbEntity
  8
0
390
0
  6
Continuous
 62
     7
100
AcDbLine
 10
-120.82987
 20
-8.660342
 30
0.0
 11
-120.82987
 21
8.660342
 31
0.0
  0
LINE
  5
27A
100
AcDbEntity
  8
0
390
0
  6
Continuous
 62
     7
100
AcDbLine
 10
-104.20236
 20
-20.13935
 30
0.0
 11
-119.202513
 21
-11.479008
 31
0.0
  0
LINE
  5
27B
100
AcDbEntity
  8
0
390
0
  6
Continuous
 62
     7
100
AcDbLine
 10
-85.947493
 20
-11.479008
 30
0.0
 11
-100.947645
 21
-20.13935
 31
0.0
  0
LINE
  5
27C
100
AcDbEntity
  8
0
390
0
  6
Continuous
 62
     7
100
AcDbLine
 10
-119.202513
 20
11.479008
 30
0.0
 11
-104.20236
 21
20.13935
 31
0.0
  0
LINE
  5
27D
100
AcDbEntity
  8
0
390
0
  6
Continuous
 62
     7
100
AcDbLine
 10
-84.320135
 20
8.660342
 30
0.0
 11
-84.320135
 21
-8.660342
 31
0.0
  0
LINE
  5
27E
100
AcDbEntity
  8
0
390
0
  6
Continuous
 62
     7
100
AcDbLine
 10
-100.947645
 20
20.13935
 30
0.0
 11
-85.947493
 21
11.479008
 31
0.0
  0
LINE
  5
27F
100
AcDbEntity
  8
0
390
0
  6
Continuous
 62
     7
100
AcDbLine
 10
-84.320135
 20
-8.660342
 30
0.0
 11
-84.148239
 21
-8.660342
 31
0.0
  0
LINE
  5
280
100
AcDbEntity
  8
0
390
0
  6
Continuous
 62
     7
100
AcDbLine
 10
-84.148174
 20
-8.697678
 30
0.0
 11
-84.148239
 21
-8.660342
 31
0.0
  0
LINE
  5
281
100
AcDbEntity
  8
0
390
0
  6
Continuous
 62
     7
100
AcDbLine
 10
-84.196731
 20
-9.248399
 30
0.0
 11
-84.148174
 21
-8.697678
 31
0.0
  0
ARC
  5
282
100
AcDbEntity
  8
0
390
0
  6
Continuous
 62
     7
100
AcDbCircle
 10
-87.588905
 20
-8.652227
 30
0.0
 40
3.444164
210
0.0
220
0.0
230
0.9999999999999999
100
AcDbArc
 50
309.967886
 51
350.032114
  0
LINE
  5
283
100
AcDbEntity
  8
0
390
0
  6
Continuous
 62
     7
100
AcDbLine
 10
-85.829178
 20
-11.609263
 30
0.0
 11
-85.376519
 21
-11.29185
 31
0.0
  0
LINE
  5
284
100
AcDbEntity
  8
0
390
0
  6
Continuous
 62
     7
100
AcDbLine
 10
-85.861545
 20
-11.627874
 30
0.0
 11
-85.829178
 21
-11.609263
 31
0.0
  0
LINE
  5
285
100
AcDbEntity
  8
0
390
0
  6
Continuous
 62
     7
100
AcDbLine
 10
-85.947493
 20
-11.479008
 30
0.0
 11
-85.861545
 21
-11.627874
 31
0.0
  0
ARC
  5
286
100
AcDbEntity
  8
0
390
0
  6
Continuous
 62
     7
100
AcDbCircle
 10
-117.561077
 20
-8.652214
 30
0.0
 40
3.444189
210
0.0
220
0.0
230
1.0
100
AcDbArc
 50
189.968035
 51
230.031965
  0
LINE
  5
287
100
AcDbEntity
  8
0
390
0
  6
Continuous
 62
     7
100
AcDbLine
 10
-121.001832
 20
-8.697678
 30
0.0
 11
-120.953274
 21
-9.248399
 31
0.0
  0
LINE
  5
288
100
AcDbEntity
  8
0
390
0
  6
Continuous
 62
     7
100
AcDbLine
 10
-121.001766
 20
-8.660342
 30
0.0
 11
-121.001832
 21
-8.697678
 31
0.0
  0
LINE
  5
289
100
AcDbEntity
  8
0
390
0
  6
Continuous
 62
     7
100
AcDbLine
 10
-120.82987
 20
-8.660342
 30
0.0
 11
-121.001766
 21
-8.660342
 31
0.0
  0
LINE
  5
28A
100
AcDbEntity
  8
0
390
0
  6
Continuous
 62
     7
100
AcDbLine
 10
-119.202513
 20
-11.479008
 30
0.0
 11
-119.288461
 21
-11.627874
 31
0.0
  0
LINE
  5
28B
100
AcDbEntity
  8
0
390
0
  6
Continuous
 62
     7
100
AcDbLine
 10
-119.320828
 20
-11.609263
 30
0.0
 11
-119.288461
 21
-11.627874
 31
0.0
  0
LINE
  5
28C
100
AcDbEntity
  8
0
390
0
  6
Continuous
 62
     7
100
AcDbLine
 10
-119.773487
 20
-11.29185
 30
0.0
 11
-119.320828
 21
-11.609263
 31
0.0
  0
LINE
  5
28D
100
AcDbEntity
  8
0
390
0
  6
Continuous
 62
     7
100
AcDbLine
 10
-85.947493
 20
11.479008
 30
0.0
 11
-85.861545
 21
11.627875
 31
0.0
  0
LINE
  5
28E
100
AcDbEntity
  8
0
390
0
  6
Continuous
 62
     7
100
AcDbLine
 10
-85.829178
 20
11.609263
 30
0.0
 11
-85.861545
 21
11.627875
 31
0.0
  0
LINE
  5
28F
100
AcDbEntity
  8
0
390
0
  6
Continuous
 62
     7
100
AcDbLine
 10
-85.376519
 20
11.291851
 30
0.0
 11
-85.829178
 21
11.609263
 31
0.0
  0
ARC
  5
290
100
AcDbEntity
  8
0
390
0
  6
Continuous
 62
     7
100
AcDbCircle
 10
-87.588905
 20
8.652228
 30
0.0
 40
3.444164
210
0.0
220
0.0
230
1.0
100
AcDbArc
 50
9.967886
 51
50.032114
  0
LINE
  5
291
100
AcDbEntity
  8
0
390
0
  6
Continuous
 62
     7
100
AcDbLine
 10
-84.148174
 20
8.697679
 30
0.0
 11
-84.196731
 21
9.248399
 31
0.0
  0
LINE
  5
292
100
AcDbEntity
  8
0
390
0
  6
Continuous
 62
     7
100
AcDbLine
 10
-84.148239
 20
8.660342
 30
0.0
 11
-84.148174
 21
8.697679
 31
0.0
  0
LINE
  5
293
100
AcDbEntity
  8
0
390
0
  6
Continuous
 62
     7
100
AcDbLine
 10
-84.320135
 20
8.660342
 30
0.0
 11
-84.148239
 21
8.660342
 31
0.0
  0
LINE
  5
294
100
AcDbEntity
  8
0
390
0
  6
Continuous
 62
     7
100
AcDbLine
 10
-104.20236
 20
20.13935
 30
0.0
 11
-104.288308
 21
20.288217
 31
0.0
  0
LINE
  5
295
100
AcDbEntity
  8
0
390
0
  6
Continuous
 62
     7
100
AcDbLine
 10
-104.256007
 20
20.306942
 30
0.0
 11
-104.288308
 21
20.288217
 31
0.0
  0
LINE
  5
296
100
AcDbEntity
  8
0
390
0
  6
Continuous
 62
     7
100
AcDbLine
 10
-103.75479
 20
20.54025
 30
0.0
 11
-104.256007
 21
20.306942
 31
0.0
  0
ARC
  5
297
100
AcDbEntity
  8
0
390
0
  6
Continuous
 62
     7
100
AcDbCircle
 10
-102.575003
 20
17.304636
 30
0.0
 40
3.443994
210
0.0
220
0.0
230
1.0
100
AcDbArc
 50
69.966854
 51
110.033146
  0
LINE
  5
298
100
AcDbEntity
  8
0
390
0
  6
Continuous
 62
     7
100
AcDbLine
 10
-100.893998
 20
20.306942
 30
0.0
 11
-101.395215
 21
20.54025
 31
0.0
  0
LINE
  5
299
100
AcDbEntity
  8
0
390
0
  6
Continuous
 62
     7
100
AcDbLine
 10
-100.861697
 20
20.288217
 30
0.0
 11
-100.893998
 21
20.306942
 31
0.0
  0
LINE
  5
29A
100
AcDbEntity
  8
0
390
0
  6
Continuous
 62
     7
100
AcDbLine
 10
-100.947645
 20
20.13935
 30
0.0
 11
-100.861697
 21
20.288217
 31
0.0
  0
LINE
  5
29B
100
AcDbEntity
  8
0
390
0
  6
Continuous
 62
     7
100
AcDbLine
 10
-100.947645
 20
-20.13935
 30
0.0
 11
-100.861697
 21
-20.288216
 31
0.0
  0
LINE
  5
29C
100
AcDbEntity
  8
0
390
0
  6
Continuous
 62
     7
100
AcDbLine
 10
-100.893998
 20
-20.306941
 30
0.0
 11
-100.861697
 21
-20.288216
 31
0.0
  0
LINE
  5
29D
100
AcDbEntity
  8
0
390
0
  6
Continuous
 62
     7
100
AcDbLine
 10
-101.395215
 20
-20.540249
 30
0.0
 11
-100.893998
 21
-20.306941
 31
0.0
  0
ARC
  5
29E
100
AcDbEntity
  8
0
390
0
  6
Continuous
 62
     7
100
AcDbCircle
 10
-102.575003
 20
-17.304635
 30
0.0
 40
3.443995
210
0.0
220
0.0
230
1.0
100
AcDbArc
 50
249.966858
 51
290.033142
  0
LINE
  5
29F
100
AcDbEntity
  8
0
390
0
  6
Continuous
 62
     7
100
AcDbLine
 10
-104.256007
 20
-20.306941
 30
0.0
 11
-103.75479
 21
-20.540249
 31
0.0
  0
LINE
  5
2A0
100
AcDbEntity
  8
0
390
0
  6
Continuous
 62
     7
100
AcDbLine
 10
-104.288308
 20
-20.288216
 30
0.0
 11
-104.256007
 21
-20.306941
 31
0.0
  0
LINE
  5
2A1
100
AcDbEntity
  8
0
390
0
  6
Continuous
 62
     7
100
AcDbLine
 10
-104.20236
 20
-20.13935
 30
0.0
 11
-104.288308
 21
-20.288216
 31
0.0
  0
LINE
  5
2A2
100
AcDbEntity
  8
0
390
0
  6
Continuous
 62
     7
100
AcDbLine
 10
-120.82987
 20
8.660342
 30
0.0
 11
-121.001766
 21
8.660342
 31
0.0
  0
LINE
  5
2A3
100
AcDbEntity
  8
0
390
0
  6
Continuous
 62
     7
100
AcDbLine
 10
-121.001832
 20
8.697679
 30
0.0
 11
-121.001766
 21
8.660342
 31
0.0
  0
LINE
  5
2A4
100
AcDbEntity
  8
0
390
0
  6
Continuous
 62
     7
100
AcDbLine
 10
-120.953274
 20
9.248399
 30
0.0
 11
-121.001832
 21
8.697679
 31
0.0
  0
ARC
  5
2A5
100
AcDbEntity
  8
0
390
0
  6
Continuous
 62
     7
100
AcDbCircle
 10
-117.561077
 20
8.652215
 30
0.0
 40
3.444189
210
0.0
220
0.0
230
1.0
100
AcDbArc
 50
129.968035
 51
170.031965
  0
LINE
  5
2A6
100
AcDbEntity
  8
0
390
0
  6
Continuous
 62
     7
100
AcDbLine
 10
-119.320828
 20
11.609263
 30
0.0
 11
-119.773487
 21
11.291851
 31
0.0
  0
LINE
  5
2A7
100
AcDbEntity
  8
0
390
0
  6
Continuous
 62
     7
100
AcDbLine
 10
-119.288461
 20
11.627875
 30
0.0
 11
-119.320828
 21
11.609263
 31
0.0
  0
LINE
  5
2A8
100
AcDbEntity
  8
0
390
0
  6
Continuous
 62
     7
100
AcDbLine
 10
-119.202513
 20
11.479008
 30
0.0
 11
-119.288461
 21
11.627875
 31
0.0
  0
LINE
  5
2A9
100
AcDbEntity
  8
0
390
0
  6
Continuous
 62
     7
100
AcDbLine
 10
-121.001766
 20
8.660342
 30
0.0
 11
-121.001766
 21
-8.660342
 31
0.0
  0
LINE
  5
2AA
100
AcDbEntity
  8
0
390
0
  6
Continuous
 62
     7
100
AcDbLine
 10
-119.288461
 20
-11.627874
 30
0.0
 11
-104.288308
 21
-20.288216
 31
0.0
  0
LINE
  5
2AB
100
AcDbEntity
  8
0
390
0
  6
Continuous
 62
     7
100
AcDbLine
 10
-100.861697
 20
-20.288216
 30
0.0
 11
-85.861545
 21
-11.627874
 31
0.0
  0
LINE
  5
2AC
100
AcDbEntity
  8
0
390
0
  6
Continuous
 62
     7
100
AcDbLine
 10
-104.288308
 20
20.288217
 30
0.0
 11
-119.288461
 21
11.627875
 31
0.0
  0
LINE
  5
2AD
100
AcDbEntity
  8
0
390
0
  6
Continuous
 62
     7
100
AcDbLine
 10
-84.148239
 20
-8.660342
 30
0.0
 11
-84.148239
 21
8.660342
 31
0.0
  0
LINE
  5
2AE
100
AcDbEntity
  8
0
390
0
  6
Continuous
 62
     7
100
AcDbLine
 10
-85.861545
 20
11.627875
 30
0.0
 11
-100.861697
 21
20.288217
 31
0.0
  0
ARC
  5
2AF
100
AcDbEntity
  8
0
390
0
  6
Continuous
 62
     7
100
AcDbCircle
 10
-126.582456
 20
0.0
 30
0.0
 40
44.463018
210
0.0
220
0.0
230
1.0
100
AcDbArc
 50
349.433515
 51
10.566485
  0
ELLIPSE
  5
2B0
100
AcDbEntity
  8
0
390
0
  6
Continuous
 62
     7
100
AcDbEllipse
 10
-81.64862
 20
-8.660342
 30
0.0
 11
-2.4999777760291444
 21
-0.0105413168228485
 31
0.0
210
0.0
220
0.0
230
0.9999999999999999
 40
0.234811
 41
5.2233958678434043
 42
6.2652299509456642
  0
ELLIPSE
  5
2B1
100
AcDbEntity
  8
0
390
0
  6
Continuous
 62
     7
100
AcDbEllipse
 10
-81.64862
 20
8.660342
 30
0.0
 11
-2.4999777760291444
 21
0.0105413168219881
 31
0.0
210
0.0
220
0.0
230
1.0
 40
0.234811
 41
0.0179553570490365
 42
1.0597894393553844
  0
ARC
  5
2B2
100
AcDbEntity
  8
0
390
0
  6
Continuous
 62
     7
100
AcDbCircle
 10
-114.578729
 20
20.791065
 30
0.0
 40
44.463018
210
0.0
220
0.0
230
1.0
100
AcDbArc
 50
289.433515
 51
310.566485
  0
ELLIPSE
  5
2B3
100
AcDbEntity
  8
0
390
0
  6
Continuous
 62
     7
100
AcDbEllipse
 10
-99.611887
 20
-22.45295
 30
0.0
 11
-1.2591179361725047
 21
2.1597736045263494
 31
0.0
210
0.0
220
0.0
230
1.0
 40
0.234811
 41
5.2233958678433732
 42
6.2652299509456446
  0
ELLIPSE
  5
2B4
100
AcDbEntity
  8
0
390
0
  6
Continuous
 62
     7
100
AcDbEllipse
 10
-84.611735
 20
-13.792608
 30
0.0
 11
-1.2408598398573889
 21
2.170314921348754
 31
0.0
210
0.0
220
0.0
230
1.0
 40
0.234811
 41
0.0179553570514532
 42
1.0597894393554379
  0
ARC
  5
2B5
100
AcDbEntity
  8
0
390
0
  6
Continuous
 62
     7
100
AcDbCircle
 10
-90.571276
 20
20.791065
 30
0.0
 40
44.463018
210
0.0
220
0.0
230
1.0
100
AcDbArc
 50
229.433515
 51
250.566485
  0
ELLIPSE
  5
2B6
100
AcDbEntity
  8
0
390
0
  6
Continuous
 62
     7
100
AcDbEllipse
 10
-120.53827
 20
-13.792608
 30
0.0
 11
-1.2408598471001786
 21
-2.1703149172077607
 31
0.0
210
0.0
220
0.0
230
1.0
 40
0.234811
 41
2.0818032150088301
 42
3.1236372973473983
  0
ELLIPSE
  5
2B7
100
AcDbEntity
  8
0
390
0
  6
Continuous
 62
     7
100
AcDbEllipse
 10
-105.538118
 20
-22.45295
 30
0.0
 11
1.2591179361717553
 21
2.1597736045267659
 31
0.0
210
0.0
220
0.0
230
1.0
 40
0.234811
 41
0.0179553570519394
 42
1.0597894393554319
  0
ARC
  5
2B8
100
AcDbEntity
  8
0
390
0
  6
Continuous
 62
     7
100
AcDbCircle
 10
-114.604816
 20
-20.836247
 30
0.0
 40
44.514307
210
0.0
220
0.0
230
1.0
100
AcDbArc
 50
49.445829
 51
70.554171
  0
ELLIPSE
  5
2B9
100
AcDbEntity
  8
0
390
0
  6
Continuous
 62
     7
100
AcDbEllipse
 10
-84.611735
 20
13.792609
 30
0.0
 11
-1.2408598398566395
 21
-2.1703149213491701
 31
0.0
210
0.0
220
0.0
230
1.0
 40
0.234811
 41
5.2233958678433687
 42
6.2652299509456535
  0
ELLIPSE
  5
2BA
100
AcDbEntity
  8
0
390
0
  6
Continuous
 62
     7
100
AcDbEllipse
 10
-99.611887
 20
22.452951
 30
0.0
 11
1.2591179365615546
 21
2.1597736042995308
 31
0.0
210
0.0
220
0.0
230
1.0
 40
0.234811
 41
3.1595480107318106
 42
4.2013820923227501
  0
ELLIPSE
  5
2BB
100
AcDbEntity
  8
0
390
0
  6
Continuous
 62
     7
100
AcDbEllipse
 10
-120.53827
 20
13.792609
 30
0.0
 11
-1.2408598394654802
 21
2.1703149215728246
 31
0.0
210
0.0
220
0.0
230
1.0
 40
0.234811
 41
3.1595480107322911
 42
4.2013820923224117
  0
ARC
  5
2BC
100
AcDbEntity
  8
0
390
0
  6
Continuous
 62
     7
100
AcDbCircle
 10
-90.544176
 20
-20.838003
 30
0.0
 40
44.516301
210
0.0
220
0.0
230
1.0
100
AcDbArc
 50
109.446307
 51
130.553693
  0
ELLIPSE
  5
2BD
100
AcDbEntity
  8
0
390
0
  6
Continuous
 62
     7
100
AcDbEllipse
 10
-105.538118
 20
22.452951
 30
0.0
 11
-1.2591179285834642
 21
2.1597736089506436
 31
0.0
210
0.0
220
0.0
230
1.0
 40
0.234811
 41
2.0818032150502406
 42
3.123637298103616
  0
ELLIPSE
  5
2BE
100
AcDbEntity
  8
0
390
0
  6
Continuous
 62
     7
100
AcDbEllipse
 10
-123.501386
 20
-8.660342
 30
0.0
 11
-2.499977776027007
 21
0.0105413173296931
 31
0.0
210
0.0
220
0.0
230
0.9999999999999999
 40
0.234811
 41
3.1595480106884994
 42
4.2013820929928807
  0
ARC
  5
2BF
100
AcDbEntity
  8
0
390
0
  6
Continuous
 62
     7
100
AcDbCircle
 10
-78.513349
 20
0.0
 30
0.0
 40
44.516301
210
0.0
220
0.0
230
1.0
100
AcDbArc
 50
169.446307
 51
190.553693
  0
ELLIPSE
  5
2C0
100
AcDbEntity
  8
0
390
0
  6
Continuous
 62
     7
100
AcDbEllipse
 10
-123.501386
 20
8.660342
 30
0.0
 11
-2.4999777760643385
 21
-0.0105413084790507
 31
0.0
210
0.0
220
0.0
230
1.0
 40
0.234811
 41
2.0818032150088221
 42
3.1236372973473694
  0
ELLIPSE
  5
2C1
100
AcDbEntity
  8
0
390
0
  6
Continuous
 62
     7
100
AcDbEllipse
 10
-121.382526
 20
-13.204725
 30
0.0
 11
-1.6049131102448406
 21
-1.9168343456240911
 31
0.0
210
0.0
220
0.0
230
1.0
 40
0.129704
 41
2.2024332135265343
 42
3.1239965894108659
  0
ARC
  5
2C2
100
AcDbEntity
  8
0
390
0
  6
Continuous
 62
     7
100
AcDbCircle
 10
-114.582169
 20
-6.93234
 30
0.0
 40
7.754131
210
0.0
220
0.0
230
1.0
100
AcDbArc
 50
196.795023
 51
223.204977
  0
ELLIPSE
  5
2C3
100
AcDbEntity
  8
0
390
0
  6
Continuous
 62
     7
100
AcDbEllipse
 10
-123.414392
 20
-9.68543
 30
0.0
 11
-2.4624837934222601
 21
-0.4314783507116116
 31
0.0
210
0.0
220
0.0
230
0.9999999999999999
 40
0.129704
 41
3.1591887177680698
 42
4.0807520936554011
  0
ELLIPSE
  5
2C4
100
AcDbEntity
  8
0
390
0
  6
Continuous
 62
     7
100
AcDbEllipse
 10
-123.414392
 20
9.685431
 30
0.0
 11
-2.4624837932807342
 21
0.4314783515191323
 31
0.0
210
0.0
220
0.0
230
1.0
 40
0.129704
 41
2.2024332135273719
 42
3.1239965894106221
  0
ARC
  5
2C5
100
AcDbEntity
  8
0
390
0
  6
Continuous
 62
     7
100
AcDbCircle
 10
-114.582169
 20
6.932341
 30
0.0
 40
7.754131
210
0.0
220
0.0
230
1.0
100
AcDbArc
 50
136.795023
 51
163.204977
  0
ELLIPSE
  5
2C6
100
AcDbEntity
  8
0
390
0
  6
Continuous
 62
     7
100
AcDbEllipse
 10
-121.382526
 20
13.204726
 30
0.0
 11
-1.6049131100159542
 21
1.9168343458157433
 31
0.0
210
0.0
220
0.0
230
1.0
 40
0.129704
 41
3.1591887177684481
 42
4.0807520936297621
  0
ELLIPSE
  5
2C7
100
AcDbEntity
  8
0
390
0
  6
Continuous
 62
     7
100
AcDbEllipse
 10
-104.606869
 20
22.890156
 30
0.0
 11
-0.8575706830420138
 21
2.348312697148025
 31
0.0
210
0.0
220
0.0
230
1.0
 40
0.129704
 41
2.2024332136133657
 42
3.1239965894104205
  0
ARC
  5
2C8
100
AcDbEntity
  8
0
390
0
  6
Continuous
 62
     7
100
AcDbCircle
 10
-102.575003
 20
13.868605
 30
0.0
 40
7.750311
210
0.0
220
0.0
230
1.0
100
AcDbArc
 50
76.788396
 51
103.211604
  0
ELLIPSE
  5
2C9
100
AcDbEntity
  8
0
390
0
  6
Continuous
 62
     7
100
AcDbEllipse
 10
-100.543137
 20
22.890156
 30
0.0
 11
0.8575706833101049
 21
2.3483126970501589
 31
0.0
210
0.0
220
0.0
230
0.9999999999999999
 40
0.129704
 41
3.1591887177685409
 42
4.0807520936293136
  0
ARC
  5
2CA
100
AcDbEntity
  8
0
390
0
  6
Continuous
 62
     7
100
AcDbCircle
 10
-102.575003
 20
-13.874411
 30
0.0
 40
7.744659
210
0.0
220
0.0
230
1.0
100
AcDbArc
 50
256.778579
 51
283.221421
  0
ELLIPSE
  5
2CB
100
AcDbEntity
  8
0
390
0
  6
Continuous
 62
     7
100
AcDbEllipse
 10
-104.606869
 20
-22.890155
 30
0.0
 11
0.8575706830669383
 21
2.3483126971389492
 31
0.0
210
0.0
220
0.0
230
0.9999999999999999
 40
0.129704
 41
0.0175960641767426
 42
0.9391594399898414
  0
ELLIPSE
  5
2CC
100
AcDbEntity
  8
0
390
0
  6
Continuous
 62
     7
100
AcDbEllipse
 10
-100.543137
 20
-22.890155
 30
0.0
 11
-0.8575706844417552
 21
2.3483126966369063
 31
0.0
210
0.0
220
0.0
230
1.0
 40
0.129704
 41
5.3440258670895382
 42
6.2655892429341042
  0
ARC
  5
2CD
100
AcDbEntity
  8
0
390
0
  6
Continuous
 62
     7
100
AcDbCircle
 10
-90.567837
 20
-6.93234
 30
0.0
 40
7.754131
210
0.0
220
0.0
230
0.9999999999999999
100
AcDbArc
 50
316.795023
 51
343.204977
  0
ELLIPSE
  5
2CE
100
AcDbEntity
  8
0
390
0
  6
Continuous
 62
     7
100
AcDbEllipse
 10
-83.767479
 20
-13.204725
 30
0.0
 11
-1.6049131102179037
 21
1.9168343456466563
 31
0.0
210
0.0
220
0.0
230
0.9999999999999999
 40
0.129704
 41
0.0175960641766096
 42
0.9391594399897143
  0
ELLIPSE
  5
2CF
100
AcDbEntity
  8
0
390
0
  6
Continuous
 62
     7
100
AcDbEllipse
 10
-81.735613
 20
-9.68543
 30
0.0
 11
-2.4624837935379729
 21
0.4314783500511121
 31
0.0
210
0.0
220
0.0
230
1.0
 40
0.129704
 41
5.3440258670900853
 42
6.2655892429340625
  0
ARC
  5
2D0
100
AcDbEntity
  8
0
390
0
  6
Continuous
 62
     7
100
AcDbCircle
 10
-90.567837
 20
6.932341
 30
0.0
 40
7.754131
210
0.0
220
0.0
230
1.0
100
AcDbArc
 50
16.795023
 51
43.204977
  0
ELLIPSE
  5
2D1
100
AcDbEntity
  8
0
390
0
  6
Continuous
 62
     7
100
AcDbEllipse
 10
-81.735613
 20
9.685431
 30
0.0
 11
-2.4624837932862853
 21
-0.4314783514875464
 31
0.0
210
0.0
220
0.0
230
1.0
 40
0.129704
 41
0.0175960641768229
 42
0.9391594399889008
  0
ELLIPSE
  5
2D2
100
AcDbEntity
  8
0
390
0
  6
Continuous
 62
     7
100
AcDbEllipse
 10
-83.767479
 20
13.204726
 30
0.0
 11
-1.6049131090964397
 21
-1.9168343465856275
 31
0.0
210
0.0
220
0.0
230
0.9999999999999999
 40
0.129704
 41
5.3440258670891749
 42
6.2655892429341051
  0
LINE
  5
2D3
100
AcDbEntity
  8
0
390
0
  6
Continuous
 62
     7
100
AcDbLine
 10
-105.364692
 20
21.138816
 30
0.0
 11
-105.309943
 21
21.158567
 31
0.0
  0
ELLIPSE
  5
2D4
100
AcDbEntity
  8
0
390
0
  6
Continuous
 62
     7
100
AcDbEllipse
 10
-105.481468
 20
22.485551
 30
0.0
 11
-1.234755034121876
 21
2.1737939197887246
 31
0.0
210
0.0
220
0.0
230
1.0
 40
0.233122
 41
2.0891157655906816
 42
3.1236448308847349
  0
LINE
  5
2D5
100
AcDbEntity
  8
0
390
0
  6
Continuous
 62
     7
100
AcDbLine
 10
-82.873407
 20
-8.153466
 30
0.0
 11
-82.883676
 21
-8.210755
 31
0.0
  0
ELLIPSE
  5
2D6
100
AcDbEntity
  8
0
390
0
  6
Continuous
 62
     7
100
AcDbEllipse
 10
-81.648711
 20
-8.725702
 30
0.0
 11
-2.4999382741902334
 21
0.0175677328886903
 31
0.0
210
0.0
220
0.0
230
1.0
 40
0.233122
 41
5.2307084191800186
 42
6.2652374844745298
  0
LINE
  5
2D7
100
AcDbEntity
  8
0
390
0
  6
Continuous
 62
     7
100
AcDbLine
 10
-99.785314
 20
-21.138815
 30
0.0
 11
-99.840062
 21
-21.158567
 31
0.0
  0
ELLIPSE
  5
2D8
100
AcDbEntity
  8
0
390
0
  6
Continuous
 62
     7
100
AcDbEllipse
 10
-99.668537
 20
-22.485551
 30
0.0
 11
-1.2347550341205438
 21
2.1737939197895297
 31
0.0
210
0.0
220
0.0
230
1.0
 40
0.233122
 41
5.2307084191806217
 42
6.2652374844745502
  0
LINE
  5
2D9
100
AcDbEntity
  8
0
390
0
  6
Continuous
 62
     7
100
AcDbLine
 10
-85.663096
 20
12.98535
 30
0.0
 11
-85.618616
 21
12.947812
 31
0.0
  0
ELLIPSE
  5
2DA
100
AcDbEntity
  8
0
390
0
  6
Continuous
 62
     7
100
AcDbEllipse
 10
-84.555177
 20
13.759849
 30
0.0
 11
-1.2651832400736029
 21
-2.1562261868915411
 31
0.0
210
0.0
220
0.0
230
1.0
 40
0.233122
 41
5.2307084191810169
 42
6.2652374844745218
  0
LINE
  5
2DB
100
AcDbEntity
  8
0
390
0
  6
Continuous
 62
     7
100
AcDbLine
 10
-122.276598
 20
8.153466
 30
0.0
 11
-122.266329
 21
8.210756
 31
0.0
  0
ELLIPSE
  5
2DC
100
AcDbEntity
  8
0
390
0
  6
Continuous
 62
     7
100
AcDbEllipse
 10
-123.501294
 20
8.725703
 30
0.0
 11
-2.4999382741901499
 21
0.0175677328958512
 31
0.0
210
0.0
220
0.0
230
1.0
 40
0.233122
 41
2.0891157655908588
 42
3.1236448308847691
  0
LINE
  5
2DD
100
AcDbEntity
  8
0
390
0
  6
Continuous
 62
     7
100
AcDbLine
 10
-119.486909
 20
-12.985349
 30
0.0
 11
-119.531389
 21
-12.947811
 31
0.0
  0
ELLIPSE
  5
2DE
100
AcDbEntity
  8
0
390
0
  6
Continuous
 62
     7
100
AcDbEllipse
 10
-120.594828
 20
-13.759848
 30
0.0
 11
-1.2651832400699252
 21
-2.1562261868937336
 31
0.0
210
0.0
220
0.0
230
1.0
 40
0.233122
 41
2.0891157655908277
 42
3.1236448308847491
  0
LINE
  5
2DF
100
AcDbEntity
  8
0
390
0
  6
Continuous
 62
     7
100
AcDbLine
 10
-82.883676
 20
8.210756
 30
0.0
 11
-82.873407
 21
8.153466
 31
0.0
  0
ELLIPSE
  5
2E0
100
AcDbEntity
  8
0
390
0
  6
Continuous
 62
     7
100
AcDbEllipse
 10
-81.648711
 20
8.725703
 30
0.0
 11
-2.4999382741903164
 21
-0.0175677328766444
 31
0.0
210
0.0
220
0.0
230
0.9999999999999999
 40
0.233122
 41
0.0179478227050659
 42
1.0524768880006179
  0
ELLIPSE
  5
2E1
100
AcDbEntity
  8
0
390
0
  6
Continuous
 62
     7
100
AcDbEllipse
 10
-123.501294
 20
-8.725702
 30
0.0
 11
-2.4999382741902054
 21
-0.0175677328887736
 31
0.0
210
0.0
220
0.0
230
0.9999999999999999
 40
0.233122
 41
3.1595404762948389
 42
4.1940695415893678
  0
LINE
  5
2E2
100
AcDbEntity
  8
0
390
0
  6
Continuous
 62
     7
100
AcDbLine
 10
-122.266329
 20
-8.210755
 30
0.0
 11
-122.276598
 21
-8.153466
 31
0.0
  0
LINE
  5
2E3
100
AcDbEntity
  8
0
390
0
  6
Continuous
 62
     7
100
AcDbLine
 10
-85.618616
 20
-12.947811
 30
0.0
 11
-85.663096
 21
-12.985349
 31
0.0
  0
ELLIPSE
  5
2E4
100
AcDbEntity
  8
0
390
0
  6
Continuous
 62
     7
100
AcDbEllipse
 10
-84.555177
 20
-13.759848
 30
0.0
 11
-1.2651832400657759
 21
2.156226186896121
 31
0.0
210
0.0
220
0.0
230
1.0
 40
0.233122
 41
0.0179478227050708
 42
1.0524768879993451
  0
LINE
  5
2E5
100
AcDbEntity
  8
0
390
0
  6
Continuous
 62
     7
100
AcDbLine
 10
-105.309943
 20
-21.158567
 30
0.0
 11
-105.364692
 21
-21.138815
 31
0.0
  0
ELLIPSE
  5
2E6
100
AcDbEntity
  8
0
390
0
  6
Continuous
 62
     7
100
AcDbEllipse
 10
-105.481468
 20
-22.485551
 30
0.0
 11
1.2347550341218483
 21
2.1737939197888076
 31
0.0
210
0.0
220
0.0
230
1.0
 40
0.233122
 41
0.0179478227050669
 42
1.0524768879991078
  0
ELLIPSE
  5
2E7
100
AcDbEntity
  8
0
390
0
  6
Continuous
 62
     7
100
AcDbEllipse
 10
-99.668537
 20
22.485551
 30
0.0
 11
1.234755034121876
 21
2.1737939197888356
 31
0.0
210
0.0
220
0.0
230
1.0
 40
0.233122
 41
3.1595404762948149
 42
4.1940695415888767
  0
LINE
  5
2E8
100
AcDbEntity
  8
0
390
0
  6
Continuous
 62
     7
100
AcDbLine
 10
-99.840062
 20
21.158567
 30
0.0
 11
-99.785314
 21
21.138816
 31
0.0
  0
ELLIPSE
  5
2E9
100
AcDbEntity
  8
0
390
0
  6
Continuous
 62
     7
100
AcDbEllipse
 10
-120.594828
 20
13.759849
 30
0.0
 11
-1.2651832400706193
 21
2.1562261868933175
 31
0.0
210
0.0
220
0.0
230
1.0
 40
0.233122
 41
3.1595404762948465
 42
4.1940695415886902
  0
LINE
  5
2EA
100
AcDbEntity
  8
0
390
0
  6
Continuous
 62
     7
100
AcDbLine
 10
-119.531389
 20
12.947812
 30
0.0
 11
-119.486909
 21
12.985349
 31
0.0
  0
LINE
  5
2EB
100
AcDbEntity
  8
0
390
0
  6
Continuous
 62
     7
100
AcDbLine
 10
-85.618616
 20
12.947812
 30
0.0
 11
-84.915779
 21
12.2409
 31
0.0
  0
LINE
  5
2EC
100
AcDbEntity
  8
0
390
0
  6
Continuous
 62
     7
100
AcDbLine
 10
-120.234226
 20
12.2409
 30
0.0
 11
-119.531389
 21
12.947812
 31
0.0
  0
LINE
  5
2ED
100
AcDbEntity
  8
0
390
0
  6
Continuous
 62
     7
100
AcDbLine
 10
-119.531389
 20
-12.947811
 30
0.0
 11
-120.234226
 21
-12.240899
 31
0.0
  0
LINE
  5
2EE
100
AcDbEntity
  8
0
390
0
  6
Continuous
 62
     7
100
AcDbLine
 10
-99.840062
 20
-21.158567
 30
0.0
 11
-100.803684
 21
-21.413785
 31
0.0
  0
LINE
  5
2EF
100
AcDbEntity
  8
0
390
0
  6
Continuous
 62
     7
100
AcDbLine
 10
-122.266329
 20
8.210756
 30
0.0
 11
-122.005544
 21
9.172886
 31
0.0
  0
LINE
  5
2F0
100
AcDbEntity
  8
0
390
0
  6
Continuous
 62
     7
100
AcDbLine
 10
-100.803684
 20
21.413786
 30
0.0
 11
-99.840062
 21
21.158567
 31
0.0
  0
LINE
  5
2F1
100
AcDbEntity
  8
0
390
0
  6
Continuous
 62
     7
100
AcDbLine
 10
-105.309943
 20
21.158567
 30
0.0
 11
-104.346321
 21
21.413786
 31
0.0
  0
LINE
  5
2F2
100
AcDbEntity
  8
0
390
0
  6
Continuous
 62
     7
100
AcDbLine
 10
-104.346321
 20
-21.413785
 30
0.0
 11
-105.309943
 21
-21.158567
 31
0.0
  0
LINE
  5
2F3
100
AcDbEntity
  8
0
390
0
  6
Continuous
 62
     7
100
AcDbLine
 10
-84.915779
 20
-12.240899
 30
0.0
 11
-85.618616
 21
-12.947811
 31
0.0
  0
LINE
  5
2F4
100
AcDbEntity
  8
0
390
0
  6
Continuous
 62
     7
100
AcDbLine
 10
-82.883676
 20
-8.210755
 30
0.0
 11
-83.144461
 21
-9.172886
 31
0.0
  0
LINE
  5
2F5
100
AcDbEntity
  8
0
390
0
  6
Continuous
 62
     7
100
AcDbLine
 10
-122.005544
 20
-9.172886
 30
0.0
 11
-122.266329
 21
-8.210755
 31
0.0
  0
LINE
  5
2F6
100
AcDbEntity
  8
0
390
0
  6
Continuous
 62
     7
100
AcDbLine
 10
-83.144461
 20
9.172886
 30
0.0
 11
-82.883676
 21
8.210756
 31
0.0
  0
LINE
  5
2F7
100
AcDbEntity
  8
0
390
0
  6
Continuous
 62
     7
100
AcDbLine
 10
-82.883676
 20
8.210756
 30
0.0
 11
-81.814361
 21
8.656631
 31
0.0
  0
ARC
  5
2F8
100
AcDbEntity
  8
0
390
0
  6
Continuous
 62
     7
100
AcDbCircle
 10
-102.575003
 20
0.0
 30
0.0
 40
22.493143
210
0.0
220
0.0
230
1.0
100
AcDbArc
 50
337.365172
 51
22.634828
  0
LINE
  5
2F9
100
AcDbEntity
  8
0
390
0
  6
Continuous
 62
     7
100
AcDbLine
 10
-82.883676
 20
-8.210755
 30
0.0
 11
-81.814361
 21
-8.656631
 31
0.0
  0
LINE
  5
2FA
100
AcDbEntity
  8
0
390
0
  6
Continuous
 62
     7
100
AcDbLine
 10
-99.691544
 20
22.307558
 30
0.0
 11
-99.840062
 21
21.158567
 31
0.0
  0
ARC
  5
2FB
100
AcDbEntity
  8
0
390
0
  6
Continuous
 62
     7
100
AcDbCircle
 10
-102.575003
 20
0.0
 30
0.0
 40
22.493143
210
0.0
220
0.0
230
1.0
100
AcDbArc
 50
37.365172
 51
82.634828
  0
LINE
  5
2FC
100
AcDbEntity
  8
0
390
0
  6
Continuous
 62
     7
100
AcDbLine
 10
-85.618616
 20
12.947812
 30
0.0
 11
-84.69782
 21
13.650928
 31
0.0
  0
LINE
  5
2FD
100
AcDbEntity
  8
0
390
0
  6
Continuous
 62
     7
100
AcDbLine
 10
-120.452185
 20
13.650928
 30
0.0
 11
-119.531389
 21
12.947812
 31
0.0
  0
ARC
  5
2FE
100
AcDbEntity
  8
0
390
0
  6
Continuous
 62
     7
100
AcDbCircle
 10
-102.575003
 20
0.0
 30
0.0
 40
22.493143
210
0.0
220
0.0
230
1.0
100
AcDbArc
 50
97.365172
 51
142.634828
  0
LINE
  5
2FF
100
AcDbEntity
  8
0
390
0
  6
Continuous
 62
     7
100
AcDbLine
 10
-105.458461
 20
22.307558
 30
0.0
 11
-105.309943
 21
21.158567
 31
0.0
  0
ARC
  5
300
100
AcDbEntity
  8
0
390
0
  6
Continuous
 62
     7
100
AcDbCircle
 10
-102.575003
 20
0.0
 30
0.0
 40
22.493143
210
0.0
220
0.0
230
1.0
100
AcDbArc
 50
217.365172
 51
262.634828
  0
LINE
  5
301
100
AcDbEntity
  8
0
390
0
  6
Continuous
 62
     7
100
AcDbLine
 10
-120.452185
 20
-13.650927
 30
0.0
 11
-119.531389
 21
-12.947811
 31
0.0
  0
LINE
  5
302
100
AcDbEntity
  8
0
390
0
  6
Continuous
 62
     7
100
AcDbLine
 10
-105.309943
 20
-21.158567
 30
0.0
 11
-105.458461
 21
-22.307558
 31
0.0
  0
ARC
  5
303
100
AcDbEntity
  8
0
390
0
  6
Continuous
 62
     7
100
AcDbCircle
 10
-102.575003
 20
0.0
 30
0.0
 40
22.493143
210
0.0
220
0.0
230
0.9999999999999999
100
AcDbArc
 50
157.365172
 51
202.634828
  0
LINE
  5
304
100
AcDbEntity
  8
0
390
0
  6
Continuous
 62
     7
100
AcDbLine
 10
-123.335644
 20
8.656631
 30
0.0
 11
-122.266329
 21
8.210756
 31
0.0
  0
LINE
  5
305
100
AcDbEntity
  8
0
390
0
  6
Continuous
 62
     7
100
AcDbLine
 10
-123.335644
 20
-8.656631
 30
0.0
 11
-122.266329
 21
-8.210755
 31
0.0
  0
LINE
  5
306
100
AcDbEntity
  8
0
390
0
  6
Continuous
 62
     7
100
AcDbLine
 10
-85.618616
 20
-12.947811
 30
0.0
 11
-84.69782
 21
-13.650927
 31
0.0
  0
ARC
  5
307
100
AcDbEntity
  8
0
390
0
  6
Continuous
 62
     7
100
AcDbCircle
 10
-102.575003
 20
0.0
 30
0.0
 40
22.493143
210
0.0
220
0.0
230
1.0
100
AcDbArc
 50
277.365172
 51
322.634828
  0
LINE
  5
308
100
AcDbEntity
  8
0
390
0
  6
Continuous
 62
     7
100
AcDbLine
 10
-99.840062
 20
-21.158567
 30
0.0
 11
-99.691544
 21
-22.307558
 31
0.0
  0
ARC
  5
309
100
AcDbEntity
  8
0
390
0
  6
Continuous
 62
     7
100
AcDbCircle
 10
-102.575003
 20
-1.675449
 30
0.0
 40
24.162139
210
0.0
220
0.0
230
1.0
100
AcDbArc
 50
85.966853
 51
94.033147
  0
ELLIPSE
  5
30A
100
AcDbEntity
  8
0
390
0
  6
Continuous
 62
     7
100
AcDbEllipse
 10
-101.064232
 20
19.937416
 30
0.0
 11
0.1788213409991968
 21
2.4935963843419895
 31
0.0
210
0.0
220
0.0
230
1.0
 40
0.076887
 41
5.3515097324348266
 42
6.2306698316383189
  0
ELLIPSE
  5
30B
100
AcDbEntity
  8
0
390
0
  6
Continuous
 62
     7
100
AcDbEllipse
 10
-104.085773
 20
19.937416
 30
0.0
 11
-0.1788213446558273
 21
2.4935963840797548
 31
0.0
210
0.0
220
0.0
230
0.9999999999999999
 40
0.076887
 41
0.0525154754345796
 42
0.9316755745901438
  0
ARC
  5
30C
100
AcDbEntity
  8
0
390
0
  6
Continuous
 62
     7
100
AcDbCircle
 10
-104.025984
 20
-0.837724
 30
0.0
 40
24.162139
210
0.0
220
0.0
230
1.0
100
AcDbArc
 50
25.966853
 51
34.033147
  0
ELLIPSE
  5
30D
100
AcDbEntity
  8
0
390
0
  6
Continuous
 62
     7
100
AcDbEllipse
 10
-84.553309
 20
8.660342
 30
0.0
 11
-2.2489284868608408
 21
-1.0919343666108694
 31
0.0
210
0.0
220
0.0
230
1.0
 40
0.076887
 41
2.2099170789295197
 42
3.0890771781003949
  0
ELLIPSE
  5
30E
100
AcDbEntity
  8
0
390
0
  6
Continuous
 62
     7
100
AcDbEllipse
 10
-86.06408
 20
11.277074
 30
0.0
 11
-2.0701071440147323
 21
-1.4016620178556316
 31
0.0
210
0.0
220
0.0
230
1.0
 40
0.076887
 41
3.1941081290761892
 42
4.0732682282636858
  0
ARC
  5
30F
100
AcDbEntity
  8
0
390
0
  6
Continuous
 62
     7
100
AcDbCircle
 10
-102.575003
 20
1.67545
 30
0.0
 40
24.162139
210
0.0
220
0.0
230
1.0
100
AcDbArc
 50
265.966853
 51
274.033147
  0
ELLIPSE
  5
310
100
AcDbEntity
  8
0
390
0
  6
Continuous
 62
     7
100
AcDbEllipse
 10
-104.085773
 20
-19.937415
 30
0.0
 11
0.178821342680241
 21
2.4935963842214193
 31
0.0
210
0.0
220
0.0
230
1.0
 40
0.076887
 41
2.2099170789283353
 42
3.089077178100502
  0
ELLIPSE
  5
311
100
AcDbEntity
  8
0
390
0
  6
Continuous
 62
     7
100
AcDbEllipse
 10
-101.064232
 20
-19.937415
 30
0.0
 11
-0.1788213429750607
 21
2.4935963842002415
 31
0.0
210
0.0
220
0.0
230
1.0
 40
0.076887
 41
3.1941081290761804
 42
4.073268228263264
  0
ARC
  5
312
100
AcDbEntity
  8
0
390
0
  6
Continuous
 62
     7
100
AcDbCircle
 10
-104.025984
 20
0.837725
 30
0.0
 40
24.162139
210
0.0
220
0.0
230
0.9999999999999999
100
AcDbArc
 50
325.966853
 51
334.033147
  0
ELLIPSE
  5
313
100
AcDbEntity
  8
0
390
0
  6
Continuous
 62
     7
100
AcDbEllipse
 10
-86.06408
 20
-11.277073
 30
0.0
 11
-2.0701071441806551
 21
1.4016620176106331
 31
0.0
210
0.0
220
0.0
230
1.0
 40
0.076887
 41
2.2099170789284668
 42
3.0890771781004744
  0
ELLIPSE
  5
314
100
AcDbEntity
  8
0
390
0
  6
Continuous
 62
     7
100
AcDbEllipse
 10
-84.553309
 20
-8.660342
 30
0.0
 11
-2.2489284869897652
 21
1.0919343663453041
 31
0.0
210
0.0
220
0.0
230
1.0
 40
0.076887
 41
3.194108129076243
 42
4.0732682282627373
  0
ARC
  5
315
100
AcDbEntity
  8
0
390
0
  6
Continuous
 62
     7
100
AcDbCircle
 10
-101.124021
 20
-0.837724
 30
0.0
 40
24.162139
210
0.0
220
0.0
230
1.0
100
AcDbArc
 50
145.966853
 51
154.033147
  0
ELLIPSE
  5
316
100
AcDbEntity
  8
0
390
0
  6
Continuous
 62
     7
100
AcDbEllipse
 10
-119.085926
 20
11.277074
 30
0.0
 11
-2.0701071451260935
 21
1.4016620162142779
 31
0.0
210
0.0
220
0.0
230
1.0
 40
0.076887
 41
5.3515097324346357
 42
6.2306698316383633
  0
ELLIPSE
  5
317
100
AcDbEntity
  8
0
390
0
  6
Continuous
 62
     7
100
AcDbEllipse
 10
-120.596696
 20
8.660342
 30
0.0
 11
-2.2489284877261762
 21
1.0919343648286284
 31
0.0
210
0.0
220
0.0
230
0.9999999999999999
 40
0.076887
 41
0.0525154754345817
 42
0.9316755744988716
  0
ARC
  5
318
100
AcDbEntity
  8
0
390
0
  6
Continuous
 62
     7
100
AcDbCircle
 10
-101.124021
 20
0.837725
 30
0.0
 40
24.162139
210
0.0
220
0.0
230
1.0
100
AcDbArc
 50
205.966853
 51
214.033147
  0
ELLIPSE
  5
319
100
AcDbEntity
  8
0
390
0
  6
Continuous
 62
     7
100
AcDbEllipse
 10
-120.596696
 20
-8.660342
 30
0.0
 11
-2.2489284861255951
 21
-1.0919343681251026
 31
0.0
210
0.0
220
0.0
230
1.0
 40
0.076887
 41
5.3515097324342147
 42
6.230669831638461
  0
ELLIPSE
  5
31A
100
AcDbEntity
  8
0
390
0
  6
Continuous
 62
     7
100
AcDbEllipse
 10
-119.085926
 20
-11.277073
 30
0.0
 11
-2.0701071430696274
 21
-1.401662019251515
 31
0.0
210
0.0
220
0.0
230
1.0
 40
0.076887
 41
0.0525154754345839
 42
0.9316755744976895
  0
LINE
  5
31B
100
AcDbEntity
  8
0
390
0
  6
Continuous
 62
     7
100
AcDbLine
 10
-105.458461
 20
22.307558
 30
0.0
 11
-104.274412
 21
22.426853
 31
0.0
  0
LINE
  5
31C
100
AcDbEntity
  8
0
390
0
  6
Continuous
 62
     7
100
AcDbLine
 10
-123.335644
 20
8.656631
 30
0.0
 11
-122.846931
 21
9.741695
 31
0.0
  0
LINE
  5
31D
100
AcDbEntity
  8
0
390
0
  6
Continuous
 62
     7
100
AcDbLine
 10
-120.452185
 20
-13.650927
 30
0.0
 11
-121.147522
 21
-12.685158
 31
0.0
  0
LINE
  5
31E
100
AcDbEntity
  8
0
390
0
  6
Continuous
 62
     7
100
AcDbLine
 10
-82.303074
 20
9.741695
 30
0.0
 11
-81.814361
 21
8.656631
 31
0.0
  0
LINE
  5
31F
100
AcDbEntity
  8
0
390
0
  6
Continuous
 62
     7
100
AcDbLine
 10
-84.002483
 20
-12.685158
 30
0.0
 11
-84.69782
 21
-13.650927
 31
0.0
  0
LINE
  5
320
100
AcDbEntity
  8
0
390
0
  6
Continuous
 62
     7
100
AcDbLine
 10
-104.274412
 20
-22.426852
 30
0.0
 11
-105.458461
 21
-22.307558
 31
0.0
  0
LINE
  5
321
100
AcDbEntity
  8
0
390
0
  6
Continuous
 62
     7
100
AcDbLine
 10
-81.814361
 20
-8.656631
 30
0.0
 11
-82.303074
 21
-9.741694
 31
0.0
  0
LINE
  5
322
100
AcDbEntity
  8
0
390
0
  6
Continuous
 62
     7
100
AcDbLine
 10
-99.691544
 20
-22.307558
 30
0.0
 11
-100.875593
 21
-22.426852
 31
0.0
  0
LINE
  5
323
100
AcDbEntity
  8
0
390
0
  6
Continuous
 62
     7
100
AcDbLine
 10
-84.69782
 20
13.650928
 30
0.0
 11
-84.002483
 21
12.685158
 31
0.0
  0
LINE
  5
324
100
AcDbEntity
  8
0
390
0
  6
Continuous
 62
     7
100
AcDbLine
 10
-100.875593
 20
22.426853
 30
0.0
 11
-99.691544
 21
22.307558
 31
0.0
  0
LINE
  5
325
100
AcDbEntity
  8
0
390
0
  6
Continuous
 62
     7
100
AcDbLine
 10
-121.147522
 20
12.685158
 30
0.0
 11
-120.452185
 21
13.650928
 31
0.0
  0
LINE
  5
326
100
AcDbEntity
  8
0
390
0
  6
Continuous
 62
     7
100
AcDbLine
 10
-122.846931
 20
-9.741694
 30
0.0
 11
-123.335644
 21
-8.656631
 31
0.0
  0
CIRCLE
  5
327
100
AcDbEntity
  8
0
390
0
  6
Continuous
 62
     7
100
AcDbCircle
 10
-102.575003
 20
0.0
 30
0.0
 40
22.672946
210
0.0
220
0.0
230
1.0
  0
POINT
  5
328
100
AcDbEntity
  8
0
390
0
 62
     7
100
AcDbPoint
 10
0.0
 20
0.0
 30
0.0
  0
POINT
  5
329
100
AcDbEntity
  8
0
390
0
 62
     7
100
AcDbPoint
 10
0.0
 20
0.0
 30
0.0
  0
ENDSEC
  0
SECTION
  2
OBJECTS
  0
DICTIONARY
  5
19
100
AcDbDictionary
280
     0
281
     1
  3
ACAD_GROUP
350
1A
  3
ACAD_MLINESTYLE
350
1B
  3
ACAD_LAYOUT
350
1E
  3
ACAD_PLOTSETTINGS
350
22
  3
ACAD_PLOTSTYLENAME
350
1F
  3
ACAD_WIPEOUT_VARS
350
23
  0
DICTIONARY
  5
1A
102
{ACAD_REACTORS
330
19
102
}
100
AcDbDictionary
280
     0
281
     1
  0
DICTIONARY
  5
1B
102
{ACAD_REACTORS
330
19
102
}
100
AcDbDictionary
280
     0
281
     1
  3
Standard
350
1C
  0
MLINESTYLE
  5
1C
102
{ACAD_REACTORS
330
1B
102
}
100
AcDbMlineStyle
  2
Standard
 70
     0
  3

 62
     0
 51
90.0
 52
90.0
 71
     2
 49
0.5
 62
   256
  6
ByLayer
 49
-0.5
 62
   256
  6
ByLayer
  0
ACDBDICTIONARYWDFLT
  5
1F
102
{ACAD_REACTORS
330
19
102
}
100
AcDbDictionary
281
     1
  3
Normal
350
1D
100
AcDbDictionaryWithDefault
340
1D
  0
ACDBPLACEHOLDER
  5
1D
102
{ACAD_REACTORS
330
1F
102
}
  0
LAYOUT
  5
20
102
{ACAD_REACTORS
330
1E
102
}
100
AcDbPlotSettings
  1

  2

  4

  6

 40
0.0
 41
0.0
 42
0.0
 43
0.0
 44
0.0
 45
0.0
 46
0.0
 47
0.0
 48
0.0
 49
0.0
140
0.0
141
0.0
142
1.0
143
1.0
 70
  1024
 72
     0
 73
     0
 74
     0
  7

 75
     0
147
1.0
148
0.0
149
0.0
100
AcDbLayout
  1
Model
 70
     0
 71
     1
 10
0.0
 20
0.0
 11
0.0
 21
0.0
 12
0.0
 22
0.0
 32
0.0
 14
0.0
 24
0.0
 34
0.0
 15
0.0
 25
0.0
 35
0.0
146
0.0
 13
0.0
 23
0.0
 33
0.0
 16
0.0
 26
0.0
 36
0.0
 17
0.0
 27
0.0
 37
0.0
 76
     0
330
A
331
0
345
0
346
0
  0
LAYOUT
  5
21
102
{ACAD_REACTORS
330
1E
102
}
100
AcDbPlotSettings
  1

  2

  4

  6

 40
0.0
 41
0.0
 42
0.0
 43
0.0
 44
0.0
 45
0.0
 46
0.0
 47
0.0
 48
0.0
 49
0.0
140
0.0
141
0.0
142
1.0
143
1.0
 70
     0
 72
     0
 73
     0
 74
     0
  7

 75
     0
147
1.0
148
0.0
149
0.0
100
AcDbLayout
  1
Layout1
 70
     0
 71
     2
 10
0.0
 20
0.0
 11
0.0
 21
0.0
 12
0.0
 22
0.0
 32
0.0
 14
0.0
 24
0.0
 34
0.0
 15
0.0
 25
0.0
 35
0.0
146
0.0
 13
0.0
 23
0.0
 33
0.0
 16
0.0
 26
0.0
 36
0.0
 17
0.0
 27
0.0
 37
0.0
 76
     0
330
B
331
0
345
0
346
0
  0
DICTIONARY
  5
1E
102
{ACAD_REACTORS
330
19
102
}
100
AcDbDictionary
280
     0
281
     1
  3
Layout1
350
21
  3
Model
350
20
  0
DICTIONARY
  5
22
102
{ACAD_REACTORS
330
19
102
}
100
AcDbDictionary
280
     0
281
     1
  0
WIPEOUTVARIABLES
  5
23
100
AcDbWipeoutVariables
 70
     1
  0
ENDSEC
  0
EOF
