  0
SECTION
  2
HEADER
  9
$ACADVER
  1
AC1015
  9
$ACADMAINTVER
 70
     6
  9
$DWGCODEPAGE
  3
DOS932
  9
$INSBASE
 10
0.0
 20
0.0
 30
0.0
  9
$EXTMIN
 10
-121.494818
 20
-21.172946
 30
0.0
  9
$EXTMAX
 10
270.6976
 20
170.97572
 30
9.906
  9
$LIMMIN
 10
-121.494818
 20
-21.172946
  9
$LIMMAX
 10
270.6976
 20
170.97572
  9
$ORTHOMODE
 70
     0
  9
$REGENMODE
 70
     1
  9
$FILLMODE
 70
     1
  9
$QTEXTMODE
 70
     0
  9
$MIRRTEXT
 70
     1
  9
$LTSCALE
 40
10.0
  9
$ATTMODE
 70
     1
  9
$TEXTSIZE
 40
0.2
  9
$TRACEWID
 40
0.05
  9
$TEXTSTYLE
  7
Standard
  9
$CLAYER
  8
0
  9
$CELTYPE
  6
Continuous
  9
$CECOLOR
 62
   256
  9
$CELTSCALE
 40
1.0
  9
$DISPSILH
 70
     0
  9
$DIMSCALE
 40
1.0
  9
$DIMASZ
 40
1.40208
  9
$DIMEXO
 40
1.40208
  9
$DIMDLI
 40
0.38
  9
$DIMRND
 40
0.0
  9
$DIMDLE
 40
0.0
  9
$DIMEXE
 40
1.05156
  9
$DIMTP
 40
0.0
  9
$DIMTM
 40
0.0
  9
$DIMTXT
 40
3.5052
  9
$DIMCEN
 40
0.09
  9
$DIMTSZ
 40
0.0
  9
$DIMTOL
 70
     0
  9
$DIMLIM
 70
     0
  9
$DIMTIH
 70
     0
  9
$DIMTOH
 70
     0
  9
$DIMSE1
 70
     0
  9
$DIMSE2
 70
     0
  9
$DIMTAD
 70
     1
  9
$DIMZIN
 70
     0
  9
$DIMBLK
  1

  9
$DIMASO
 70
     1
  9
$DIMSHO
 70
     1
  9
$DIMPOST
  1

  9
$DIMAPOST
  1

  9
$DIMALT
 70
     0
  9
$DIMALTD
 70
     2
  9
$DIMALTF
 40
25.4
  9
$DIMLFAC
 40
1.0
  9
$DIMTOFL
 70
     0
  9
$DIMTVP
 40
0.0
  9
$DIMTIX
 70
     0
  9
$DIMSOXD
 70
     0
  9
$DIMSAH
 70
     0
  9
$DIMBLK1
  1

  9
$DIMBLK2
  1

  9
$DIMSTYLE
  2
Standard
  9
$DIMCLRD
 70
     7
  9
$DIMCLRE
 70
     7
  9
$DIMCLRT
 70
     7
  9
$DIMTFAC
 40
0.5
  9
$DIMGAP
 40
1.7526
  9
$DIMJUST
 70
     0
  9
$DIMSD1
 70
     0
  9
$DIMSD2
 70
     0
  9
$DIMTOLJ
 70
     1
  9
$DIMTZIN
 70
     0
  9
$DIMALTZ
 70
     0
  9
$DIMALTTZ
 70
     0
  9
$DIMUPT
 70
     0
  9
$DIMDEC
 70
     2
  9
$DIMTDEC
 70
     4
  9
$DIMALTU
 70
     2
  9
$DIMALTTD
 70
     2
  9
$DIMTXSTY
  7
Standard
  9
$DIMAUNIT
 70
     0
  9
$DIMADEC
 70
     0
  9
$DIMALTRND
 40
0.0
  9
$DIMAZIN
 70
     0
  9
$DIMDSEP
 70
     0
  9
$DIMATFIT
 70
     3
  9
$DIMFRAC
 70
     0
  9
$DIMLDRBLK
  1

  9
$DIMLUNIT
 70
     2
  9
$DIMLWD
 70
     0
  9
$DIMLWE
 70
     0
  9
$DIMTMOVE
 70
     0
  9
$LUNITS
 70
     2
  9
$LUPREC
 70
     4
  9
$SKETCHINC
 40
0.1
  9
$FILLETRAD
 40
0.0
  9
$AUNITS
 70
     0
  9
$AUPREC
 70
     0
  9
$MENU
  1
acad
  9
$ELEVATION
 40
0.0
  9
$PELEVATION
 40
0.0
  9
$THICKNESS
 40
0.0
  9
$LIMCHECK
 70
     0
  9
$CHAMFERA
 40
0.0
  9
$CHAMFERB
 40
0.0
  9
$CHAMFERC
 40
0.0
  9
$CHAMFERD
 40
0.0
  9
$SKPOLY
 70
     0
  9
$TDCREATE
 40
2459788.600462963
  9
$TDUCREATE
 40
0.000000000
  9
$TDUPDATE
 40
2459788.225381944
  9
$TDUUPDATE
 40
0.000000000
  9
$TDINDWG
 40
0.0000000000
  9
$TDUSRTIMER
 40
0.0000000000
  9
$USRTIMER
 70
     1
  9
$ANGBASE
 50
0.0
  9
$ANGDIR
 70
     0
  9
$PDMODE
 70
     0
  9
$PDSIZE
 40
0.0
  9
$PLINEWID
 40
0.0
  9
$SPLFRAME
 70
     0
  9
$SPLINETYPE
 70
     6
  9
$SPLINESEGS
 70
     8
  9
$HANDSEED
  5
1DC
  9
$SURFTAB1
 70
     6
  9
$SURFTAB2
 70
     6
  9
$SURFTYPE
 70
     6
  9
$SURFU
 70
     6
  9
$SURFV
 70
     6
  9
$UCSBASE
  2

  9
$UCSNAME
  2

  9
$UCSORG
 10
0.0
 20
0.0
 30
0.0
  9
$UCSXDIR
 10
1.0
 20
0.0
 30
0.0
  9
$UCSYDIR
 10
0.0
 20
1.0
 30
0.0
  9
$UCSORTHOREF
  2

  9
$UCSORTHOVIEW
 70
     0
  9
$UCSORGTOP
 10
0.0
 20
0.0
 30
0.0
  9
$UCSORGBOTTOM
 10
0.0
 20
0.0
 30
0.0
  9
$UCSORGLEFT
 10
0.0
 20
0.0
 30
0.0
  9
$UCSORGRIGHT
 10
0.0
 20
0.0
 30
0.0
  9
$UCSORGFRONT
 10
0.0
 20
0.0
 30
0.0
  9
$UCSORGBACK
 10
0.0
 20
0.0
 30
0.0
  9
$PUCSBASE
  2

  9
$PUCSNAME
  2

  9
$PUCSORG
 10
0.0
 20
0.0
 30
0.0
  9
$PUCSXDIR
 10
1.0
 20
0.0
 30
0.0
  9
$PUCSYDIR
 10
0.0
 20
1.0
 30
0.0
  9
$PUCSORTHOREF
  2

  9
$PUCSORTHOVIEW
 70
     0
  9
$PUCSORGTOP
 10
0.0
 20
0.0
 30
0.0
  9
$PUCSORGBOTTOM
 10
0.0
 20
0.0
 30
0.0
  9
$PUCSORGLEFT
 10
0.0
 20
0.0
 30
0.0
  9
$PUCSORGRIGHT
 10
0.0
 20
0.0
 30
0.0
  9
$PUCSORGFRONT
 10
0.0
 20
0.0
 30
0.0
  9
$PUCSORGBACK
 10
0.0
 20
0.0
 30
0.0
  9
$USERI1
 70
     0
  9
$USERI2
 70
     0
  9
$USERI3
 70
     0
  9
$USERI4
 70
     0
  9
$USERI5
 70
     0
  9
$USERR1
 40
0.0
  9
$USERR2
 40
0.0
  9
$USERR3
 40
0.0
  9
$USERR4
 40
0.0
  9
$USERR5
 40
0.0
  9
$WORLDVIEW
 70
     1
  9
$SHADEDGE
 70
     3
  9
$SHADEDIF
 70
    70
  9
$TILEMODE
 70
     1
  9
$MAXACTVP
 70
    16
  9
$PINSBASE
 10
0.0
 20
0.0
 30
0.0
  9
$PLIMCHECK
 70
     0
  9
$PEXTMIN
 10
1.000000E+20
 20
1.000000E+20
 30
1.000000E+20
  9
$PEXTMAX
 10
-1.000000E+20
 20
-1.000000E+20
 30
-1.000000E+20
  9
$PLIMMIN
 10
0.0
 20
0.0
  9
$PLIMMAX
 10
12.0
 20
9.0
  9
$UNITMODE
 70
     0
  9
$VISRETAIN
 70
     0
  9
$PLINEGEN
 70
     1
  9
$PSLTSCALE
 70
     0
  9
$TREEDEPTH
 70
  3020
  9
$CMLSTYLE
  2
Standard
  9
$CMLJUST
 70
     0
  9
$CMLSCALE
 40
1.0
  9
$PROXYGRAPHICS
 70
     0
  9
$MEASUREMENT
 70
     0
  9
$CELWEIGHT
370
     0
  9
$ENDCAPS
280
     0
  9
$JOINSTYLE
280
     0
  9
$LWDISPLAY
290
     0
  9
$INSUNITS
 70
     0
  9
$HYPERLINKBASE
  1

  9
$STYLESHEET
  1

  9
$XEDIT
290
     1
  9
$CEPSNTYPE
380
     0
  9
$PSTYLEMODE
290
     1
  9
$FINGERPRINTGUID
  2

  9
$VERSIONGUID
  2

  9
$EXTNAMES
290
     1
  9
$PSVPSCALE
 40
0.0
  0
ENDSEC
  0
SECTION
  2
CLASSES
  0
CLASS
  1
LWPOLYLINE
  2
AcDbPolyline
  3
AutoCAD 2000
 90
        0
280
     0
281
     1
  0
CLASS
  1
IMAGE
  2
AcDbRasterImage
  3
ISM
 90
      127
280
     0
281
     1
  0
CLASS
  1
OLE2FRAME
  2
AcDbOle2Frame
  3
AutoCAD 2000
 90
        0
280
     0
281
     1
  0
CLASS
  1
HATCH
  2
AcDbHatch
  3
AutoCAD 2000
 90
        0
280
     0
281
     1
  0
CLASS
  1
DICTIONARYVAR
  2
AcDbDictionaryVar
  3
AutoCAD 2000
 90
        0
280
     0
281
     0
  0
CLASS
  1
RASTERVARIABLES
  2
AcDbRasterVariables
  3
ISM
 90
        0
280
     0
281
     0
  0
CLASS
  1
IMAGEDEF
  2
AcDbRasterImageDef
  3
ISM
 90
        0
280
     0
281
     0
  0
CLASS
  1
IMAGEDEF_REACTOR
  2
AcDbRasterImageDefReactor
  3
ISM
 90
        1
280
     0
281
     0
  0
CLASS
  1
IDBUFFER
  2
AcDbIdBuffer
  3
AutoCAD 2000
 90
        0
280
     0
281
     0
  0
CLASS
  1
SPATIAL_FILTER
  2
AcDbSpatialFilter
  3
AutoCAD 2000
 90
        0
280
     0
281
     0
  0
CLASS
  1
XRECORD
  2
AcDbXrecord
  3
AutoCAD 2000
 90
        0
280
     0
281
     0
  0
CLASS
  1
SORTENTSTABLE
  2
AcDbSortentsTable
  3
AutoCAD 2000
 90
        0
280
     0
281
     0
  0
CLASS
  1
LAYER_INDEX
  2
AcDbLayerIndex
  3
AutoCAD 2000
 90
        0
280
     0
281
     0
  0
CLASS
  1
SPATIAL_INDEX
  2
AcDbSpatialIndex
  3
AutoCAD 2000
 90
        0
280
     0
281
     0
  0
CLASS
  1
OBJECT_PTR
  2
CAseDLPNTableRecord
  3
"ASE-LPNTableRecord"
 90
        1
280
     0
281
     0
  0
CLASS
  1
LAYOUT
  2
AcDbLayout
  3
AutoCAD 2000
 90
        0
280
     0
281
     0
  0
CLASS
  1
PLOTSETTINGS
  2
AcDbPlotSettings
  3
AutoCAD 2000
 90
        0
280
     0
281
     0
  0
CLASS
  1
ACDBDICTIONARYWDFLT
  2
AcDbDictionaryWithDefault
  3
AutoCAD 2000
 90
        0
280
     0
281
     0
  0
CLASS
  1
ACDBPLACEHOLDER
  2
AcDbPlaceHolder
  3
AutoCAD 2000
 90
        0
280
     0
281
     0
  0
CLASS
  1
VBA_PROJECT
  2
AcDbVbaProject
  3
acadvba
 90
        0
280
     0
281
     0
  0
CLASS
  1
WIPEOUT
  2
AcDbWipeout
  3
WipeOut|AutoCAD Express Tool|expresstools@autodesk.com
 90
      127
280
     0
281
     1
  0
CLASS
  1
WIPEOUTVARIABLES
  2
AcDbWipeoutVariables
  3
WipeOut|AutoCAD Express Tool|expresstools@autodesk.com
 90
        0
280
     0
281
     0
  0
CLASS
  1
RTEXT
  2
RText
  3
RText|AutoCAD Express Tool|expresstools@autodesk.com
 90
        0
280
     0
281
     1
  0
CLASS
  1
ARCALIGNEDTEXT
  2
AcDbArcAlignedText
  3
ATEXT|AutoCAD Express Tool|expresstools@autodesk.com
 90
        0
280
     0
281
     1
  0
ENDSEC
  0
SECTION
  2
TABLES
  0
TABLE
  2
VPORT
  5
7
100
AcDbSymbolTable
 70
     1
  0
VPORT
  5
15
100
AcDbSymbolTableRecord
100
AcDbViewportTableRecord
  2
*ACTIVE
 70
     0
 10
0.0
 20
0.0
 11
1.0
 21
1.0
 12
6.591288
 22
4.579184
 13
0.0
 23
0.0
 14
1.0
 24
1.0
 15
0.0
 25
0.0
 16
0.0
 26
0.0
 36
1.0
 17
0.0
 27
0.0
 37
0.0
 40
9.158369
 41
0.688564
 42
50.0
 43
0.0
 44
0.0
 50
0.0
 51
0.0
 71
     0
 72
   100
 73
     1
 74
     1
 75
     0
 76
     0
 77
     0
 78
     0
281
     0
 65
     0
110
0.0
120
0.0
130
0.0
111
1.0
121
0.0
131
0.0
112
0.0
122
1.0
132
0.0
345
0
346
0
 79
     0
146
0.0
  0
ENDTAB
  0
TABLE
  2
LTYPE
  5
4
100
AcDbSymbolTable
 70
     3
  0
LTYPE
  5
11
100
AcDbSymbolTableRecord
100
AcDbLinetypeTableRecord
  2
ByBlock
 70
    64
  3

 72
    65
 73
     0
 40
0.0
  0
LTYPE
  5
12
100
AcDbSymbolTableRecord
100
AcDbLinetypeTableRecord
  2
ByLayer
 70
    64
  3

 72
    65
 73
     0
 40
0.0
  0
LTYPE
  5
13
100
AcDbSymbolTableRecord
100
AcDbLinetypeTableRecord
  2
Continuous
 70
    64
  3
Solid line
 72
    65
 73
     0
 40
0.0
  0
ENDTAB
  0
TABLE
  2
LAYER
  5
2
100
AcDbSymbolTable
 70
     1
  0
LAYER
  5
14
100
AcDbSymbolTableRecord
100
AcDbLayerTableRecord
  2
0
 70
     0
 62
     7
  6
Continuous
290
     1
370
    -3
390
1D
  0
ENDTAB
  0
TABLE
  2
STYLE
  5
3
100
AcDbSymbolTable
 70
     1
  0
STYLE
  5
17
100
AcDbSymbolTableRecord
100
AcDbTextStyleTableRecord
  2
Standard
 70
     0
 40
0.0
 41
1.0
 50
0.0
 71
     0
 42
0.0
  3
FG教科書体NT-M
  4

1001
ACAD
1000
FG教科書体NT-M
1071
        0
  0
ENDTAB
  0
TABLE
  2
VIEW
  5
5
100
AcDbSymbolTable
 70
     0
  0
ENDTAB
  0
TABLE
  2
UCS
  5
6
100
AcDbSymbolTable
 70
     0
  0
ENDTAB
  0
TABLE
  2
APPID
  5
8
100
AcDbSymbolTable
 70
     2
  0
APPID
  5
16
100
AcDbSymbolTableRecord
100
AcDbRegAppTableRecord
  2
ACAD
 70
     0
  0
APPID
  5
26
100
AcDbSymbolTableRecord
100
AcDbRegAppTableRecord
  2
TOPsolid_Design
 70
     0
  0
ENDTAB
  0
TABLE
  2
DIMSTYLE
  5
9
100
AcDbSymbolTable
 70
     1
100
AcDbDimStyleTable
 71
     0
  0
DIMSTYLE
105
18
100
AcDbSymbolTableRecord
100
AcDbDimStyleTableRecord
  2
Standard
 70
     0
  3

  4

 40
1.0
 41
1.40208
 42
1.40208
 43
0.38
 44
1.05156
 45
0.0
 46
0.0
 47
0.0
 48
0.0
 71
     0
 72
     0
 73
     0
 74
     0
 75
     0
 76
     0
 77
     1
 78
     0
 79
     0
140
3.5052
141
0.09
142
0.0
143
25.4
144
1.0
145
0.0
146
0.5
147
1.7526
148
0.0
170
     0
171
     2
172
     0
173
     0
174
     0
175
     0
176
     7
177
     7
178
     7
179
     0
271
     2
272
     4
273
     2
274
     2
275
     0
276
     0
277
     2
278
    46
279
     0
280
     0
281
     0
282
     0
283
     1
284
     0
285
     0
286
     0
288
     0
289
     3
340
17
341
0
342
0
343
0
344
0
371
    -2
372
    -2
  0
ENDTAB
  0
TABLE
  2
BLOCK_RECORD
  5
1
100
AcDbSymbolTable
 70
     0
  0
BLOCK_RECORD
  5
A
100
AcDbSymbolTableRecord
100
AcDbBlockTableRecord
  2
*MODEL_SPACE
340
20
  0
BLOCK_RECORD
  5
B
100
AcDbSymbolTableRecord
100
AcDbBlockTableRecord
  2
*PAPER_SPACE
340
21
  0
ENDTAB
  0
ENDSEC
  0
SECTION
  2
BLOCKS
  0
BLOCK
  5
D
100
AcDbEntity
  8
0
390
0
100
AcDbBlockBegin
  2
*MODEL_SPACE
 70
     0
 10
0.0
 20
0.0
 30
0.0
  3
*MODEL_SPACE
  1

  0
ENDBLK
  5
E
100
AcDbEntity
  8
0
390
0
100
AcDbBlockEnd
  0
BLOCK
  5
F
100
AcDbEntity
 67
     1
  8
0
390
0
100
AcDbBlockBegin
  2
*PAPER_SPACE
 70
     0
 10
0.0
 20
0.0
 30
0.0
  3
*PAPER_SPACE
  1

  0
ENDBLK
  5
10
100
AcDbEntity
 67
     1
  8
0
390
0
100
AcDbBlockEnd
  0
ENDSEC
  0
SECTION
  2
ENTITIES
  0
LINE
  5
27
100
AcDbEntity
  8
0
390
0
  6
Continuous
 62
     7
100
AcDbLine
 10
9.15
 20
-21.172946
 30
0.0
 11
9.15
 21
0.0
 31
0.0
  0
LINE
  5
28
100
AcDbEntity
  8
0
390
0
  6
Continuous
 62
     7
100
AcDbLine
 10
5.734429
 20
20.993943
 30
0.0
 11
5.745328
 21
20.961685
 31
0.0
  0
LINE
  5
29
100
AcDbEntity
  8
0
390
0
  6
Continuous
 62
     7
100
AcDbLine
 10
9.15
 20
0.0
 30
0.0
 11
9.15
 21
21.172945
 31
0.0
  0
LINE
  5
2A
100
AcDbEntity
  8
0
390
0
  6
Continuous
 62
     7
100
AcDbLine
 10
5.745328
 20
-20.961686
 30
0.0
 11
5.734429
 21
-20.993944
 31
0.0
  0
LINE
  5
2B
100
AcDbEntity
  8
0
390
0
  6
Continuous
 62
     7
100
AcDbLine
 10
5.745328
 20
-11.497223
 30
0.0
 11
5.745328
 21
-20.961686
 31
0.0
  0
LINE
  5
2C
100
AcDbEntity
  8
0
390
0
  6
Continuous
 62
     7
100
AcDbLine
 10
5.745328
 20
-9.464464
 30
0.0
 11
5.745328
 21
-11.497223
 31
0.0
  0
LINE
  5
2D
100
AcDbEntity
  8
0
390
0
  6
Continuous
 62
     7
100
AcDbLine
 10
5.745328
 20
9.464463
 30
0.0
 11
5.745328
 21
-9.464464
 31
0.0
  0
LINE
  5
2E
100
AcDbEntity
  8
0
390
0
  6
Continuous
 62
     7
100
AcDbLine
 10
5.745328
 20
11.497222
 30
0.0
 11
5.745328
 21
9.464463
 31
0.0
  0
LINE
  5
2F
100
AcDbEntity
  8
0
390
0
  6
Continuous
 62
     7
100
AcDbLine
 10
5.745328
 20
20.961685
 30
0.0
 11
5.745328
 21
11.497222
 31
0.0
  0
ARC
  5
30
100
AcDbEntity
  8
0
390
0
  6
Continuous
 62
     7
100
AcDbCircle
 10
68.957272
 20
2.874625
 30
0.0
 40
65.119917
210
0.0
220
0.0
230
1.0
100
AcDbArc
 50
175.4625
 51
181.129142
  0
LINE
  5
31
100
AcDbEntity
  8
0
390
0
  6
Continuous
 62
     7
100
AcDbLine
 10
4.135265
 20
9.02815
 30
0.0
 11
4.041456
 21
8.026362
 31
0.0
  0
ELLIPSE
  5
32
100
AcDbEntity
  8
0
390
0
  6
Continuous
 62
     7
100
AcDbEllipse
 10
5.85
 20
8.564086
 30
0.0
 11
-2.0000000000000018
 21
0.0
 31
0.0
210
0.0
220
0.0
230
1.0
 40
0.450807
 41
4.7647488579445172
 42
5.7425224369630543
  0
ELLIPSE
  5
33
100
AcDbEntity
  8
0
390
0
  6
Continuous
 62
     7
100
AcDbEllipse
 10
5.85
 20
-8.564087
 30
0.0
 11
-2.0000000000000018
 21
0.0
 31
0.0
210
0.0
220
0.0
230
1.0
 40
0.450807
 41
0.5406628702165144
 42
1.5184364492350664
  0
LINE
  5
34
100
AcDbEntity
  8
0
390
0
  6
Continuous
 62
     7
100
AcDbLine
 10
4.041456
 20
-8.026363
 30
0.0
 11
4.135265
 21
-9.028151
 31
0.0
  0
ARC
  5
35
100
AcDbEntity
  8
0
390
0
  6
Continuous
 62
     7
100
AcDbCircle
 10
64.125932
 20
-3.018369
 30
0.0
 40
60.292821
210
0.0
220
0.0
230
1.0
100
AcDbArc
 50
178.643812
 51
184.764546
  0
LINE
  5
36
100
AcDbEntity
  8
0
390
0
  6
Continuous
 62
     7
100
AcDbLine
 10
3.85
 20
-1.591374
 30
0.0
 11
3.85
 21
1.591373
 31
0.0
  0
ARC
  5
37
100
AcDbEntity
  8
0
390
0
  6
Continuous
 62
     7
100
AcDbCircle
 10
35.289467
 20
3.105803
 30
0.0
 40
33.438873
210
0.0
220
0.0
230
1.0
100
AcDbArc
 50
170.939576
 51
182.595785
  0
ELLIPSE
  5
38
100
AcDbEntity
  8
0
390
0
  6
Continuous
 62
     7
100
AcDbEllipse
 10
2.232912
 20
8.371622
 30
0.0
 11
1.9639956892221477
 21
-0.3777842409587728
 31
0.0
210
0.0
220
0.0
230
0.9999999999999999
 40
0.003297
 41
0.4011777095644078
 42
1.5536572608791555
  0
LINE
  5
39
100
AcDbEntity
  8
0
390
0
  6
Continuous
 62
     7
100
AcDbLine
 10
3.85
 20
1.591373
 30
0.0
 11
1.884905
 21
1.591373
 31
0.0
  0
ELLIPSE
  5
3A
100
AcDbEntity
  8
0
390
0
  6
Continuous
 62
     7
100
AcDbEllipse
 10
2.232912
 20
-8.371623
 30
0.0
 11
-1.9639956892081034
 21
-0.37778424103177
 31
0.0
210
0.0
220
0.0
230
1.0
 40
0.003297
 41
1.5879353913801348
 42
2.7404149439836258
  0
POLYLINE
  5
3B
100
AcDbEntity
  8
0
390
0
  6
Continuous
 62
     7
100
AcDb2dPolyline
 66
     1
 10
0.0
 20
0.0
 30
0.0
 40
0.1
 41
0.1
  0
VERTEX
  5
3C
100
AcDbEntity
  8
0
390
0
 62
     7
100
AcDbVertex
100
AcDb2dVertex
 10
2.267817
 20
-8.371623
 30
0.0
  0
VERTEX
  5
3D
100
AcDbEntity
  8
0
390
0
 62
     7
100
AcDbVertex
100
AcDb2dVertex
 10
2.094666
 20
-7.25866
 30
0.0
  0
VERTEX
  5
3E
100
AcDbEntity
  8
0
390
0
 62
     7
100
AcDbVertex
100
AcDb2dVertex
 10
1.987829
 20
-6.135985
 30
0.0
  0
VERTEX
  5
3F
100
AcDbEntity
  8
0
390
0
 62
     7
100
AcDbVertex
100
AcDb2dVertex
 10
1.928018
 20
-5.010042
 30
0.0
  0
VERTEX
  5
40
100
AcDbEntity
  8
0
390
0
 62
     7
100
AcDbVertex
100
AcDb2dVertex
 10
1.884905
 20
-1.591374
 30
0.0
  0
SEQEND
  5
41
100
AcDbEntity
  8
0
390
0
  0
LINE
  5
42
100
AcDbEntity
  8
0
390
0
  6
Continuous
 62
     7
100
AcDbLine
 10
1.884905
 20
-1.591374
 30
0.0
 11
3.85
 21
-1.591374
 31
0.0
  0
LINE
  5
43
100
AcDbEntity
  8
0
390
0
  6
Continuous
 62
     7
100
AcDbLine
 10
1.884905
 20
-1.591374
 30
0.0
 11
1.884905
 21
1.591373
 31
0.0
  0
ELLIPSE
  5
44
100
AcDbEntity
  8
0
390
0
  6
Continuous
 62
     7
100
AcDbEllipse
 10
5.85
 20
-10.403464
 30
0.0
 11
-2.0000000000000018
 21
0.0
 31
0.0
210
0.0
220
0.0
230
1.0
 40
0.54763
 41
0.5406628702163089
 42
1.5184364492350675
  0
LINE
  5
45
100
AcDbEntity
  8
0
390
0
  6
Continuous
 62
     7
100
AcDbLine
 10
4.135265
 20
-9.028151
 30
0.0
 11
4.135265
 21
-10.967199
 31
0.0
  0
LINE
  5
46
100
AcDbEntity
  8
0
390
0
  6
Continuous
 62
     7
100
AcDbLine
 10
4.135265
 20
10.967198
 30
0.0
 11
4.135265
 21
9.02815
 31
0.0
  0
ELLIPSE
  5
47
100
AcDbEntity
  8
0
390
0
  6
Continuous
 62
     7
100
AcDbEllipse
 10
5.85
 20
10.403463
 30
0.0
 11
-2.0000000000000018
 21
0.0
 31
0.0
210
0.0
220
0.0
230
1.0
 40
0.54763
 41
4.7647488579445207
 42
5.7425224369633296
  0
LINE
  5
48
100
AcDbEntity
  8
0
390
0
  6
Continuous
 62
     7
100
AcDbLine
 10
2.267817
 20
8.371622
 30
0.0
 11
2.455413
 21
8.983494
 31
0.0
  0
ELLIPSE
  5
49
100
AcDbEntity
  8
0
390
0
  6
Continuous
 62
     7
100
AcDbEllipse
 10
2.420529
 20
9.492214
 30
0.0
 11
1.9830729337735886
 21
-0.259656964733429
 31
0.0
210
0.0
220
0.0
230
1.0
 40
0.25026
 41
4.7627274859798145
 42
5.7887476542538305
  0
ELLIPSE
  5
4A
100
AcDbEntity
  8
0
390
0
  6
Continuous
 62
     7
100
AcDbEllipse
 10
2.420529
 20
-9.492215
 30
0.0
 11
-1.9830729337736441
 21
-0.2596569647331237
 31
0.0
210
0.0
220
0.0
230
1.0
 40
0.25026
 41
3.6360303065155759
 42
4.6620504747896385
  0
LINE
  5
4B
100
AcDbEntity
  8
0
390
0
  6
Continuous
 62
     7
100
AcDbLine
 10
2.455413
 20
-8.983495
 30
0.0
 11
2.267817
 21
-8.371623
 31
0.0
  0
ELLIPSE
  5
4C
100
AcDbEntity
  8
0
390
0
  6
Continuous
 62
     7
100
AcDbEllipse
 10
2.420529
 20
-11.530934
 30
0.0
 11
-1.9682251831514008
 21
0.355091014260539
 31
0.0
210
0.0
220
0.0
230
1.0
 40
0.706241
 41
3.7955181236289537
 42
4.8215382919031589
  0
POLYLINE
  5
4D
100
AcDbEntity
  8
0
390
0
  6
Continuous
 62
     7
100
AcDb2dPolyline
 66
     1
 10
0.0
 20
0.0
 30
0.0
 40
0.1
 41
0.1
  0
VERTEX
  5
4E
100
AcDbEntity
  8
0
390
0
 62
     7
100
AcDbVertex
100
AcDb2dVertex
 10
2.455413
 20
-10.110484
 30
0.0
  0
VERTEX
  5
4F
100
AcDbEntity
  8
0
390
0
 62
     7
100
AcDbVertex
100
AcDb2dVertex
 10
2.489839
 20
-9.97728
 30
0.0
 42
0.098128
  0
VERTEX
  5
50
100
AcDbEntity
  8
0
390
0
 62
     7
100
AcDbVertex
100
AcDb2dVertex
 10
2.455413
 20
-8.983495
 30
0.0
  0
SEQEND
  5
51
100
AcDbEntity
  8
0
390
0
  0
ARC
  5
52
100
AcDbEntity
  8
0
390
0
  6
Continuous
 62
     7
100
AcDbCircle
 10
0.232468
 20
9.546988
 30
0.0
 40
2.293253
210
0.0
220
0.0
230
1.0
100
AcDbArc
 50
345.77571
 51
14.22429
  0
ELLIPSE
  5
53
100
AcDbEntity
  8
0
390
0
  6
Continuous
 62
     7
100
AcDbEllipse
 10
2.420529
 20
11.530933
 30
0.0
 11
1.9682251831517061
 21
0.3550910142589292
 31
0.0
210
0.0
220
0.0
230
1.0
 40
0.706241
 41
4.6032396688667605
 42
5.6292598371410456
  0
POLYLINE
  5
54
100
AcDbEntity
  8
0
390
0
  6
Continuous
 62
     7
100
AcDb2dPolyline
 66
     1
 10
0.0
 20
0.0
 30
0.0
 40
0.1
 41
0.1
  0
VERTEX
  5
55
100
AcDbEntity
  8
0
390
0
 62
     7
100
AcDbVertex
100
AcDb2dVertex
 10
4.041456
 20
19.736883
 30
0.0
  0
VERTEX
  5
56
100
AcDbEntity
  8
0
390
0
 62
     7
100
AcDbVertex
100
AcDb2dVertex
 10
3.956089
 20
19.399847
 30
0.0
 42
0.047564
  0
VERTEX
  5
57
100
AcDbEntity
  8
0
390
0
 62
     7
100
AcDbVertex
100
AcDb2dVertex
 10
3.85
 20
17.189967
 30
0.0
  0
SEQEND
  5
58
100
AcDbEntity
  8
0
390
0
  0
LINE
  5
59
100
AcDbEntity
  8
0
390
0
  6
Continuous
 62
     7
100
AcDbLine
 10
4.135265
 20
19.995348
 30
0.0
 11
4.041456
 21
19.736883
 31
0.0
  0
ELLIPSE
  5
5A
100
AcDbEntity
  8
0
390
0
  6
Continuous
 62
     7
100
AcDbEllipse
 10
5.85
 20
18.967549
 30
0.0
 11
2.0000000000000018
 21
0.0000000000001388
 31
0.0
210
0.0
220
0.0
230
1.0
 40
0.998436
 41
1.6231562043546506
 42
2.6009297833731537
  0
LINE
  5
5B
100
AcDbEntity
  8
0
390
0
  6
Continuous
 62
     7
100
AcDbLine
 10
4.041456
 20
11.71052
 30
0.0
 11
4.135265
 21
10.967198
 31
0.0
  0
ARC
  5
5C
100
AcDbEntity
  8
0
390
0
  6
Continuous
 62
     7
100
AcDbCircle
 10
27.841859
 20
14.831245
 30
0.0
 40
24.004127
210
0.0
220
0.0
230
1.0
100
AcDbArc
 50
178.168094
 51
187.470047
  0
LINE
  5
5D
100
AcDbEntity
  8
0
390
0
  6
Continuous
 62
     7
100
AcDbLine
 10
3.85
 20
15.598593
 30
0.0
 11
3.85
 21
17.189967
 31
0.0
  0
ARC
  5
5E
100
AcDbEntity
  8
0
390
0
  6
Continuous
 62
     7
100
AcDbCircle
 10
29.49506
 20
-14.912653
 30
0.0
 40
25.654232
210
0.0
220
0.0
230
1.0
100
AcDbArc
 50
172.829705
 51
181.532154
  0
LINE
  5
5F
100
AcDbEntity
  8
0
390
0
  6
Continuous
 62
     7
100
AcDbLine
 10
4.135265
 20
-10.967199
 30
0.0
 11
4.041456
 21
-11.710521
 31
0.0
  0
ELLIPSE
  5
60
100
AcDbEntity
  8
0
390
0
  6
Continuous
 62
     7
100
AcDbEllipse
 10
5.85
 20
-18.96755
 30
0.0
 11
-2.0000000000000018
 21
-0.0000000000000555
 31
0.0
210
0.0
220
0.0
230
1.0
 40
0.998436
 41
0.5406628702165085
 42
1.5184364492350402
  0
LINE
  5
61
100
AcDbEntity
  8
0
390
0
  6
Continuous
 62
     7
100
AcDbLine
 10
4.041456
 20
-19.736883
 30
0.0
 11
4.135265
 21
-19.995349
 31
0.0
  0
ARC
  5
62
100
AcDbEntity
  8
0
390
0
  6
Continuous
 62
     7
100
AcDbCircle
 10
12.236512
 20
-17.840194
 30
0.0
 40
8.411681
210
0.0
220
0.0
230
1.0
100
AcDbArc
 50
175.56659
 51
193.031271
  0
LINE
  5
63
100
AcDbEntity
  8
0
390
0
  6
Continuous
 62
     7
100
AcDbLine
 10
3.85
 20
-17.189968
 30
0.0
 11
3.85
 21
-15.598594
 31
0.0
  0
LINE
  5
64
100
AcDbEntity
  8
0
390
0
  6
Continuous
 62
     7
100
AcDbLine
 10
-7.184905
 20
8.371622
 30
0.0
 11
2.267817
 21
8.371622
 31
0.0
  0
LINE
  5
65
100
AcDbEntity
  8
0
390
0
  6
Continuous
 62
     7
100
AcDbLine
 10
-7.184905
 20
10.339577
 30
0.0
 11
-7.184905
 21
8.371622
 31
0.0
  0
LINE
  5
66
100
AcDbEntity
  8
0
390
0
  6
Continuous
 62
     7
100
AcDbLine
 10
-7.184905
 20
10.339577
 30
0.0
 11
2.267817
 21
10.48247
 31
0.0
  0
LINE
  5
67
100
AcDbEntity
  8
0
390
0
  6
Continuous
 62
     7
100
AcDbLine
 10
2.455413
 20
10.110483
 30
0.0
 11
2.267817
 21
10.48247
 31
0.0
  0
LINE
  5
68
100
AcDbEntity
  8
0
390
0
  6
Continuous
 62
     7
100
AcDbLine
 10
2.267817
 20
-10.482471
 30
0.0
 11
2.455413
 21
-10.110484
 31
0.0
  0
LINE
  5
69
100
AcDbEntity
  8
0
390
0
  6
Continuous
 62
     7
100
AcDbLine
 10
-7.184905
 20
-10.339578
 30
0.0
 11
2.267817
 21
-10.482471
 31
0.0
  0
LINE
  5
6A
100
AcDbEntity
  8
0
390
0
  6
Continuous
 62
     7
100
AcDbLine
 10
-7.184905
 20
-8.371623
 30
0.0
 11
-7.184905
 21
-10.339578
 31
0.0
  0
LINE
  5
6B
100
AcDbEntity
  8
0
390
0
  6
Continuous
 62
     7
100
AcDbLine
 10
-7.184905
 20
-8.371623
 30
0.0
 11
2.267817
 21
-8.371623
 31
0.0
  0
LINE
  5
6C
100
AcDbEntity
  8
0
390
0
  6
Continuous
 62
     7
100
AcDbLine
 10
-7.184905
 20
8.371622
 30
0.0
 11
-7.184905
 21
-8.371623
 31
0.0
  0
LINE
  5
6D
100
AcDbEntity
  8
0
390
0
  6
Continuous
 62
     7
100
AcDbLine
 10
-9.15
 20
8.371622
 30
0.0
 11
-9.15
 21
8.60779
 31
0.0
  0
ELLIPSE
  5
6E
100
AcDbEntity
  8
0
390
0
  6
Continuous
 62
     7
100
AcDbEllipse
 10
-7.15
 20
8.60779
 30
0.0
 11
-2.0000000000000018
 21
0.0
 31
0.0
210
0.0
220
0.0
230
1.0
 40
0.866025
 41
4.729842272904631
 42
6.2831853071795791
  0
LINE
  5
6F
100
AcDbEntity
  8
0
390
0
  6
Continuous
 62
     7
100
AcDbLine
 10
-9.15
 20
8.371622
 30
0.0
 11
-7.184905
 21
8.371622
 31
0.0
  0
ELLIPSE
  5
70
100
AcDbEntity
  8
0
390
0
  6
Continuous
 62
     7
100
AcDbEllipse
 10
-7.15
 20
-8.607791
 30
0.0
 11
2.0000000000000018
 21
-0.0000000000000278
 31
0.0
210
0.0
220
0.0
230
1.0
 40
0.866025
 41
3.1415926535897958
 42
4.6949356878647528
  0
LINE
  5
71
100
AcDbEntity
  8
0
390
0
  6
Continuous
 62
     7
100
AcDbLine
 10
-9.15
 20
-8.607791
 30
0.0
 11
-9.15
 21
-8.371623
 31
0.0
  0
LINE
  5
72
100
AcDbEntity
  8
0
390
0
  6
Continuous
 62
     7
100
AcDbLine
 10
-7.184905
 20
-8.371623
 30
0.0
 11
-9.15
 21
-8.371623
 31
0.0
  0
LINE
  5
73
100
AcDbEntity
  8
0
390
0
  6
Continuous
 62
     7
100
AcDbLine
 10
-9.15
 20
-8.371623
 30
0.0
 11
-9.15
 21
8.371622
 31
0.0
  0
ELLIPSE
  5
74
100
AcDbEntity
  8
0
390
0
  6
Continuous
 62
     7
100
AcDbEllipse
 10
2.232912
 20
12.214257
 30
0.0
 11
1.8652219356527222
 21
0.7217666733508599
 31
0.0
210
0.0
220
0.0
230
0.9999999999999999
 40
0.852079
 41
4.4116666153794659
 42
5.5641461679114439
  0
ELLIPSE
  5
75
100
AcDbEntity
  8
0
390
0
  6
Continuous
 62
     7
100
AcDbEllipse
 10
2.232912
 20
-12.214258
 30
0.0
 11
-1.8652219387005342
 21
0.7217666654744936
 31
0.0
210
0.0
220
0.0
230
1.0
 40
0.852079
 41
3.8606317892469053
 42
5.0131113405609025
  0
POLYLINE
  5
76
100
AcDbEntity
  8
0
390
0
  6
Continuous
 62
     7
100
AcDb2dPolyline
 66
     1
 10
0.0
 20
0.0
 30
0.0
 40
0.1
 41
0.1
  0
VERTEX
  5
77
100
AcDbEntity
  8
0
390
0
 62
     7
100
AcDbVertex
100
AcDb2dVertex
 10
2.267817
 20
10.48247
 30
0.0
  0
VERTEX
  5
78
100
AcDbEntity
  8
0
390
0
 62
     7
100
AcDbVertex
100
AcDb2dVertex
 10
2.094666
 20
11.036334
 30
0.0
  0
VERTEX
  5
79
100
AcDbEntity
  8
0
390
0
 62
     7
100
AcDbVertex
100
AcDb2dVertex
 10
1.987829
 20
11.596057
 30
0.0
  0
VERTEX
  5
7A
100
AcDbEntity
  8
0
390
0
 62
     7
100
AcDbVertex
100
AcDb2dVertex
 10
1.928018
 20
12.158124
 30
0.0
  0
VERTEX
  5
7B
100
AcDbEntity
  8
0
390
0
 62
     7
100
AcDbVertex
100
AcDb2dVertex
 10
1.884905
 20
13.866806
 30
0.0
  0
SEQEND
  5
7C
100
AcDbEntity
  8
0
390
0
  0
ELLIPSE
  5
7D
100
AcDbEntity
  8
0
390
0
  6
Continuous
 62
     7
100
AcDbEllipse
 10
1.85
 20
15.598593
 30
0.0
 11
2.0000000000000018
 21
0.0
 31
0.0
210
0.0
220
0.0
230
1.0
 40
0.866025
 41
4.729842272904631
 42
6.283185307179588
  0
ELLIPSE
  5
7E
100
AcDbEntity
  8
0
390
0
  6
Continuous
 62
     7
100
AcDbEllipse
 10
1.85
 20
-15.598594
 30
0.0
 11
-2.0000000000000018
 21
0.0
 31
0.0
210
0.0
220
0.0
230
1.0
 40
0.866025
 41
3.1415926535897882
 42
4.6949356878647457
  0
POLYLINE
  5
7F
100
AcDbEntity
  8
0
390
0
  6
Continuous
 62
     7
100
AcDb2dPolyline
 66
     1
 10
0.0
 20
0.0
 30
0.0
 40
0.1
 41
0.1
  0
VERTEX
  5
80
100
AcDbEntity
  8
0
390
0
 62
     7
100
AcDbVertex
100
AcDb2dVertex
 10
1.884905
 20
-13.866807
 30
0.0
  0
VERTEX
  5
81
100
AcDbEntity
  8
0
390
0
 62
     7
100
AcDbVertex
100
AcDb2dVertex
 10
1.926944
 20
-12.17238
 30
0.0
  0
VERTEX
  5
82
100
AcDbEntity
  8
0
390
0
 62
     7
100
AcDbVertex
100
AcDb2dVertex
 10
1.98645
 20
-11.605528
 30
0.0
  0
VERTEX
  5
83
100
AcDbEntity
  8
0
390
0
 62
     7
100
AcDbVertex
100
AcDb2dVertex
 10
2.093497
 20
-11.041032
 30
0.0
  0
VERTEX
  5
84
100
AcDbEntity
  8
0
390
0
 62
     7
100
AcDbVertex
100
AcDb2dVertex
 10
2.267817
 20
-10.482471
 30
0.0
  0
SEQEND
  5
85
100
AcDbEntity
  8
0
390
0
  0
LINE
  5
86
100
AcDbEntity
  8
0
390
0
  6
Continuous
 62
     7
100
AcDbLine
 10
-7.184905
 20
18.7112
 30
0.0
 11
-7.184905
 21
10.339577
 31
0.0
  0
LINE
  5
87
100
AcDbEntity
  8
0
390
0
  6
Continuous
 62
     7
100
AcDbLine
 10
-7.184905
 20
18.7112
 30
0.0
 11
2.267817
 21
18.854093
 31
0.0
  0
POLYLINE
  5
88
100
AcDbEntity
  8
0
390
0
  6
Continuous
 62
     7
100
AcDb2dPolyline
 66
     1
 10
0.0
 20
0.0
 30
0.0
 40
0.1
 41
0.1
  0
VERTEX
  5
89
100
AcDbEntity
  8
0
390
0
 62
     7
100
AcDbVertex
100
AcDb2dVertex
 10
1.884905
 20
15.45818
 30
0.0
  0
VERTEX
  5
8A
100
AcDbEntity
  8
0
390
0
 62
     7
100
AcDbVertex
100
AcDb2dVertex
 10
1.926944
 20
17.153878
 30
0.0
  0
VERTEX
  5
8B
100
AcDbEntity
  8
0
390
0
 62
     7
100
AcDbVertex
100
AcDb2dVertex
 10
1.98645
 20
17.722528
 30
0.0
  0
VERTEX
  5
8C
100
AcDbEntity
  8
0
390
0
 62
     7
100
AcDbVertex
100
AcDb2dVertex
 10
2.093497
 20
18.290261
 30
0.0
  0
VERTEX
  5
8D
100
AcDbEntity
  8
0
390
0
 62
     7
100
AcDbVertex
100
AcDb2dVertex
 10
2.267817
 20
18.854093
 30
0.0
  0
SEQEND
  5
8E
100
AcDbEntity
  8
0
390
0
  0
LINE
  5
8F
100
AcDbEntity
  8
0
390
0
  6
Continuous
 62
     7
100
AcDbLine
 10
1.884905
 20
13.866806
 30
0.0
 11
1.884905
 21
15.45818
 31
0.0
  0
LINE
  5
90
100
AcDbEntity
  8
0
390
0
  6
Continuous
 62
     7
100
AcDbLine
 10
-7.184905
 20
-10.339578
 30
0.0
 11
-7.184905
 21
-18.711201
 31
0.0
  0
LINE
  5
91
100
AcDbEntity
  8
0
390
0
  6
Continuous
 62
     7
100
AcDbLine
 10
1.884905
 20
-15.458181
 30
0.0
 11
1.884905
 21
-13.866807
 31
0.0
  0
POLYLINE
  5
92
100
AcDbEntity
  8
0
390
0
  6
Continuous
 62
     7
100
AcDb2dPolyline
 66
     1
 10
0.0
 20
0.0
 30
0.0
 40
0.1
 41
0.1
  0
VERTEX
  5
93
100
AcDbEntity
  8
0
390
0
 62
     7
100
AcDbVertex
100
AcDb2dVertex
 10
2.267817
 20
-18.854094
 30
0.0
  0
VERTEX
  5
94
100
AcDbEntity
  8
0
390
0
 62
     7
100
AcDbVertex
100
AcDb2dVertex
 10
2.094666
 20
-18.294995
 30
0.0
  0
VERTEX
  5
95
100
AcDbEntity
  8
0
390
0
 62
     7
100
AcDbVertex
100
AcDb2dVertex
 10
1.987829
 20
-17.732042
 30
0.0
  0
VERTEX
  5
96
100
AcDbEntity
  8
0
390
0
 62
     7
100
AcDbVertex
100
AcDb2dVertex
 10
1.928018
 20
-17.168166
 30
0.0
  0
VERTEX
  5
97
100
AcDbEntity
  8
0
390
0
 62
     7
100
AcDbVertex
100
AcDb2dVertex
 10
1.884905
 20
-15.458181
 30
0.0
  0
SEQEND
  5
98
100
AcDbEntity
  8
0
390
0
  0
LINE
  5
99
100
AcDbEntity
  8
0
390
0
  6
Continuous
 62
     7
100
AcDbLine
 10
-7.184905
 20
-18.711201
 30
0.0
 11
2.267817
 21
-18.854094
 31
0.0
  0
LINE
  5
9A
100
AcDbEntity
  8
0
390
0
  6
Continuous
 62
     7
100
AcDbLine
 10
-9.15
 20
8.60779
 30
0.0
 11
-9.15
 21
16.979413
 31
0.0
  0
ELLIPSE
  5
9B
100
AcDbEntity
  8
0
390
0
  6
Continuous
 62
     7
100
AcDbEllipse
 10
-7.15
 20
16.979413
 30
0.0
 11
-2.0000000000000018
 21
0.0
 31
0.0
210
0.0
220
0.0
230
1.0
 40
0.866025
 41
4.7298422729046319
 42
6.2831853071795791
  0
ELLIPSE
  5
9C
100
AcDbEntity
  8
0
390
0
  6
Continuous
 62
     7
100
AcDbEllipse
 10
-7.15
 20
-16.979414
 30
0.0
 11
2.0000000000000018
 21
-0.0000000000000278
 31
0.0
210
0.0
220
0.0
230
1.0
 40
0.866025
 41
3.1415926535897953
 42
4.6949356878647581
  0
LINE
  5
9D
100
AcDbEntity
  8
0
390
0
  6
Continuous
 62
     7
100
AcDbLine
 10
-9.15
 20
-16.979414
 30
0.0
 11
-9.15
 21
-8.607791
 31
0.0
  0
ELLIPSE
  5
9E
100
AcDbEntity
  8
0
390
0
  6
Continuous
 62
     7
100
AcDbEllipse
 10
1.85
 20
-17.189968
 30
0.0
 11
-2.0000000000000018
 21
0.0000000000024147
 31
0.0
210
0.0
220
0.0
230
1.0
 40
0.866025
 41
3.1415926535908443
 42
4.694935687865792
  0
ELLIPSE
  5
9F
100
AcDbEntity
  8
0
390
0
  6
Continuous
 62
     7
100
AcDbEllipse
 10
1.85
 20
17.189967
 30
0.0
 11
2.0000000000000018
 21
0.0
 31
0.0
210
0.0
220
0.0
230
1.0
 40
0.866025
 41
4.7298422729046328
 42
6.283185307179588
  0
ELLIPSE
  5
A0
100
AcDbEntity
  8
0
390
0
  6
Continuous
 62
     7
100
AcDbEllipse
 10
2.232912
 20
20.58588
 30
0.0
 11
1.8680210470222447
 21
-0.7144909851649339
 31
0.0
210
0.0
220
0.0
230
0.9999999999999999
 40
0.848782
 41
5.0440746518731396
 42
6.1965542031880014
  0
ELLIPSE
  5
A1
100
AcDbEntity
  8
0
390
0
  6
Continuous
 62
     7
100
AcDbEllipse
 10
2.232912
 20
-20.585881
 30
0.0
 11
-1.8680210468677574
 21
-0.7144909855688331
 31
0.0
210
0.0
220
0.0
230
1.0
 40
0.848782
 41
3.228223757439459
 42
4.3807033100429376
  0
LINE
  5
A2
100
AcDbEntity
  8
0
390
0
  6
Continuous
 62
     7
100
AcDbLine
 10
2.267817
 20
18.854093
 30
0.0
 11
2.455413
 21
19.093977
 31
0.0
  0
ELLIPSE
  5
A3
100
AcDbEntity
  8
0
390
0
  6
Continuous
 62
     7
100
AcDbEllipse
 10
2.420529
 20
21.023148
 30
0.0
 11
1.8048288206270191
 21
-0.8617383177242088
 31
0.0
210
0.0
220
0.0
230
1.0
 40
0.956501
 41
5.1583772356168875
 42
6.1843974038909106
  0
ELLIPSE
  5
A4
100
AcDbEntity
  8
0
390
0
  6
Continuous
 62
     7
100
AcDbEllipse
 10
2.420529
 20
-21.023148
 30
0.0
 11
-1.8048288206270469
 21
-0.8617383177241256
 31
0.0
210
0.0
220
0.0
230
1.0
 40
0.956501
 41
3.2403805568784727
 42
4.2664007251525415
  0
LINE
  5
A5
100
AcDbEntity
  8
0
390
0
  6
Continuous
 62
     7
100
AcDbLine
 10
2.455413
 20
-19.093978
 30
0.0
 11
2.267817
 21
-18.854094
 31
0.0
  0
LINE
  5
A6
100
AcDbEntity
  8
0
390
0
  6
Continuous
 62
     7
100
AcDbLine
 10
-7.184863
 20
19.012815
 30
0.0
 11
-7.184905
 21
18.7112
 31
0.0
  0
LINE
  5
A7
100
AcDbEntity
  8
0
390
0
  6
Continuous
 62
     7
100
AcDbLine
 10
2.455413
 20
19.093977
 30
0.0
 11
2.523532
 21
19.182074
 31
0.0
  0
LINE
  5
A8
100
AcDbEntity
  8
0
390
0
  6
Continuous
 62
     7
100
AcDbLine
 10
2.523532
 20
-19.182075
 30
0.0
 11
2.455413
 21
-19.093978
 31
0.0
  0
LINE
  5
A9
100
AcDbEntity
  8
0
390
0
  6
Continuous
 62
     7
100
AcDbLine
 10
-7.184905
 20
-18.711201
 30
0.0
 11
-7.184863
 21
-19.012816
 31
0.0
  0
LINE
  5
AA
100
AcDbEntity
  8
0
390
0
  6
Continuous
 62
     7
100
AcDbLine
 10
4.163885
 20
20.089227
 30
0.0
 11
4.135265
 21
19.995348
 31
0.0
  0
LINE
  5
AB
100
AcDbEntity
  8
0
390
0
  6
Continuous
 62
     7
100
AcDbLine
 10
4.135265
 20
-19.995349
 30
0.0
 11
4.163885
 21
-20.089228
 31
0.0
  0
LINE
  5
AC
100
AcDbEntity
  8
0
390
0
  6
Continuous
 62
     7
100
AcDbLine
 10
-9.15
 20
16.979413
 30
0.0
 11
-9.15
 21
17.012924
 31
0.0
  0
LINE
  5
AD
100
AcDbEntity
  8
0
390
0
  6
Continuous
 62
     7
100
AcDbLine
 10
-9.15
 20
-17.012919
 30
0.0
 11
-9.15
 21
-16.979414
 31
0.0
  0
LINE
  5
AE
100
AcDbEntity
  8
0
390
0
  6
Continuous
 62
     7
100
AcDbLine
 10
9.15
 20
21.172945
 30
0.0
 11
5.734444
 21
20.993944
 31
0.0
  0
LINE
  5
AF
100
AcDbEntity
  8
0
390
0
  6
Continuous
 62
     7
100
AcDbLine
 10
5.734444
 20
-20.993944
 30
0.0
 11
9.15
 21
-21.172946
 31
0.0
  0
LINE
  5
B0
100
AcDbEntity
  8
0
390
0
  6
Continuous
 62
     7
100
AcDbLine
 10
2.523541
 20
19.182074
 30
0.0
 11
-7.18487
 21
19.012815
 31
0.0
  0
LINE
  5
B1
100
AcDbEntity
  8
0
390
0
  6
Continuous
 62
     7
100
AcDbLine
 10
-7.18487
 20
-19.012816
 30
0.0
 11
2.523541
 21
-19.182075
 31
0.0
  0
ARC
  5
B2
100
AcDbEntity
  8
0
390
0
  6
Continuous
 62
     7
100
AcDbCircle
 10
5.839101
 20
18.996684
 30
0.0
 40
2.0
210
0.0
220
0.0
230
1.0
100
AcDbArc
 50
93.0
 51
147.211723
  0
ARC
  5
B3
100
AcDbEntity
  8
0
390
0
  6
Continuous
 62
     7
100
AcDbCircle
 10
5.839101
 20
-18.996684
 30
0.0
 40
2.0
210
0.0
220
0.0
230
1.0
100
AcDbArc
 50
212.788277
 51
267.0
  0
ARC
  5
B4
100
AcDbEntity
  8
0
390
0
  6
Continuous
 62
     7
100
AcDbCircle
 10
-7.15
 20
17.013119
 30
0.0
 40
2.0
210
0.0
220
0.0
230
1.0
100
AcDbArc
 50
90.998809
 51
180.0
  0
ARC
  5
B5
100
AcDbEntity
  8
0
390
0
  6
Continuous
 62
     7
100
AcDbCircle
 10
-7.15
 20
-17.01312
 30
0.0
 40
2.0
210
0.0
220
0.0
230
1.0
100
AcDbArc
 50
180.0
 51
269.001191
  0
ARC
  5
B6
100
AcDbEntity
  8
0
390
0
  6
Continuous
 62
     7
100
AcDbCircle
 10
2.488668
 20
21.18177
 30
0.0
 40
2.0
210
0.0
220
0.0
230
1.0
100
AcDbArc
 50
270.998809
 51
326.888393
  0
ARC
  5
B7
100
AcDbEntity
  8
0
390
0
  6
Continuous
 62
     7
100
AcDbCircle
 10
2.488668
 20
-21.181771
 30
0.0
 40
2.0
210
0.0
220
0.0
230
1.0
100
AcDbArc
 50
33.111607
 51
89.001191
  0
CIRCLE
  5
B8
100
AcDbEntity
  8
0
390
0
  6
Continuous
 62
     7
100
AcDbCircle
 10
100.324249
 20
0.0
 30
0.0
 40
19.172946
210
0.0
220
0.0
230
1.0
  0
CIRCLE
  5
B9
100
AcDbEntity
  8
0
390
0
  6
Continuous
 62
     7
100
AcDbCircle
 10
100.324249
 20
0.0
 30
0.0
 40
21.172946
210
0.0
220
0.0
230
1.0
  0
ARC
  5
BA
100
AcDbEntity
  8
0
390
0
  6
Continuous
 62
     7
100
AcDbCircle
 10
100.324249
 20
0.0
 30
0.0
 40
19.0
210
0.0
220
0.0
230
1.0
100
AcDbArc
 50
153.175844
 51
206.824156
  0
ARC
  5
BB
100
AcDbEntity
  8
0
390
0
  6
Continuous
 62
     7
100
AcDbCircle
 10
100.324249
 20
0.0
 30
0.0
 40
19.0
210
0.0
220
0.0
230
1.0
100
AcDbArc
 50
206.824156
 51
213.175844
  0
ARC
  5
BC
100
AcDbEntity
  8
0
390
0
  6
Continuous
 62
     7
100
AcDbCircle
 10
100.324249
 20
0.0
 30
0.0
 40
19.0
210
0.0
220
0.0
230
1.0
100
AcDbArc
 50
213.175844
 51
266.824156
  0
ARC
  5
BD
100
AcDbEntity
  8
0
390
0
  6
Continuous
 62
     7
100
AcDbCircle
 10
100.324249
 20
0.0
 30
0.0
 40
19.0
210
0.0
220
0.0
230
1.0
100
AcDbArc
 50
266.824156
 51
273.175844
  0
ARC
  5
BE
100
AcDbEntity
  8
0
390
0
  6
Continuous
 62
     7
100
AcDbCircle
 10
100.324249
 20
0.0
 30
0.0
 40
19.0
210
0.0
220
0.0
230
1.0
100
AcDbArc
 50
273.175844
 51
326.824156
  0
ARC
  5
BF
100
AcDbEntity
  8
0
390
0
  6
Continuous
 62
     7
100
AcDbCircle
 10
100.324249
 20
0.0
 30
0.0
 40
19.0
210
0.0
220
0.0
230
1.0
100
AcDbArc
 50
326.824156
 51
333.175844
  0
ARC
  5
C0
100
AcDbEntity
  8
0
390
0
  6
Continuous
 62
     7
100
AcDbCircle
 10
100.324249
 20
0.0
 30
0.0
 40
19.0
210
0.0
220
0.0
230
1.0
100
AcDbArc
 50
333.175844
 51
26.824156
  0
ARC
  5
C1
100
AcDbEntity
  8
0
390
0
  6
Continuous
 62
     7
100
AcDbCircle
 10
100.324249
 20
0.0
 30
0.0
 40
19.0
210
0.0
220
0.0
230
1.0
100
AcDbArc
 50
26.824156
 51
33.175844
  0
ARC
  5
C2
100
AcDbEntity
  8
0
390
0
  6
Continuous
 62
     7
100
AcDbCircle
 10
100.324249
 20
0.0
 30
0.0
 40
19.0
210
0.0
220
0.0
230
1.0
100
AcDbArc
 50
33.175844
 51
86.824156
  0
ARC
  5
C3
100
AcDbEntity
  8
0
390
0
  6
Continuous
 62
     7
100
AcDbCircle
 10
100.324249
 20
0.0
 30
0.0
 40
19.0
210
0.0
220
0.0
230
1.0
100
AcDbArc
 50
86.824156
 51
93.175844
  0
ARC
  5
C4
100
AcDbEntity
  8
0
390
0
  6
Continuous
 62
     7
100
AcDbCircle
 10
100.324249
 20
0.0
 30
0.0
 40
19.0
210
0.0
220
0.0
230
1.0
100
AcDbArc
 50
93.175844
 51
146.824156
  0
ARC
  5
C5
100
AcDbEntity
  8
0
390
0
  6
Continuous
 62
     7
100
AcDbCircle
 10
100.324249
 20
0.0
 30
0.0
 40
19.0
210
0.0
220
0.0
230
1.0
100
AcDbArc
 50
146.824156
 51
153.175844
  0
LINE
  5
C6
100
AcDbEntity
  8
0
390
0
  6
Continuous
 62
     7
100
AcDbLine
 10
85.360497
 20
-8.396237
 30
0.0
 11
85.35855
 21
-8.35182
 31
0.0
  0
LINE
  5
C7
100
AcDbEntity
  8
0
390
0
  6
Continuous
 62
     7
100
AcDbLine
 10
83.368732
 20
-8.573823
 30
0.0
 11
85.360497
 21
-8.396237
 31
0.0
  0
ELLIPSE
  5
C8
100
AcDbEntity
  8
0
390
0
  6
Continuous
 62
     7
100
AcDbEllipse
 10
85.859235
 20
-8.35138
 30
0.0
 11
-2.1655032314852054
 21
-1.2502538736289814
 31
0.0
210
0.0
220
0.0
230
0.9999999999999999
 40
0.999797
 41
5.7596744625918594
 42
5.8485891060052735
  0
LINE
  5
C9
100
AcDbEntity
  8
0
390
0
  6
Continuous
 62
     7
100
AcDbLine
 10
83.358855
 20
-8.35182
 30
0.0
 11
85.35855
 21
-8.35182
 31
0.0
  0
LINE
  5
CA
100
AcDbEntity
  8
0
390
0
  6
Continuous
 62
     7
100
AcDbLine
 10
85.571019
 20
-8.760872
 30
0.0
 11
85.360497
 21
-8.396237
 31
0.0
  0
LINE
  5
CB
100
AcDbEntity
  8
0
390
0
  6
Continuous
 62
     7
100
AcDbLine
 10
84.421342
 20
-10.396998
 30
0.0
 11
85.571019
 21
-8.760872
 31
0.0
  0
LINE
  5
CC
100
AcDbEntity
  8
0
390
0
  6
Continuous
 62
     7
100
AcDbLine
 10
85.360497
 20
8.396236
 30
0.0
 11
85.571019
 21
8.760871
 31
0.0
  0
LINE
  5
CD
100
AcDbEntity
  8
0
390
0
  6
Continuous
 62
     7
100
AcDbLine
 10
83.368732
 20
8.573822
 30
0.0
 11
85.360497
 21
8.396236
 31
0.0
  0
LINE
  5
CE
100
AcDbEntity
  8
0
390
0
  6
Continuous
 62
     7
100
AcDbLine
 10
84.421342
 20
10.396997
 30
0.0
 11
85.571019
 21
8.760871
 31
0.0
  0
LINE
  5
CF
100
AcDbEntity
  8
0
390
0
  6
Continuous
 62
     7
100
AcDbLine
 10
85.35855
 20
8.351819
 30
0.0
 11
85.360497
 21
8.396236
 31
0.0
  0
LINE
  5
D0
100
AcDbEntity
  8
0
390
0
  6
Continuous
 62
     7
100
AcDbLine
 10
83.358855
 20
8.351819
 30
0.0
 11
85.35855
 21
8.351819
 31
0.0
  0
ELLIPSE
  5
D1
100
AcDbEntity
  8
0
390
0
  6
Continuous
 62
     7
100
AcDbEllipse
 10
85.859235
 20
8.351379
 30
0.0
 11
-2.1655032314851774
 21
1.2502538736289814
 31
0.0
210
0.0
220
0.0
230
1.0
 40
0.999797
 41
0.4345962011743208
 42
0.5235108445877246
  0
LINE
  5
D2
100
AcDbEntity
  8
0
390
0
  6
Continuous
 62
     7
100
AcDbLine
 10
84.608664
 20
-10.516553
 30
0.0
 11
99.07444
 21
-18.868373
 31
0.0
  0
LINE
  5
D3
100
AcDbEntity
  8
0
390
0
  6
Continuous
 62
     7
100
AcDbLine
 10
84.608664
 20
-10.516553
 30
0.0
 11
85.608512
 21
-8.784766
 31
0.0
  0
LINE
  5
D4
100
AcDbEntity
  8
0
390
0
  6
Continuous
 62
     7
100
AcDbLine
 10
100.074287
 20
-17.136586
 30
0.0
 11
85.608512
 21
-8.784766
 31
0.0
  0
LINE
  5
D5
100
AcDbEntity
  8
0
390
0
  6
Continuous
 62
     7
100
AcDbLine
 10
100.074287
 20
-17.136586
 30
0.0
 11
99.07444
 21
-18.868373
 31
0.0
  0
LINE
  5
D6
100
AcDbEntity
  8
0
390
0
  6
Continuous
 62
     7
100
AcDbLine
 10
83.358855
 20
8.351819
 30
0.0
 11
83.358855
 21
-8.35182
 31
0.0
  0
LINE
  5
D7
100
AcDbEntity
  8
0
390
0
  6
Continuous
 62
     7
100
AcDbLine
 10
85.35855
 20
-8.35182
 30
0.0
 11
85.35855
 21
8.351819
 31
0.0
  0
ELLIPSE
  5
D8
100
AcDbEntity
  8
0
390
0
  6
Continuous
 62
     7
100
AcDbEllipse
 10
100.324249
 20
-16.70276
 30
0.0
 11
0.0
 21
-2.5005077472579629
 31
0.0
210
0.0
220
0.0
230
0.9999999999999999
 40
0.999797
 41
5.7596744625918594
 42
5.8485891060052966
  0
ELLIPSE
  5
D9
100
AcDbEntity
  8
0
390
0
  6
Continuous
 62
     7
100
AcDbEllipse
 10
85.859235
 20
-8.35138
 30
0.0
 11
-2.1655032314852054
 21
-1.2502538736289814
 31
0.0
210
0.0
220
0.0
230
0.9999999999999999
 40
0.999797
 41
0.4345962011743101
 42
0.5235108445877278
  0
LINE
  5
DA
100
AcDbEntity
  8
0
390
0
  6
Continuous
 62
     7
100
AcDbLine
 10
85.608512
 20
-8.784766
 30
0.0
 11
85.571019
 21
-8.760872
 31
0.0
  0
LINE
  5
DB
100
AcDbEntity
  8
0
390
0
  6
Continuous
 62
     7
100
AcDbLine
 10
85.608512
 20
8.784766
 30
0.0
 11
100.074287
 21
17.136585
 31
0.0
  0
LINE
  5
DC
100
AcDbEntity
  8
0
390
0
  6
Continuous
 62
     7
100
AcDbLine
 10
84.608664
 20
10.516553
 30
0.0
 11
85.608512
 21
8.784766
 31
0.0
  0
LINE
  5
DD
100
AcDbEntity
  8
0
390
0
  6
Continuous
 62
     7
100
AcDbLine
 10
99.07444
 20
18.868372
 30
0.0
 11
84.608664
 21
10.516553
 31
0.0
  0
LINE
  5
DE
100
AcDbEntity
  8
0
390
0
  6
Continuous
 62
     7
100
AcDbLine
 10
99.07444
 20
18.868372
 30
0.0
 11
100.074287
 21
17.136585
 31
0.0
  0
LINE
  5
DF
100
AcDbEntity
  8
0
390
0
  6
Continuous
 62
     7
100
AcDbLine
 10
85.571019
 20
8.760871
 30
0.0
 11
85.608512
 21
8.784766
 31
0.0
  0
ELLIPSE
  5
E0
100
AcDbEntity
  8
0
390
0
  6
Continuous
 62
     7
100
AcDbEllipse
 10
85.859235
 20
8.351379
 30
0.0
 11
-2.1655032314851774
 21
1.2502538736289814
 31
0.0
210
0.0
220
0.0
230
1.0
 40
0.999797
 41
5.7596744625918612
 42
5.8485891060052664
  0
ELLIPSE
  5
E1
100
AcDbEntity
  8
0
390
0
  6
Continuous
 62
     7
100
AcDbEllipse
 10
100.324249
 20
16.702759
 30
0.0
 11
0.0
 21
2.5005077472579629
 31
0.0
210
0.0
220
0.0
230
0.9999999999999999
 40
0.999797
 41
0.4345962011743347
 42
0.5235108445877295
  0
LINE
  5
E2
100
AcDbEntity
  8
0
390
0
  6
Continuous
 62
     7
100
AcDbLine
 10
100.113727
 20
-17.157108
 30
0.0
 11
100.074287
 21
-17.136586
 31
0.0
  0
LINE
  5
E3
100
AcDbEntity
  8
0
390
0
  6
Continuous
 62
     7
100
AcDbLine
 10
100.113727
 20
-17.157108
 30
0.0
 11
99.271639
 21
-18.97082
 31
0.0
  0
LINE
  5
E4
100
AcDbEntity
  8
0
390
0
  6
Continuous
 62
     7
100
AcDbLine
 10
116.039834
 20
10.516553
 30
0.0
 11
101.574059
 21
18.868372
 31
0.0
  0
LINE
  5
E5
100
AcDbEntity
  8
0
390
0
  6
Continuous
 62
     7
100
AcDbLine
 10
115.039986
 20
8.784766
 30
0.0
 11
116.039834
 21
10.516553
 31
0.0
  0
LINE
  5
E6
100
AcDbEntity
  8
0
390
0
  6
Continuous
 62
     7
100
AcDbLine
 10
100.574211
 20
17.136585
 30
0.0
 11
115.039986
 21
8.784766
 31
0.0
  0
LINE
  5
E7
100
AcDbEntity
  8
0
390
0
  6
Continuous
 62
     7
100
AcDbLine
 10
101.574059
 20
18.868372
 30
0.0
 11
100.574211
 21
17.136585
 31
0.0
  0
ELLIPSE
  5
E8
100
AcDbEntity
  8
0
390
0
  6
Continuous
 62
     7
100
AcDbEllipse
 10
100.324249
 20
-16.70276
 30
0.0
 11
0.0
 21
-2.5005077472579629
 31
0.0
210
0.0
220
0.0
230
0.9999999999999999
 40
0.999797
 41
0.4345962011742879
 42
0.5235108445877217
  0
LINE
  5
E9
100
AcDbEntity
  8
0
390
0
  6
Continuous
 62
     7
100
AcDbLine
 10
100.534771
 20
-17.157108
 30
0.0
 11
101.37686
 21
-18.97082
 31
0.0
  0
LINE
  5
EA
100
AcDbEntity
  8
0
390
0
  6
Continuous
 62
     7
100
AcDbLine
 10
100.574211
 20
-17.136586
 30
0.0
 11
100.534771
 21
-17.157108
 31
0.0
  0
LINE
  5
EB
100
AcDbEntity
  8
0
390
0
  6
Continuous
 62
     7
100
AcDbLine
 10
100.574211
 20
-17.136586
 30
0.0
 11
101.574059
 21
-18.868373
 31
0.0
  0
LINE
  5
EC
100
AcDbEntity
  8
0
390
0
  6
Continuous
 62
     7
100
AcDbLine
 10
100.534771
 20
-17.157108
 30
0.0
 11
100.113727
 21
-17.157108
 31
0.0
  0
LINE
  5
ED
100
AcDbEntity
  8
0
390
0
  6
Continuous
 62
     7
100
AcDbLine
 10
100.534771
 20
17.157108
 30
0.0
 11
100.574211
 21
17.136585
 31
0.0
  0
LINE
  5
EE
100
AcDbEntity
  8
0
390
0
  6
Continuous
 62
     7
100
AcDbLine
 10
101.37686
 20
18.97082
 30
0.0
 11
100.534771
 21
17.157108
 31
0.0
  0
ELLIPSE
  5
EF
100
AcDbEntity
  8
0
390
0
  6
Continuous
 62
     7
100
AcDbEllipse
 10
100.324249
 20
16.702759
 30
0.0
 11
0.0
 21
2.5005077472579629
 31
0.0
210
0.0
220
0.0
230
0.9999999999999999
 40
0.999797
 41
5.7596744625918612
 42
5.8485891060052522
  0
LINE
  5
F0
100
AcDbEntity
  8
0
390
0
  6
Continuous
 62
     7
100
AcDbLine
 10
101.574059
 20
-18.868373
 30
0.0
 11
116.039834
 21
-10.516553
 31
0.0
  0
LINE
  5
F1
100
AcDbEntity
  8
0
390
0
  6
Continuous
 62
     7
100
AcDbLine
 10
115.039986
 20
-8.784766
 30
0.0
 11
100.574211
 21
-17.136586
 31
0.0
  0
LINE
  5
F2
100
AcDbEntity
  8
0
390
0
  6
Continuous
 62
     7
100
AcDbLine
 10
115.039986
 20
-8.784766
 30
0.0
 11
116.039834
 21
-10.516553
 31
0.0
  0
ELLIPSE
  5
F3
100
AcDbEntity
  8
0
390
0
  6
Continuous
 62
     7
100
AcDbEllipse
 10
114.789263
 20
8.351379
 30
0.0
 11
2.1655032314851774
 21
1.2502538736289814
 31
0.0
210
0.0
220
0.0
230
1.0
 40
0.999797
 41
0.4345962011743171
 42
0.5235108445877393
  0
LINE
  5
F4
100
AcDbEntity
  8
0
390
0
  6
Continuous
 62
     7
100
AcDbLine
 10
100.113727
 20
17.157108
 30
0.0
 11
100.534771
 21
17.157108
 31
0.0
  0
LINE
  5
F5
100
AcDbEntity
  8
0
390
0
  6
Continuous
 62
     7
100
AcDbLine
 10
99.271639
 20
18.97082
 30
0.0
 11
100.113727
 21
17.157108
 31
0.0
  0
ELLIPSE
  5
F6
100
AcDbEntity
  8
0
390
0
  6
Continuous
 62
     7
100
AcDbEllipse
 10
114.789263
 20
-8.35138
 30
0.0
 11
2.1655032314851774
 21
-1.2502538736289814
 31
0.0
210
0.0
220
0.0
230
1.0
 40
0.999797
 41
5.7596744625918594
 42
5.8485891060053081
  0
LINE
  5
F7
100
AcDbEntity
  8
0
390
0
  6
Continuous
 62
     7
100
AcDbLine
 10
100.074287
 20
17.136585
 30
0.0
 11
100.113727
 21
17.157108
 31
0.0
  0
LINE
  5
F8
100
AcDbEntity
  8
0
390
0
  6
Continuous
 62
     7
100
AcDbLine
 10
115.288002
 20
8.396236
 30
0.0
 11
117.279766
 21
8.573822
 31
0.0
  0
LINE
  5
F9
100
AcDbEntity
  8
0
390
0
  6
Continuous
 62
     7
100
AcDbLine
 10
115.07748
 20
8.760871
 30
0.0
 11
115.288002
 21
8.396236
 31
0.0
  0
LINE
  5
FA
100
AcDbEntity
  8
0
390
0
  6
Continuous
 62
     7
100
AcDbLine
 10
115.07748
 20
8.760871
 30
0.0
 11
116.227156
 21
10.396997
 31
0.0
  0
LINE
  5
FB
100
AcDbEntity
  8
0
390
0
  6
Continuous
 62
     7
100
AcDbLine
 10
115.039986
 20
8.784766
 30
0.0
 11
115.07748
 21
8.760871
 31
0.0
  0
LINE
  5
FC
100
AcDbEntity
  8
0
390
0
  6
Continuous
 62
     7
100
AcDbLine
 10
115.07748
 20
-8.760872
 30
0.0
 11
115.039986
 21
-8.784766
 31
0.0
  0
LINE
  5
FD
100
AcDbEntity
  8
0
390
0
  6
Continuous
 62
     7
100
AcDbLine
 10
115.07748
 20
-8.760872
 30
0.0
 11
116.227156
 21
-10.396998
 31
0.0
  0
ELLIPSE
  5
FE
100
AcDbEntity
  8
0
390
0
  6
Continuous
 62
     7
100
AcDbEllipse
 10
114.789263
 20
8.351379
 30
0.0
 11
2.1655032314851774
 21
1.2502538736289814
 31
0.0
210
0.0
220
0.0
230
1.0
 40
0.999797
 41
5.7596744625918612
 42
5.8485891060052735
  0
LINE
  5
FF
100
AcDbEntity
  8
0
390
0
  6
Continuous
 62
     7
100
AcDbLine
 10
115.289948
 20
8.351819
 30
0.0
 11
117.289644
 21
8.351819
 31
0.0
  0
LINE
  5
100
100
AcDbEntity
  8
0
390
0
  6
Continuous
 62
     7
100
AcDbLine
 10
115.288002
 20
8.396236
 30
0.0
 11
115.289948
 21
8.351819
 31
0.0
  0
LINE
  5
101
100
AcDbEntity
  8
0
390
0
  6
Continuous
 62
     7
100
AcDbLine
 10
115.288002
 20
-8.396237
 30
0.0
 11
115.07748
 21
-8.760872
 31
0.0
  0
LINE
  5
102
100
AcDbEntity
  8
0
390
0
  6
Continuous
 62
     7
100
AcDbLine
 10
115.288002
 20
-8.396237
 30
0.0
 11
117.279766
 21
-8.573823
 31
0.0
  0
LINE
  5
103
100
AcDbEntity
  8
0
390
0
  6
Continuous
 62
     7
100
AcDbLine
 10
117.289644
 20
-8.35182
 30
0.0
 11
117.289644
 21
8.351819
 31
0.0
  0
LINE
  5
104
100
AcDbEntity
  8
0
390
0
  6
Continuous
 62
     7
100
AcDbLine
 10
115.289948
 20
-8.35182
 30
0.0
 11
117.289644
 21
-8.35182
 31
0.0
  0
LINE
  5
105
100
AcDbEntity
  8
0
390
0
  6
Continuous
 62
     7
100
AcDbLine
 10
115.289948
 20
8.351819
 30
0.0
 11
115.289948
 21
-8.35182
 31
0.0
  0
ELLIPSE
  5
106
100
AcDbEntity
  8
0
390
0
  6
Continuous
 62
     7
100
AcDbEllipse
 10
114.789263
 20
-8.35138
 30
0.0
 11
2.1655032314851774
 21
-1.2502538736289814
 31
0.0
210
0.0
220
0.0
230
1.0
 40
0.999797
 41
0.4345962011742802
 42
0.5235108445877297
  0
LINE
  5
107
100
AcDbEntity
  8
0
390
0
  6
Continuous
 62
     7
100
AcDbLine
 10
115.289948
 20
-8.35182
 30
0.0
 11
115.288002
 21
-8.396237
 31
0.0
  0
LINE
  5
108
100
AcDbEntity
  8
0
390
0
  6
Continuous
 62
     7
100
AcDbLine
 10
85.801127
 20
8.673559
 30
0.0
 11
85.608512
 21
8.784766
 31
0.0
  0
ELLIPSE
  5
109
100
AcDbEntity
  8
0
390
0
  6
Continuous
 62
     7
100
AcDbEllipse
 10
86.051241
 20
8.240525
 30
0.0
 11
-0.4331006462970355
 21
0.2500507747257852
 31
0.0
210
0.0
220
0.0
230
1.0
 40
0.999797
 41
5.7596744625918568
 42
6.8066961517673121
  0
LINE
  5
10A
100
AcDbEntity
  8
0
390
0
  6
Continuous
 62
     7
100
AcDbLine
 10
85.35855
 20
8.351819
 30
0.0
 11
85.551165
 21
8.240613
 31
0.0
  0
LINE
  5
10B
100
AcDbEntity
  8
0
390
0
  6
Continuous
 62
     7
100
AcDbLine
 10
100.574211
 20
16.914172
 30
0.0
 11
100.574211
 21
17.136585
 31
0.0
  0
ELLIPSE
  5
10C
100
AcDbEntity
  8
0
390
0
  6
Continuous
 62
     7
100
AcDbEllipse
 10
100.324249
 20
16.48105
 30
0.0
 11
0.0
 21
0.5001015494515981
 31
0.0
210
0.0
220
0.0
230
1.0
 40
0.999797
 41
5.759674462591863
 42
6.8066961517672935
  0
LINE
  5
10D
100
AcDbEntity
  8
0
390
0
  6
Continuous
 62
     7
100
AcDbLine
 10
100.074287
 20
17.136585
 30
0.0
 11
100.074287
 21
16.914172
 31
0.0
  0
LINE
  5
10E
100
AcDbEntity
  8
0
390
0
  6
Continuous
 62
     7
100
AcDbLine
 10
85.551165
 20
-8.240613
 30
0.0
 11
85.35855
 21
-8.35182
 31
0.0
  0
ELLIPSE
  5
10F
100
AcDbEntity
  8
0
390
0
  6
Continuous
 62
     7
100
AcDbEllipse
 10
86.051241
 20
-8.240525
 30
0.0
 11
-0.4331006462970355
 21
-0.2500507747257852
 31
0.0
210
0.0
220
0.0
230
1.0
 40
0.999797
 41
5.7596744625918612
 42
6.8066961517673148
  0
LINE
  5
110
100
AcDbEntity
  8
0
390
0
  6
Continuous
 62
     7
100
AcDbLine
 10
85.608512
 20
-8.784766
 30
0.0
 11
85.801127
 21
-8.67356
 31
0.0
  0
LINE
  5
111
100
AcDbEntity
  8
0
390
0
  6
Continuous
 62
     7
100
AcDbLine
 10
115.097333
 20
8.240613
 30
0.0
 11
115.289948
 21
8.351819
 31
0.0
  0
ELLIPSE
  5
112
100
AcDbEntity
  8
0
390
0
  6
Continuous
 62
     7
100
AcDbEllipse
 10
114.597257
 20
8.240525
 30
0.0
 11
0.433100646297091
 21
0.2500507747258129
 31
0.0
210
0.0
220
0.0
230
1.0
 40
0.999797
 41
5.759674462591863
 42
6.8066961517673139
  0
LINE
  5
113
100
AcDbEntity
  8
0
390
0
  6
Continuous
 62
     7
100
AcDbLine
 10
115.039986
 20
8.784766
 30
0.0
 11
114.847371
 21
8.673559
 31
0.0
  0
LINE
  5
114
100
AcDbEntity
  8
0
390
0
  6
Continuous
 62
     7
100
AcDbLine
 10
100.074287
 20
-16.914173
 30
0.0
 11
100.074287
 21
-17.136586
 31
0.0
  0
ELLIPSE
  5
115
100
AcDbEntity
  8
0
390
0
  6
Continuous
 62
     7
100
AcDbEllipse
 10
100.324249
 20
-16.48105
 30
0.0
 11
0.0
 21
-0.5001015494515704
 31
0.0
210
0.0
220
0.0
230
1.0
 40
0.999797
 41
5.7596744625918568
 42
6.8066961517673201
  0
LINE
  5
116
100
AcDbEntity
  8
0
390
0
  6
Continuous
 62
     7
100
AcDbLine
 10
100.574211
 20
-17.136586
 30
0.0
 11
100.574211
 21
-16.914173
 31
0.0
  0
LINE
  5
117
100
AcDbEntity
  8
0
390
0
  6
Continuous
 62
     7
100
AcDbLine
 10
114.847371
 20
-8.67356
 30
0.0
 11
115.039986
 21
-8.784766
 31
0.0
  0
ELLIPSE
  5
118
100
AcDbEntity
  8
0
390
0
  6
Continuous
 62
     7
100
AcDbEllipse
 10
114.597257
 20
-8.240525
 30
0.0
 11
0.433100646297091
 21
-0.2500507747258129
 31
0.0
210
0.0
220
0.0
230
1.0
 40
0.999797
 41
5.7596744625918719
 42
6.8066961517673121
  0
LINE
  5
119
100
AcDbEntity
  8
0
390
0
  6
Continuous
 62
     7
100
AcDbLine
 10
115.289948
 20
-8.35182
 30
0.0
 11
115.097333
 21
-8.240613
 31
0.0
  0
LINE
  5
11A
100
AcDbEntity
  8
0
390
0
  6
Continuous
 62
     7
100
AcDbLine
 10
85.551165
 20
-8.240613
 30
0.0
 11
85.551165
 21
8.240613
 31
0.0
  0
LINE
  5
11B
100
AcDbEntity
  8
0
390
0
  6
Continuous
 62
     7
100
AcDbLine
 10
100.074287
 20
-16.914173
 30
0.0
 11
85.801127
 21
-8.67356
 31
0.0
  0
LINE
  5
11C
100
AcDbEntity
  8
0
390
0
  6
Continuous
 62
     7
100
AcDbLine
 10
85.801127
 20
8.673559
 30
0.0
 11
100.074287
 21
16.914172
 31
0.0
  0
LINE
  5
11D
100
AcDbEntity
  8
0
390
0
  6
Continuous
 62
     7
100
AcDbLine
 10
114.847371
 20
-8.67356
 30
0.0
 11
100.574211
 21
-16.914173
 31
0.0
  0
LINE
  5
11E
100
AcDbEntity
  8
0
390
0
  6
Continuous
 62
     7
100
AcDbLine
 10
100.574211
 20
16.914172
 30
0.0
 11
114.847371
 21
8.673559
 31
0.0
  0
LINE
  5
11F
100
AcDbEntity
  8
0
390
0
  6
Continuous
 62
     7
100
AcDbLine
 10
115.097333
 20
8.240613
 30
0.0
 11
115.097333
 21
-8.240613
 31
0.0
  0
LINE
  5
120
100
AcDbEntity
  8
0
390
0
  6
Continuous
 62
     7
100
AcDbLine
 10
-114.958299
 20
8.60779
 30
0.0
 11
-115.094651
 21
8.371622
 31
0.0
  0
LINE
  5
121
100
AcDbEntity
  8
0
390
0
  6
Continuous
 62
     7
100
AcDbLine
 10
-115.094651
 20
8.371622
 30
0.0
 11
-117.094346
 21
8.371622
 31
0.0
  0
ARC
  5
122
100
AcDbEntity
  8
0
390
0
  6
Continuous
 62
     7
100
AcDbCircle
 10
-114.803049
 20
8.360711
 30
0.0
 40
2.291324
210
0.0
220
0.0
230
1.0
100
AcDbArc
 50
120.272844
 51
179.727156
  0
LINE
  5
123
100
AcDbEntity
  8
0
390
0
  6
Continuous
 62
     7
100
AcDbLine
 10
-114.958299
 20
8.60779
 30
0.0
 11
-115.958147
 21
10.339577
 31
0.0
  0
LINE
  5
124
100
AcDbEntity
  8
0
390
0
  6
Continuous
 62
     7
100
AcDbLine
 10
-85.549092
 20
8.371622
 30
0.0
 11
-85.685444
 21
8.60779
 31
0.0
  0
LINE
  5
125
100
AcDbEntity
  8
0
390
0
  6
Continuous
 62
     7
100
AcDbLine
 10
-85.685444
 20
8.60779
 30
0.0
 11
-84.685596
 21
10.339577
 31
0.0
  0
ARC
  5
126
100
AcDbEntity
  8
0
390
0
  6
Continuous
 62
     7
100
AcDbCircle
 10
-85.840694
 20
8.360711
 30
0.0
 40
2.291324
210
0.0
220
0.0
230
1.0
100
AcDbArc
 50
0.272844
 51
59.727156
  0
LINE
  5
127
100
AcDbEntity
  8
0
390
0
  6
Continuous
 62
     7
100
AcDbLine
 10
-85.549092
 20
8.371622
 30
0.0
 11
-83.549397
 21
8.371622
 31
0.0
  0
LINE
  5
128
100
AcDbEntity
  8
0
390
0
  6
Continuous
 62
     7
100
AcDbLine
 10
-100.458223
 20
16.979413
 30
0.0
 11
-114.958299
 21
8.60779
 31
0.0
  0
LINE
  5
129
100
AcDbEntity
  8
0
390
0
  6
Continuous
 62
     7
100
AcDbLine
 10
-100.18552
 20
16.979413
 30
0.0
 11
-100.458223
 21
16.979413
 31
0.0
  0
LINE
  5
12A
100
AcDbEntity
  8
0
390
0
  6
Continuous
 62
     7
100
AcDbLine
 10
-85.685444
 20
8.60779
 30
0.0
 11
-100.18552
 21
16.979413
 31
0.0
  0
LINE
  5
12B
100
AcDbEntity
  8
0
390
0
  6
Continuous
 62
     7
100
AcDbLine
 10
-85.549092
 20
-8.371623
 30
0.0
 11
-85.549092
 21
8.371622
 31
0.0
  0
LINE
  5
12C
100
AcDbEntity
  8
0
390
0
  6
Continuous
 62
     7
100
AcDbLine
 10
-85.685444
 20
-8.607791
 30
0.0
 11
-85.549092
 21
-8.371623
 31
0.0
  0
LINE
  5
12D
100
AcDbEntity
  8
0
390
0
  6
Continuous
 62
     7
100
AcDbLine
 10
-100.18552
 20
-16.979414
 30
0.0
 11
-85.685444
 21
-8.607791
 31
0.0
  0
LINE
  5
12E
100
AcDbEntity
  8
0
390
0
  6
Continuous
 62
     7
100
AcDbLine
 10
-100.458223
 20
-16.979414
 30
0.0
 11
-100.18552
 21
-16.979414
 31
0.0
  0
LINE
  5
12F
100
AcDbEntity
  8
0
390
0
  6
Continuous
 62
     7
100
AcDbLine
 10
-114.958299
 20
-8.607791
 30
0.0
 11
-100.458223
 21
-16.979414
 31
0.0
  0
LINE
  5
130
100
AcDbEntity
  8
0
390
0
  6
Continuous
 62
     7
100
AcDbLine
 10
-115.094651
 20
-8.371623
 30
0.0
 11
-114.958299
 21
-8.607791
 31
0.0
  0
LINE
  5
131
100
AcDbEntity
  8
0
390
0
  6
Continuous
 62
     7
100
AcDbLine
 10
-115.094651
 20
8.371622
 30
0.0
 11
-115.094651
 21
-8.371623
 31
0.0
  0
ARC
  5
132
100
AcDbEntity
  8
0
390
0
  6
Continuous
 62
     7
100
AcDbCircle
 10
-100.321872
 20
-16.72192
 30
0.0
 40
2.290892
210
0.0
220
0.0
230
1.0
100
AcDbArc
 50
240.266685
 51
299.733315
  0
LINE
  5
133
100
AcDbEntity
  8
0
390
0
  6
Continuous
 62
     7
100
AcDbLine
 10
-101.458071
 20
-18.711201
 30
0.0
 11
-100.458223
 21
-16.979414
 31
0.0
  0
LINE
  5
134
100
AcDbEntity
  8
0
390
0
  6
Continuous
 62
     7
100
AcDbLine
 10
-99.185672
 20
-18.711201
 30
0.0
 11
-100.18552
 21
-16.979414
 31
0.0
  0
LINE
  5
135
100
AcDbEntity
  8
0
390
0
  6
Continuous
 62
     7
100
AcDbLine
 10
-100.458223
 20
16.979413
 30
0.0
 11
-101.458071
 21
18.7112
 31
0.0
  0
ARC
  5
136
100
AcDbEntity
  8
0
390
0
  6
Continuous
 62
     7
100
AcDbCircle
 10
-100.321872
 20
16.721919
 30
0.0
 40
2.290892
210
0.0
220
0.0
230
1.0
100
AcDbArc
 50
60.266685
 51
119.733315
  0
LINE
  5
137
100
AcDbEntity
  8
0
390
0
  6
Continuous
 62
     7
100
AcDbLine
 10
-100.18552
 20
16.979413
 30
0.0
 11
-99.185672
 21
18.7112
 31
0.0
  0
ARC
  5
138
100
AcDbEntity
  8
0
390
0
  6
Continuous
 62
     7
100
AcDbCircle
 10
-85.840694
 20
-8.360712
 30
0.0
 40
2.291324
210
0.0
220
0.0
230
1.0
100
AcDbArc
 50
300.272844
 51
359.727156
  0
LINE
  5
139
100
AcDbEntity
  8
0
390
0
  6
Continuous
 62
     7
100
AcDbLine
 10
-84.685596
 20
-10.339578
 30
0.0
 11
-85.685444
 21
-8.607791
 31
0.0
  0
LINE
  5
13A
100
AcDbEntity
  8
0
390
0
  6
Continuous
 62
     7
100
AcDbLine
 10
-83.549397
 20
-8.371623
 30
0.0
 11
-85.549092
 21
-8.371623
 31
0.0
  0
ARC
  5
13B
100
AcDbEntity
  8
0
390
0
  6
Continuous
 62
     7
100
AcDbCircle
 10
-114.803049
 20
-8.360712
 30
0.0
 40
2.291324
210
0.0
220
0.0
230
1.0
100
AcDbArc
 50
180.272844
 51
239.727156
  0
LINE
  5
13C
100
AcDbEntity
  8
0
390
0
  6
Continuous
 62
     7
100
AcDbLine
 10
-117.094346
 20
-8.371623
 30
0.0
 11
-115.094651
 21
-8.371623
 31
0.0
  0
LINE
  5
13D
100
AcDbEntity
  8
0
390
0
  6
Continuous
 62
     7
100
AcDbLine
 10
-115.958147
 20
-10.339578
 30
0.0
 11
-114.958299
 21
-8.607791
 31
0.0
  0
LINE
  5
13E
100
AcDbEntity
  8
0
390
0
  6
Continuous
 62
     7
100
AcDbLine
 10
-101.458071
 20
-18.711201
 30
0.0
 11
-115.958147
 21
-10.339578
 31
0.0
  0
LINE
  5
13F
100
AcDbEntity
  8
0
390
0
  6
Continuous
 62
     7
100
AcDbLine
 10
-84.685596
 20
-10.339578
 30
0.0
 11
-99.185672
 21
-18.711201
 31
0.0
  0
LINE
  5
140
100
AcDbEntity
  8
0
390
0
  6
Continuous
 62
     7
100
AcDbLine
 10
-117.094346
 20
-8.371623
 30
0.0
 11
-117.094346
 21
8.371622
 31
0.0
  0
LINE
  5
141
100
AcDbEntity
  8
0
390
0
  6
Continuous
 62
     7
100
AcDbLine
 10
-83.549397
 20
8.371622
 30
0.0
 11
-83.549397
 21
-8.371623
 31
0.0
  0
LINE
  5
142
100
AcDbEntity
  8
0
390
0
  6
Continuous
 62
     7
100
AcDbLine
 10
-115.958147
 20
10.339577
 30
0.0
 11
-101.458071
 21
18.7112
 31
0.0
  0
LINE
  5
143
100
AcDbEntity
  8
0
390
0
  6
Continuous
 62
     7
100
AcDbLine
 10
-99.185672
 20
18.7112
 30
0.0
 11
-84.685596
 21
10.339577
 31
0.0
  0
LINE
  5
144
100
AcDbEntity
  8
0
390
0
  6
Continuous
 62
     7
100
AcDbLine
 10
-83.384399
 20
8.371622
 30
0.0
 11
-83.460668
 21
8.983494
 31
0.0
  0
LINE
  5
145
100
AcDbEntity
  8
0
390
0
  6
Continuous
 62
     7
100
AcDbLine
 10
-83.549397
 20
8.371622
 30
0.0
 11
-83.384399
 21
8.371622
 31
0.0
  0
LINE
  5
146
100
AcDbEntity
  8
0
390
0
  6
Continuous
 62
     7
100
AcDbLine
 10
-84.685596
 20
10.339577
 30
0.0
 11
-84.603097
 21
10.48247
 31
0.0
  0
LINE
  5
147
100
AcDbEntity
  8
0
390
0
  6
Continuous
 62
     7
100
AcDbLine
 10
-84.111336
 20
10.110483
 30
0.0
 11
-84.603097
 21
10.48247
 31
0.0
  0
ARC
  5
148
100
AcDbEntity
  8
0
390
0
  6
Continuous
 62
     7
100
AcDbCircle
 10
-85.828572
 20
8.36771
 30
0.0
 40
2.446663
210
0.0
220
0.0
230
1.0
100
AcDbArc
 50
14.577139
 51
45.422861
  0
LINE
  5
149
100
AcDbEntity
  8
0
390
0
  6
Continuous
 62
     7
100
AcDbLine
 10
-117.259344
 20
-8.371623
 30
0.0
 11
-117.183075
 21
-8.983495
 31
0.0
  0
LINE
  5
14A
100
AcDbEntity
  8
0
390
0
  6
Continuous
 62
     7
100
AcDbLine
 10
-117.094346
 20
-8.371623
 30
0.0
 11
-117.259344
 21
-8.371623
 31
0.0
  0
LINE
  5
14B
100
AcDbEntity
  8
0
390
0
  6
Continuous
 62
     7
100
AcDbLine
 10
-115.958147
 20
-10.339578
 30
0.0
 11
-116.040646
 21
-10.482471
 31
0.0
  0
LINE
  5
14C
100
AcDbEntity
  8
0
390
0
  6
Continuous
 62
     7
100
AcDbLine
 10
-116.532407
 20
-10.110484
 30
0.0
 11
-116.040646
 21
-10.482471
 31
0.0
  0
ARC
  5
14D
100
AcDbEntity
  8
0
390
0
  6
Continuous
 62
     7
100
AcDbCircle
 10
-114.815171
 20
-8.367711
 30
0.0
 40
2.446663
210
0.0
220
0.0
230
1.0
100
AcDbArc
 50
194.577139
 51
225.422861
  0
LINE
  5
14E
100
AcDbEntity
  8
0
390
0
  6
Continuous
 62
     7
100
AcDbLine
 10
-84.603097
 20
-10.482471
 30
0.0
 11
-84.111336
 21
-10.110484
 31
0.0
  0
LINE
  5
14F
100
AcDbEntity
  8
0
390
0
  6
Continuous
 62
     7
100
AcDbLine
 10
-84.685596
 20
-10.339578
 30
0.0
 11
-84.603097
 21
-10.482471
 31
0.0
  0
LINE
  5
150
100
AcDbEntity
  8
0
390
0
  6
Continuous
 62
     7
100
AcDbLine
 10
-83.549397
 20
-8.371623
 30
0.0
 11
-83.384399
 21
-8.371623
 31
0.0
  0
LINE
  5
151
100
AcDbEntity
  8
0
390
0
  6
Continuous
 62
     7
100
AcDbLine
 10
-83.460668
 20
-8.983495
 30
0.0
 11
-83.384399
 21
-8.371623
 31
0.0
  0
ARC
  5
152
100
AcDbEntity
  8
0
390
0
  6
Continuous
 62
     7
100
AcDbCircle
 10
-85.828572
 20
-8.367711
 30
0.0
 40
2.446663
210
0.0
220
0.0
230
1.0
100
AcDbArc
 50
314.577139
 51
345.422861
  0
LINE
  5
153
100
AcDbEntity
  8
0
390
0
  6
Continuous
 62
     7
100
AcDbLine
 10
-116.040646
 20
10.48247
 30
0.0
 11
-116.532407
 21
10.110483
 31
0.0
  0
LINE
  5
154
100
AcDbEntity
  8
0
390
0
  6
Continuous
 62
     7
100
AcDbLine
 10
-115.958147
 20
10.339577
 30
0.0
 11
-116.040646
 21
10.48247
 31
0.0
  0
LINE
  5
155
100
AcDbEntity
  8
0
390
0
  6
Continuous
 62
     7
100
AcDbLine
 10
-117.094346
 20
8.371622
 30
0.0
 11
-117.259344
 21
8.371622
 31
0.0
  0
LINE
  5
156
100
AcDbEntity
  8
0
390
0
  6
Continuous
 62
     7
100
AcDbLine
 10
-117.183075
 20
8.983494
 30
0.0
 11
-117.259344
 21
8.371622
 31
0.0
  0
ARC
  5
157
100
AcDbEntity
  8
0
390
0
  6
Continuous
 62
     7
100
AcDbCircle
 10
-114.815171
 20
8.36771
 30
0.0
 40
2.446663
210
0.0
220
0.0
230
1.0
100
AcDbArc
 50
134.577139
 51
165.422861
  0
LINE
  5
158
100
AcDbEntity
  8
0
390
0
  6
Continuous
 62
     7
100
AcDbLine
 10
-99.103173
 20
18.854093
 30
0.0
 11
-99.671204
 21
19.093977
 31
0.0
  0
LINE
  5
159
100
AcDbEntity
  8
0
390
0
  6
Continuous
 62
     7
100
AcDbLine
 10
-99.185672
 20
18.7112
 30
0.0
 11
-99.103173
 21
18.854093
 31
0.0
  0
LINE
  5
15A
100
AcDbEntity
  8
0
390
0
  6
Continuous
 62
     7
100
AcDbLine
 10
-101.458071
 20
18.7112
 30
0.0
 11
-101.54057
 21
18.854093
 31
0.0
  0
LINE
  5
15B
100
AcDbEntity
  8
0
390
0
  6
Continuous
 62
     7
100
AcDbLine
 10
-100.972539
 20
19.093977
 30
0.0
 11
-101.54057
 21
18.854093
 31
0.0
  0
ARC
  5
15C
100
AcDbEntity
  8
0
390
0
  6
Continuous
 62
     7
100
AcDbCircle
 10
-100.321872
 20
16.73542
 30
0.0
 40
2.446663
210
0.0
220
0.0
230
1.0
100
AcDbArc
 50
74.577139
 51
105.422861
  0
LINE
  5
15D
100
AcDbEntity
  8
0
390
0
  6
Continuous
 62
     7
100
AcDbLine
 10
-101.54057
 20
-18.854094
 30
0.0
 11
-100.972539
 21
-19.093978
 31
0.0
  0
LINE
  5
15E
100
AcDbEntity
  8
0
390
0
  6
Continuous
 62
     7
100
AcDbLine
 10
-101.458071
 20
-18.711201
 30
0.0
 11
-101.54057
 21
-18.854094
 31
0.0
  0
LINE
  5
15F
100
AcDbEntity
  8
0
390
0
  6
Continuous
 62
     7
100
AcDbLine
 10
-99.185672
 20
-18.711201
 30
0.0
 11
-99.103173
 21
-18.854094
 31
0.0
  0
LINE
  5
160
100
AcDbEntity
  8
0
390
0
  6
Continuous
 62
     7
100
AcDbLine
 10
-99.671204
 20
-19.093978
 30
0.0
 11
-99.103173
 21
-18.854094
 31
0.0
  0
ARC
  5
161
100
AcDbEntity
  8
0
390
0
  6
Continuous
 62
     7
100
AcDbCircle
 10
-100.321872
 20
-16.735421
 30
0.0
 40
2.446663
210
0.0
220
0.0
230
1.0
100
AcDbArc
 50
254.577139
 51
285.422861
  0
LINE
  5
162
100
AcDbEntity
  8
0
390
0
  6
Continuous
 62
     7
100
AcDbLine
 10
-107.409096
 20
-15.458181
 30
0.0
 11
-101.54057
 21
-18.854094
 31
0.0
  0
LINE
  5
163
100
AcDbEntity
  8
0
390
0
  6
Continuous
 62
     7
100
AcDbLine
 10
-110.165436
 20
-13.866807
 30
0.0
 11
-107.409096
 21
-15.458181
 31
0.0
  0
LINE
  5
164
100
AcDbEntity
  8
0
390
0
  6
Continuous
 62
     7
100
AcDbLine
 10
-116.040646
 20
-10.482471
 30
0.0
 11
-110.165436
 21
-13.866807
 31
0.0
  0
LINE
  5
165
100
AcDbEntity
  8
0
390
0
  6
Continuous
 62
     7
100
AcDbLine
 10
-90.478307
 20
-13.866807
 30
0.0
 11
-84.603097
 21
-10.482471
 31
0.0
  0
LINE
  5
166
100
AcDbEntity
  8
0
390
0
  6
Continuous
 62
     7
100
AcDbLine
 10
-93.234647
 20
-15.458181
 30
0.0
 11
-90.478307
 21
-13.866807
 31
0.0
  0
LINE
  5
167
100
AcDbEntity
  8
0
390
0
  6
Continuous
 62
     7
100
AcDbLine
 10
-99.103173
 20
-18.854094
 30
0.0
 11
-93.234647
 21
-15.458181
 31
0.0
  0
LINE
  5
168
100
AcDbEntity
  8
0
390
0
  6
Continuous
 62
     7
100
AcDbLine
 10
-117.259344
 20
8.371622
 30
0.0
 11
-117.252661
 21
1.591373
 31
0.0
  0
LINE
  5
169
100
AcDbEntity
  8
0
390
0
  6
Continuous
 62
     7
100
AcDbLine
 10
-117.252661
 20
-1.591374
 30
0.0
 11
-117.259344
 21
-8.371623
 31
0.0
  0
LINE
  5
16A
100
AcDbEntity
  8
0
390
0
  6
Continuous
 62
     7
100
AcDbLine
 10
-117.252661
 20
1.591373
 30
0.0
 11
-117.252661
 21
-1.591374
 31
0.0
  0
LINE
  5
16B
100
AcDbEntity
  8
0
390
0
  6
Continuous
 62
     7
100
AcDbLine
 10
-110.165436
 20
13.866806
 30
0.0
 11
-116.040646
 21
10.48247
 31
0.0
  0
LINE
  5
16C
100
AcDbEntity
  8
0
390
0
  6
Continuous
 62
     7
100
AcDbLine
 10
-107.409096
 20
15.45818
 30
0.0
 11
-110.165436
 21
13.866806
 31
0.0
  0
LINE
  5
16D
100
AcDbEntity
  8
0
390
0
  6
Continuous
 62
     7
100
AcDbLine
 10
-101.54057
 20
18.854093
 30
0.0
 11
-107.409096
 21
15.45818
 31
0.0
  0
LINE
  5
16E
100
AcDbEntity
  8
0
390
0
  6
Continuous
 62
     7
100
AcDbLine
 10
-83.391083
 20
1.591373
 30
0.0
 11
-83.384399
 21
8.371622
 31
0.0
  0
LINE
  5
16F
100
AcDbEntity
  8
0
390
0
  6
Continuous
 62
     7
100
AcDbLine
 10
-83.391083
 20
-1.591374
 30
0.0
 11
-83.391083
 21
1.591373
 31
0.0
  0
LINE
  5
170
100
AcDbEntity
  8
0
390
0
  6
Continuous
 62
     7
100
AcDbLine
 10
-83.384399
 20
-8.371623
 30
0.0
 11
-83.391083
 21
-1.591374
 31
0.0
  0
LINE
  5
171
100
AcDbEntity
  8
0
390
0
  6
Continuous
 62
     7
100
AcDbLine
 10
-93.234647
 20
15.45818
 30
0.0
 11
-99.103173
 21
18.854093
 31
0.0
  0
LINE
  5
172
100
AcDbEntity
  8
0
390
0
  6
Continuous
 62
     7
100
AcDbLine
 10
-90.478307
 20
13.866806
 30
0.0
 11
-93.234647
 21
15.45818
 31
0.0
  0
LINE
  5
173
100
AcDbEntity
  8
0
390
0
  6
Continuous
 62
     7
100
AcDbLine
 10
-84.603097
 20
10.48247
 30
0.0
 11
-90.478307
 21
13.866806
 31
0.0
  0
ARC
  5
174
100
AcDbEntity
  8
0
390
0
  6
Continuous
 62
     7
100
AcDbCircle
 10
-126.055953
 20
0.519
 30
0.0
 40
44.714395
210
0.0
220
0.0
230
1.0
100
AcDbArc
 50
348.982437
 51
357.294821
  0
ELLIPSE
  5
175
100
AcDbEntity
  8
0
390
0
  6
Continuous
 62
     7
100
AcDbEllipse
 10
-81.384703
 20
-8.371623
 30
0.0
 11
-1.9999887268345728
 21
-0.0067150975160135
 31
0.0
210
0.0
220
0.0
230
1.0
 40
0.188891
 41
5.112932475443726
 42
6.2654120280471881
  0
LINE
  5
176
100
AcDbEntity
  8
0
390
0
  6
Continuous
 62
     7
100
AcDbLine
 10
-83.391083
 20
-1.591374
 30
0.0
 11
-81.391387
 21
-1.591374
 31
0.0
  0
LINE
  5
177
100
AcDbEntity
  8
0
390
0
  6
Continuous
 62
     7
100
AcDbLine
 10
-108.408944
 20
17.189967
 30
0.0
 11
-107.409096
 21
15.45818
 31
0.0
  0
ARC
  5
178
100
AcDbEntity
  8
0
390
0
  6
Continuous
 62
     7
100
AcDbCircle
 10
-87.904298
 20
-22.545869
 30
0.0
 40
44.714395
210
0.0
220
0.0
230
1.0
100
AcDbArc
 50
108.982437
 51
117.294821
  0
ELLIPSE
  5
179
100
AcDbEntity
  8
0
390
0
  6
Continuous
 62
     7
100
AcDbEllipse
 10
-102.540418
 20
20.58588
 30
0.0
 11
-1.0058097963219492
 21
1.7286835030226877
 31
0.0
210
0.0
220
0.0
230
1.0
 40
0.188891
 41
1.9713398231509947
 42
3.1238193756829906
  0
ARC
  5
17A
100
AcDbEntity
  8
0
390
0
  6
Continuous
 62
     7
100
AcDbCircle
 10
-112.739445
 20
22.545868
 30
0.0
 40
44.714395
210
0.0
220
0.0
230
1.0
100
AcDbArc
 50
288.982437
 51
297.294821
  0
ELLIPSE
  5
17B
100
AcDbEntity
  8
0
390
0
  6
Continuous
 62
     7
100
AcDbEllipse
 10
-98.103326
 20
-20.585881
 30
0.0
 11
-1.0058098084550493
 21
1.7286834959632236
 31
0.0
210
0.0
220
0.0
230
1.0
 40
0.188891
 41
5.1129324754437189
 42
6.2654120280471819
  0
LINE
  5
17C
100
AcDbEntity
  8
0
390
0
  6
Continuous
 62
     7
100
AcDbLine
 10
-93.234647
 20
-15.458181
 30
0.0
 11
-92.234799
 21
-17.189968
 31
0.0
  0
ARC
  5
17D
100
AcDbEntity
  8
0
390
0
  6
Continuous
 62
     7
100
AcDbCircle
 10
-87.005363
 20
22.026868
 30
0.0
 40
44.714395
210
0.0
220
0.0
230
1.0
100
AcDbArc
 50
228.982437
 51
237.294821
  0
ELLIPSE
  5
17E
100
AcDbEntity
  8
0
390
0
  6
Continuous
 62
     7
100
AcDbEllipse
 10
-117.040494
 20
-12.214258
 30
0.0
 11
0.9941789183795097
 21
1.7353985934792371
 31
0.0
210
0.0
220
0.0
230
1.0
 40
0.188891
 41
5.1129324754437233
 42
6.2654120280471908
  0
LINE
  5
17F
100
AcDbEntity
  8
0
390
0
  6
Continuous
 62
     7
100
AcDbLine
 10
-110.165436
 20
-13.866807
 30
0.0
 11
-111.165284
 21
-15.598594
 31
0.0
  0
LINE
  5
180
100
AcDbEntity
  8
0
390
0
  6
Continuous
 62
     7
100
AcDbLine
 10
-89.478459
 20
15.598593
 30
0.0
 11
-90.478307
 21
13.866806
 31
0.0
  0
ARC
  5
181
100
AcDbEntity
  8
0
390
0
  6
Continuous
 62
     7
100
AcDbCircle
 10
-113.63838
 20
-22.026868
 30
0.0
 40
44.714395
210
0.0
220
0.0
230
1.0
100
AcDbArc
 50
48.982437
 51
57.294821
  0
ELLIPSE
  5
182
100
AcDbEntity
  8
0
390
0
  6
Continuous
 62
     7
100
AcDbEllipse
 10
-83.603249
 20
12.214257
 30
0.0
 11
0.9941789305673299
 21
1.7353985864970445
 31
0.0
210
0.0
220
0.0
230
1.0
 40
0.188891
 41
1.9713398231517991
 42
3.1238193756837451
  0
LINE
  5
183
100
AcDbEntity
  8
0
390
0
  6
Continuous
 62
     7
100
AcDbLine
 10
-119.252356
 20
1.591373
 30
0.0
 11
-117.252661
 21
1.591373
 31
0.0
  0
ARC
  5
184
100
AcDbEntity
  8
0
390
0
  6
Continuous
 62
     7
100
AcDbCircle
 10
-74.58779
 20
-0.519001
 30
0.0
 40
44.714395
210
0.0
220
0.0
230
1.0
100
AcDbArc
 50
168.982437
 51
177.294821
  0
ELLIPSE
  5
185
100
AcDbEntity
  8
0
390
0
  6
Continuous
 62
     7
100
AcDbEllipse
 10
-119.25904
 20
8.371622
 30
0.0
 11
-1.9999887268816878
 21
-0.0067150834796581
 31
0.0
210
0.0
220
0.0
230
0.9999999999999999
 40
0.188891
 41
1.9713398231509256
 42
3.1238193756829764
  0
ELLIPSE
  5
186
100
AcDbEntity
  8
0
390
0
  6
Continuous
 62
     7
100
AcDbEllipse
 10
-98.103326
 20
20.58588
 30
0.0
 11
1.0058098089044538
 21
1.7286834957017383
 31
0.0
210
0.0
220
0.0
230
1.0
 40
0.188891
 41
3.1593659341015181
 42
4.311845485416355
  0
ARC
  5
187
100
AcDbEntity
  8
0
390
0
  6
Continuous
 62
     7
100
AcDbCircle
 10
-112.539927
 20
-22.078979
 30
0.0
 40
44.208012
210
0.0
220
0.0
230
1.0
100
AcDbArc
 50
62.657487
 51
71.065256
  0
LINE
  5
188
100
AcDbEntity
  8
0
390
0
  6
Continuous
 62
     7
100
AcDbLine
 10
-92.234799
 20
17.189967
 30
0.0
 11
-93.234647
 21
15.45818
 31
0.0
  0
ARC
  5
189
100
AcDbEntity
  8
0
390
0
  6
Continuous
 62
     7
100
AcDbCircle
 10
-88.105995
 20
22.073878
 30
0.0
 40
44.202481
210
0.0
220
0.0
230
1.0
100
AcDbArc
 50
242.65696
 51
251.065783
  0
LINE
  5
18A
100
AcDbEntity
  8
0
390
0
  6
Continuous
 62
     7
100
AcDbLine
 10
-107.409096
 20
-15.458181
 30
0.0
 11
-108.408944
 21
-17.189968
 31
0.0
  0
ELLIPSE
  5
18B
100
AcDbEntity
  8
0
390
0
  6
Continuous
 62
     7
100
AcDbEllipse
 10
-102.540418
 20
-20.585881
 30
0.0
 11
1.0058098084540223
 21
1.7286834959638342
 31
0.0
210
0.0
220
0.0
230
0.9999999999999999
 40
0.188891
 41
0.0177732804625469
 42
1.1702528317773639
  0
ELLIPSE
  5
18C
100
AcDbEntity
  8
0
390
0
  6
Continuous
 62
     7
100
AcDbEllipse
 10
-81.384703
 20
8.371622
 30
0.0
 11
1.9999887268328242
 21
-0.0067150980360142
 31
0.0
210
0.0
220
0.0
230
1.0
 40
0.188891
 41
3.1593659341016922
 42
4.3118454854164101
  0
ARC
  5
18D
100
AcDbEntity
  8
0
390
0
  6
Continuous
 62
     7
100
AcDbCircle
 10
-125.551856
 20
-0.458343
 30
0.0
 40
44.208012
210
0.0
220
0.0
230
1.0
100
AcDbArc
 50
2.657487
 51
11.065256
  0
LINE
  5
18E
100
AcDbEntity
  8
0
390
0
  6
Continuous
 62
     7
100
AcDbLine
 10
-81.391387
 20
1.591373
 30
0.0
 11
-83.391083
 21
1.591373
 31
0.0
  0
ARC
  5
18F
100
AcDbEntity
  8
0
390
0
  6
Continuous
 62
     7
100
AcDbCircle
 10
-75.097394
 20
0.45768
 30
0.0
 40
44.202481
210
0.0
220
0.0
230
1.0
100
AcDbArc
 50
182.65696
 51
191.065783
  0
LINE
  5
190
100
AcDbEntity
  8
0
390
0
  6
Continuous
 62
     7
100
AcDbLine
 10
-117.252661
 20
-1.591374
 30
0.0
 11
-119.252356
 21
-1.591374
 31
0.0
  0
ELLIPSE
  5
191
100
AcDbEntity
  8
0
390
0
  6
Continuous
 62
     7
100
AcDbEllipse
 10
-119.25904
 20
-8.371623
 30
0.0
 11
1.9999887268345728
 21
-0.0067150975148478
 31
0.0
210
0.0
220
0.0
230
1.0
 40
0.188891
 41
0.0177732804626819
 42
1.1702528317773679
  0
ARC
  5
192
100
AcDbEntity
  8
0
390
0
  6
Continuous
 62
     7
100
AcDbCircle
 10
-113.330473
 20
21.616198
 30
0.0
 40
44.202481
210
0.0
220
0.0
230
1.0
100
AcDbArc
 50
302.65696
 51
311.065783
  0
LINE
  5
193
100
AcDbEntity
  8
0
390
0
  6
Continuous
 62
     7
100
AcDbLine
 10
-90.478307
 20
-13.866807
 30
0.0
 11
-89.478459
 21
-15.598594
 31
0.0
  0
ELLIPSE
  5
194
100
AcDbEntity
  8
0
390
0
  6
Continuous
 62
     7
100
AcDbEllipse
 10
-83.603249
 20
-12.214258
 30
0.0
 11
-0.9941789183805505
 21
1.7353985934786542
 31
0.0
210
0.0
220
0.0
230
1.0
 40
0.188891
 41
0.0177732804634577
 42
1.1702528317773908
  0
ELLIPSE
  5
195
100
AcDbEntity
  8
0
390
0
  6
Continuous
 62
     7
100
AcDbEllipse
 10
-117.040494
 20
12.214257
 30
0.0
 11
-0.9941789179280514
 21
1.7353985937378913
 31
0.0
210
0.0
220
0.0
230
0.9999999999999999
 40
0.188891
 41
3.1593659341025173
 42
4.3118454854164545
  0
ARC
  5
196
100
AcDbEntity
  8
0
390
0
  6
Continuous
 62
     7
100
AcDbCircle
 10
-87.31327
 20
-21.616199
 30
0.0
 40
44.202481
210
0.0
220
0.0
230
1.0
100
AcDbArc
 50
122.65696
 51
131.065783
  0
LINE
  5
197
100
AcDbEntity
  8
0
390
0
  6
Continuous
 62
     7
100
AcDbLine
 10
-111.165284
 20
15.598593
 30
0.0
 11
-110.165436
 21
13.866806
 31
0.0
  0
LINE
  5
198
100
AcDbEntity
  8
0
390
0
  6
Continuous
 62
     7
100
AcDbLine
 10
-119.252356
 20
-1.591374
 30
0.0
 11
-119.252356
 21
1.591373
 31
0.0
  0
LINE
  5
199
100
AcDbEntity
  8
0
390
0
  6
Continuous
 62
     7
100
AcDbLine
 10
-92.234799
 20
17.189967
 30
0.0
 11
-89.478459
 21
15.598593
 31
0.0
  0
LINE
  5
19A
100
AcDbEntity
  8
0
390
0
  6
Continuous
 62
     7
100
AcDbLine
 10
-108.408944
 20
-17.189968
 30
0.0
 11
-111.165284
 21
-15.598594
 31
0.0
  0
LINE
  5
19B
100
AcDbEntity
  8
0
390
0
  6
Continuous
 62
     7
100
AcDbLine
 10
-81.391387
 20
1.591373
 30
0.0
 11
-81.391387
 21
-1.591374
 31
0.0
  0
LINE
  5
19C
100
AcDbEntity
  8
0
390
0
  6
Continuous
 62
     7
100
AcDbLine
 10
-111.165284
 20
15.598593
 30
0.0
 11
-108.408944
 21
17.189967
 31
0.0
  0
LINE
  5
19D
100
AcDbEntity
  8
0
390
0
  6
Continuous
 62
     7
100
AcDbLine
 10
-89.478459
 20
-15.598594
 30
0.0
 11
-92.234799
 21
-17.189968
 31
0.0
  0
LINE
  5
19E
100
AcDbEntity
  8
0
390
0
  6
Continuous
 62
     7
100
AcDbLine
 10
-98.194822
 20
-19.736883
 30
0.0
 11
-99.202362
 21
-19.995349
 31
0.0
  0
ELLIPSE
  5
19F
100
AcDbEntity
  8
0
390
0
  6
Continuous
 62
     7
100
AcDbEllipse
 10
-99.144817
 20
-21.023148
 30
0.0
 11
-0.5307308993807297
 21
1.9282958052234955
 31
0.0
210
0.0
220
0.0
230
1.0
 40
0.125697
 41
5.239583118691395
 42
6.265603286965483
  0
LINE
  5
1A0
100
AcDbEntity
  8
0
390
0
  6
Continuous
 62
     7
100
AcDbLine
 10
-82.165705
 20
-8.026363
 30
0.0
 11
-82.445637
 21
-9.028151
 31
0.0
  0
ELLIPSE
  5
1A1
100
AcDbEntity
  8
0
390
0
  6
Continuous
 62
     7
100
AcDbEllipse
 10
-81.526764
 20
-9.492215
 30
0.0
 11
-1.9353186030247882
 21
0.5045214611749671
 31
0.0
210
0.0
220
0.0
230
1.0
 40
0.125697
 41
5.2395831186913879
 42
6.265603286965411
  0
LINE
  5
1A2
100
AcDbEntity
  8
0
390
0
  6
Continuous
 62
     7
100
AcDbLine
 10
-118.478038
 20
8.026362
 30
0.0
 11
-118.198107
 21
9.02815
 31
0.0
  0
ELLIPSE
  5
1A3
100
AcDbEntity
  8
0
390
0
  6
Continuous
 62
     7
100
AcDbEllipse
 10
-119.116979
 20
9.492214
 30
0.0
 11
-1.9353186030251353
 21
0.5045214611737459
 31
0.0
210
0.0
220
0.0
230
1.0
 40
0.125697
 41
2.0979904651015326
 42
3.1240106333756712
  0
LINE
  5
1A4
100
AcDbEntity
  8
0
390
0
  6
Continuous
 62
     7
100
AcDbLine
 10
-102.448921
 20
19.736883
 30
0.0
 11
-101.441381
 21
19.995348
 31
0.0
  0
ELLIPSE
  5
1A5
100
AcDbEntity
  8
0
390
0
  6
Continuous
 62
     7
100
AcDbEllipse
 10
-101.498926
 20
21.023148
 30
0.0
 11
-0.5307308993819926
 21
1.9282958052231347
 31
0.0
210
0.0
220
0.0
230
0.9999999999999999
 40
0.125697
 41
2.0979904651014589
 42
3.1240106333755104
  0
LINE
  5
1A6
100
AcDbEntity
  8
0
390
0
  6
Continuous
 62
     7
100
AcDbLine
 10
-116.350989
 20
-11.710521
 30
0.0
 11
-117.078597
 21
-10.967199
 31
0.0
  0
ELLIPSE
  5
1A7
100
AcDbEntity
  8
0
390
0
  6
Continuous
 62
     7
100
AcDbEllipse
 10
-117.939924
 20
-11.530934
 30
0.0
 11
1.4045877036446552
 21
1.4237743440483064
 31
0.0
210
0.0
220
0.0
230
0.9999999999999999
 40
0.125697
 41
5.2395831186911925
 42
6.2656032869654323
  0
LINE
  5
1A8
100
AcDbEntity
  8
0
390
0
  6
Continuous
 62
     7
100
AcDbLine
 10
-84.292754
 20
11.71052
 30
0.0
 11
-83.565146
 21
10.967198
 31
0.0
  0
ELLIPSE
  5
1A9
100
AcDbEntity
  8
0
390
0
  6
Continuous
 62
     7
100
AcDbEllipse
 10
-82.703819
 20
11.530933
 30
0.0
 11
1.4045877036437808
 21
1.4237743440491946
 31
0.0
210
0.0
220
0.0
230
1.0
 40
0.125697
 41
2.0979904651012555
 42
3.1240106333755011
  0
ELLIPSE
  5
1AA
100
AcDbEntity
  8
0
390
0
  6
Continuous
 62
     7
100
AcDbEllipse
 10
-99.144817
 20
21.023148
 30
0.0
 11
0.5307308993814097
 21
1.9282958052233012
 31
0.0
210
0.0
220
0.0
230
1.0
 40
0.125697
 41
3.1591746738039546
 42
4.1851948420779941
  0
LINE
  5
1AB
100
AcDbEntity
  8
0
390
0
  6
Continuous
 62
     7
100
AcDbLine
 10
-99.202362
 20
19.995348
 30
0.0
 11
-98.194822
 21
19.736883
 31
0.0
  0
LINE
  5
1AC
100
AcDbEntity
  8
0
390
0
  6
Continuous
 62
     7
100
AcDbLine
 10
-101.441381
 20
-19.995349
 30
0.0
 11
-102.448921
 21
-19.736883
 31
0.0
  0
ELLIPSE
  5
1AD
100
AcDbEntity
  8
0
390
0
  6
Continuous
 62
     7
100
AcDbEllipse
 10
-101.498926
 20
-21.023148
 30
0.0
 11
0.530730899381382
 21
1.928295805223329
 31
0.0
210
0.0
220
0.0
230
1.0
 40
0.125697
 41
0.0175820202142046
 42
1.0436021884882429
  0
LINE
  5
1AE
100
AcDbEntity
  8
0
390
0
  6
Continuous
 62
     7
100
AcDbLine
 10
-118.198107
 20
-9.028151
 30
0.0
 11
-118.478038
 21
-8.026363
 31
0.0
  0
ELLIPSE
  5
1AF
100
AcDbEntity
  8
0
390
0
  6
Continuous
 62
     7
100
AcDbEllipse
 10
-119.116979
 20
-9.492215
 30
0.0
 11
1.9353186030249687
 21
0.5045214611743565
 31
0.0
210
0.0
220
0.0
230
1.0
 40
0.125697
 41
0.0175820202142373
 42
1.0436021884882529
  0
ELLIPSE
  5
1B0
100
AcDbEntity
  8
0
390
0
  6
Continuous
 62
     7
100
AcDbEllipse
 10
-81.526764
 20
9.492214
 30
0.0
 11
1.9353186030249547
 21
0.504521461174301
 31
0.0
210
0.0
220
0.0
230
1.0
 40
0.125697
 41
3.1591746738039928
 42
4.1851948420780545
  0
LINE
  5
1B1
100
AcDbEntity
  8
0
390
0
  6
Continuous
 62
     7
100
AcDbLine
 10
-82.445637
 20
9.02815
 30
0.0
 11
-82.165705
 21
8.026362
 31
0.0
  0
LINE
  5
1B2
100
AcDbEntity
  8
0
390
0
  6
Continuous
 62
     7
100
AcDbLine
 10
-83.565146
 20
-10.967199
 30
0.0
 11
-84.292754
 21
-11.710521
 31
0.0
  0
ELLIPSE
  5
1B3
100
AcDbEntity
  8
0
390
0
  6
Continuous
 62
     7
100
AcDbEllipse
 10
-82.703819
 20
-11.530934
 30
0.0
 11
-1.4045877036441974
 21
1.423774344048806
 31
0.0
210
0.0
220
0.0
230
0.9999999999999999
 40
0.125697
 41
0.0175820202142036
 42
1.0436021884884246
  0
ELLIPSE
  5
1B4
100
AcDbEntity
  8
0
390
0
  6
Continuous
 62
     7
100
AcDbEllipse
 10
-117.939924
 20
11.530933
 30
0.0
 11
-1.4045877036441974
 21
1.4237743440487505
 31
0.0
210
0.0
220
0.0
230
1.0
 40
0.125697
 41
3.1591746738039972
 42
4.1851948420782286
  0
LINE
  5
1B5
100
AcDbEntity
  8
0
390
0
  6
Continuous
 62
     7
100
AcDbLine
 10
-117.078597
 20
10.967198
 30
0.0
 11
-116.350989
 21
11.71052
 31
0.0
  0
ARC
  5
1B6
100
AcDbEntity
  8
0
390
0
  6
Continuous
 62
     7
100
AcDbCircle
 10
-88.745647
 20
6.683536
 30
0.0
 40
6.722154
210
0.0
220
0.0
230
1.0
100
AcDbArc
 50
20.413271
 51
39.586729
  0
ARC
  5
1B7
100
AcDbEntity
  8
0
390
0
  6
Continuous
 62
     7
100
AcDbCircle
 10
-111.898096
 20
-6.683537
 30
0.0
 40
6.722154
210
0.0
220
0.0
230
1.0
100
AcDbArc
 50
200.413271
 51
219.586729
  0
ARC
  5
1B8
100
AcDbEntity
  8
0
390
0
  6
Continuous
 62
     7
100
AcDbCircle
 10
-100.321872
 20
13.367072
 30
0.0
 40
6.722154
210
0.0
220
0.0
230
1.0
100
AcDbArc
 50
80.413271
 51
99.586729
  0
ARC
  5
1B9
100
AcDbEntity
  8
0
390
0
  6
Continuous
 62
     7
100
AcDbCircle
 10
-100.321872
 20
-13.367073
 30
0.0
 40
6.722154
210
0.0
220
0.0
230
1.0
100
AcDbArc
 50
260.413271
 51
279.586729
  0
ARC
  5
1BA
100
AcDbEntity
  8
0
390
0
  6
Continuous
 62
     7
100
AcDbCircle
 10
-88.745647
 20
-6.683537
 30
0.0
 40
6.722154
210
0.0
220
0.0
230
0.9999999999999999
100
AcDbArc
 50
320.413271
 51
339.586729
  0
ARC
  5
1BB
100
AcDbEntity
  8
0
390
0
  6
Continuous
 62
     7
100
AcDbCircle
 10
-111.898096
 20
6.683536
 30
0.0
 40
6.722154
210
0.0
220
0.0
230
0.9999999999999999
100
AcDbArc
 50
140.413271
 51
159.586729
  0
LINE
  5
1BC
100
AcDbEntity
  8
0
390
0
  6
Continuous
 62
     7
100
AcDbLine
 10
-117.888417
 20
-11.497223
 30
0.0
 11
-119.062031
 21
-9.464464
 31
0.0
  0
LINE
  5
1BD
100
AcDbEntity
  8
0
390
0
  6
Continuous
 62
     7
100
AcDbLine
 10
-119.062031
 20
-9.464464
 30
0.0
 11
-118.198107
 21
-9.028151
 31
0.0
  0
LINE
  5
1BE
100
AcDbEntity
  8
0
390
0
  6
Continuous
 62
     7
100
AcDbLine
 10
-117.888417
 20
-11.497223
 30
0.0
 11
-117.078597
 21
-10.967199
 31
0.0
  0
LINE
  5
1BF
100
AcDbEntity
  8
0
390
0
  6
Continuous
 62
     7
100
AcDbLine
 10
-82.445637
 20
9.02815
 30
0.0
 11
-81.581712
 21
9.464463
 31
0.0
  0
ARC
  5
1C0
100
AcDbEntity
  8
0
390
0
  6
Continuous
 62
     7
100
AcDbCircle
 10
-100.321872
 20
0.0
 30
0.0
 40
20.994514
210
0.0
220
0.0
230
1.0
100
AcDbArc
 50
333.20456
 51
26.79544
  0
LINE
  5
1C1
100
AcDbEntity
  8
0
390
0
  6
Continuous
 62
     7
100
AcDbLine
 10
-82.445637
 20
-9.028151
 30
0.0
 11
-81.581712
 21
-9.464464
 31
0.0
  0
ARC
  5
1C2
100
AcDbEntity
  8
0
390
0
  6
Continuous
 62
     7
100
AcDbCircle
 10
-100.321872
 20
0.0
 30
0.0
 40
18.997255
210
0.0
220
0.0
230
1.0
100
AcDbArc
 50
355.194782
 51
4.805218
  0
LINE
  5
1C3
100
AcDbEntity
  8
0
390
0
  6
Continuous
 62
     7
100
AcDbLine
 10
-117.888417
 20
11.497222
 30
0.0
 11
-117.078597
 21
10.967198
 31
0.0
  0
ARC
  5
1C4
100
AcDbEntity
  8
0
390
0
  6
Continuous
 62
     7
100
AcDbCircle
 10
-100.321872
 20
0.0
 30
0.0
 40
20.994514
210
0.0
220
0.0
230
1.0
100
AcDbArc
 50
93.20456
 51
146.79544
  0
LINE
  5
1C5
100
AcDbEntity
  8
0
390
0
  6
Continuous
 62
     7
100
AcDbLine
 10
-101.495485
 20
20.961685
 30
0.0
 11
-101.441381
 21
19.995348
 31
0.0
  0
ARC
  5
1C6
100
AcDbEntity
  8
0
390
0
  6
Continuous
 62
     7
100
AcDbCircle
 10
-100.321872
 20
0.0
 30
0.0
 40
18.997255
210
0.0
220
0.0
230
1.0
100
AcDbArc
 50
115.194782
 51
124.805218
  0
LINE
  5
1C7
100
AcDbEntity
  8
0
390
0
  6
Continuous
 62
     7
100
AcDbLine
 10
-83.565146
 20
-10.967199
 30
0.0
 11
-82.755326
 21
-11.497223
 31
0.0
  0
ARC
  5
1C8
100
AcDbEntity
  8
0
390
0
  6
Continuous
 62
     7
100
AcDbCircle
 10
-100.321872
 20
0.0
 30
0.0
 40
20.994514
210
0.0
220
0.0
230
1.0
100
AcDbArc
 50
273.20456
 51
326.79544
  0
LINE
  5
1C9
100
AcDbEntity
  8
0
390
0
  6
Continuous
 62
     7
100
AcDbLine
 10
-99.202362
 20
-19.995349
 30
0.0
 11
-99.148258
 21
-20.961686
 31
0.0
  0
ARC
  5
1CA
100
AcDbEntity
  8
0
390
0
  6
Continuous
 62
     7
100
AcDbCircle
 10
-100.321872
 20
0.0
 30
0.0
 40
18.997255
210
0.0
220
0.0
230
1.0
100
AcDbArc
 50
295.194782
 51
304.805218
  0
LINE
  5
1CB
100
AcDbEntity
  8
0
390
0
  6
Continuous
 62
     7
100
AcDbLine
 10
-119.062031
 20
9.464463
 30
0.0
 11
-117.888417
 21
11.497222
 31
0.0
  0
LINE
  5
1CC
100
AcDbEntity
  8
0
390
0
  6
Continuous
 62
     7
100
AcDbLine
 10
-119.062031
 20
9.464463
 30
0.0
 11
-118.198107
 21
9.02815
 31
0.0
  0
LINE
  5
1CD
100
AcDbEntity
  8
0
390
0
  6
Continuous
 62
     7
100
AcDbLine
 10
-101.495485
 20
20.961685
 30
0.0
 11
-99.148258
 21
20.961685
 31
0.0
  0
LINE
  5
1CE
100
AcDbEntity
  8
0
390
0
  6
Continuous
 62
     7
100
AcDbLine
 10
-99.148258
 20
20.961685
 30
0.0
 11
-99.202362
 21
19.995348
 31
0.0
  0
LINE
  5
1CF
100
AcDbEntity
  8
0
390
0
  6
Continuous
 62
     7
100
AcDbLine
 10
-99.148258
 20
-20.961686
 30
0.0
 11
-101.495485
 21
-20.961686
 31
0.0
  0
LINE
  5
1D0
100
AcDbEntity
  8
0
390
0
  6
Continuous
 62
     7
100
AcDbLine
 10
-101.441381
 20
-19.995349
 30
0.0
 11
-101.495485
 21
-20.961686
 31
0.0
  0
LINE
  5
1D1
100
AcDbEntity
  8
0
390
0
  6
Continuous
 62
     7
100
AcDbLine
 10
-82.755326
 20
11.497222
 30
0.0
 11
-81.581712
 21
9.464463
 31
0.0
  0
LINE
  5
1D2
100
AcDbEntity
  8
0
390
0
  6
Continuous
 62
     7
100
AcDbLine
 10
-83.565146
 20
10.967198
 30
0.0
 11
-82.755326
 21
11.497222
 31
0.0
  0
ARC
  5
1D3
100
AcDbEntity
  8
0
390
0
  6
Continuous
 62
     7
100
AcDbCircle
 10
-100.321872
 20
0.0
 30
0.0
 40
20.994514
210
0.0
220
0.0
230
1.0
100
AcDbArc
 50
33.20456
 51
86.79544
  0
ARC
  5
1D4
100
AcDbEntity
  8
0
390
0
  6
Continuous
 62
     7
100
AcDbCircle
 10
-100.321872
 20
0.0
 30
0.0
 40
18.997255
210
0.0
220
0.0
230
1.0
100
AcDbArc
 50
55.194782
 51
64.805218
  0
ARC
  5
1D5
100
AcDbEntity
  8
0
390
0
  6
Continuous
 62
     7
100
AcDbCircle
 10
-100.321872
 20
0.0
 30
0.0
 40
20.994514
210
0.0
220
0.0
230
1.0
100
AcDbArc
 50
153.20456
 51
206.79544
  0
ARC
  5
1D6
100
AcDbEntity
  8
0
390
0
  6
Continuous
 62
     7
100
AcDbCircle
 10
-100.321872
 20
0.0
 30
0.0
 40
18.997255
210
0.0
220
0.0
230
1.0
100
AcDbArc
 50
175.194782
 51
184.805218
  0
ARC
  5
1D7
100
AcDbEntity
  8
0
390
0
  6
Continuous
 62
     7
100
AcDbCircle
 10
-100.321872
 20
0.0
 30
0.0
 40
20.994514
210
0.0
220
0.0
230
1.0
100
AcDbArc
 50
213.20456
 51
266.79544
  0
ARC
  5
1D8
100
AcDbEntity
  8
0
390
0
  6
Continuous
 62
     7
100
AcDbCircle
 10
-100.321872
 20
0.0
 30
0.0
 40
18.997255
210
0.0
220
0.0
230
1.0
100
AcDbArc
 50
235.194782
 51
244.805218
  0
LINE
  5
1D9
100
AcDbEntity
  8
0
390
0
  6
Continuous
 62
     7
100
AcDbLine
 10
-81.581712
 20
-9.464464
 30
0.0
 11
-82.755326
 21
-11.497223
 31
0.0
  0
CIRCLE
  5
1DA
100
AcDbEntity
  8
0
390
0
  6
Continuous
 62
     7
100
AcDbCircle
 10
-100.321872
 20
0.0
 30
0.0
 40
21.172946
210
0.0
220
0.0
230
1.0
  0
POINT
  5
1DB
100
AcDbEntity
  8
0
390
0
 62
     7
100
AcDbPoint
 10
0.0
 20
0.0
 30
0.0
  0
ENDSEC
  0
SECTION
  2
OBJECTS
  0
DICTIONARY
  5
19
100
AcDbDictionary
280
     0
281
     1
  3
ACAD_GROUP
350
1A
  3
ACAD_MLINESTYLE
350
1B
  3
ACAD_LAYOUT
350
1E
  3
ACAD_PLOTSETTINGS
350
22
  3
ACAD_PLOTSTYLENAME
350
1F
  3
ACAD_WIPEOUT_VARS
350
23
  0
DICTIONARY
  5
1A
102
{ACAD_REACTORS
330
19
102
}
100
AcDbDictionary
280
     0
281
     1
  0
DICTIONARY
  5
1B
102
{ACAD_REACTORS
330
19
102
}
100
AcDbDictionary
280
     0
281
     1
  3
Standard
350
1C
  0
MLINESTYLE
  5
1C
102
{ACAD_REACTORS
330
1B
102
}
100
AcDbMlineStyle
  2
Standard
 70
     0
  3

 62
     0
 51
90.0
 52
90.0
 71
     2
 49
0.5
 62
   256
  6
ByLayer
 49
-0.5
 62
   256
  6
ByLayer
  0
ACDBDICTIONARYWDFLT
  5
1F
102
{ACAD_REACTORS
330
19
102
}
100
AcDbDictionary
281
     1
  3
Normal
350
1D
100
AcDbDictionaryWithDefault
340
1D
  0
ACDBPLACEHOLDER
  5
1D
102
{ACAD_REACTORS
330
1F
102
}
  0
LAYOUT
  5
20
102
{ACAD_REACTORS
330
1E
102
}
100
AcDbPlotSettings
  1

  2

  4

  6

 40
0.0
 41
0.0
 42
0.0
 43
0.0
 44
0.0
 45
0.0
 46
0.0
 47
0.0
 48
0.0
 49
0.0
140
0.0
141
0.0
142
1.0
143
1.0
 70
  1024
 72
     0
 73
     0
 74
     0
  7

 75
     0
147
1.0
148
0.0
149
0.0
100
AcDbLayout
  1
Model
 70
     0
 71
     1
 10
0.0
 20
0.0
 11
0.0
 21
0.0
 12
0.0
 22
0.0
 32
0.0
 14
0.0
 24
0.0
 34
0.0
 15
0.0
 25
0.0
 35
0.0
146
0.0
 13
0.0
 23
0.0
 33
0.0
 16
0.0
 26
0.0
 36
0.0
 17
0.0
 27
0.0
 37
0.0
 76
     0
330
A
331
0
345
0
346
0
  0
LAYOUT
  5
21
102
{ACAD_REACTORS
330
1E
102
}
100
AcDbPlotSettings
  1

  2

  4

  6

 40
0.0
 41
0.0
 42
0.0
 43
0.0
 44
0.0
 45
0.0
 46
0.0
 47
0.0
 48
0.0
 49
0.0
140
0.0
141
0.0
142
1.0
143
1.0
 70
     0
 72
     0
 73
     0
 74
     0
  7

 75
     0
147
1.0
148
0.0
149
0.0
100
AcDbLayout
  1
Layout1
 70
     0
 71
     2
 10
0.0
 20
0.0
 11
0.0
 21
0.0
 12
0.0
 22
0.0
 32
0.0
 14
0.0
 24
0.0
 34
0.0
 15
0.0
 25
0.0
 35
0.0
146
0.0
 13
0.0
 23
0.0
 33
0.0
 16
0.0
 26
0.0
 36
0.0
 17
0.0
 27
0.0
 37
0.0
 76
     0
330
B
331
0
345
0
346
0
  0
DICTIONARY
  5
1E
102
{ACAD_REACTORS
330
19
102
}
100
AcDbDictionary
280
     0
281
     1
  3
Layout1
350
21
  3
Model
350
20
  0
DICTIONARY
  5
22
102
{ACAD_REACTORS
330
19
102
}
100
AcDbDictionary
280
     0
281
     1
  0
WIPEOUTVARIABLES
  5
23
100
AcDbWipeoutVariables
 70
     1
  0
ENDSEC
  0
EOF
