  0
SECTION
  2
HEADER
  9
$ACADVER
  1
AC1015
  9
$ACADMAINTVER
 70
     6
  9
$DWGCODEPAGE
  3
DOS932
  9
$INSBASE
 10
0.0
 20
0.0
 30
0.0
  9
$EXTMIN
 10
-112.992623
 20
-17.672946
 30
0.0
  9
$EXTMAX
 10
262.488538
 20
162.051357
 30
9.906
  9
$LIMMIN
 10
-112.992623
 20
-17.672946
  9
$LIMMAX
 10
262.488538
 20
162.051357
  9
$ORTHOMODE
 70
     0
  9
$REGENMODE
 70
     1
  9
$FILLMODE
 70
     1
  9
$QTEXTMODE
 70
     0
  9
$MIRRTEXT
 70
     1
  9
$LTSCALE
 40
10.0
  9
$ATTMODE
 70
     1
  9
$TEXTSIZE
 40
0.2
  9
$TRACEWID
 40
0.05
  9
$TEXTSTYLE
  7
Standard
  9
$CLAYER
  8
0
  9
$CELTYPE
  6
Continuous
  9
$CECOLOR
 62
   256
  9
$CELTSCALE
 40
1.0
  9
$DISPSILH
 70
     0
  9
$DIMSCALE
 40
1.0
  9
$DIMASZ
 40
1.40208
  9
$DIMEXO
 40
1.40208
  9
$DIMDLI
 40
0.38
  9
$DIMRND
 40
0.0
  9
$DIMDLE
 40
0.0
  9
$DIMEXE
 40
1.05156
  9
$DIMTP
 40
0.0
  9
$DIMTM
 40
0.0
  9
$DIMTXT
 40
3.5052
  9
$DIMCEN
 40
0.09
  9
$DIMTSZ
 40
0.0
  9
$DIMTOL
 70
     0
  9
$DIMLIM
 70
     0
  9
$DIMTIH
 70
     0
  9
$DIMTOH
 70
     0
  9
$DIMSE1
 70
     0
  9
$DIMSE2
 70
     0
  9
$DIMTAD
 70
     1
  9
$DIMZIN
 70
     0
  9
$DIMBLK
  1

  9
$DIMASO
 70
     1
  9
$DIMSHO
 70
     1
  9
$DIMPOST
  1

  9
$DIMAPOST
  1

  9
$DIMALT
 70
     0
  9
$DIMALTD
 70
     2
  9
$DIMALTF
 40
25.4
  9
$DIMLFAC
 40
1.0
  9
$DIMTOFL
 70
     0
  9
$DIMTVP
 40
0.0
  9
$DIMTIX
 70
     0
  9
$DIMSOXD
 70
     0
  9
$DIMSAH
 70
     0
  9
$DIMBLK1
  1

  9
$DIMBLK2
  1

  9
$DIMSTYLE
  2
Standard
  9
$DIMCLRD
 70
     7
  9
$DIMCLRE
 70
     7
  9
$DIMCLRT
 70
     7
  9
$DIMTFAC
 40
0.5
  9
$DIMGAP
 40
1.7526
  9
$DIMJUST
 70
     0
  9
$DIMSD1
 70
     0
  9
$DIMSD2
 70
     0
  9
$DIMTOLJ
 70
     1
  9
$DIMTZIN
 70
     0
  9
$DIMALTZ
 70
     0
  9
$DIMALTTZ
 70
     0
  9
$DIMUPT
 70
     0
  9
$DIMDEC
 70
     2
  9
$DIMTDEC
 70
     4
  9
$DIMALTU
 70
     2
  9
$DIMALTTD
 70
     2
  9
$DIMTXSTY
  7
Standard
  9
$DIMAUNIT
 70
     0
  9
$DIMADEC
 70
     0
  9
$DIMALTRND
 40
0.0
  9
$DIMAZIN
 70
     0
  9
$DIMDSEP
 70
     0
  9
$DIMATFIT
 70
     3
  9
$DIMFRAC
 70
     0
  9
$DIMLDRBLK
  1

  9
$DIMLUNIT
 70
     2
  9
$DIMLWD
 70
     0
  9
$DIMLWE
 70
     0
  9
$DIMTMOVE
 70
     0
  9
$LUNITS
 70
     2
  9
$LUPREC
 70
     4
  9
$SKETCHINC
 40
0.1
  9
$FILLETRAD
 40
0.0
  9
$AUNITS
 70
     0
  9
$AUPREC
 70
     0
  9
$MENU
  1
acad
  9
$ELEVATION
 40
0.0
  9
$PELEVATION
 40
0.0
  9
$THICKNESS
 40
0.0
  9
$LIMCHECK
 70
     0
  9
$CHAMFERA
 40
0.0
  9
$CHAMFERB
 40
0.0
  9
$CHAMFERC
 40
0.0
  9
$CHAMFERD
 40
0.0
  9
$SKPOLY
 70
     0
  9
$TDCREATE
 40
2459788.595497685
  9
$TDUCREATE
 40
0.000000000
  9
$TDUPDATE
 40
2459788.220416667
  9
$TDUUPDATE
 40
0.000000000
  9
$TDINDWG
 40
0.0000000000
  9
$TDUSRTIMER
 40
0.0000000000
  9
$USRTIMER
 70
     1
  9
$ANGBASE
 50
0.0
  9
$ANGDIR
 70
     0
  9
$PDMODE
 70
     0
  9
$PDSIZE
 40
0.0
  9
$PLINEWID
 40
0.0
  9
$SPLFRAME
 70
     0
  9
$SPLINETYPE
 70
     6
  9
$SPLINESEGS
 70
     8
  9
$HANDSEED
  5
223
  9
$SURFTAB1
 70
     6
  9
$SURFTAB2
 70
     6
  9
$SURFTYPE
 70
     6
  9
$SURFU
 70
     6
  9
$SURFV
 70
     6
  9
$UCSBASE
  2

  9
$UCSNAME
  2

  9
$UCSORG
 10
0.0
 20
0.0
 30
0.0
  9
$UCSXDIR
 10
1.0
 20
0.0
 30
0.0
  9
$UCSYDIR
 10
0.0
 20
1.0
 30
0.0
  9
$UCSORTHOREF
  2

  9
$UCSORTHOVIEW
 70
     0
  9
$UCSORGTOP
 10
0.0
 20
0.0
 30
0.0
  9
$UCSORGBOTTOM
 10
0.0
 20
0.0
 30
0.0
  9
$UCSORGLEFT
 10
0.0
 20
0.0
 30
0.0
  9
$UCSORGRIGHT
 10
0.0
 20
0.0
 30
0.0
  9
$UCSORGFRONT
 10
0.0
 20
0.0
 30
0.0
  9
$UCSORGBACK
 10
0.0
 20
0.0
 30
0.0
  9
$PUCSBASE
  2

  9
$PUCSNAME
  2

  9
$PUCSORG
 10
0.0
 20
0.0
 30
0.0
  9
$PUCSXDIR
 10
1.0
 20
0.0
 30
0.0
  9
$PUCSYDIR
 10
0.0
 20
1.0
 30
0.0
  9
$PUCSORTHOREF
  2

  9
$PUCSORTHOVIEW
 70
     0
  9
$PUCSORGTOP
 10
0.0
 20
0.0
 30
0.0
  9
$PUCSORGBOTTOM
 10
0.0
 20
0.0
 30
0.0
  9
$PUCSORGLEFT
 10
0.0
 20
0.0
 30
0.0
  9
$PUCSORGRIGHT
 10
0.0
 20
0.0
 30
0.0
  9
$PUCSORGFRONT
 10
0.0
 20
0.0
 30
0.0
  9
$PUCSORGBACK
 10
0.0
 20
0.0
 30
0.0
  9
$USERI1
 70
     0
  9
$USERI2
 70
     0
  9
$USERI3
 70
     0
  9
$USERI4
 70
     0
  9
$USERI5
 70
     0
  9
$USERR1
 40
0.0
  9
$USERR2
 40
0.0
  9
$USERR3
 40
0.0
  9
$USERR4
 40
0.0
  9
$USERR5
 40
0.0
  9
$WORLDVIEW
 70
     1
  9
$SHADEDGE
 70
     3
  9
$SHADEDIF
 70
    70
  9
$TILEMODE
 70
     1
  9
$MAXACTVP
 70
    16
  9
$PINSBASE
 10
0.0
 20
0.0
 30
0.0
  9
$PLIMCHECK
 70
     0
  9
$PEXTMIN
 10
1.000000E+20
 20
1.000000E+20
 30
1.000000E+20
  9
$PEXTMAX
 10
-1.000000E+20
 20
-1.000000E+20
 30
-1.000000E+20
  9
$PLIMMIN
 10
0.0
 20
0.0
  9
$PLIMMAX
 10
12.0
 20
9.0
  9
$UNITMODE
 70
     0
  9
$VISRETAIN
 70
     0
  9
$PLINEGEN
 70
     1
  9
$PSLTSCALE
 70
     0
  9
$TREEDEPTH
 70
  3020
  9
$CMLSTYLE
  2
Standard
  9
$CMLJUST
 70
     0
  9
$CMLSCALE
 40
1.0
  9
$PROXYGRAPHICS
 70
     0
  9
$MEASUREMENT
 70
     0
  9
$CELWEIGHT
370
     0
  9
$ENDCAPS
280
     0
  9
$JOINSTYLE
280
     0
  9
$LWDISPLAY
290
     0
  9
$INSUNITS
 70
     0
  9
$HYPERLINKBASE
  1

  9
$STYLESHEET
  1

  9
$XEDIT
290
     1
  9
$CEPSNTYPE
380
     0
  9
$PSTYLEMODE
290
     1
  9
$FINGERPRINTGUID
  2

  9
$VERSIONGUID
  2

  9
$EXTNAMES
290
     1
  9
$PSVPSCALE
 40
0.0
  0
ENDSEC
  0
SECTION
  2
CLASSES
  0
CLASS
  1
LWPOLYLINE
  2
AcDbPolyline
  3
AutoCAD 2000
 90
        0
280
     0
281
     1
  0
CLASS
  1
IMAGE
  2
AcDbRasterImage
  3
ISM
 90
      127
280
     0
281
     1
  0
CLASS
  1
OLE2FRAME
  2
AcDbOle2Frame
  3
AutoCAD 2000
 90
        0
280
     0
281
     1
  0
CLASS
  1
HATCH
  2
AcDbHatch
  3
AutoCAD 2000
 90
        0
280
     0
281
     1
  0
CLASS
  1
DICTIONARYVAR
  2
AcDbDictionaryVar
  3
AutoCAD 2000
 90
        0
280
     0
281
     0
  0
CLASS
  1
RASTERVARIABLES
  2
AcDbRasterVariables
  3
ISM
 90
        0
280
     0
281
     0
  0
CLASS
  1
IMAGEDEF
  2
AcDbRasterImageDef
  3
ISM
 90
        0
280
     0
281
     0
  0
CLASS
  1
IMAGEDEF_REACTOR
  2
AcDbRasterImageDefReactor
  3
ISM
 90
        1
280
     0
281
     0
  0
CLASS
  1
IDBUFFER
  2
AcDbIdBuffer
  3
AutoCAD 2000
 90
        0
280
     0
281
     0
  0
CLASS
  1
SPATIAL_FILTER
  2
AcDbSpatialFilter
  3
AutoCAD 2000
 90
        0
280
     0
281
     0
  0
CLASS
  1
XRECORD
  2
AcDbXrecord
  3
AutoCAD 2000
 90
        0
280
     0
281
     0
  0
CLASS
  1
SORTENTSTABLE
  2
AcDbSortentsTable
  3
AutoCAD 2000
 90
        0
280
     0
281
     0
  0
CLASS
  1
LAYER_INDEX
  2
AcDbLayerIndex
  3
AutoCAD 2000
 90
        0
280
     0
281
     0
  0
CLASS
  1
SPATIAL_INDEX
  2
AcDbSpatialIndex
  3
AutoCAD 2000
 90
        0
280
     0
281
     0
  0
CLASS
  1
OBJECT_PTR
  2
CAseDLPNTableRecord
  3
"ASE-LPNTableRecord"
 90
        1
280
     0
281
     0
  0
CLASS
  1
LAYOUT
  2
AcDbLayout
  3
AutoCAD 2000
 90
        0
280
     0
281
     0
  0
CLASS
  1
PLOTSETTINGS
  2
AcDbPlotSettings
  3
AutoCAD 2000
 90
        0
280
     0
281
     0
  0
CLASS
  1
ACDBDICTIONARYWDFLT
  2
AcDbDictionaryWithDefault
  3
AutoCAD 2000
 90
        0
280
     0
281
     0
  0
CLASS
  1
ACDBPLACEHOLDER
  2
AcDbPlaceHolder
  3
AutoCAD 2000
 90
        0
280
     0
281
     0
  0
CLASS
  1
VBA_PROJECT
  2
AcDbVbaProject
  3
acadvba
 90
        0
280
     0
281
     0
  0
CLASS
  1
WIPEOUT
  2
AcDbWipeout
  3
WipeOut|AutoCAD Express Tool|expresstools@autodesk.com
 90
      127
280
     0
281
     1
  0
CLASS
  1
WIPEOUTVARIABLES
  2
AcDbWipeoutVariables
  3
WipeOut|AutoCAD Express Tool|expresstools@autodesk.com
 90
        0
280
     0
281
     0
  0
CLASS
  1
RTEXT
  2
RText
  3
RText|AutoCAD Express Tool|expresstools@autodesk.com
 90
        0
280
     0
281
     1
  0
CLASS
  1
ARCALIGNEDTEXT
  2
AcDbArcAlignedText
  3
ATEXT|AutoCAD Express Tool|expresstools@autodesk.com
 90
        0
280
     0
281
     1
  0
ENDSEC
  0
SECTION
  2
TABLES
  0
TABLE
  2
VPORT
  5
7
100
AcDbSymbolTable
 70
     1
  0
VPORT
  5
15
100
AcDbSymbolTableRecord
100
AcDbViewportTableRecord
  2
*ACTIVE
 70
     0
 10
0.0
 20
0.0
 11
1.0
 21
1.0
 12
6.591288
 22
4.579184
 13
0.0
 23
0.0
 14
1.0
 24
1.0
 15
0.0
 25
0.0
 16
0.0
 26
0.0
 36
1.0
 17
0.0
 27
0.0
 37
0.0
 40
9.158369
 41
0.688564
 42
50.0
 43
0.0
 44
0.0
 50
0.0
 51
0.0
 71
     0
 72
   100
 73
     1
 74
     1
 75
     0
 76
     0
 77
     0
 78
     0
281
     0
 65
     0
110
0.0
120
0.0
130
0.0
111
1.0
121
0.0
131
0.0
112
0.0
122
1.0
132
0.0
345
0
346
0
 79
     0
146
0.0
  0
ENDTAB
  0
TABLE
  2
LTYPE
  5
4
100
AcDbSymbolTable
 70
     3
  0
LTYPE
  5
11
100
AcDbSymbolTableRecord
100
AcDbLinetypeTableRecord
  2
ByBlock
 70
    64
  3

 72
    65
 73
     0
 40
0.0
  0
LTYPE
  5
12
100
AcDbSymbolTableRecord
100
AcDbLinetypeTableRecord
  2
ByLayer
 70
    64
  3

 72
    65
 73
     0
 40
0.0
  0
LTYPE
  5
13
100
AcDbSymbolTableRecord
100
AcDbLinetypeTableRecord
  2
Continuous
 70
    64
  3
Solid line
 72
    65
 73
     0
 40
0.0
  0
ENDTAB
  0
TABLE
  2
LAYER
  5
2
100
AcDbSymbolTable
 70
     1
  0
LAYER
  5
14
100
AcDbSymbolTableRecord
100
AcDbLayerTableRecord
  2
0
 70
     0
 62
     7
  6
Continuous
290
     1
370
    -3
390
1D
  0
ENDTAB
  0
TABLE
  2
STYLE
  5
3
100
AcDbSymbolTable
 70
     1
  0
STYLE
  5
17
100
AcDbSymbolTableRecord
100
AcDbTextStyleTableRecord
  2
Standard
 70
     0
 40
0.0
 41
1.0
 50
0.0
 71
     0
 42
0.0
  3
FG教科書体NT-M
  4

1001
ACAD
1000
FG教科書体NT-M
1071
        0
  0
ENDTAB
  0
TABLE
  2
VIEW
  5
5
100
AcDbSymbolTable
 70
     0
  0
ENDTAB
  0
TABLE
  2
UCS
  5
6
100
AcDbSymbolTable
 70
     0
  0
ENDTAB
  0
TABLE
  2
APPID
  5
8
100
AcDbSymbolTable
 70
     2
  0
APPID
  5
16
100
AcDbSymbolTableRecord
100
AcDbRegAppTableRecord
  2
ACAD
 70
     0
  0
APPID
  5
26
100
AcDbSymbolTableRecord
100
AcDbRegAppTableRecord
  2
TOPsolid_Design
 70
     0
  0
ENDTAB
  0
TABLE
  2
DIMSTYLE
  5
9
100
AcDbSymbolTable
 70
     1
100
AcDbDimStyleTable
 71
     0
  0
DIMSTYLE
105
18
100
AcDbSymbolTableRecord
100
AcDbDimStyleTableRecord
  2
Standard
 70
     0
  3

  4

 40
1.0
 41
1.40208
 42
1.40208
 43
0.38
 44
1.05156
 45
0.0
 46
0.0
 47
0.0
 48
0.0
 71
     0
 72
     0
 73
     0
 74
     0
 75
     0
 76
     0
 77
     1
 78
     0
 79
     0
140
3.5052
141
0.09
142
0.0
143
25.4
144
1.0
145
0.0
146
0.5
147
1.7526
148
0.0
170
     0
171
     2
172
     0
173
     0
174
     0
175
     0
176
     7
177
     7
178
     7
179
     0
271
     2
272
     4
273
     2
274
     2
275
     0
276
     0
277
     2
278
    46
279
     0
280
     0
281
     0
282
     0
283
     1
284
     0
285
     0
286
     0
288
     0
289
     3
340
17
341
0
342
0
343
0
344
0
371
    -2
372
    -2
  0
ENDTAB
  0
TABLE
  2
BLOCK_RECORD
  5
1
100
AcDbSymbolTable
 70
     0
  0
BLOCK_RECORD
  5
A
100
AcDbSymbolTableRecord
100
AcDbBlockTableRecord
  2
*MODEL_SPACE
340
20
  0
BLOCK_RECORD
  5
B
100
AcDbSymbolTableRecord
100
AcDbBlockTableRecord
  2
*PAPER_SPACE
340
21
  0
ENDTAB
  0
ENDSEC
  0
SECTION
  2
BLOCKS
  0
BLOCK
  5
D
100
AcDbEntity
  8
0
390
0
100
AcDbBlockBegin
  2
*MODEL_SPACE
 70
     0
 10
0.0
 20
0.0
 30
0.0
  3
*MODEL_SPACE
  1

  0
ENDBLK
  5
E
100
AcDbEntity
  8
0
390
0
100
AcDbBlockEnd
  0
BLOCK
  5
F
100
AcDbEntity
 67
     1
  8
0
390
0
100
AcDbBlockBegin
  2
*PAPER_SPACE
 70
     0
 10
0.0
 20
0.0
 30
0.0
  3
*PAPER_SPACE
  1

  0
ENDBLK
  5
10
100
AcDbEntity
 67
     1
  8
0
390
0
100
AcDbBlockEnd
  0
ENDSEC
  0
SECTION
  2
ENTITIES
  0
LINE
  5
27
100
AcDbEntity
  8
0
390
0
  6
Continuous
 62
     7
100
AcDbLine
 10
7.65
 20
-17.672946
 30
0.0
 11
7.65
 21
0.0
 31
0.0
  0
LINE
  5
28
100
AcDbEntity
  8
0
390
0
  6
Continuous
 62
     7
100
AcDbLine
 10
4.23031
 20
17.493727
 30
0.0
 11
4.245328
 21
17.445374
 31
0.0
  0
LINE
  5
29
100
AcDbEntity
  8
0
390
0
  6
Continuous
 62
     7
100
AcDbLine
 10
7.65
 20
0.0
 30
0.0
 11
7.65
 21
17.672946
 31
0.0
  0
LINE
  5
2A
100
AcDbEntity
  8
0
390
0
  6
Continuous
 62
     7
100
AcDbLine
 10
4.245328
 20
-17.445374
 30
0.0
 11
4.23031
 21
-17.493727
 31
0.0
  0
LINE
  5
2B
100
AcDbEntity
  8
0
390
0
  6
Continuous
 62
     7
100
AcDbLine
 10
4.245328
 20
-9.857462
 30
0.0
 11
4.245328
 21
-17.445374
 31
0.0
  0
LINE
  5
2C
100
AcDbEntity
  8
0
390
0
  6
Continuous
 62
     7
100
AcDbLine
 10
4.245328
 20
-7.587913
 30
0.0
 11
4.245328
 21
-9.857462
 31
0.0
  0
LINE
  5
2D
100
AcDbEntity
  8
0
390
0
  6
Continuous
 62
     7
100
AcDbLine
 10
4.245328
 20
7.587912
 30
0.0
 11
4.245328
 21
-7.587913
 31
0.0
  0
LINE
  5
2E
100
AcDbEntity
  8
0
390
0
  6
Continuous
 62
     7
100
AcDbLine
 10
4.245328
 20
9.857462
 30
0.0
 11
4.245328
 21
7.587912
 31
0.0
  0
LINE
  5
2F
100
AcDbEntity
  8
0
390
0
  6
Continuous
 62
     7
100
AcDbLine
 10
4.245328
 20
17.445374
 30
0.0
 11
4.245328
 21
9.857462
 31
0.0
  0
LINE
  5
30
100
AcDbEntity
  8
0
390
0
  6
Continuous
 62
     7
100
AcDbLine
 10
2.638925
 20
7.17076
 30
0.0
 11
2.556001
 21
6.299597
 31
0.0
  0
ELLIPSE
  5
31
100
AcDbEntity
  8
0
390
0
  6
Continuous
 62
     7
100
AcDbEllipse
 10
4.35
 20
6.721639
 30
0.0
 11
-2.0000000000000018
 21
0.0
 31
0.0
210
0.0
220
0.0
230
1.0
 40
0.433731
 41
4.7647488579445199
 42
5.738976992193928
  0
ELLIPSE
  5
32
100
AcDbEntity
  8
0
390
0
  6
Continuous
 62
     7
100
AcDbEllipse
 10
4.35
 20
-6.72164
 30
0.0
 11
-2.0000000000000018
 21
0.0
 31
0.0
210
0.0
220
0.0
230
1.0
 40
0.433731
 41
0.5442083149854026
 42
1.5184364492350653
  0
LINE
  5
33
100
AcDbEntity
  8
0
390
0
  6
Continuous
 62
     7
100
AcDbLine
 10
2.556001
 20
-6.299597
 30
0.0
 11
2.638925
 21
-7.17076
 31
0.0
  0
ARC
  5
34
100
AcDbEntity
  8
0
390
0
  6
Continuous
 62
     7
100
AcDbCircle
 10
104.208616
 20
0.0
 30
0.0
 40
101.847627
210
0.0
220
0.0
230
1.0
100
AcDbArc
 50
176.453812
 51
183.546188
  0
ELLIPSE
  5
35
100
AcDbEntity
  8
0
390
0
  6
Continuous
 62
     7
100
AcDbEllipse
 10
0.762002
 20
-6.639572
 30
0.0
 11
-1.9644791391254246
 21
-0.3752621909292042
 31
0.0
210
0.0
220
0.0
230
1.0
 40
0.003275
 41
1.5879396106822001
 42
2.7212845444597136
  0
POLYLINE
  5
36
100
AcDbEntity
  8
0
390
0
  6
Continuous
 62
     7
100
AcDb2dPolyline
 66
     1
 10
0.0
 20
0.0
 30
0.0
 40
0.1
 41
0.1
  0
VERTEX
  5
37
100
AcDbEntity
  8
0
390
0
 62
     7
100
AcDbVertex
100
AcDb2dVertex
 10
0.796907
 20
-6.639572
 30
0.0
 42
-0.040391
  0
VERTEX
  5
38
100
AcDbEntity
  8
0
390
0
 62
     7
100
AcDbVertex
100
AcDb2dVertex
 10
0.43819
 20
-2.635769
 30
0.0
 42
-0.053114
  0
VERTEX
  5
39
100
AcDbEntity
  8
0
390
0
 62
     7
100
AcDbVertex
100
AcDb2dVertex
 10
0.796907
 20
6.639572
 30
0.0
  0
SEQEND
  5
3A
100
AcDbEntity
  8
0
390
0
  0
ELLIPSE
  5
3B
100
AcDbEntity
  8
0
390
0
  6
Continuous
 62
     7
100
AcDbEllipse
 10
0.762002
 20
6.639572
 30
0.0
 11
-1.9644791391378313
 21
0.3752621908643117
 31
0.0
210
0.0
220
0.0
230
0.9999999999999999
 40
0.003275
 41
3.5619007626806232
 42
4.6952456951757746
  0
LINE
  5
3C
100
AcDbEntity
  8
0
390
0
  6
Continuous
 62
     7
100
AcDbLine
 10
2.638925
 20
9.315538
 30
0.0
 11
2.638925
 21
7.17076
 31
0.0
  0
ELLIPSE
  5
3D
100
AcDbEntity
  8
0
390
0
  6
Continuous
 62
     7
100
AcDbEllipse
 10
4.35
 20
8.732086
 30
0.0
 11
-2.0000000000000018
 21
0.0
 31
0.0
210
0.0
220
0.0
230
1.0
 40
0.56346
 41
4.7647488579445225
 42
5.7389769921943605
  0
ELLIPSE
  5
3E
100
AcDbEntity
  8
0
390
0
  6
Continuous
 62
     7
100
AcDbEllipse
 10
4.35
 20
-8.732086
 30
0.0
 11
-2.0000000000000018
 21
0.0
 31
0.0
210
0.0
220
0.0
230
1.0
 40
0.56346
 41
0.5442083149856404
 42
1.5184364492350673
  0
LINE
  5
3F
100
AcDbEntity
  8
0
390
0
  6
Continuous
 62
     7
100
AcDbLine
 10
2.638925
 20
-7.17076
 30
0.0
 11
2.638925
 21
-9.315539
 31
0.0
  0
LINE
  5
40
100
AcDbEntity
  8
0
390
0
  6
Continuous
 62
     7
100
AcDbLine
 10
0.796907
 20
6.639572
 30
0.0
 11
0.962737
 21
7.174378
 31
0.0
  0
ELLIPSE
  5
41
100
AcDbEntity
  8
0
390
0
  6
Continuous
 62
     7
100
AcDbEllipse
 10
0.92785
 20
7.61988
 30
0.0
 11
-1.9808935918773918
 21
0.275790822289429
 31
0.0
210
0.0
220
0.0
230
1.0
 40
0.218469
 41
1.6188081504310463
 42
2.6431542354874615
  0
ELLIPSE
  5
42
100
AcDbEntity
  8
0
390
0
  6
Continuous
 62
     7
100
AcDbEllipse
 10
0.92785
 20
-7.619881
 30
0.0
 11
-1.9808935918774473
 21
-0.2757908222890959
 31
0.0
210
0.0
220
0.0
230
1.0
 40
0.218469
 41
3.6400310716918374
 42
4.6643771567485146
  0
LINE
  5
43
100
AcDbEntity
  8
0
390
0
  6
Continuous
 62
     7
100
AcDbLine
 10
0.962737
 20
-7.174378
 30
0.0
 11
0.796907
 21
-6.639572
 31
0.0
  0
ARC
  5
44
100
AcDbEntity
  8
0
390
0
  6
Continuous
 62
     7
100
AcDbCircle
 10
-1.417595
 20
7.803929
 30
0.0
 40
2.462177
210
0.0
220
0.0
230
1.0
100
AcDbArc
 50
345.185612
 51
14.814388
  0
ELLIPSE
  5
45
100
AcDbEntity
  8
0
390
0
  6
Continuous
 62
     7
100
AcDbEllipse
 10
0.92785
 20
9.898991
 30
0.0
 11
-1.9611208344164355
 21
-0.3924348007220413
 31
0.0
210
0.0
220
0.0
230
1.0
 40
0.727797
 41
1.443780147590809
 42
2.4681262326475979
  0
ELLIPSE
  5
46
100
AcDbEntity
  8
0
390
0
  6
Continuous
 62
     7
100
AcDbEllipse
 10
0.92785
 20
-9.898992
 30
0.0
 11
-1.9611208344162412
 21
0.3924348007230405
 31
0.0
210
0.0
220
0.0
230
1.0
 40
0.727797
 41
3.8150590745328361
 42
4.8394051595892842
  0
POLYLINE
  5
47
100
AcDbEntity
  8
0
390
0
  6
Continuous
 62
     7
100
AcDb2dPolyline
 66
     1
 10
0.0
 20
0.0
 30
0.0
 40
0.1
 41
0.1
  0
VERTEX
  5
48
100
AcDbEntity
  8
0
390
0
 62
     7
100
AcDbVertex
100
AcDb2dVertex
 10
0.962737
 20
-8.433479
 30
0.0
  0
VERTEX
  5
49
100
AcDbEntity
  8
0
390
0
 62
     7
100
AcDbVertex
100
AcDb2dVertex
 10
1.000449
 20
-8.303495
 30
0.0
 42
0.106884
  0
VERTEX
  5
4A
100
AcDbEntity
  8
0
390
0
 62
     7
100
AcDbVertex
100
AcDb2dVertex
 10
0.962737
 20
-7.174378
 30
0.0
  0
SEQEND
  5
4B
100
AcDbEntity
  8
0
390
0
  0
LINE
  5
4C
100
AcDbEntity
  8
0
390
0
  6
Continuous
 62
     7
100
AcDbLine
 10
2.638925
 20
16.486298
 30
0.0
 11
2.556001
 21
16.245485
 31
0.0
  0
ELLIPSE
  5
4D
100
AcDbEntity
  8
0
390
0
  6
Continuous
 62
     7
100
AcDbEllipse
 10
4.35
 20
15.453725
 30
0.0
 11
2.0000000000000018
 21
0.0000000000000278
 31
0.0
210
0.0
220
0.0
230
1.0
 40
0.997191
 41
1.623156204354715
 42
2.5973843386042419
  0
LINE
  5
4E
100
AcDbEntity
  8
0
390
0
  6
Continuous
 62
     7
100
AcDbLine
 10
2.556001
 20
9.945888
 30
0.0
 11
2.638925
 21
9.315538
 31
0.0
  0
ARC
  5
4F
100
AcDbEntity
  8
0
390
0
  6
Continuous
 62
     7
100
AcDbCircle
 10
26.645974
 20
13.095687
 30
0.0
 40
24.29502
210
0.0
220
0.0
230
1.0
100
AcDbArc
 50
172.550754
 51
187.449246
  0
LINE
  5
50
100
AcDbEntity
  8
0
390
0
  6
Continuous
 62
     7
100
AcDbLine
 10
2.638925
 20
-9.315539
 30
0.0
 11
2.556001
 21
-9.945889
 31
0.0
  0
ELLIPSE
  5
51
100
AcDbEntity
  8
0
390
0
  6
Continuous
 62
     7
100
AcDbEllipse
 10
4.35
 20
-15.453725
 30
0.0
 11
-2.0000000000000018
 21
0.0
 31
0.0
210
0.0
220
0.0
230
1.0
 40
0.997191
 41
0.5442083149853235
 42
1.5184364492350664
  0
LINE
  5
52
100
AcDbEntity
  8
0
390
0
  6
Continuous
 62
     7
100
AcDbLine
 10
2.556001
 20
-16.245485
 30
0.0
 11
2.638925
 21
-16.486299
 31
0.0
  0
ARC
  5
53
100
AcDbEntity
  8
0
390
0
  6
Continuous
 62
     7
100
AcDbCircle
 10
27.831252
 20
-13.095687
 30
0.0
 40
25.470759
210
0.0
220
0.0
230
1.0
100
AcDbArc
 50
172.89643
 51
187.10357
  0
LINE
  5
54
100
AcDbEntity
  8
0
390
0
  6
Continuous
 62
     7
100
AcDbLine
 10
0.796907
 20
-8.750859
 30
0.0
 11
0.962737
 21
-8.433479
 31
0.0
  0
LINE
  5
55
100
AcDbEntity
  8
0
390
0
  6
Continuous
 62
     7
100
AcDbLine
 10
-5.684905
 20
-8.652877
 30
0.0
 11
0.796907
 21
-8.750859
 31
0.0
  0
LINE
  5
56
100
AcDbEntity
  8
0
390
0
  6
Continuous
 62
     7
100
AcDbLine
 10
-5.684905
 20
-6.639572
 30
0.0
 11
-5.684905
 21
-8.652877
 31
0.0
  0
LINE
  5
57
100
AcDbEntity
  8
0
390
0
  6
Continuous
 62
     7
100
AcDbLine
 10
-5.684905
 20
-6.639572
 30
0.0
 11
0.796907
 21
-6.639572
 31
0.0
  0
LINE
  5
58
100
AcDbEntity
  8
0
390
0
  6
Continuous
 62
     7
100
AcDbLine
 10
-5.684905
 20
6.639572
 30
0.0
 11
0.796907
 21
6.639572
 31
0.0
  0
LINE
  5
59
100
AcDbEntity
  8
0
390
0
  6
Continuous
 62
     7
100
AcDbLine
 10
-5.684905
 20
8.652877
 30
0.0
 11
-5.684905
 21
6.639572
 31
0.0
  0
LINE
  5
5A
100
AcDbEntity
  8
0
390
0
  6
Continuous
 62
     7
100
AcDbLine
 10
-5.684905
 20
8.652877
 30
0.0
 11
0.796907
 21
8.750859
 31
0.0
  0
LINE
  5
5B
100
AcDbEntity
  8
0
390
0
  6
Continuous
 62
     7
100
AcDbLine
 10
0.962737
 20
8.433479
 30
0.0
 11
0.796907
 21
8.750859
 31
0.0
  0
LINE
  5
5C
100
AcDbEntity
  8
0
390
0
  6
Continuous
 62
     7
100
AcDbLine
 10
-5.684905
 20
6.639572
 30
0.0
 11
-5.684905
 21
-6.639572
 31
0.0
  0
LINE
  5
5D
100
AcDbEntity
  8
0
390
0
  6
Continuous
 62
     7
100
AcDbLine
 10
-7.65
 20
6.639572
 30
0.0
 11
-7.65
 21
6.92109
 31
0.0
  0
ELLIPSE
  5
5E
100
AcDbEntity
  8
0
390
0
  6
Continuous
 62
     7
100
AcDbEllipse
 10
-5.65
 20
6.92109
 30
0.0
 11
-2.0000000000000018
 21
0.0
 31
0.0
210
0.0
220
0.0
230
1.0
 40
0.866025
 41
4.729842272904631
 42
6.2831853071795791
  0
LINE
  5
5F
100
AcDbEntity
  8
0
390
0
  6
Continuous
 62
     7
100
AcDbLine
 10
-7.65
 20
6.639572
 30
0.0
 11
-5.684905
 21
6.639572
 31
0.0
  0
ELLIPSE
  5
60
100
AcDbEntity
  8
0
390
0
  6
Continuous
 62
     7
100
AcDbEllipse
 10
-5.65
 20
-6.92109
 30
0.0
 11
2.0000000000000018
 21
-0.0000000000000278
 31
0.0
210
0.0
220
0.0
230
1.0
 40
0.866025
 41
3.1415926535898033
 42
4.6949356878647581
  0
LINE
  5
61
100
AcDbEntity
  8
0
390
0
  6
Continuous
 62
     7
100
AcDbLine
 10
-7.65
 20
-6.92109
 30
0.0
 11
-7.65
 21
-6.639572
 31
0.0
  0
LINE
  5
62
100
AcDbEntity
  8
0
390
0
  6
Continuous
 62
     7
100
AcDbLine
 10
-5.684905
 20
-6.639572
 30
0.0
 11
-7.65
 21
-6.639572
 31
0.0
  0
LINE
  5
63
100
AcDbEntity
  8
0
390
0
  6
Continuous
 62
     7
100
AcDbLine
 10
-7.65
 20
-6.639572
 30
0.0
 11
-7.65
 21
6.639572
 31
0.0
  0
ELLIPSE
  5
64
100
AcDbEntity
  8
0
390
0
  6
Continuous
 62
     7
100
AcDbEllipse
 10
0.762002
 20
10.482646
 30
0.0
 11
-1.866909201519634
 21
-0.7173911299154512
 31
0.0
210
0.0
220
0.0
230
1.0
 40
0.852277
 41
1.27207214531121
 42
2.4054170790887333
  0
ELLIPSE
  5
65
100
AcDbEntity
  8
0
390
0
  6
Continuous
 62
     7
100
AcDbEllipse
 10
0.762002
 20
-10.482646
 30
0.0
 11
-1.8669092015629329
 21
0.7173911298027358
 31
0.0
210
0.0
220
0.0
230
1.0
 40
0.852277
 41
3.8777682280002992
 42
5.0111131604953911
  0
POLYLINE
  5
66
100
AcDbEntity
  8
0
390
0
  6
Continuous
 62
     7
100
AcDb2dPolyline
 66
     1
 10
0.0
 20
0.0
 30
0.0
 40
0.1
 41
0.1
  0
VERTEX
  5
67
100
AcDbEntity
  8
0
390
0
 62
     7
100
AcDbVertex
100
AcDb2dVertex
 10
0.796907
 20
8.750859
 30
0.0
 42
-0.079318
  0
VERTEX
  5
68
100
AcDbEntity
  8
0
390
0
 62
     7
100
AcDbVertex
100
AcDb2dVertex
 10
0.43819
 20
10.747338
 30
0.0
 42
-0.104652
  0
VERTEX
  5
69
100
AcDbEntity
  8
0
390
0
 62
     7
100
AcDbVertex
100
AcDb2dVertex
 10
0.796907
 20
15.390431
 30
0.0
  0
SEQEND
  5
6A
100
AcDbEntity
  8
0
390
0
  0
ELLIPSE
  5
6B
100
AcDbEntity
  8
0
390
0
  6
Continuous
 62
     7
100
AcDbEllipse
 10
0.762002
 20
17.122218
 30
0.0
 11
-1.8696579255772225
 21
0.7101966215959377
 31
0.0
210
0.0
220
0.0
230
1.0
 40
0.849002
 41
1.9005313490254316
 42
3.0338762815202247
  0
ELLIPSE
  5
6C
100
AcDbEntity
  8
0
390
0
  6
Continuous
 62
     7
100
AcDbEllipse
 10
0.762002
 20
-17.122218
 30
0.0
 11
-1.8696579255352008
 21
-0.7101966217065991
 31
0.0
210
0.0
220
0.0
230
1.0
 40
0.849002
 41
3.249309025648214
 42
4.3826539594257357
  0
POLYLINE
  5
6D
100
AcDbEntity
  8
0
390
0
  6
Continuous
 62
     7
100
AcDb2dPolyline
 66
     1
 10
0.0
 20
0.0
 30
0.0
 40
0.1
 41
0.1
  0
VERTEX
  5
6E
100
AcDbEntity
  8
0
390
0
 62
     7
100
AcDbVertex
100
AcDb2dVertex
 10
0.796907
 20
-15.390431
 30
0.0
 42
-0.078493
  0
VERTEX
  5
6F
100
AcDbEntity
  8
0
390
0
 62
     7
100
AcDbVertex
100
AcDb2dVertex
 10
0.43819
 20
-13.383107
 30
0.0
 42
-0.105421
  0
VERTEX
  5
70
100
AcDbEntity
  8
0
390
0
 62
     7
100
AcDbVertex
100
AcDb2dVertex
 10
0.796907
 20
-8.750859
 30
0.0
  0
SEQEND
  5
71
100
AcDbEntity
  8
0
390
0
  0
LINE
  5
72
100
AcDbEntity
  8
0
390
0
  6
Continuous
 62
     7
100
AcDbLine
 10
-5.684905
 20
15.292449
 30
0.0
 11
-5.684905
 21
8.652877
 31
0.0
  0
LINE
  5
73
100
AcDbEntity
  8
0
390
0
  6
Continuous
 62
     7
100
AcDbLine
 10
-5.684905
 20
15.292449
 30
0.0
 11
0.796907
 21
15.390431
 31
0.0
  0
LINE
  5
74
100
AcDbEntity
  8
0
390
0
  6
Continuous
 62
     7
100
AcDbLine
 10
-5.684905
 20
-8.652877
 30
0.0
 11
-5.684905
 21
-15.292449
 31
0.0
  0
LINE
  5
75
100
AcDbEntity
  8
0
390
0
  6
Continuous
 62
     7
100
AcDbLine
 10
-5.684905
 20
-15.292449
 30
0.0
 11
0.796907
 21
-15.390431
 31
0.0
  0
LINE
  5
76
100
AcDbEntity
  8
0
390
0
  6
Continuous
 62
     7
100
AcDbLine
 10
-7.65
 20
6.92109
 30
0.0
 11
-7.65
 21
13.560662
 31
0.0
  0
ELLIPSE
  5
77
100
AcDbEntity
  8
0
390
0
  6
Continuous
 62
     7
100
AcDbEllipse
 10
-5.65
 20
13.560662
 30
0.0
 11
-2.0000000000000018
 21
0.0
 31
0.0
210
0.0
220
0.0
230
1.0
 40
0.866025
 41
4.7298422729046354
 42
6.2831853071795791
  0
ELLIPSE
  5
78
100
AcDbEntity
  8
0
390
0
  6
Continuous
 62
     7
100
AcDbEllipse
 10
-5.65
 20
-13.560662
 30
0.0
 11
2.0000000000000018
 21
-0.0000000000000278
 31
0.0
210
0.0
220
0.0
230
1.0
 40
0.866025
 41
3.1415926535897984
 42
4.6949356878647599
  0
LINE
  5
79
100
AcDbEntity
  8
0
390
0
  6
Continuous
 62
     7
100
AcDbLine
 10
-7.65
 20
-13.560662
 30
0.0
 11
-7.65
 21
-6.92109
 31
0.0
  0
LINE
  5
7A
100
AcDbEntity
  8
0
390
0
  6
Continuous
 62
     7
100
AcDbLine
 10
0.796907
 20
15.390431
 30
0.0
 11
0.962737
 21
15.607857
 31
0.0
  0
ELLIPSE
  5
7B
100
AcDbEntity
  8
0
390
0
  6
Continuous
 62
     7
100
AcDbEllipse
 10
0.92785
 20
17.518872
 30
0.0
 11
-1.8186291718504388
 21
0.8322186823753464
 31
0.0
210
0.0
220
0.0
230
0.9999999999999999
 40
0.946267
 41
1.9970441277180679
 42
3.0213902127745929
  0
ELLIPSE
  5
7C
100
AcDbEntity
  8
0
390
0
  6
Continuous
 62
     7
100
AcDbEllipse
 10
0.92785
 20
-17.518872
 30
0.0
 11
-1.8186291718506609
 21
-0.8322186823748745
 31
0.0
210
0.0
220
0.0
230
1.0
 40
0.946267
 41
3.261795094404961
 42
4.2861411794617332
  0
LINE
  5
7D
100
AcDbEntity
  8
0
390
0
  6
Continuous
 62
     7
100
AcDbLine
 10
0.962737
 20
-15.607858
 30
0.0
 11
0.796907
 21
-15.390431
 31
0.0
  0
LINE
  5
7E
100
AcDbEntity
  8
0
390
0
  6
Continuous
 62
     7
100
AcDbLine
 10
2.671798
 20
16.607242
 30
0.0
 11
2.638925
 21
16.486298
 31
0.0
  0
LINE
  5
7F
100
AcDbEntity
  8
0
390
0
  6
Continuous
 62
     7
100
AcDbLine
 10
2.638925
 20
-16.486299
 30
0.0
 11
2.671798
 21
-16.607243
 31
0.0
  0
LINE
  5
80
100
AcDbEntity
  8
0
390
0
  6
Continuous
 62
     7
100
AcDbLine
 10
0.962737
 20
15.607857
 30
0.0
 11
1.043478
 21
15.718321
 31
0.0
  0
LINE
  5
81
100
AcDbEntity
  8
0
390
0
  6
Continuous
 62
     7
100
AcDbLine
 10
1.043478
 20
-15.718321
 30
0.0
 11
0.962737
 21
-15.607858
 31
0.0
  0
LINE
  5
82
100
AcDbEntity
  8
0
390
0
  6
Continuous
 62
     7
100
AcDbLine
 10
-5.684864
 20
15.601017
 30
0.0
 11
-5.684905
 21
15.292449
 31
0.0
  0
LINE
  5
83
100
AcDbEntity
  8
0
390
0
  6
Continuous
 62
     7
100
AcDbLine
 10
-5.684905
 20
-15.292449
 30
0.0
 11
-5.684864
 21
-15.601017
 31
0.0
  0
LINE
  5
84
100
AcDbEntity
  8
0
390
0
  6
Continuous
 62
     7
100
AcDbLine
 10
-7.65
 20
13.599056
 30
0.0
 11
-7.65
 21
13.601145
 31
0.0
  0
LINE
  5
85
100
AcDbEntity
  8
0
390
0
  6
Continuous
 62
     7
100
AcDbLine
 10
-7.65
 20
13.560662
 30
0.0
 11
-7.65
 21
13.599056
 31
0.0
  0
LINE
  5
86
100
AcDbEntity
  8
0
390
0
  6
Continuous
 62
     7
100
AcDbLine
 10
-7.65
 20
-13.601141
 30
0.0
 11
-7.65
 21
-13.560662
 31
0.0
  0
LINE
  5
87
100
AcDbEntity
  8
0
390
0
  6
Continuous
 62
     7
100
AcDbLine
 10
7.65
 20
17.672946
 30
0.0
 11
4.230348
 21
17.493729
 31
0.0
  0
LINE
  5
88
100
AcDbEntity
  8
0
390
0
  6
Continuous
 62
     7
100
AcDbLine
 10
4.230348
 20
-17.493729
 30
0.0
 11
7.65
 21
-17.672946
 31
0.0
  0
ARC
  5
89
100
AcDbEntity
  8
0
390
0
  6
Continuous
 62
     7
100
AcDbCircle
 10
4.334982
 20
15.496468
 30
0.0
 40
2.0
210
0.0
220
0.0
230
1.0
100
AcDbArc
 50
93.0
 51
146.262615
  0
ARC
  5
8A
100
AcDbEntity
  8
0
390
0
  6
Continuous
 62
     7
100
AcDbCircle
 10
4.334982
 20
-15.496468
 30
0.0
 40
2.0
210
0.0
220
0.0
230
1.0
100
AcDbArc
 50
213.737385
 51
267.0
  0
ARC
  5
8B
100
AcDbEntity
  8
0
390
0
  6
Continuous
 62
     7
100
AcDbCircle
 10
1.008614
 20
17.718017
 30
0.0
 40
2.0
210
0.0
220
0.0
230
1.0
100
AcDbArc
 50
270.998809
 51
326.262615
  0
ARC
  5
8C
100
AcDbEntity
  8
0
390
0
  6
Continuous
 62
     7
100
AcDbCircle
 10
1.008614
 20
-17.718017
 30
0.0
 40
2.0
210
0.0
220
0.0
230
1.0
100
AcDbArc
 50
33.737385
 51
89.001191
  0
LINE
  5
8D
100
AcDbEntity
  8
0
390
0
  6
Continuous
 62
     7
100
AcDbLine
 10
1.043478
 20
15.718321
 30
0.0
 11
-5.684864
 21
15.601017
 31
0.0
  0
LINE
  5
8E
100
AcDbEntity
  8
0
390
0
  6
Continuous
 62
     7
100
AcDbLine
 10
-5.684864
 20
15.601017
 30
0.0
 11
-5.725285
 21
15.600312
 31
0.0
  0
LINE
  5
8F
100
AcDbEntity
  8
0
390
0
  6
Continuous
 62
     7
100
AcDbLine
 10
-5.725285
 20
-15.600312
 30
0.0
 11
-5.684864
 21
-15.601017
 31
0.0
  0
LINE
  5
90
100
AcDbEntity
  8
0
390
0
  6
Continuous
 62
     7
100
AcDbLine
 10
-5.684864
 20
-15.601017
 30
0.0
 11
1.043478
 21
-15.718321
 31
0.0
  0
ARC
  5
91
100
AcDbEntity
  8
0
390
0
  6
Continuous
 62
     7
100
AcDbCircle
 10
-5.65
 20
13.601321
 30
0.0
 40
2.0
210
0.0
220
0.0
230
1.0
100
AcDbArc
 50
90.998809
 51
180.0
  0
ARC
  5
92
100
AcDbEntity
  8
0
390
0
  6
Continuous
 62
     7
100
AcDbCircle
 10
-5.65
 20
-13.601321
 30
0.0
 40
2.0
210
0.0
220
0.0
230
1.0
100
AcDbArc
 50
180.0
 51
269.001191
  0
CIRCLE
  5
93
100
AcDbEntity
  8
0
390
0
  6
Continuous
 62
     7
100
AcDbCircle
 10
95.325578
 20
0.0
 30
0.0
 40
15.672946
210
0.0
220
0.0
230
1.0
  0
CIRCLE
  5
94
100
AcDbEntity
  8
0
390
0
  6
Continuous
 62
     7
100
AcDbCircle
 10
95.325578
 20
0.0
 30
0.0
 40
17.672946
210
0.0
220
0.0
230
1.0
  0
ARC
  5
95
100
AcDbEntity
  8
0
390
0
  6
Continuous
 62
     7
100
AcDbCircle
 10
95.325578
 20
0.0
 30
0.0
 40
15.5
210
0.0
220
0.0
230
1.0
100
AcDbArc
 50
154.268439
 51
205.731561
  0
ARC
  5
96
100
AcDbEntity
  8
0
390
0
  6
Continuous
 62
     7
100
AcDbCircle
 10
95.325578
 20
0.0
 30
0.0
 40
15.5
210
0.0
220
0.0
230
1.0
100
AcDbArc
 50
205.731561
 51
214.268439
  0
ARC
  5
97
100
AcDbEntity
  8
0
390
0
  6
Continuous
 62
     7
100
AcDbCircle
 10
95.325578
 20
0.0
 30
0.0
 40
15.5
210
0.0
220
0.0
230
1.0
100
AcDbArc
 50
214.268439
 51
265.731561
  0
ARC
  5
98
100
AcDbEntity
  8
0
390
0
  6
Continuous
 62
     7
100
AcDbCircle
 10
95.325578
 20
0.0
 30
0.0
 40
15.5
210
0.0
220
0.0
230
1.0
100
AcDbArc
 50
265.731561
 51
274.268439
  0
ARC
  5
99
100
AcDbEntity
  8
0
390
0
  6
Continuous
 62
     7
100
AcDbCircle
 10
95.325578
 20
0.0
 30
0.0
 40
15.5
210
0.0
220
0.0
230
1.0
100
AcDbArc
 50
274.268439
 51
325.731561
  0
ARC
  5
9A
100
AcDbEntity
  8
0
390
0
  6
Continuous
 62
     7
100
AcDbCircle
 10
95.325578
 20
0.0
 30
0.0
 40
15.5
210
0.0
220
0.0
230
1.0
100
AcDbArc
 50
325.731561
 51
334.268439
  0
ARC
  5
9B
100
AcDbEntity
  8
0
390
0
  6
Continuous
 62
     7
100
AcDbCircle
 10
95.325578
 20
0.0
 30
0.0
 40
15.5
210
0.0
220
0.0
230
1.0
100
AcDbArc
 50
334.268439
 51
25.731561
  0
ARC
  5
9C
100
AcDbEntity
  8
0
390
0
  6
Continuous
 62
     7
100
AcDbCircle
 10
95.325578
 20
0.0
 30
0.0
 40
15.5
210
0.0
220
0.0
230
1.0
100
AcDbArc
 50
25.731561
 51
34.268439
  0
ARC
  5
9D
100
AcDbEntity
  8
0
390
0
  6
Continuous
 62
     7
100
AcDbCircle
 10
95.325578
 20
0.0
 30
0.0
 40
15.5
210
0.0
220
0.0
230
1.0
100
AcDbArc
 50
34.268439
 51
85.731561
  0
ARC
  5
9E
100
AcDbEntity
  8
0
390
0
  6
Continuous
 62
     7
100
AcDbCircle
 10
95.325578
 20
0.0
 30
0.0
 40
15.5
210
0.0
220
0.0
230
1.0
100
AcDbArc
 50
85.731561
 51
94.268439
  0
ARC
  5
9F
100
AcDbEntity
  8
0
390
0
  6
Continuous
 62
     7
100
AcDbCircle
 10
95.325578
 20
0.0
 30
0.0
 40
15.5
210
0.0
220
0.0
230
1.0
100
AcDbArc
 50
94.268439
 51
145.731561
  0
ARC
  5
A0
100
AcDbEntity
  8
0
390
0
  6
Continuous
 62
     7
100
AcDbCircle
 10
95.325578
 20
0.0
 30
0.0
 40
15.5
210
0.0
220
0.0
230
1.0
100
AcDbArc
 50
145.731561
 51
154.268439
  0
LINE
  5
A1
100
AcDbEntity
  8
0
390
0
  6
Continuous
 62
     7
100
AcDbLine
 10
83.609841
 20
7.052715
 30
0.0
 11
95.075616
 21
13.672484
 31
0.0
  0
LINE
  5
A2
100
AcDbEntity
  8
0
390
0
  6
Continuous
 62
     7
100
AcDbLine
 10
82.609993
 20
8.784502
 30
0.0
 11
83.609841
 21
7.052715
 31
0.0
  0
LINE
  5
A3
100
AcDbEntity
  8
0
390
0
  6
Continuous
 62
     7
100
AcDbLine
 10
94.075768
 20
15.404271
 30
0.0
 11
82.609993
 21
8.784502
 31
0.0
  0
LINE
  5
A4
100
AcDbEntity
  8
0
390
0
  6
Continuous
 62
     7
100
AcDbLine
 10
94.075768
 20
15.404271
 30
0.0
 11
95.075616
 21
13.672484
 31
0.0
  0
LINE
  5
A5
100
AcDbEntity
  8
0
390
0
  6
Continuous
 62
     7
100
AcDbLine
 10
82.609993
 20
-8.784502
 30
0.0
 11
94.075768
 21
-15.404271
 31
0.0
  0
LINE
  5
A6
100
AcDbEntity
  8
0
390
0
  6
Continuous
 62
     7
100
AcDbLine
 10
82.609993
 20
-8.784502
 30
0.0
 11
83.609841
 21
-7.052715
 31
0.0
  0
LINE
  5
A7
100
AcDbEntity
  8
0
390
0
  6
Continuous
 62
     7
100
AcDbLine
 10
95.075616
 20
-13.672484
 30
0.0
 11
83.609841
 21
-7.052715
 31
0.0
  0
LINE
  5
A8
100
AcDbEntity
  8
0
390
0
  6
Continuous
 62
     7
100
AcDbLine
 10
95.075616
 20
-13.672484
 30
0.0
 11
94.075768
 21
-15.404271
 31
0.0
  0
LINE
  5
A9
100
AcDbEntity
  8
0
390
0
  6
Continuous
 62
     7
100
AcDbLine
 10
83.609841
 20
-7.052715
 30
0.0
 11
83.591076
 21
-7.041343
 31
0.0
  0
ELLIPSE
  5
AA
100
AcDbEntity
  8
0
390
0
  6
Continuous
 62
     7
100
AcDbEllipse
 10
83.860564
 20
-6.619329
 30
0.0
 11
-2.1655032314852054
 21
-1.2502538736289814
 31
0.0
210
0.0
220
0.0
230
0.9999999999999999
 40
0.999797
 41
0.4796428682406519
 42
0.5235108445877261
  0
LINE
  5
AB
100
AcDbEntity
  8
0
390
0
  6
Continuous
 62
     7
100
AcDbLine
 10
82.516245
 20
-8.727599
 30
0.0
 11
83.591076
 21
-7.041343
 31
0.0
  0
POLYLINE
  5
AC
100
AcDbEntity
  8
0
390
0
  6
Continuous
 62
     7
100
AcDb2dPolyline
 66
     1
 10
0.0
 20
0.0
 30
0.0
 40
0.1
 41
0.1
  0
VERTEX
  5
AD
100
AcDbEntity
  8
0
390
0
 62
     7
100
AcDbVertex
100
AcDb2dVertex
 10
83.360345
 20
6.641705
 30
0.0
  0
VERTEX
  5
AE
100
AcDbEntity
  8
0
390
0
 62
     7
100
AcDbVertex
100
AcDb2dVertex
 10
83.361532
 20
6.660795
 30
0.0
  0
VERTEX
  5
AF
100
AcDbEntity
  8
0
390
0
 62
     7
100
AcDbVertex
100
AcDb2dVertex
 10
83.363437
 20
6.679813
 30
0.0
  0
VERTEX
  5
B0
100
AcDbEntity
  8
0
390
0
 62
     7
100
AcDbVertex
100
AcDb2dVertex
 10
83.366053
 20
6.698719
 30
0.0
  0
VERTEX
  5
B1
100
AcDbEntity
  8
0
390
0
 62
     7
100
AcDbVertex
100
AcDb2dVertex
 10
83.369376
 20
6.717474
 30
0.0
  0
VERTEX
  5
B2
100
AcDbEntity
  8
0
390
0
 62
     7
100
AcDbVertex
100
AcDb2dVertex
 10
83.373519
 20
6.736543
 30
0.0
  0
VERTEX
  5
B3
100
AcDbEntity
  8
0
390
0
 62
     7
100
AcDbVertex
100
AcDb2dVertex
 10
83.378406
 20
6.755452
 30
0.0
  0
VERTEX
  5
B4
100
AcDbEntity
  8
0
390
0
 62
     7
100
AcDbVertex
100
AcDb2dVertex
 10
83.384031
 20
6.774167
 30
0.0
  0
VERTEX
  5
B5
100
AcDbEntity
  8
0
390
0
 62
     7
100
AcDbVertex
100
AcDb2dVertex
 10
83.390389
 20
6.792653
 30
0.0
  0
VERTEX
  5
B6
100
AcDbEntity
  8
0
390
0
 62
     7
100
AcDbVertex
100
AcDb2dVertex
 10
83.397883
 20
6.811864
 30
0.0
  0
VERTEX
  5
B7
100
AcDbEntity
  8
0
390
0
 62
     7
100
AcDbVertex
100
AcDb2dVertex
 10
83.40619
 20
6.830792
 30
0.0
  0
VERTEX
  5
B8
100
AcDbEntity
  8
0
390
0
 62
     7
100
AcDbVertex
100
AcDb2dVertex
 10
83.415286
 20
6.849376
 30
0.0
  0
VERTEX
  5
B9
100
AcDbEntity
  8
0
390
0
 62
     7
100
AcDbVertex
100
AcDb2dVertex
 10
83.425147
 20
6.867556
 30
0.0
  0
VERTEX
  5
BA
100
AcDbEntity
  8
0
390
0
 62
     7
100
AcDbVertex
100
AcDb2dVertex
 10
83.436185
 20
6.885973
 30
0.0
  0
VERTEX
  5
BB
100
AcDbEntity
  8
0
390
0
 62
     7
100
AcDbVertex
100
AcDb2dVertex
 10
83.448021
 20
6.903906
 30
0.0
  0
VERTEX
  5
BC
100
AcDbEntity
  8
0
390
0
 62
     7
100
AcDbVertex
100
AcDb2dVertex
 10
83.460608
 20
6.921295
 30
0.0
  0
VERTEX
  5
BD
100
AcDbEntity
  8
0
390
0
 62
     7
100
AcDbVertex
100
AcDb2dVertex
 10
83.473902
 20
6.938081
 30
0.0
  0
VERTEX
  5
BE
100
AcDbEntity
  8
0
390
0
 62
     7
100
AcDbVertex
100
AcDb2dVertex
 10
83.490874
 20
6.957526
 30
0.0
  0
VERTEX
  5
BF
100
AcDbEntity
  8
0
390
0
 62
     7
100
AcDbVertex
100
AcDb2dVertex
 10
83.50882
 20
6.976056
 30
0.0
  0
VERTEX
  5
C0
100
AcDbEntity
  8
0
390
0
 62
     7
100
AcDbVertex
100
AcDb2dVertex
 10
83.527675
 20
6.993616
 30
0.0
  0
VERTEX
  5
C1
100
AcDbEntity
  8
0
390
0
 62
     7
100
AcDbVertex
100
AcDb2dVertex
 10
83.542771
 20
7.006443
 30
0.0
  0
VERTEX
  5
C2
100
AcDbEntity
  8
0
390
0
 62
     7
100
AcDbVertex
100
AcDb2dVertex
 10
83.558393
 20
7.018691
 30
0.0
  0
VERTEX
  5
C3
100
AcDbEntity
  8
0
390
0
 62
     7
100
AcDbVertex
100
AcDb2dVertex
 10
83.574506
 20
7.030333
 30
0.0
  0
VERTEX
  5
C4
100
AcDbEntity
  8
0
390
0
 62
     7
100
AcDbVertex
100
AcDb2dVertex
 10
83.591076
 20
7.041343
 30
0.0
  0
SEQEND
  5
C5
100
AcDbEntity
  8
0
390
0
  0
LINE
  5
C6
100
AcDbEntity
  8
0
390
0
  6
Continuous
 62
     7
100
AcDbLine
 10
81.362589
 20
6.729408
 30
0.0
 11
83.360345
 21
6.641705
 31
0.0
  0
LINE
  5
C7
100
AcDbEntity
  8
0
390
0
  6
Continuous
 62
     7
100
AcDbLine
 10
82.516245
 20
8.727599
 30
0.0
 11
83.591076
 21
7.041343
 31
0.0
  0
LINE
  5
C8
100
AcDbEntity
  8
0
390
0
  6
Continuous
 62
     7
100
AcDbLine
 10
83.591076
 20
7.041343
 30
0.0
 11
83.609841
 21
7.052715
 31
0.0
  0
ELLIPSE
  5
C9
100
AcDbEntity
  8
0
390
0
  6
Continuous
 62
     7
100
AcDbEllipse
 10
83.860564
 20
6.619329
 30
0.0
 11
-2.1655032314852054
 21
1.2502538736289814
 31
0.0
210
0.0
220
0.0
230
1.0
 40
0.999797
 41
5.7596744625918594
 42
5.8035424389389547
  0
LINE
  5
CA
100
AcDbEntity
  8
0
390
0
  6
Continuous
 62
     7
100
AcDbLine
 10
83.359879
 20
6.619768
 30
0.0
 11
83.360345
 21
6.641705
 31
0.0
  0
LINE
  5
CB
100
AcDbEntity
  8
0
390
0
  6
Continuous
 62
     7
100
AcDbLine
 10
81.360183
 20
6.619768
 30
0.0
 11
83.359879
 21
6.619768
 31
0.0
  0
ELLIPSE
  5
CC
100
AcDbEntity
  8
0
390
0
  6
Continuous
 62
     7
100
AcDbEllipse
 10
83.860564
 20
6.619329
 30
0.0
 11
-2.1655032314852054
 21
1.2502538736289814
 31
0.0
210
0.0
220
0.0
230
1.0
 40
0.999797
 41
0.47964286824063
 42
0.5235108445877251
  0
LINE
  5
CD
100
AcDbEntity
  8
0
390
0
  6
Continuous
 62
     7
100
AcDbLine
 10
83.359879
 20
-6.619769
 30
0.0
 11
83.359879
 21
6.619768
 31
0.0
  0
LINE
  5
CE
100
AcDbEntity
  8
0
390
0
  6
Continuous
 62
     7
100
AcDbLine
 10
81.360183
 20
-6.619769
 30
0.0
 11
83.359879
 21
-6.619769
 31
0.0
  0
LINE
  5
CF
100
AcDbEntity
  8
0
390
0
  6
Continuous
 62
     7
100
AcDbLine
 10
81.360183
 20
6.619768
 30
0.0
 11
81.360183
 21
-6.619769
 31
0.0
  0
POLYLINE
  5
D0
100
AcDbEntity
  8
0
390
0
  6
Continuous
 62
     7
100
AcDb2dPolyline
 66
     1
 10
0.0
 20
0.0
 30
0.0
 40
0.1
 41
0.1
  0
VERTEX
  5
D1
100
AcDbEntity
  8
0
390
0
 62
     7
100
AcDbVertex
100
AcDb2dVertex
 10
83.591076
 20
-7.041343
 30
0.0
  0
VERTEX
  5
D2
100
AcDbEntity
  8
0
390
0
 62
     7
100
AcDbVertex
100
AcDb2dVertex
 10
83.575137
 20
-7.03077
 30
0.0
  0
VERTEX
  5
D3
100
AcDbEntity
  8
0
390
0
 62
     7
100
AcDbVertex
100
AcDb2dVertex
 10
83.559619
 20
-7.019612
 30
0.0
  0
VERTEX
  5
D4
100
AcDbEntity
  8
0
390
0
 62
     7
100
AcDbVertex
100
AcDb2dVertex
 10
83.544554
 20
-7.007893
 30
0.0
  0
VERTEX
  5
D5
100
AcDbEntity
  8
0
390
0
 62
     7
100
AcDbVertex
100
AcDb2dVertex
 10
83.529974
 20
-6.995637
 30
0.0
  0
VERTEX
  5
D6
100
AcDbEntity
  8
0
390
0
 62
     7
100
AcDbVertex
100
AcDb2dVertex
 10
83.515531
 20
-6.982516
 30
0.0
  0
VERTEX
  5
D7
100
AcDbEntity
  8
0
390
0
 62
     7
100
AcDbVertex
100
AcDb2dVertex
 10
83.501598
 20
-6.968829
 30
0.0
  0
VERTEX
  5
D8
100
AcDbEntity
  8
0
390
0
 62
     7
100
AcDbVertex
100
AcDb2dVertex
 10
83.488203
 20
-6.954599
 30
0.0
  0
VERTEX
  5
D9
100
AcDbEntity
  8
0
390
0
 62
     7
100
AcDbVertex
100
AcDb2dVertex
 10
83.475374
 20
-6.93985
 30
0.0
  0
VERTEX
  5
DA
100
AcDbEntity
  8
0
390
0
 62
     7
100
AcDbVertex
100
AcDb2dVertex
 10
83.462483
 20
-6.923755
 30
0.0
  0
VERTEX
  5
DB
100
AcDbEntity
  8
0
390
0
 62
     7
100
AcDbVertex
100
AcDb2dVertex
 10
83.450244
 20
-6.907097
 30
0.0
  0
VERTEX
  5
DC
100
AcDbEntity
  8
0
390
0
 62
     7
100
AcDbVertex
100
AcDb2dVertex
 10
83.438698
 20
-6.889927
 30
0.0
  0
VERTEX
  5
DD
100
AcDbEntity
  8
0
390
0
 62
     7
100
AcDbVertex
100
AcDb2dVertex
 10
83.427885
 20
-6.872298
 30
0.0
  0
VERTEX
  5
DE
100
AcDbEntity
  8
0
390
0
 62
     7
100
AcDbVertex
100
AcDb2dVertex
 10
83.417454
 20
-6.85353
 30
0.0
  0
VERTEX
  5
DF
100
AcDbEntity
  8
0
390
0
 62
     7
100
AcDbVertex
100
AcDb2dVertex
 10
83.407841
 20
-6.834313
 30
0.0
  0
VERTEX
  5
E0
100
AcDbEntity
  8
0
390
0
 62
     7
100
AcDbVertex
100
AcDb2dVertex
 10
83.399075
 20
-6.814717
 30
0.0
  0
VERTEX
  5
E1
100
AcDbEntity
  8
0
390
0
 62
     7
100
AcDbVertex
100
AcDb2dVertex
 10
83.391186
 20
-6.794812
 30
0.0
  0
VERTEX
  5
E2
100
AcDbEntity
  8
0
390
0
 62
     7
100
AcDbVertex
100
AcDb2dVertex
 10
83.382832
 20
-6.770391
 30
0.0
  0
VERTEX
  5
E3
100
AcDbEntity
  8
0
390
0
 62
     7
100
AcDbVertex
100
AcDb2dVertex
 10
83.375757
 20
-6.745585
 30
0.0
  0
VERTEX
  5
E4
100
AcDbEntity
  8
0
390
0
 62
     7
100
AcDbVertex
100
AcDb2dVertex
 10
83.369977
 20
-6.720476
 30
0.0
  0
VERTEX
  5
E5
100
AcDbEntity
  8
0
390
0
 62
     7
100
AcDbVertex
100
AcDb2dVertex
 10
83.366417
 20
-6.700989
 30
0.0
  0
VERTEX
  5
E6
100
AcDbEntity
  8
0
390
0
 62
     7
100
AcDbVertex
100
AcDb2dVertex
 10
83.363621
 20
-6.681336
 30
0.0
  0
VERTEX
  5
E7
100
AcDbEntity
  8
0
390
0
 62
     7
100
AcDbVertex
100
AcDb2dVertex
 10
83.361595
 20
-6.66156
 30
0.0
  0
VERTEX
  5
E8
100
AcDbEntity
  8
0
390
0
 62
     7
100
AcDbVertex
100
AcDb2dVertex
 10
83.360345
 20
-6.641705
 30
0.0
  0
SEQEND
  5
E9
100
AcDbEntity
  8
0
390
0
  0
LINE
  5
EA
100
AcDbEntity
  8
0
390
0
  6
Continuous
 62
     7
100
AcDbLine
 10
81.362589
 20
-6.729409
 30
0.0
 11
83.360345
 21
-6.641705
 31
0.0
  0
ELLIPSE
  5
EB
100
AcDbEntity
  8
0
390
0
  6
Continuous
 62
     7
100
AcDbEllipse
 10
83.860564
 20
-6.619329
 30
0.0
 11
-2.1655032314852054
 21
-1.2502538736289814
 31
0.0
210
0.0
220
0.0
230
0.9999999999999999
 40
0.999797
 41
5.7596744625918612
 42
5.8035424389389343
  0
LINE
  5
EC
100
AcDbEntity
  8
0
390
0
  6
Continuous
 62
     7
100
AcDbLine
 10
83.360345
 20
-6.641705
 30
0.0
 11
83.359879
 21
-6.619769
 31
0.0
  0
ELLIPSE
  5
ED
100
AcDbEntity
  8
0
390
0
  6
Continuous
 62
     7
100
AcDbEllipse
 10
95.325578
 20
-13.238658
 30
0.0
 11
0.0
 21
-2.5005077472579629
 31
0.0
210
0.0
220
0.0
230
0.9999999999999999
 40
0.999797
 41
5.7596744625918612
 42
5.8035424389389458
  0
ELLIPSE
  5
EE
100
AcDbEntity
  8
0
390
0
  6
Continuous
 62
     7
100
AcDbEllipse
 10
95.325578
 20
13.238657
 30
0.0
 11
0.0
 21
2.5005077472579629
 31
0.0
210
0.0
220
0.0
230
0.9999999999999999
 40
0.999797
 41
0.4796428682406399
 42
0.5235108445877255
  0
LINE
  5
EF
100
AcDbEntity
  8
0
390
0
  6
Continuous
 62
     7
100
AcDbLine
 10
108.041163
 20
8.784502
 30
0.0
 11
96.575388
 21
15.404271
 31
0.0
  0
LINE
  5
F0
100
AcDbEntity
  8
0
390
0
  6
Continuous
 62
     7
100
AcDbLine
 10
107.041315
 20
7.052715
 30
0.0
 11
108.041163
 21
8.784502
 31
0.0
  0
LINE
  5
F1
100
AcDbEntity
  8
0
390
0
  6
Continuous
 62
     7
100
AcDbLine
 10
95.57554
 20
13.672484
 30
0.0
 11
107.041315
 21
7.052715
 31
0.0
  0
LINE
  5
F2
100
AcDbEntity
  8
0
390
0
  6
Continuous
 62
     7
100
AcDbLine
 10
96.575388
 20
15.404271
 30
0.0
 11
95.57554
 21
13.672484
 31
0.0
  0
LINE
  5
F3
100
AcDbEntity
  8
0
390
0
  6
Continuous
 62
     7
100
AcDbLine
 10
95.556309
 20
13.683048
 30
0.0
 11
95.57554
 21
13.672484
 31
0.0
  0
LINE
  5
F4
100
AcDbEntity
  8
0
390
0
  6
Continuous
 62
     7
100
AcDbLine
 10
96.479234
 20
15.457007
 30
0.0
 11
95.556309
 21
13.683048
 31
0.0
  0
ELLIPSE
  5
F5
100
AcDbEntity
  8
0
390
0
  6
Continuous
 62
     7
100
AcDbEllipse
 10
95.325578
 20
13.238657
 30
0.0
 11
0.0
 21
2.5005077472579629
 31
0.0
210
0.0
220
0.0
230
0.9999999999999999
 40
0.999797
 41
5.7596744625918612
 42
5.8035424389389467
  0
LINE
  5
F6
100
AcDbEntity
  8
0
390
0
  6
Continuous
 62
     7
100
AcDbLine
 10
95.094847
 20
-13.683048
 30
0.0
 11
94.171922
 21
-15.457008
 31
0.0
  0
POLYLINE
  5
F7
100
AcDbEntity
  8
0
390
0
  6
Continuous
 62
     7
100
AcDb2dPolyline
 66
     1
 10
0.0
 20
0.0
 30
0.0
 40
0.1
 41
0.1
  0
VERTEX
  5
F8
100
AcDbEntity
  8
0
390
0
 62
     7
100
AcDbVertex
100
AcDb2dVertex
 10
95.556309
 20
-13.683048
 30
0.0
  0
VERTEX
  5
F9
100
AcDbEntity
  8
0
390
0
 62
     7
100
AcDbVertex
100
AcDb2dVertex
 10
95.539237
 20
-13.691541
 30
0.0
  0
VERTEX
  5
FA
100
AcDbEntity
  8
0
390
0
 62
     7
100
AcDbVertex
100
AcDb2dVertex
 10
95.521886
 20
-13.699374
 30
0.0
  0
VERTEX
  5
FB
100
AcDbEntity
  8
0
390
0
 62
     7
100
AcDbVertex
100
AcDb2dVertex
 10
95.504151
 20
-13.706586
 30
0.0
  0
VERTEX
  5
FC
100
AcDbEntity
  8
0
390
0
 62
     7
100
AcDbVertex
100
AcDb2dVertex
 10
95.486176
 20
-13.713111
 30
0.0
  0
VERTEX
  5
FD
100
AcDbEntity
  8
0
390
0
 62
     7
100
AcDbVertex
100
AcDb2dVertex
 10
95.467642
 20
-13.719044
 30
0.0
  0
VERTEX
  5
FE
100
AcDbEntity
  8
0
390
0
 62
     7
100
AcDbVertex
100
AcDb2dVertex
 10
95.44889
 20
-13.724252
 30
0.0
  0
VERTEX
  5
FF
100
AcDbEntity
  8
0
390
0
 62
     7
100
AcDbVertex
100
AcDb2dVertex
 10
95.429818
 20
-13.728753
 30
0.0
  0
VERTEX
  5
100
100
AcDbEntity
  8
0
390
0
 62
     7
100
AcDbVertex
100
AcDb2dVertex
 10
95.410562
 20
-13.732503
 30
0.0
  0
VERTEX
  5
101
100
AcDbEntity
  8
0
390
0
 62
     7
100
AcDbVertex
100
AcDb2dVertex
 10
95.390258
 20
-13.735611
 30
0.0
  0
VERTEX
  5
102
100
AcDbEntity
  8
0
390
0
 62
     7
100
AcDbVertex
100
AcDb2dVertex
 10
95.369816
 20
-13.737877
 30
0.0
  0
VERTEX
  5
103
100
AcDbEntity
  8
0
390
0
 62
     7
100
AcDbVertex
100
AcDb2dVertex
 10
95.349093
 20
-13.739301
 30
0.0
  0
VERTEX
  5
104
100
AcDbEntity
  8
0
390
0
 62
     7
100
AcDbVertex
100
AcDb2dVertex
 10
95.328316
 20
-13.739854
 30
0.0
  0
VERTEX
  5
105
100
AcDbEntity
  8
0
390
0
 62
     7
100
AcDbVertex
100
AcDb2dVertex
 10
95.306936
 20
-13.739509
 30
0.0
  0
VERTEX
  5
106
100
AcDbEntity
  8
0
390
0
 62
     7
100
AcDbVertex
100
AcDb2dVertex
 10
95.285602
 20
-13.738242
 30
0.0
  0
VERTEX
  5
107
100
AcDbEntity
  8
0
390
0
 62
     7
100
AcDbVertex
100
AcDb2dVertex
 10
95.264159
 20
-13.73603
 30
0.0
  0
VERTEX
  5
108
100
AcDbEntity
  8
0
390
0
 62
     7
100
AcDbVertex
100
AcDb2dVertex
 10
95.242862
 20
-13.732893
 30
0.0
  0
VERTEX
  5
109
100
AcDbEntity
  8
0
390
0
 62
     7
100
AcDbVertex
100
AcDb2dVertex
 10
95.223892
 20
-13.729296
 30
0.0
  0
VERTEX
  5
10A
100
AcDbEntity
  8
0
390
0
 62
     7
100
AcDbVertex
100
AcDb2dVertex
 10
95.205096
 20
-13.72497
 30
0.0
  0
VERTEX
  5
10B
100
AcDbEntity
  8
0
390
0
 62
     7
100
AcDbVertex
100
AcDb2dVertex
 10
95.179975
 20
-13.717971
 30
0.0
  0
VERTEX
  5
10C
100
AcDbEntity
  8
0
390
0
 62
     7
100
AcDbVertex
100
AcDb2dVertex
 10
95.155233
 20
-13.709668
 30
0.0
  0
VERTEX
  5
10D
100
AcDbEntity
  8
0
390
0
 62
     7
100
AcDbVertex
100
AcDb2dVertex
 10
95.130943
 20
-13.700088
 30
0.0
  0
VERTEX
  5
10E
100
AcDbEntity
  8
0
390
0
 62
     7
100
AcDbVertex
100
AcDb2dVertex
 10
95.112743
 20
-13.691931
 30
0.0
  0
VERTEX
  5
10F
100
AcDbEntity
  8
0
390
0
 62
     7
100
AcDbVertex
100
AcDb2dVertex
 10
95.094847
 20
-13.683048
 30
0.0
  0
SEQEND
  5
110
100
AcDbEntity
  8
0
390
0
  0
LINE
  5
111
100
AcDbEntity
  8
0
390
0
  6
Continuous
 62
     7
100
AcDbLine
 10
95.556309
 20
-13.683048
 30
0.0
 11
96.479234
 21
-15.457008
 31
0.0
  0
LINE
  5
112
100
AcDbEntity
  8
0
390
0
  6
Continuous
 62
     7
100
AcDbLine
 10
95.094847
 20
-13.683048
 30
0.0
 11
95.075616
 21
-13.672484
 31
0.0
  0
ELLIPSE
  5
113
100
AcDbEntity
  8
0
390
0
  6
Continuous
 62
     7
100
AcDbEllipse
 10
95.325578
 20
-13.238658
 30
0.0
 11
0.0
 21
-2.5005077472579629
 31
0.0
210
0.0
220
0.0
230
0.9999999999999999
 40
0.999797
 41
0.4796428682406408
 42
0.523510844587726
  0
LINE
  5
114
100
AcDbEntity
  8
0
390
0
  6
Continuous
 62
     7
100
AcDbLine
 10
95.57554
 20
-13.672484
 30
0.0
 11
95.556309
 21
-13.683048
 31
0.0
  0
LINE
  5
115
100
AcDbEntity
  8
0
390
0
  6
Continuous
 62
     7
100
AcDbLine
 10
95.57554
 20
-13.672484
 30
0.0
 11
96.575388
 21
-15.404271
 31
0.0
  0
LINE
  5
116
100
AcDbEntity
  8
0
390
0
  6
Continuous
 62
     7
100
AcDbLine
 10
95.075616
 20
13.672484
 30
0.0
 11
95.094847
 21
13.683048
 31
0.0
  0
LINE
  5
117
100
AcDbEntity
  8
0
390
0
  6
Continuous
 62
     7
100
AcDbLine
 10
94.171922
 20
15.457007
 30
0.0
 11
95.094847
 21
13.683048
 31
0.0
  0
ELLIPSE
  5
118
100
AcDbEntity
  8
0
390
0
  6
Continuous
 62
     7
100
AcDbEllipse
 10
106.790592
 20
6.619329
 30
0.0
 11
2.1655032314851774
 21
1.2502538736289814
 31
0.0
210
0.0
220
0.0
230
1.0
 40
0.999797
 41
0.4796428682406518
 42
0.5235108445877245
  0
LINE
  5
119
100
AcDbEntity
  8
0
390
0
  6
Continuous
 62
     7
100
AcDbLine
 10
96.575388
 20
-15.404271
 30
0.0
 11
108.041163
 21
-8.784502
 31
0.0
  0
ELLIPSE
  5
11A
100
AcDbEntity
  8
0
390
0
  6
Continuous
 62
     7
100
AcDbEllipse
 10
106.790592
 20
-6.619329
 30
0.0
 11
2.1655032314851774
 21
-1.2502538736289814
 31
0.0
210
0.0
220
0.0
230
1.0
 40
0.999797
 41
5.7596744625918612
 42
5.8035424389389352
  0
LINE
  5
11B
100
AcDbEntity
  8
0
390
0
  6
Continuous
 62
     7
100
AcDbLine
 10
107.041315
 20
-7.052715
 30
0.0
 11
95.57554
 21
-13.672484
 31
0.0
  0
LINE
  5
11C
100
AcDbEntity
  8
0
390
0
  6
Continuous
 62
     7
100
AcDbLine
 10
107.041315
 20
-7.052715
 30
0.0
 11
108.041163
 21
-8.784502
 31
0.0
  0
POLYLINE
  5
11D
100
AcDbEntity
  8
0
390
0
  6
Continuous
 62
     7
100
AcDb2dPolyline
 66
     1
 10
0.0
 20
0.0
 30
0.0
 40
0.1
 41
0.1
  0
VERTEX
  5
11E
100
AcDbEntity
  8
0
390
0
 62
     7
100
AcDbVertex
100
AcDb2dVertex
 10
95.094847
 20
13.683048
 30
0.0
  0
VERTEX
  5
11F
100
AcDbEntity
  8
0
390
0
 62
     7
100
AcDbVertex
100
AcDb2dVertex
 10
95.111919
 20
13.691541
 30
0.0
  0
VERTEX
  5
120
100
AcDbEntity
  8
0
390
0
 62
     7
100
AcDbVertex
100
AcDb2dVertex
 10
95.12927
 20
13.699373
 30
0.0
  0
VERTEX
  5
121
100
AcDbEntity
  8
0
390
0
 62
     7
100
AcDbVertex
100
AcDb2dVertex
 10
95.147005
 20
13.706585
 30
0.0
  0
VERTEX
  5
122
100
AcDbEntity
  8
0
390
0
 62
     7
100
AcDbVertex
100
AcDb2dVertex
 10
95.16498
 20
13.713111
 30
0.0
  0
VERTEX
  5
123
100
AcDbEntity
  8
0
390
0
 62
     7
100
AcDbVertex
100
AcDb2dVertex
 10
95.183514
 20
13.719044
 30
0.0
  0
VERTEX
  5
124
100
AcDbEntity
  8
0
390
0
 62
     7
100
AcDbVertex
100
AcDb2dVertex
 10
95.202266
 20
13.724252
 30
0.0
  0
VERTEX
  5
125
100
AcDbEntity
  8
0
390
0
 62
     7
100
AcDbVertex
100
AcDb2dVertex
 10
95.221338
 20
13.728753
 30
0.0
  0
VERTEX
  5
126
100
AcDbEntity
  8
0
390
0
 62
     7
100
AcDbVertex
100
AcDb2dVertex
 10
95.240594
 20
13.732503
 30
0.0
  0
VERTEX
  5
127
100
AcDbEntity
  8
0
390
0
 62
     7
100
AcDbVertex
100
AcDb2dVertex
 10
95.260898
 20
13.735611
 30
0.0
  0
VERTEX
  5
128
100
AcDbEntity
  8
0
390
0
 62
     7
100
AcDbVertex
100
AcDb2dVertex
 10
95.28134
 20
13.737877
 30
0.0
  0
VERTEX
  5
129
100
AcDbEntity
  8
0
390
0
 62
     7
100
AcDbVertex
100
AcDb2dVertex
 10
95.302063
 20
13.739301
 30
0.0
  0
VERTEX
  5
12A
100
AcDbEntity
  8
0
390
0
 62
     7
100
AcDbVertex
100
AcDb2dVertex
 10
95.32284
 20
13.739854
 30
0.0
  0
VERTEX
  5
12B
100
AcDbEntity
  8
0
390
0
 62
     7
100
AcDbVertex
100
AcDb2dVertex
 10
95.34422
 20
13.739509
 30
0.0
  0
VERTEX
  5
12C
100
AcDbEntity
  8
0
390
0
 62
     7
100
AcDbVertex
100
AcDb2dVertex
 10
95.365554
 20
13.738241
 30
0.0
  0
VERTEX
  5
12D
100
AcDbEntity
  8
0
390
0
 62
     7
100
AcDbVertex
100
AcDb2dVertex
 10
95.386997
 20
13.73603
 30
0.0
  0
VERTEX
  5
12E
100
AcDbEntity
  8
0
390
0
 62
     7
100
AcDbVertex
100
AcDb2dVertex
 10
95.408294
 20
13.732893
 30
0.0
  0
VERTEX
  5
12F
100
AcDbEntity
  8
0
390
0
 62
     7
100
AcDbVertex
100
AcDb2dVertex
 10
95.427264
 20
13.729295
 30
0.0
  0
VERTEX
  5
130
100
AcDbEntity
  8
0
390
0
 62
     7
100
AcDbVertex
100
AcDb2dVertex
 10
95.44606
 20
13.72497
 30
0.0
  0
VERTEX
  5
131
100
AcDbEntity
  8
0
390
0
 62
     7
100
AcDbVertex
100
AcDb2dVertex
 10
95.471181
 20
13.717971
 30
0.0
  0
VERTEX
  5
132
100
AcDbEntity
  8
0
390
0
 62
     7
100
AcDbVertex
100
AcDb2dVertex
 10
95.495923
 20
13.709668
 30
0.0
  0
VERTEX
  5
133
100
AcDbEntity
  8
0
390
0
 62
     7
100
AcDbVertex
100
AcDb2dVertex
 10
95.520213
 20
13.700087
 30
0.0
  0
VERTEX
  5
134
100
AcDbEntity
  8
0
390
0
 62
     7
100
AcDbVertex
100
AcDb2dVertex
 10
95.538413
 20
13.69193
 30
0.0
  0
VERTEX
  5
135
100
AcDbEntity
  8
0
390
0
 62
     7
100
AcDbVertex
100
AcDb2dVertex
 10
95.556309
 20
13.683048
 30
0.0
  0
SEQEND
  5
136
100
AcDbEntity
  8
0
390
0
  0
LINE
  5
137
100
AcDbEntity
  8
0
390
0
  6
Continuous
 62
     7
100
AcDbLine
 10
107.290811
 20
6.641705
 30
0.0
 11
109.288567
 21
6.729408
 31
0.0
  0
POLYLINE
  5
138
100
AcDbEntity
  8
0
390
0
  6
Continuous
 62
     7
100
AcDb2dPolyline
 66
     1
 10
0.0
 20
0.0
 30
0.0
 40
0.1
 41
0.1
  0
VERTEX
  5
139
100
AcDbEntity
  8
0
390
0
 62
     7
100
AcDbVertex
100
AcDb2dVertex
 10
107.06008
 20
7.041343
 30
0.0
  0
VERTEX
  5
13A
100
AcDbEntity
  8
0
390
0
 62
     7
100
AcDbVertex
100
AcDb2dVertex
 10
107.076019
 20
7.03077
 30
0.0
  0
VERTEX
  5
13B
100
AcDbEntity
  8
0
390
0
 62
     7
100
AcDbVertex
100
AcDb2dVertex
 10
107.091537
 20
7.019612
 30
0.0
  0
VERTEX
  5
13C
100
AcDbEntity
  8
0
390
0
 62
     7
100
AcDbVertex
100
AcDb2dVertex
 10
107.106602
 20
7.007893
 30
0.0
  0
VERTEX
  5
13D
100
AcDbEntity
  8
0
390
0
 62
     7
100
AcDbVertex
100
AcDb2dVertex
 10
107.121182
 20
6.995637
 30
0.0
  0
VERTEX
  5
13E
100
AcDbEntity
  8
0
390
0
 62
     7
100
AcDbVertex
100
AcDb2dVertex
 10
107.135625
 20
6.982515
 30
0.0
  0
VERTEX
  5
13F
100
AcDbEntity
  8
0
390
0
 62
     7
100
AcDbVertex
100
AcDb2dVertex
 10
107.149558
 20
6.968828
 30
0.0
  0
VERTEX
  5
140
100
AcDbEntity
  8
0
390
0
 62
     7
100
AcDbVertex
100
AcDb2dVertex
 10
107.162953
 20
6.954599
 30
0.0
  0
VERTEX
  5
141
100
AcDbEntity
  8
0
390
0
 62
     7
100
AcDbVertex
100
AcDb2dVertex
 10
107.175782
 20
6.93985
 30
0.0
  0
VERTEX
  5
142
100
AcDbEntity
  8
0
390
0
 62
     7
100
AcDbVertex
100
AcDb2dVertex
 10
107.188673
 20
6.923755
 30
0.0
  0
VERTEX
  5
143
100
AcDbEntity
  8
0
390
0
 62
     7
100
AcDbVertex
100
AcDb2dVertex
 10
107.200912
 20
6.907097
 30
0.0
  0
VERTEX
  5
144
100
AcDbEntity
  8
0
390
0
 62
     7
100
AcDbVertex
100
AcDb2dVertex
 10
107.212458
 20
6.889927
 30
0.0
  0
VERTEX
  5
145
100
AcDbEntity
  8
0
390
0
 62
     7
100
AcDbVertex
100
AcDb2dVertex
 10
107.223271
 20
6.872298
 30
0.0
  0
VERTEX
  5
146
100
AcDbEntity
  8
0
390
0
 62
     7
100
AcDbVertex
100
AcDb2dVertex
 10
107.233702
 20
6.853529
 30
0.0
  0
VERTEX
  5
147
100
AcDbEntity
  8
0
390
0
 62
     7
100
AcDbVertex
100
AcDb2dVertex
 10
107.243315
 20
6.834313
 30
0.0
  0
VERTEX
  5
148
100
AcDbEntity
  8
0
390
0
 62
     7
100
AcDbVertex
100
AcDb2dVertex
 10
107.252081
 20
6.814717
 30
0.0
  0
VERTEX
  5
149
100
AcDbEntity
  8
0
390
0
 62
     7
100
AcDbVertex
100
AcDb2dVertex
 10
107.25997
 20
6.794812
 30
0.0
  0
VERTEX
  5
14A
100
AcDbEntity
  8
0
390
0
 62
     7
100
AcDbVertex
100
AcDb2dVertex
 10
107.268324
 20
6.770391
 30
0.0
  0
VERTEX
  5
14B
100
AcDbEntity
  8
0
390
0
 62
     7
100
AcDbVertex
100
AcDb2dVertex
 10
107.275399
 20
6.745585
 30
0.0
  0
VERTEX
  5
14C
100
AcDbEntity
  8
0
390
0
 62
     7
100
AcDbVertex
100
AcDb2dVertex
 10
107.281179
 20
6.720476
 30
0.0
  0
VERTEX
  5
14D
100
AcDbEntity
  8
0
390
0
 62
     7
100
AcDbVertex
100
AcDb2dVertex
 10
107.284739
 20
6.700989
 30
0.0
  0
VERTEX
  5
14E
100
AcDbEntity
  8
0
390
0
 62
     7
100
AcDbVertex
100
AcDb2dVertex
 10
107.287535
 20
6.681336
 30
0.0
  0
VERTEX
  5
14F
100
AcDbEntity
  8
0
390
0
 62
     7
100
AcDbVertex
100
AcDb2dVertex
 10
107.289561
 20
6.66156
 30
0.0
  0
VERTEX
  5
150
100
AcDbEntity
  8
0
390
0
 62
     7
100
AcDbVertex
100
AcDb2dVertex
 10
107.290811
 20
6.641705
 30
0.0
  0
SEQEND
  5
151
100
AcDbEntity
  8
0
390
0
  0
LINE
  5
152
100
AcDbEntity
  8
0
390
0
  6
Continuous
 62
     7
100
AcDbLine
 10
107.06008
 20
7.041343
 30
0.0
 11
108.134911
 21
8.727599
 31
0.0
  0
ELLIPSE
  5
153
100
AcDbEntity
  8
0
390
0
  6
Continuous
 62
     7
100
AcDbEllipse
 10
106.790592
 20
6.619329
 30
0.0
 11
2.1655032314851774
 21
1.2502538736289814
 31
0.0
210
0.0
220
0.0
230
1.0
 40
0.999797
 41
5.7596744625918612
 42
5.8035424389389343
  0
LINE
  5
154
100
AcDbEntity
  8
0
390
0
  6
Continuous
 62
     7
100
AcDbLine
 10
107.291277
 20
6.619768
 30
0.0
 11
109.290973
 21
6.619768
 31
0.0
  0
LINE
  5
155
100
AcDbEntity
  8
0
390
0
  6
Continuous
 62
     7
100
AcDbLine
 10
107.290811
 20
6.641705
 30
0.0
 11
107.291277
 21
6.619768
 31
0.0
  0
LINE
  5
156
100
AcDbEntity
  8
0
390
0
  6
Continuous
 62
     7
100
AcDbLine
 10
107.041315
 20
7.052715
 30
0.0
 11
107.06008
 21
7.041343
 31
0.0
  0
LINE
  5
157
100
AcDbEntity
  8
0
390
0
  6
Continuous
 62
     7
100
AcDbLine
 10
107.06008
 20
-7.041343
 30
0.0
 11
107.041315
 21
-7.052715
 31
0.0
  0
LINE
  5
158
100
AcDbEntity
  8
0
390
0
  6
Continuous
 62
     7
100
AcDbLine
 10
107.06008
 20
-7.041343
 30
0.0
 11
108.134911
 21
-8.727599
 31
0.0
  0
POLYLINE
  5
159
100
AcDbEntity
  8
0
390
0
  6
Continuous
 62
     7
100
AcDb2dPolyline
 66
     1
 10
0.0
 20
0.0
 30
0.0
 40
0.1
 41
0.1
  0
VERTEX
  5
15A
100
AcDbEntity
  8
0
390
0
 62
     7
100
AcDbVertex
100
AcDb2dVertex
 10
107.290811
 20
-6.641705
 30
0.0
  0
VERTEX
  5
15B
100
AcDbEntity
  8
0
390
0
 62
     7
100
AcDbVertex
100
AcDb2dVertex
 10
107.289624
 20
-6.660796
 30
0.0
  0
VERTEX
  5
15C
100
AcDbEntity
  8
0
390
0
 62
     7
100
AcDbVertex
100
AcDb2dVertex
 10
107.28772
 20
-6.679814
 30
0.0
  0
VERTEX
  5
15D
100
AcDbEntity
  8
0
390
0
 62
     7
100
AcDbVertex
100
AcDb2dVertex
 10
107.285103
 20
-6.698719
 30
0.0
  0
VERTEX
  5
15E
100
AcDbEntity
  8
0
390
0
 62
     7
100
AcDbVertex
100
AcDb2dVertex
 10
107.28178
 20
-6.717474
 30
0.0
  0
VERTEX
  5
15F
100
AcDbEntity
  8
0
390
0
 62
     7
100
AcDbVertex
100
AcDb2dVertex
 10
107.277637
 20
-6.736543
 30
0.0
  0
VERTEX
  5
160
100
AcDbEntity
  8
0
390
0
 62
     7
100
AcDbVertex
100
AcDb2dVertex
 10
107.27275
 20
-6.755453
 30
0.0
  0
VERTEX
  5
161
100
AcDbEntity
  8
0
390
0
 62
     7
100
AcDbVertex
100
AcDb2dVertex
 10
107.267125
 20
-6.774168
 30
0.0
  0
VERTEX
  5
162
100
AcDbEntity
  8
0
390
0
 62
     7
100
AcDbVertex
100
AcDb2dVertex
 10
107.260767
 20
-6.792653
 30
0.0
  0
VERTEX
  5
163
100
AcDbEntity
  8
0
390
0
 62
     7
100
AcDbVertex
100
AcDb2dVertex
 10
107.253273
 20
-6.811864
 30
0.0
  0
VERTEX
  5
164
100
AcDbEntity
  8
0
390
0
 62
     7
100
AcDbVertex
100
AcDb2dVertex
 10
107.244966
 20
-6.830792
 30
0.0
  0
VERTEX
  5
165
100
AcDbEntity
  8
0
390
0
 62
     7
100
AcDbVertex
100
AcDb2dVertex
 10
107.23587
 20
-6.849377
 30
0.0
  0
VERTEX
  5
166
100
AcDbEntity
  8
0
390
0
 62
     7
100
AcDbVertex
100
AcDb2dVertex
 10
107.226009
 20
-6.867556
 30
0.0
  0
VERTEX
  5
167
100
AcDbEntity
  8
0
390
0
 62
     7
100
AcDbVertex
100
AcDb2dVertex
 10
107.214971
 20
-6.885974
 30
0.0
  0
VERTEX
  5
168
100
AcDbEntity
  8
0
390
0
 62
     7
100
AcDbVertex
100
AcDb2dVertex
 10
107.203135
 20
-6.903907
 30
0.0
  0
VERTEX
  5
169
100
AcDbEntity
  8
0
390
0
 62
     7
100
AcDbVertex
100
AcDb2dVertex
 10
107.190548
 20
-6.921296
 30
0.0
  0
VERTEX
  5
16A
100
AcDbEntity
  8
0
390
0
 62
     7
100
AcDbVertex
100
AcDb2dVertex
 10
107.177254
 20
-6.938081
 30
0.0
  0
VERTEX
  5
16B
100
AcDbEntity
  8
0
390
0
 62
     7
100
AcDbVertex
100
AcDb2dVertex
 10
107.160282
 20
-6.957526
 30
0.0
  0
VERTEX
  5
16C
100
AcDbEntity
  8
0
390
0
 62
     7
100
AcDbVertex
100
AcDb2dVertex
 10
107.142336
 20
-6.976056
 30
0.0
  0
VERTEX
  5
16D
100
AcDbEntity
  8
0
390
0
 62
     7
100
AcDbVertex
100
AcDb2dVertex
 10
107.123481
 20
-6.993616
 30
0.0
  0
VERTEX
  5
16E
100
AcDbEntity
  8
0
390
0
 62
     7
100
AcDbVertex
100
AcDb2dVertex
 10
107.108385
 20
-7.006443
 30
0.0
  0
VERTEX
  5
16F
100
AcDbEntity
  8
0
390
0
 62
     7
100
AcDbVertex
100
AcDb2dVertex
 10
107.092763
 20
-7.018691
 30
0.0
  0
VERTEX
  5
170
100
AcDbEntity
  8
0
390
0
 62
     7
100
AcDbVertex
100
AcDb2dVertex
 10
107.07665
 20
-7.030334
 30
0.0
  0
VERTEX
  5
171
100
AcDbEntity
  8
0
390
0
 62
     7
100
AcDbVertex
100
AcDb2dVertex
 10
107.06008
 20
-7.041343
 30
0.0
  0
SEQEND
  5
172
100
AcDbEntity
  8
0
390
0
  0
LINE
  5
173
100
AcDbEntity
  8
0
390
0
  6
Continuous
 62
     7
100
AcDbLine
 10
107.290811
 20
-6.641705
 30
0.0
 11
109.288567
 21
-6.729409
 31
0.0
  0
ELLIPSE
  5
174
100
AcDbEntity
  8
0
390
0
  6
Continuous
 62
     7
100
AcDbEllipse
 10
106.790592
 20
-6.619329
 30
0.0
 11
2.1655032314851774
 21
-1.2502538736289814
 31
0.0
210
0.0
220
0.0
230
1.0
 40
0.999797
 41
0.4796428682406491
 42
0.5235108445877283
  0
LINE
  5
175
100
AcDbEntity
  8
0
390
0
  6
Continuous
 62
     7
100
AcDbLine
 10
107.291277
 20
-6.619769
 30
0.0
 11
107.290811
 21
-6.641705
 31
0.0
  0
LINE
  5
176
100
AcDbEntity
  8
0
390
0
  6
Continuous
 62
     7
100
AcDbLine
 10
107.291277
 20
-6.619769
 30
0.0
 11
109.290973
 21
-6.619769
 31
0.0
  0
LINE
  5
177
100
AcDbEntity
  8
0
390
0
  6
Continuous
 62
     7
100
AcDbLine
 10
109.290973
 20
-6.619769
 30
0.0
 11
109.290973
 21
6.619768
 31
0.0
  0
LINE
  5
178
100
AcDbEntity
  8
0
390
0
  6
Continuous
 62
     7
100
AcDbLine
 10
107.291277
 20
6.619768
 30
0.0
 11
107.291277
 21
-6.619769
 31
0.0
  0
LINE
  5
179
100
AcDbEntity
  8
0
390
0
  6
Continuous
 62
     7
100
AcDbLine
 10
83.500129
 20
-6.538795
 30
0.0
 11
83.359879
 21
-6.619769
 31
0.0
  0
ELLIPSE
  5
17A
100
AcDbEntity
  8
0
390
0
  6
Continuous
 62
     7
100
AcDbEllipse
 10
84.000205
 20
-6.538707
 30
0.0
 11
-0.4331006462970355
 21
-0.2500507747257852
 31
0.0
210
0.0
220
0.0
230
1.0
 40
0.999797
 41
5.7596744625918612
 42
6.8066961517673121
  0
LINE
  5
17B
100
AcDbEntity
  8
0
390
0
  6
Continuous
 62
     7
100
AcDbLine
 10
83.609841
 20
-7.052715
 30
0.0
 11
83.750091
 21
-6.971742
 31
0.0
  0
LINE
  5
17C
100
AcDbEntity
  8
0
390
0
  6
Continuous
 62
     7
100
AcDbLine
 10
95.57554
 20
13.510537
 30
0.0
 11
95.57554
 21
13.672484
 31
0.0
  0
ELLIPSE
  5
17D
100
AcDbEntity
  8
0
390
0
  6
Continuous
 62
     7
100
AcDbEllipse
 10
95.325578
 20
13.077414
 30
0.0
 11
0.0
 21
0.5001015494515981
 31
0.0
210
0.0
220
0.0
230
1.0
 40
0.999797
 41
5.7596744625918621
 42
6.806696151767305
  0
LINE
  5
17E
100
AcDbEntity
  8
0
390
0
  6
Continuous
 62
     7
100
AcDbLine
 10
95.075616
 20
13.672484
 30
0.0
 11
95.075616
 21
13.510537
 31
0.0
  0
LINE
  5
17F
100
AcDbEntity
  8
0
390
0
  6
Continuous
 62
     7
100
AcDbLine
 10
95.075616
 20
-13.510537
 30
0.0
 11
95.075616
 21
-13.672484
 31
0.0
  0
ELLIPSE
  5
180
100
AcDbEntity
  8
0
390
0
  6
Continuous
 62
     7
100
AcDbEllipse
 10
95.325578
 20
-13.077415
 30
0.0
 11
0.0
 21
-0.5001015494515704
 31
0.0
210
0.0
220
0.0
230
1.0
 40
0.999797
 41
5.7596744625918612
 42
6.8066961517673112
  0
LINE
  5
181
100
AcDbEntity
  8
0
390
0
  6
Continuous
 62
     7
100
AcDbLine
 10
95.57554
 20
-13.672484
 30
0.0
 11
95.57554
 21
-13.510537
 31
0.0
  0
LINE
  5
182
100
AcDbEntity
  8
0
390
0
  6
Continuous
 62
     7
100
AcDbLine
 10
107.151027
 20
6.538795
 30
0.0
 11
107.291277
 21
6.619768
 31
0.0
  0
ELLIPSE
  5
183
100
AcDbEntity
  8
0
390
0
  6
Continuous
 62
     7
100
AcDbEllipse
 10
106.650951
 20
6.538707
 30
0.0
 11
0.4331006462970355
 21
0.2500507747257852
 31
0.0
210
0.0
220
0.0
230
0.9999999999999999
 40
0.999797
 41
5.7596744625918612
 42
6.8066961517673086
  0
LINE
  5
184
100
AcDbEntity
  8
0
390
0
  6
Continuous
 62
     7
100
AcDbLine
 10
107.041315
 20
7.052715
 30
0.0
 11
106.901065
 21
6.971742
 31
0.0
  0
LINE
  5
185
100
AcDbEntity
  8
0
390
0
  6
Continuous
 62
     7
100
AcDbLine
 10
83.750091
 20
6.971742
 30
0.0
 11
83.609841
 21
7.052715
 31
0.0
  0
ELLIPSE
  5
186
100
AcDbEntity
  8
0
390
0
  6
Continuous
 62
     7
100
AcDbEllipse
 10
84.000205
 20
6.538707
 30
0.0
 11
-0.4331006462970355
 21
0.2500507747257852
 31
0.0
210
0.0
220
0.0
230
1.0
 40
0.999797
 41
5.7596744625918594
 42
6.8066961517673095
  0
LINE
  5
187
100
AcDbEntity
  8
0
390
0
  6
Continuous
 62
     7
100
AcDbLine
 10
83.359879
 20
6.619768
 30
0.0
 11
83.500129
 21
6.538795
 31
0.0
  0
LINE
  5
188
100
AcDbEntity
  8
0
390
0
  6
Continuous
 62
     7
100
AcDbLine
 10
106.901065
 20
-6.971742
 30
0.0
 11
107.041315
 21
-7.052715
 31
0.0
  0
ELLIPSE
  5
189
100
AcDbEntity
  8
0
390
0
  6
Continuous
 62
     7
100
AcDbEllipse
 10
106.650951
 20
-6.538707
 30
0.0
 11
0.4331006462970355
 21
-0.2500507747257852
 31
0.0
210
0.0
220
0.0
230
0.9999999999999999
 40
0.999797
 41
5.7596744625918683
 42
6.8066961517673095
  0
LINE
  5
18A
100
AcDbEntity
  8
0
390
0
  6
Continuous
 62
     7
100
AcDbLine
 10
107.291277
 20
-6.619769
 30
0.0
 11
107.151027
 21
-6.538795
 31
0.0
  0
LINE
  5
18B
100
AcDbEntity
  8
0
390
0
  6
Continuous
 62
     7
100
AcDbLine
 10
83.750091
 20
6.971742
 30
0.0
 11
95.075616
 21
13.510537
 31
0.0
  0
LINE
  5
18C
100
AcDbEntity
  8
0
390
0
  6
Continuous
 62
     7
100
AcDbLine
 10
95.075616
 20
-13.510537
 30
0.0
 11
83.750091
 21
-6.971742
 31
0.0
  0
LINE
  5
18D
100
AcDbEntity
  8
0
390
0
  6
Continuous
 62
     7
100
AcDbLine
 10
83.500129
 20
-6.538795
 30
0.0
 11
83.500129
 21
6.538795
 31
0.0
  0
LINE
  5
18E
100
AcDbEntity
  8
0
390
0
  6
Continuous
 62
     7
100
AcDbLine
 10
106.901065
 20
-6.971742
 30
0.0
 11
95.57554
 21
-13.510537
 31
0.0
  0
LINE
  5
18F
100
AcDbEntity
  8
0
390
0
  6
Continuous
 62
     7
100
AcDbLine
 10
95.57554
 20
13.510537
 30
0.0
 11
106.901065
 21
6.971742
 31
0.0
  0
LINE
  5
190
100
AcDbEntity
  8
0
390
0
  6
Continuous
 62
     7
100
AcDbLine
 10
107.151027
 20
6.538795
 30
0.0
 11
107.151027
 21
-6.538795
 31
0.0
  0
LINE
  5
191
100
AcDbEntity
  8
0
390
0
  6
Continuous
 62
     7
100
AcDbLine
 10
-95.482211
 20
13.560662
 30
0.0
 11
-106.982287
 21
6.92109
 31
0.0
  0
LINE
  5
192
100
AcDbEntity
  8
0
390
0
  6
Continuous
 62
     7
100
AcDbLine
 10
-95.157143
 20
13.560662
 30
0.0
 11
-95.482211
 21
13.560662
 31
0.0
  0
LINE
  5
193
100
AcDbEntity
  8
0
390
0
  6
Continuous
 62
     7
100
AcDbLine
 10
-83.657067
 20
6.92109
 30
0.0
 11
-95.157143
 21
13.560662
 31
0.0
  0
LINE
  5
194
100
AcDbEntity
  8
0
390
0
  6
Continuous
 62
     7
100
AcDbLine
 10
-83.494532
 20
6.639572
 30
0.0
 11
-83.657067
 21
6.92109
 31
0.0
  0
LINE
  5
195
100
AcDbEntity
  8
0
390
0
  6
Continuous
 62
     7
100
AcDbLine
 10
-83.494532
 20
-6.639572
 30
0.0
 11
-83.494532
 21
6.639572
 31
0.0
  0
LINE
  5
196
100
AcDbEntity
  8
0
390
0
  6
Continuous
 62
     7
100
AcDbLine
 10
-83.657067
 20
-6.92109
 30
0.0
 11
-83.494532
 21
-6.639572
 31
0.0
  0
LINE
  5
197
100
AcDbEntity
  8
0
390
0
  6
Continuous
 62
     7
100
AcDbLine
 10
-95.157143
 20
-13.560662
 30
0.0
 11
-83.657067
 21
-6.92109
 31
0.0
  0
LINE
  5
198
100
AcDbEntity
  8
0
390
0
  6
Continuous
 62
     7
100
AcDbLine
 10
-95.482211
 20
-13.560662
 30
0.0
 11
-95.157143
 21
-13.560662
 31
0.0
  0
LINE
  5
199
100
AcDbEntity
  8
0
390
0
  6
Continuous
 62
     7
100
AcDbLine
 10
-106.982288
 20
-6.92109
 30
0.0
 11
-95.482211
 21
-13.560662
 31
0.0
  0
LINE
  5
19A
100
AcDbEntity
  8
0
390
0
  6
Continuous
 62
     7
100
AcDbLine
 10
-107.144822
 20
-6.639572
 30
0.0
 11
-106.982288
 21
-6.92109
 31
0.0
  0
LINE
  5
19B
100
AcDbEntity
  8
0
390
0
  6
Continuous
 62
     7
100
AcDbLine
 10
-107.144822
 20
6.639572
 30
0.0
 11
-107.144822
 21
-6.639572
 31
0.0
  0
LINE
  5
19C
100
AcDbEntity
  8
0
390
0
  6
Continuous
 62
     7
100
AcDbLine
 10
-106.982287
 20
6.92109
 30
0.0
 11
-107.144822
 21
6.639572
 31
0.0
  0
ARC
  5
19D
100
AcDbEntity
  8
0
390
0
  6
Continuous
 62
     7
100
AcDbCircle
 10
-95.319677
 20
-13.257972
 30
0.0
 40
2.343123
210
0.0
220
0.0
230
1.0
100
AcDbArc
 50
240.258855
 51
299.741145
  0
LINE
  5
19E
100
AcDbEntity
  8
0
390
0
  6
Continuous
 62
     7
100
AcDbLine
 10
-96.482059
 20
-15.292449
 30
0.0
 11
-95.482211
 21
-13.560662
 31
0.0
  0
LINE
  5
19F
100
AcDbEntity
  8
0
390
0
  6
Continuous
 62
     7
100
AcDbLine
 10
-94.157295
 20
-15.292449
 30
0.0
 11
-95.157143
 21
-13.560662
 31
0.0
  0
LINE
  5
1A0
100
AcDbEntity
  8
0
390
0
  6
Continuous
 62
     7
100
AcDbLine
 10
-95.482211
 20
13.560662
 30
0.0
 11
-96.482059
 21
15.292449
 31
0.0
  0
ARC
  5
1A1
100
AcDbEntity
  8
0
390
0
  6
Continuous
 62
     7
100
AcDbCircle
 10
-95.319677
 20
13.257972
 30
0.0
 40
2.343123
210
0.0
220
0.0
230
1.0
100
AcDbArc
 50
60.258855
 51
119.741145
  0
LINE
  5
1A2
100
AcDbEntity
  8
0
390
0
  6
Continuous
 62
     7
100
AcDbLine
 10
-95.157143
 20
13.560662
 30
0.0
 11
-94.157295
 21
15.292449
 31
0.0
  0
ARC
  5
1A3
100
AcDbEntity
  8
0
390
0
  6
Continuous
 62
     7
100
AcDbCircle
 10
-83.838464
 20
-6.628681
 30
0.0
 40
2.343653
210
0.0
220
0.0
230
1.0
100
AcDbArc
 50
300.266249
 51
359.733751
  0
LINE
  5
1A4
100
AcDbEntity
  8
0
390
0
  6
Continuous
 62
     7
100
AcDbLine
 10
-82.657219
 20
-8.652877
 30
0.0
 11
-83.657067
 21
-6.92109
 31
0.0
  0
LINE
  5
1A5
100
AcDbEntity
  8
0
390
0
  6
Continuous
 62
     7
100
AcDbLine
 10
-81.494837
 20
-6.639572
 30
0.0
 11
-83.494532
 21
-6.639572
 31
0.0
  0
LINE
  5
1A6
100
AcDbEntity
  8
0
390
0
  6
Continuous
 62
     7
100
AcDbLine
 10
-83.657067
 20
6.92109
 30
0.0
 11
-82.657219
 21
8.652877
 31
0.0
  0
ARC
  5
1A7
100
AcDbEntity
  8
0
390
0
  6
Continuous
 62
     7
100
AcDbCircle
 10
-83.838464
 20
6.628681
 30
0.0
 40
2.343653
210
0.0
220
0.0
230
1.0
100
AcDbArc
 50
0.266249
 51
59.733751
  0
LINE
  5
1A8
100
AcDbEntity
  8
0
390
0
  6
Continuous
 62
     7
100
AcDbLine
 10
-83.494532
 20
6.639572
 30
0.0
 11
-81.494837
 21
6.639572
 31
0.0
  0
ARC
  5
1A9
100
AcDbEntity
  8
0
390
0
  6
Continuous
 62
     7
100
AcDbCircle
 10
-106.80089
 20
-6.628681
 30
0.0
 40
2.343653
210
0.0
220
0.0
230
1.0
100
AcDbArc
 50
180.266249
 51
239.733751
  0
LINE
  5
1AA
100
AcDbEntity
  8
0
390
0
  6
Continuous
 62
     7
100
AcDbLine
 10
-109.144517
 20
-6.639572
 30
0.0
 11
-107.144822
 21
-6.639572
 31
0.0
  0
LINE
  5
1AB
100
AcDbEntity
  8
0
390
0
  6
Continuous
 62
     7
100
AcDbLine
 10
-107.982135
 20
-8.652877
 30
0.0
 11
-106.982288
 21
-6.92109
 31
0.0
  0
LINE
  5
1AC
100
AcDbEntity
  8
0
390
0
  6
Continuous
 62
     7
100
AcDbLine
 10
-107.144822
 20
6.639572
 30
0.0
 11
-109.144517
 21
6.639572
 31
0.0
  0
ARC
  5
1AD
100
AcDbEntity
  8
0
390
0
  6
Continuous
 62
     7
100
AcDbCircle
 10
-106.80089
 20
6.628681
 30
0.0
 40
2.343653
210
0.0
220
0.0
230
1.0
100
AcDbArc
 50
120.266249
 51
179.733751
  0
LINE
  5
1AE
100
AcDbEntity
  8
0
390
0
  6
Continuous
 62
     7
100
AcDbLine
 10
-106.982287
 20
6.92109
 30
0.0
 11
-107.982135
 21
8.652877
 31
0.0
  0
LINE
  5
1AF
100
AcDbEntity
  8
0
390
0
  6
Continuous
 62
     7
100
AcDbLine
 10
-96.482059
 20
-15.292449
 30
0.0
 11
-107.982135
 21
-8.652877
 31
0.0
  0
LINE
  5
1B0
100
AcDbEntity
  8
0
390
0
  6
Continuous
 62
     7
100
AcDbLine
 10
-82.657219
 20
-8.652877
 30
0.0
 11
-94.157295
 21
-15.292449
 31
0.0
  0
LINE
  5
1B1
100
AcDbEntity
  8
0
390
0
  6
Continuous
 62
     7
100
AcDbLine
 10
-109.144517
 20
-6.639572
 30
0.0
 11
-109.144517
 21
6.639572
 31
0.0
  0
LINE
  5
1B2
100
AcDbEntity
  8
0
390
0
  6
Continuous
 62
     7
100
AcDbLine
 10
-107.982135
 20
8.652877
 30
0.0
 11
-96.482059
 21
15.292449
 31
0.0
  0
LINE
  5
1B3
100
AcDbEntity
  8
0
390
0
  6
Continuous
 62
     7
100
AcDbLine
 10
-81.494837
 20
6.639572
 30
0.0
 11
-81.494837
 21
-6.639572
 31
0.0
  0
LINE
  5
1B4
100
AcDbEntity
  8
0
390
0
  6
Continuous
 62
     7
100
AcDbLine
 10
-94.157295
 20
15.292449
 30
0.0
 11
-82.657219
 21
8.652877
 31
0.0
  0
LINE
  5
1B5
100
AcDbEntity
  8
0
390
0
  6
Continuous
 62
     7
100
AcDbLine
 10
-81.381697
 20
6.639572
 30
0.0
 11
-81.439405
 21
7.174378
 31
0.0
  0
LINE
  5
1B6
100
AcDbEntity
  8
0
390
0
  6
Continuous
 62
     7
100
AcDbLine
 10
-81.494837
 20
6.639572
 30
0.0
 11
-81.381697
 21
6.639572
 31
0.0
  0
LINE
  5
1B7
100
AcDbEntity
  8
0
390
0
  6
Continuous
 62
     7
100
AcDbLine
 10
-82.657219
 20
8.652877
 30
0.0
 11
-82.600649
 21
8.750859
 31
0.0
  0
LINE
  5
1B8
100
AcDbEntity
  8
0
390
0
  6
Continuous
 62
     7
100
AcDbLine
 10
-82.166347
 20
8.433479
 30
0.0
 11
-82.600649
 21
8.750859
 31
0.0
  0
ARC
  5
1B9
100
AcDbEntity
  8
0
390
0
  6
Continuous
 62
     7
100
AcDbCircle
 10
-83.82652
 20
6.635577
 30
0.0
 40
2.447167
210
0.0
220
0.0
230
1.0
100
AcDbArc
 50
12.719216
 51
47.280784
  0
LINE
  5
1BA
100
AcDbEntity
  8
0
390
0
  6
Continuous
 62
     7
100
AcDbLine
 10
-96.538629
 20
-15.390431
 30
0.0
 11
-96.046619
 21
-15.607858
 31
0.0
  0
LINE
  5
1BB
100
AcDbEntity
  8
0
390
0
  6
Continuous
 62
     7
100
AcDbLine
 10
-96.482059
 20
-15.292449
 30
0.0
 11
-96.538629
 21
-15.390431
 31
0.0
  0
LINE
  5
1BC
100
AcDbEntity
  8
0
390
0
  6
Continuous
 62
     7
100
AcDbLine
 10
-94.157295
 20
-15.292449
 30
0.0
 11
-94.100725
 21
-15.390431
 31
0.0
  0
LINE
  5
1BD
100
AcDbEntity
  8
0
390
0
  6
Continuous
 62
     7
100
AcDbLine
 10
-94.592735
 20
-15.607858
 30
0.0
 11
-94.100725
 21
-15.390431
 31
0.0
  0
ARC
  5
1BE
100
AcDbEntity
  8
0
390
0
  6
Continuous
 62
     7
100
AcDbCircle
 10
-95.319677
 20
-13.271155
 30
0.0
 40
2.447167
210
0.0
220
0.0
230
0.9999999999999999
100
AcDbArc
 50
252.719216
 51
287.280784
  0
LINE
  5
1BF
100
AcDbEntity
  8
0
390
0
  6
Continuous
 62
     7
100
AcDbLine
 10
-94.100725
 20
15.390431
 30
0.0
 11
-94.592735
 21
15.607857
 31
0.0
  0
LINE
  5
1C0
100
AcDbEntity
  8
0
390
0
  6
Continuous
 62
     7
100
AcDbLine
 10
-94.157295
 20
15.292449
 30
0.0
 11
-94.100725
 21
15.390431
 31
0.0
  0
LINE
  5
1C1
100
AcDbEntity
  8
0
390
0
  6
Continuous
 62
     7
100
AcDbLine
 10
-96.482059
 20
15.292449
 30
0.0
 11
-96.538629
 21
15.390431
 31
0.0
  0
LINE
  5
1C2
100
AcDbEntity
  8
0
390
0
  6
Continuous
 62
     7
100
AcDbLine
 10
-96.046619
 20
15.607857
 30
0.0
 11
-96.538629
 21
15.390431
 31
0.0
  0
ARC
  5
1C3
100
AcDbEntity
  8
0
390
0
  6
Continuous
 62
     7
100
AcDbCircle
 10
-95.319677
 20
13.271155
 30
0.0
 40
2.447167
210
0.0
220
0.0
230
1.0
100
AcDbArc
 50
72.719216
 51
107.280784
  0
LINE
  5
1C4
100
AcDbEntity
  8
0
390
0
  6
Continuous
 62
     7
100
AcDbLine
 10
-82.600649
 20
-8.750859
 30
0.0
 11
-82.166347
 21
-8.433479
 31
0.0
  0
LINE
  5
1C5
100
AcDbEntity
  8
0
390
0
  6
Continuous
 62
     7
100
AcDbLine
 10
-82.657219
 20
-8.652877
 30
0.0
 11
-82.600649
 21
-8.750859
 31
0.0
  0
LINE
  5
1C6
100
AcDbEntity
  8
0
390
0
  6
Continuous
 62
     7
100
AcDbLine
 10
-81.494837
 20
-6.639572
 30
0.0
 11
-81.381697
 21
-6.639572
 31
0.0
  0
LINE
  5
1C7
100
AcDbEntity
  8
0
390
0
  6
Continuous
 62
     7
100
AcDbLine
 10
-81.439405
 20
-7.174378
 30
0.0
 11
-81.381697
 21
-6.639572
 31
0.0
  0
ARC
  5
1C8
100
AcDbEntity
  8
0
390
0
  6
Continuous
 62
     7
100
AcDbCircle
 10
-83.82652
 20
-6.635578
 30
0.0
 40
2.447167
210
0.0
220
0.0
230
1.0
100
AcDbArc
 50
312.719216
 51
347.280784
  0
LINE
  5
1C9
100
AcDbEntity
  8
0
390
0
  6
Continuous
 62
     7
100
AcDbLine
 10
-108.038705
 20
8.750859
 30
0.0
 11
-108.473007
 21
8.433479
 31
0.0
  0
LINE
  5
1CA
100
AcDbEntity
  8
0
390
0
  6
Continuous
 62
     7
100
AcDbLine
 10
-107.982135
 20
8.652877
 30
0.0
 11
-108.038705
 21
8.750859
 31
0.0
  0
LINE
  5
1CB
100
AcDbEntity
  8
0
390
0
  6
Continuous
 62
     7
100
AcDbLine
 10
-109.144517
 20
6.639572
 30
0.0
 11
-109.257658
 21
6.639572
 31
0.0
  0
LINE
  5
1CC
100
AcDbEntity
  8
0
390
0
  6
Continuous
 62
     7
100
AcDbLine
 10
-109.199949
 20
7.174378
 30
0.0
 11
-109.257658
 21
6.639572
 31
0.0
  0
ARC
  5
1CD
100
AcDbEntity
  8
0
390
0
  6
Continuous
 62
     7
100
AcDbCircle
 10
-106.812834
 20
6.635577
 30
0.0
 40
2.447167
210
0.0
220
0.0
230
1.0
100
AcDbArc
 50
132.719216
 51
167.280784
  0
LINE
  5
1CE
100
AcDbEntity
  8
0
390
0
  6
Continuous
 62
     7
100
AcDbLine
 10
-109.257658
 20
-6.639572
 30
0.0
 11
-109.199949
 21
-7.174378
 31
0.0
  0
LINE
  5
1CF
100
AcDbEntity
  8
0
390
0
  6
Continuous
 62
     7
100
AcDbLine
 10
-109.144517
 20
-6.639572
 30
0.0
 11
-109.257658
 21
-6.639572
 31
0.0
  0
LINE
  5
1D0
100
AcDbEntity
  8
0
390
0
  6
Continuous
 62
     7
100
AcDbLine
 10
-107.982135
 20
-8.652877
 30
0.0
 11
-108.038705
 21
-8.750859
 31
0.0
  0
LINE
  5
1D1
100
AcDbEntity
  8
0
390
0
  6
Continuous
 62
     7
100
AcDbLine
 10
-108.473007
 20
-8.433479
 30
0.0
 11
-108.038705
 21
-8.750859
 31
0.0
  0
ARC
  5
1D2
100
AcDbEntity
  8
0
390
0
  6
Continuous
 62
     7
100
AcDbCircle
 10
-106.812834
 20
-6.635578
 30
0.0
 40
2.447167
210
0.0
220
0.0
230
1.0
100
AcDbArc
 50
192.719216
 51
227.280784
  0
LINE
  5
1D3
100
AcDbEntity
  8
0
390
0
  6
Continuous
 62
     7
100
AcDbLine
 10
-108.038705
 20
-8.750859
 30
0.0
 11
-96.538629
 21
-15.390431
 31
0.0
  0
LINE
  5
1D4
100
AcDbEntity
  8
0
390
0
  6
Continuous
 62
     7
100
AcDbLine
 10
-94.100725
 20
-15.390431
 30
0.0
 11
-82.600649
 21
-8.750859
 31
0.0
  0
LINE
  5
1D5
100
AcDbEntity
  8
0
390
0
  6
Continuous
 62
     7
100
AcDbLine
 10
-109.257658
 20
6.639572
 30
0.0
 11
-109.257658
 21
-6.639572
 31
0.0
  0
LINE
  5
1D6
100
AcDbEntity
  8
0
390
0
  6
Continuous
 62
     7
100
AcDbLine
 10
-96.538629
 20
15.390431
 30
0.0
 11
-108.038705
 21
8.750859
 31
0.0
  0
LINE
  5
1D7
100
AcDbEntity
  8
0
390
0
  6
Continuous
 62
     7
100
AcDbLine
 10
-81.381697
 20
-6.639572
 30
0.0
 11
-81.381697
 21
6.639572
 31
0.0
  0
LINE
  5
1D8
100
AcDbEntity
  8
0
390
0
  6
Continuous
 62
     7
100
AcDbLine
 10
-82.600649
 20
8.750859
 30
0.0
 11
-94.100725
 21
15.390431
 31
0.0
  0
ARC
  5
1D9
100
AcDbEntity
  8
0
390
0
  6
Continuous
 62
     7
100
AcDbCircle
 10
-104.361644
 20
15.661146
 30
0.0
 40
33.797813
210
0.0
220
0.0
230
1.0
100
AcDbArc
 50
289.257778
 51
310.742222
  0
ELLIPSE
  5
1DA
100
AcDbEntity
  8
0
390
0
  6
Continuous
 62
     7
100
AcDbEllipse
 10
-93.100877
 20
-17.122218
 30
0.0
 11
-1.0057696417118678
 21
1.7287068657846072
 31
0.0
210
0.0
220
0.0
230
1.0
 40
0.18763
 41
5.1320714685619473
 42
6.2654164023394845
  0
ELLIPSE
  5
1DB
100
AcDbEntity
  8
0
390
0
  6
Continuous
 62
     7
100
AcDbEllipse
 10
-81.600801
 20
-10.482646
 30
0.0
 11
-0.9942192406111328
 21
1.735375492969371
 31
0.0
210
0.0
220
0.0
230
1.0
 40
0.18763
 41
0.0177689061615372
 42
1.1511138386566411
  0
ELLIPSE
  5
1DC
100
AcDbEntity
  8
0
390
0
  6
Continuous
 62
     7
100
AcDbEllipse
 10
-111.257353
 20
-6.639572
 30
0.0
 11
-1.9999888823202527
 21
0.0066686276981587
 31
0.0
210
0.0
220
0.0
230
1.0
 40
0.18763
 41
3.1593615597995419
 42
4.2927064922946707
  0
ARC
  5
1DD
100
AcDbEntity
  8
0
390
0
  6
Continuous
 62
     7
100
AcDbCircle
 10
-77.230506
 20
0.0
 30
0.0
 40
33.802959
210
0.0
220
0.0
230
0.9999999999999999
100
AcDbArc
 50
169.259433
 51
190.740567
  0
ELLIPSE
  5
1DE
100
AcDbEntity
  8
0
390
0
  6
Continuous
 62
     7
100
AcDbEllipse
 10
-111.257353
 20
6.639572
 30
0.0
 11
-1.9999888823687695
 21
-0.0066686131470206
 31
0.0
210
0.0
220
0.0
230
0.9999999999999999
 40
0.18763
 41
1.9904788162598051
 42
3.1238237499689414
  0
ARC
  5
1DF
100
AcDbEntity
  8
0
390
0
  6
Continuous
 62
     7
100
AcDbCircle
 10
-104.361644
 20
-15.661146
 30
0.0
 40
33.797813
210
0.0
220
0.0
230
1.0
100
AcDbArc
 50
49.257778
 51
70.742222
  0
ELLIPSE
  5
1E0
100
AcDbEntity
  8
0
390
0
  6
Continuous
 62
     7
100
AcDbEllipse
 10
-81.600801
 20
10.482646
 30
0.0
 11
-0.9942192406100781
 21
-1.7353754929699261
 31
0.0
210
0.0
220
0.0
230
0.9999999999999999
 40
0.18763
 41
5.1320714685619349
 42
6.2654164023394134
  0
ELLIPSE
  5
1E1
100
AcDbEntity
  8
0
390
0
  6
Continuous
 62
     7
100
AcDbEllipse
 10
-93.100877
 20
17.122218
 30
0.0
 11
-1.0057696417108408
 21
-1.7287068657851901
 31
0.0
210
0.0
220
0.0
230
1.0
 40
0.18763
 41
0.0177689061618378
 42
1.151113838656658
  0
ARC
  5
1E2
100
AcDbEntity
  8
0
390
0
  6
Continuous
 62
     7
100
AcDbCircle
 10
-113.408848
 20
0.0
 30
0.0
 40
33.802959
210
0.0
220
0.0
230
1.0
100
AcDbArc
 50
349.259433
 51
10.740567
  0
ELLIPSE
  5
1E3
100
AcDbEntity
  8
0
390
0
  6
Continuous
 62
     7
100
AcDbEllipse
 10
-79.382001
 20
-6.639572
 30
0.0
 11
-1.9999888823219736
 21
-0.0066686271853744
 31
0.0
210
0.0
220
0.0
230
1.0
 40
0.18763
 41
5.1320714685619269
 42
6.265416402339457
  0
ELLIPSE
  5
1E4
100
AcDbEntity
  8
0
390
0
  6
Continuous
 62
     7
100
AcDbEllipse
 10
-79.382001
 20
6.639572
 30
0.0
 11
-1.9999888823219736
 21
0.0066686271841532
 31
0.0
210
0.0
220
0.0
230
0.9999999999999999
 40
0.18763
 41
0.0177689061614885
 42
1.1511138386566371
  0
ELLIPSE
  5
1E5
100
AcDbEntity
  8
0
390
0
  6
Continuous
 62
     7
100
AcDbEllipse
 10
-109.038553
 20
10.482646
 30
0.0
 11
-0.994219240164837
 21
1.7353754932250276
 31
0.0
210
0.0
220
0.0
230
1.0
 40
0.18763
 41
3.1593615598003955
 42
4.2927064922947071
  0
ARC
  5
1E6
100
AcDbEntity
  8
0
390
0
  6
Continuous
 62
     7
100
AcDbCircle
 10
-86.275091
 20
-15.665682
 30
0.0
 40
33.802959
210
0.0
220
0.0
230
1.0
100
AcDbArc
 50
109.259433
 51
130.740567
  0
ELLIPSE
  5
1E7
100
AcDbEntity
  8
0
390
0
  6
Continuous
 62
     7
100
AcDbEllipse
 10
-97.538477
 20
17.122218
 30
0.0
 11
-1.0057696295684704
 21
1.7287068728496779
 31
0.0
210
0.0
220
0.0
230
1.0
 40
0.18763
 41
1.9904788162608005
 42
3.1238237499699331
  0
ELLIPSE
  5
1E8
100
AcDbEntity
  8
0
390
0
  6
Continuous
 62
     7
100
AcDbEllipse
 10
-97.538477
 20
-17.122218
 30
0.0
 11
-1.0057696421552214
 21
-1.7287068655266191
 31
0.0
210
0.0
220
0.0
230
1.0
 40
0.18763
 41
3.1593615597999167
 42
4.2927064922946769
  0
ARC
  5
1E9
100
AcDbEntity
  8
0
390
0
  6
Continuous
 62
     7
100
AcDbCircle
 10
-86.275091
 20
15.665682
 30
0.0
 40
33.802959
210
0.0
220
0.0
230
1.0
100
AcDbArc
 50
229.259433
 51
250.740567
  0
ELLIPSE
  5
1EA
100
AcDbEntity
  8
0
390
0
  6
Continuous
 62
     7
100
AcDbEllipse
 10
-109.038553
 20
-10.482646
 30
0.0
 11
-0.9942192523898635
 21
-1.7353754862211579
 31
0.0
210
0.0
220
0.0
230
0.9999999999999999
 40
0.18763
 41
1.9904788162164497
 42
3.1238237487344911
  0
LINE
  5
1EB
100
AcDbEntity
  8
0
390
0
  6
Continuous
 62
     7
100
AcDbLine
 10
-80.19808
 20
-6.299597
 30
0.0
 11
-80.422979
 21
-7.17076
 31
0.0
  0
ELLIPSE
  5
1EC
100
AcDbEntity
  8
0
390
0
  6
Continuous
 62
     7
100
AcDbEllipse
 10
-79.489966
 20
-7.619881
 30
0.0
 11
-1.9507853852095969
 21
0.44094940849565
 31
0.0
210
0.0
220
0.0
230
1.0
 40
0.134564
 41
5.2412345339679671
 42
6.2655806190246208
  0
LINE
  5
1ED
100
AcDbEntity
  8
0
390
0
  6
Continuous
 62
     7
100
AcDbLine
 10
-110.441274
 20
6.299597
 30
0.0
 11
-110.216375
 21
7.17076
 31
0.0
  0
ELLIPSE
  5
1EE
100
AcDbEntity
  8
0
390
0
  6
Continuous
 62
     7
100
AcDbEllipse
 10
-111.149388
 20
7.61988
 30
0.0
 11
-1.9507853852096941
 21
0.4409494084951782
 31
0.0
210
0.0
220
0.0
230
1.0
 40
0.134564
 41
2.0996418803783761
 42
3.1239879654348588
  0
LINE
  5
1EF
100
AcDbEntity
  8
0
390
0
  6
Continuous
 62
     7
100
AcDbLine
 10
-97.424865
 20
16.245485
 30
0.0
 11
-96.557966
 21
16.486298
 31
0.0
  0
ELLIPSE
  5
1F0
100
AcDbEntity
  8
0
390
0
  6
Continuous
 62
     7
100
AcDbEllipse
 10
-96.635522
 20
17.518872
 30
0.0
 11
-0.5935193030635888
 21
1.9099044051708314
 31
0.0
210
0.0
220
0.0
230
1.0
 40
0.134564
 41
2.0996418803780057
 42
3.1239879654348761
  0
LINE
  5
1F1
100
AcDbEntity
  8
0
390
0
  6
Continuous
 62
     7
100
AcDbLine
 10
-82.303268
 20
9.945888
 30
0.0
 11
-81.661268
 21
9.315538
 31
0.0
  0
ELLIPSE
  5
1F2
100
AcDbEntity
  8
0
390
0
  6
Continuous
 62
     7
100
AcDbEllipse
 10
-80.805812
 20
9.898991
 30
0.0
 11
-1.3572660821459803
 21
-1.4689549966748761
 31
0.0
210
0.0
220
0.0
230
1.0
 40
0.134564
 41
5.2412345339678055
 42
6.2655806190245853
  0
LINE
  5
1F3
100
AcDbEntity
  8
0
390
0
  6
Continuous
 62
     7
100
AcDbLine
 10
-93.21449
 20
-16.245485
 30
0.0
 11
-94.081389
 21
-16.486299
 31
0.0
  0
ELLIPSE
  5
1F4
100
AcDbEntity
  8
0
390
0
  6
Continuous
 62
     7
100
AcDbEllipse
 10
-94.003832
 20
-17.518872
 30
0.0
 11
-0.5935193030635888
 21
1.9099044051708314
 31
0.0
210
0.0
220
0.0
230
1.0
 40
0.134564
 41
5.2412345339679254
 42
6.2655806190246954
  0
LINE
  5
1F5
100
AcDbEntity
  8
0
390
0
  6
Continuous
 62
     7
100
AcDbLine
 10
-108.336086
 20
-9.945889
 30
0.0
 11
-108.978086
 21
-9.315539
 31
0.0
  0
ELLIPSE
  5
1F6
100
AcDbEntity
  8
0
390
0
  6
Continuous
 62
     7
100
AcDbEllipse
 10
-109.833543
 20
-9.898992
 30
0.0
 11
-1.3572660821453835
 21
-1.4689549966754034
 31
0.0
210
0.0
220
0.0
230
1.0
 40
0.134564
 41
2.0996418803783525
 42
3.1239879654349094
  0
LINE
  5
1F7
100
AcDbEntity
  8
0
390
0
  6
Continuous
 62
     7
100
AcDbLine
 10
-80.422979
 20
7.17076
 30
0.0
 11
-80.19808
 21
6.299597
 31
0.0
  0
ELLIPSE
  5
1F8
100
AcDbEntity
  8
0
390
0
  6
Continuous
 62
     7
100
AcDbEllipse
 10
-79.489966
 20
7.61988
 30
0.0
 11
-1.9507853852096801
 21
-0.4409494084953169
 31
0.0
210
0.0
220
0.0
230
0.9999999999999999
 40
0.134564
 41
0.017604688154952
 42
1.0419507732113387
  0
ELLIPSE
  5
1F9
100
AcDbEntity
  8
0
390
0
  6
Continuous
 62
     7
100
AcDbEllipse
 10
-111.149388
 20
-7.619881
 30
0.0
 11
-1.9507853852096662
 21
-0.4409494084953725
 31
0.0
210
0.0
220
0.0
230
1.0
 40
0.134564
 41
3.1591973417447865
 42
4.183543426801223
  0
LINE
  5
1FA
100
AcDbEntity
  8
0
390
0
  6
Continuous
 62
     7
100
AcDbLine
 10
-110.216375
 20
-7.17076
 30
0.0
 11
-110.441274
 21
-6.299597
 31
0.0
  0
LINE
  5
1FB
100
AcDbEntity
  8
0
390
0
  6
Continuous
 62
     7
100
AcDbLine
 10
-81.661268
 20
-9.315539
 30
0.0
 11
-82.303268
 21
-9.945889
 31
0.0
  0
ELLIPSE
  5
1FC
100
AcDbEntity
  8
0
390
0
  6
Continuous
 62
     7
100
AcDbEllipse
 10
-80.805812
 20
-9.898992
 30
0.0
 11
-1.3572660821454945
 21
1.4689549966753479
 31
0.0
210
0.0
220
0.0
230
1.0
 40
0.134564
 41
0.0176046881549927
 42
1.0419507732113615
  0
LINE
  5
1FD
100
AcDbEntity
  8
0
390
0
  6
Continuous
 62
     7
100
AcDbLine
 10
-94.081389
 20
16.486298
 30
0.0
 11
-93.21449
 21
16.245485
 31
0.0
  0
ELLIPSE
  5
1FE
100
AcDbEntity
  8
0
390
0
  6
Continuous
 62
     7
100
AcDbEllipse
 10
-94.003832
 20
17.518872
 30
0.0
 11
-0.5935193030639357
 21
-1.9099044051707204
 31
0.0
210
0.0
220
0.0
230
1.0
 40
0.134564
 41
0.0176046881549212
 42
1.0419507732114479
  0
ELLIPSE
  5
1FF
100
AcDbEntity
  8
0
390
0
  6
Continuous
 62
     7
100
AcDbEllipse
 10
-96.635522
 20
-17.518872
 30
0.0
 11
-0.5935193030639913
 21
-1.9099044051707064
 31
0.0
210
0.0
220
0.0
230
0.9999999999999999
 40
0.134564
 41
3.1591973417448136
 42
4.1835434268013607
  0
LINE
  5
200
100
AcDbEntity
  8
0
390
0
  6
Continuous
 62
     7
100
AcDbLine
 10
-96.557966
 20
-16.486299
 30
0.0
 11
-97.424865
 21
-16.245485
 31
0.0
  0
ELLIPSE
  5
201
100
AcDbEntity
  8
0
390
0
  6
Continuous
 62
     7
100
AcDbEllipse
 10
-109.833543
 20
9.898991
 30
0.0
 11
-1.3572660821458138
 21
1.4689549966750148
 31
0.0
210
0.0
220
0.0
230
1.0
 40
0.134564
 41
3.1591973417447758
 42
4.1835434268014673
  0
LINE
  5
202
100
AcDbEntity
  8
0
390
0
  6
Continuous
 62
     7
100
AcDbLine
 10
-108.978086
 20
9.315538
 30
0.0
 11
-108.336086
 21
9.945888
 31
0.0
  0
ARC
  5
203
100
AcDbEntity
  8
0
390
0
  6
Continuous
 62
     7
100
AcDbCircle
 10
-86.486436
 20
5.099874
 30
0.0
 40
6.407345
210
0.0
220
0.0
230
1.0
100
AcDbArc
 50
18.856859
 51
41.143141
  0
ARC
  5
204
100
AcDbEntity
  8
0
390
0
  6
Continuous
 62
     7
100
AcDbCircle
 10
-95.319677
 20
10.206775
 30
0.0
 40
6.400451
210
0.0
220
0.0
230
1.0
100
AcDbArc
 50
78.844702
 51
101.155298
  0
ARC
  5
205
100
AcDbEntity
  8
0
390
0
  6
Continuous
 62
     7
100
AcDbCircle
 10
-86.486436
 20
-5.099874
 30
0.0
 40
6.407345
210
0.0
220
0.0
230
1.0
100
AcDbArc
 50
318.856859
 51
341.143141
  0
ARC
  5
206
100
AcDbEntity
  8
0
390
0
  6
Continuous
 62
     7
100
AcDbCircle
 10
-95.319677
 20
-10.207598
 30
0.0
 40
6.399644
210
0.0
220
0.0
230
1.0
100
AcDbArc
 50
258.843277
 51
281.156723
  0
ARC
  5
207
100
AcDbEntity
  8
0
390
0
  6
Continuous
 62
     7
100
AcDbCircle
 10
-104.152918
 20
-5.099874
 30
0.0
 40
6.407345
210
0.0
220
0.0
230
1.0
100
AcDbArc
 50
198.856859
 51
221.143141
  0
ARC
  5
208
100
AcDbEntity
  8
0
390
0
  6
Continuous
 62
     7
100
AcDbCircle
 10
-104.152918
 20
5.099874
 30
0.0
 40
6.407345
210
0.0
220
0.0
230
1.0
100
AcDbArc
 50
138.856859
 51
161.143141
  0
ARC
  5
209
100
AcDbEntity
  8
0
390
0
  6
Continuous
 62
     7
100
AcDbCircle
 10
-95.319677
 20
0.0
 30
0.0
 40
17.494514
210
0.0
220
0.0
230
1.0
100
AcDbArc
 50
214.29543
 51
265.70457
  0
LINE
  5
20A
100
AcDbEntity
  8
0
390
0
  6
Continuous
 62
     7
100
AcDbLine
 10
-109.772652
 20
-9.857462
 30
0.0
 11
-108.978086
 21
-9.315539
 31
0.0
  0
LINE
  5
20B
100
AcDbEntity
  8
0
390
0
  6
Continuous
 62
     7
100
AcDbLine
 10
-96.557966
 20
-16.486299
 30
0.0
 11
-96.630002
 21
-17.445374
 31
0.0
  0
LINE
  5
20C
100
AcDbEntity
  8
0
390
0
  6
Continuous
 62
     7
100
AcDbLine
 10
-81.661268
 20
-9.315539
 30
0.0
 11
-80.866702
 21
-9.857462
 31
0.0
  0
ARC
  5
20D
100
AcDbEntity
  8
0
390
0
  6
Continuous
 62
     7
100
AcDbCircle
 10
-95.319677
 20
0.0
 30
0.0
 40
17.494514
210
0.0
220
0.0
230
1.0
100
AcDbArc
 50
274.29543
 51
325.70457
  0
LINE
  5
20E
100
AcDbEntity
  8
0
390
0
  6
Continuous
 62
     7
100
AcDbLine
 10
-94.081389
 20
-16.486299
 30
0.0
 11
-94.009352
 21
-17.445374
 31
0.0
  0
LINE
  5
20F
100
AcDbEntity
  8
0
390
0
  6
Continuous
 62
     7
100
AcDbLine
 10
-94.009352
 20
-17.445374
 30
0.0
 11
-96.630002
 21
-17.445374
 31
0.0
  0
LINE
  5
210
100
AcDbEntity
  8
0
390
0
  6
Continuous
 62
     7
100
AcDbLine
 10
-94.009352
 20
17.445374
 30
0.0
 11
-94.081389
 21
16.486298
 31
0.0
  0
ARC
  5
211
100
AcDbEntity
  8
0
390
0
  6
Continuous
 62
     7
100
AcDbCircle
 10
-95.319677
 20
0.0
 30
0.0
 40
17.494514
210
0.0
220
0.0
230
1.0
100
AcDbArc
 50
34.29543
 51
85.70457
  0
LINE
  5
212
100
AcDbEntity
  8
0
390
0
  6
Continuous
 62
     7
100
AcDbLine
 10
-81.661268
 20
9.315538
 30
0.0
 11
-80.866702
 21
9.857462
 31
0.0
  0
LINE
  5
213
100
AcDbEntity
  8
0
390
0
  6
Continuous
 62
     7
100
AcDbLine
 10
-79.556377
 20
-7.587913
 30
0.0
 11
-80.866702
 21
-9.857462
 31
0.0
  0
LINE
  5
214
100
AcDbEntity
  8
0
390
0
  6
Continuous
 62
     7
100
AcDbLine
 10
-80.422979
 20
-7.17076
 30
0.0
 11
-79.556377
 21
-7.587913
 31
0.0
  0
LINE
  5
215
100
AcDbEntity
  8
0
390
0
  6
Continuous
 62
     7
100
AcDbLine
 10
-109.772652
 20
-9.857462
 30
0.0
 11
-111.082977
 21
-7.587913
 31
0.0
  0
LINE
  5
216
100
AcDbEntity
  8
0
390
0
  6
Continuous
 62
     7
100
AcDbLine
 10
-111.082977
 20
-7.587913
 30
0.0
 11
-110.216375
 21
-7.17076
 31
0.0
  0
LINE
  5
217
100
AcDbEntity
  8
0
390
0
  6
Continuous
 62
     7
100
AcDbLine
 10
-80.422979
 20
7.17076
 30
0.0
 11
-79.556377
 21
7.587912
 31
0.0
  0
ARC
  5
218
100
AcDbEntity
  8
0
390
0
  6
Continuous
 62
     7
100
AcDbCircle
 10
-95.319677
 20
0.0
 30
0.0
 40
17.494514
210
0.0
220
0.0
230
1.0
100
AcDbArc
 50
334.29543
 51
25.70457
  0
LINE
  5
219
100
AcDbEntity
  8
0
390
0
  6
Continuous
 62
     7
100
AcDbLine
 10
-109.772652
 20
9.857462
 30
0.0
 11
-108.978086
 21
9.315538
 31
0.0
  0
ARC
  5
21A
100
AcDbEntity
  8
0
390
0
  6
Continuous
 62
     7
100
AcDbCircle
 10
-95.319677
 20
0.0
 30
0.0
 40
17.494514
210
0.0
220
0.0
230
1.0
100
AcDbArc
 50
94.29543
 51
145.70457
  0
LINE
  5
21B
100
AcDbEntity
  8
0
390
0
  6
Continuous
 62
     7
100
AcDbLine
 10
-96.630002
 20
17.445374
 30
0.0
 11
-96.557966
 21
16.486298
 31
0.0
  0
LINE
  5
21C
100
AcDbEntity
  8
0
390
0
  6
Continuous
 62
     7
100
AcDbLine
 10
-80.866702
 20
9.857462
 30
0.0
 11
-79.556377
 21
7.587912
 31
0.0
  0
ARC
  5
21D
100
AcDbEntity
  8
0
390
0
  6
Continuous
 62
     7
100
AcDbCircle
 10
-95.319677
 20
0.0
 30
0.0
 40
17.494514
210
0.0
220
0.0
230
1.0
100
AcDbArc
 50
154.29543
 51
205.70457
  0
LINE
  5
21E
100
AcDbEntity
  8
0
390
0
  6
Continuous
 62
     7
100
AcDbLine
 10
-111.082977
 20
7.587912
 30
0.0
 11
-110.216375
 21
7.17076
 31
0.0
  0
LINE
  5
21F
100
AcDbEntity
  8
0
390
0
  6
Continuous
 62
     7
100
AcDbLine
 10
-111.082977
 20
7.587912
 30
0.0
 11
-109.772652
 21
9.857462
 31
0.0
  0
LINE
  5
220
100
AcDbEntity
  8
0
390
0
  6
Continuous
 62
     7
100
AcDbLine
 10
-96.630002
 20
17.445374
 30
0.0
 11
-94.009352
 21
17.445374
 31
0.0
  0
CIRCLE
  5
221
100
AcDbEntity
  8
0
390
0
  6
Continuous
 62
     7
100
AcDbCircle
 10
-95.319677
 20
0.0
 30
0.0
 40
17.672946
210
0.0
220
0.0
230
1.0
  0
POINT
  5
222
100
AcDbEntity
  8
0
390
0
 62
     7
100
AcDbPoint
 10
0.0
 20
0.0
 30
0.0
  0
ENDSEC
  0
SECTION
  2
OBJECTS
  0
DICTIONARY
  5
19
100
AcDbDictionary
280
     0
281
     1
  3
ACAD_GROUP
350
1A
  3
ACAD_MLINESTYLE
350
1B
  3
ACAD_LAYOUT
350
1E
  3
ACAD_PLOTSETTINGS
350
22
  3
ACAD_PLOTSTYLENAME
350
1F
  3
ACAD_WIPEOUT_VARS
350
23
  0
DICTIONARY
  5
1A
102
{ACAD_REACTORS
330
19
102
}
100
AcDbDictionary
280
     0
281
     1
  0
DICTIONARY
  5
1B
102
{ACAD_REACTORS
330
19
102
}
100
AcDbDictionary
280
     0
281
     1
  3
Standard
350
1C
  0
MLINESTYLE
  5
1C
102
{ACAD_REACTORS
330
1B
102
}
100
AcDbMlineStyle
  2
Standard
 70
     0
  3

 62
     0
 51
90.0
 52
90.0
 71
     2
 49
0.5
 62
   256
  6
ByLayer
 49
-0.5
 62
   256
  6
ByLayer
  0
ACDBDICTIONARYWDFLT
  5
1F
102
{ACAD_REACTORS
330
19
102
}
100
AcDbDictionary
281
     1
  3
Normal
350
1D
100
AcDbDictionaryWithDefault
340
1D
  0
ACDBPLACEHOLDER
  5
1D
102
{ACAD_REACTORS
330
1F
102
}
  0
LAYOUT
  5
20
102
{ACAD_REACTORS
330
1E
102
}
100
AcDbPlotSettings
  1

  2

  4

  6

 40
0.0
 41
0.0
 42
0.0
 43
0.0
 44
0.0
 45
0.0
 46
0.0
 47
0.0
 48
0.0
 49
0.0
140
0.0
141
0.0
142
1.0
143
1.0
 70
  1024
 72
     0
 73
     0
 74
     0
  7

 75
     0
147
1.0
148
0.0
149
0.0
100
AcDbLayout
  1
Model
 70
     0
 71
     1
 10
0.0
 20
0.0
 11
0.0
 21
0.0
 12
0.0
 22
0.0
 32
0.0
 14
0.0
 24
0.0
 34
0.0
 15
0.0
 25
0.0
 35
0.0
146
0.0
 13
0.0
 23
0.0
 33
0.0
 16
0.0
 26
0.0
 36
0.0
 17
0.0
 27
0.0
 37
0.0
 76
     0
330
A
331
0
345
0
346
0
  0
LAYOUT
  5
21
102
{ACAD_REACTORS
330
1E
102
}
100
AcDbPlotSettings
  1

  2

  4

  6

 40
0.0
 41
0.0
 42
0.0
 43
0.0
 44
0.0
 45
0.0
 46
0.0
 47
0.0
 48
0.0
 49
0.0
140
0.0
141
0.0
142
1.0
143
1.0
 70
     0
 72
     0
 73
     0
 74
     0
  7

 75
     0
147
1.0
148
0.0
149
0.0
100
AcDbLayout
  1
Layout1
 70
     0
 71
     2
 10
0.0
 20
0.0
 11
0.0
 21
0.0
 12
0.0
 22
0.0
 32
0.0
 14
0.0
 24
0.0
 34
0.0
 15
0.0
 25
0.0
 35
0.0
146
0.0
 13
0.0
 23
0.0
 33
0.0
 16
0.0
 26
0.0
 36
0.0
 17
0.0
 27
0.0
 37
0.0
 76
     0
330
B
331
0
345
0
346
0
  0
DICTIONARY
  5
1E
102
{ACAD_REACTORS
330
19
102
}
100
AcDbDictionary
280
     0
281
     1
  3
Layout1
350
21
  3
Model
350
20
  0
DICTIONARY
  5
22
102
{ACAD_REACTORS
330
19
102
}
100
AcDbDictionary
280
     0
281
     1
  0
WIPEOUTVARIABLES
  5
23
100
AcDbWipeoutVariables
 70
     1
  0
ENDSEC
  0
EOF
