  0
SECTION
  2
HEADER
  9
$ACADVER
  1
AC1015
  9
$ACADMAINTVER
 70
     6
  9
$DWGCODEPAGE
  3
DOS932
  9
$INSBASE
 10
0.0
 20
0.0
 30
0.0
  9
$EXTMIN
 10
-105.69344
 20
-14.646742
 30
0.0
  9
$EXTMAX
 10
255.468572
 20
169.039361
 30
9.906
  9
$LIMMIN
 10
-105.69344
 20
-14.646742
  9
$LIMMAX
 10
255.468572
 20
169.039361
  9
$ORTHOMODE
 70
     0
  9
$REGENMODE
 70
     1
  9
$FILLMODE
 70
     1
  9
$QTEXTMODE
 70
     0
  9
$MIRRTEXT
 70
     1
  9
$LTSCALE
 40
10.0
  9
$ATTMODE
 70
     1
  9
$TEXTSIZE
 40
0.2
  9
$TRACEWID
 40
0.05
  9
$TEXTSTYLE
  7
Standard
  9
$CLAYER
  8
0
  9
$CELTYPE
  6
Continuous
  9
$CECOLOR
 62
   256
  9
$CELTSCALE
 40
1.0
  9
$DISPSILH
 70
     0
  9
$DIMSCALE
 40
1.0
  9
$DIMASZ
 40
1.40208
  9
$DIMEXO
 40
1.40208
  9
$DIMDLI
 40
0.38
  9
$DIMRND
 40
0.0
  9
$DIMDLE
 40
0.0
  9
$DIMEXE
 40
1.05156
  9
$DIMTP
 40
0.0
  9
$DIMTM
 40
0.0
  9
$DIMTXT
 40
3.5052
  9
$DIMCEN
 40
0.09
  9
$DIMTSZ
 40
0.0
  9
$DIMTOL
 70
     0
  9
$DIMLIM
 70
     0
  9
$DIMTIH
 70
     0
  9
$DIMTOH
 70
     0
  9
$DIMSE1
 70
     0
  9
$DIMSE2
 70
     0
  9
$DIMTAD
 70
     1
  9
$DIMZIN
 70
     0
  9
$DIMBLK
  1

  9
$DIMASO
 70
     1
  9
$DIMSHO
 70
     1
  9
$DIMPOST
  1

  9
$DIMAPOST
  1

  9
$DIMALT
 70
     0
  9
$DIMALTD
 70
     2
  9
$DIMALTF
 40
25.4
  9
$DIMLFAC
 40
1.0
  9
$DIMTOFL
 70
     0
  9
$DIMTVP
 40
0.0
  9
$DIMTIX
 70
     0
  9
$DIMSOXD
 70
     0
  9
$DIMSAH
 70
     0
  9
$DIMBLK1
  1

  9
$DIMBLK2
  1

  9
$DIMSTYLE
  2
Standard
  9
$DIMCLRD
 70
     7
  9
$DIMCLRE
 70
     7
  9
$DIMCLRT
 70
     7
  9
$DIMTFAC
 40
0.5
  9
$DIMGAP
 40
1.7526
  9
$DIMJUST
 70
     0
  9
$DIMSD1
 70
     0
  9
$DIMSD2
 70
     0
  9
$DIMTOLJ
 70
     1
  9
$DIMTZIN
 70
     0
  9
$DIMALTZ
 70
     0
  9
$DIMALTTZ
 70
     0
  9
$DIMUPT
 70
     0
  9
$DIMDEC
 70
     2
  9
$DIMTDEC
 70
     4
  9
$DIMALTU
 70
     2
  9
$DIMALTTD
 70
     2
  9
$DIMTXSTY
  7
Standard
  9
$DIMAUNIT
 70
     0
  9
$DIMADEC
 70
     0
  9
$DIMALTRND
 40
0.0
  9
$DIMAZIN
 70
     0
  9
$DIMDSEP
 70
     0
  9
$DIMATFIT
 70
     3
  9
$DIMFRAC
 70
     0
  9
$DIMLDRBLK
  1

  9
$DIMLUNIT
 70
     2
  9
$DIMLWD
 70
     0
  9
$DIMLWE
 70
     0
  9
$DIMTMOVE
 70
     0
  9
$LUNITS
 70
     2
  9
$LUPREC
 70
     4
  9
$SKETCHINC
 40
0.1
  9
$FILLETRAD
 40
0.0
  9
$AUNITS
 70
     0
  9
$AUPREC
 70
     0
  9
$MENU
  1
acad
  9
$ELEVATION
 40
0.0
  9
$PELEVATION
 40
0.0
  9
$THICKNESS
 40
0.0
  9
$LIMCHECK
 70
     0
  9
$CHAMFERA
 40
0.0
  9
$CHAMFERB
 40
0.0
  9
$CHAMFERC
 40
0.0
  9
$CHAMFERD
 40
0.0
  9
$SKPOLY
 70
     0
  9
$TDCREATE
 40
2459788.589826389
  9
$TDUCREATE
 40
0.000000000
  9
$TDUPDATE
 40
2459788.214745370
  9
$TDUUPDATE
 40
0.000000000
  9
$TDINDWG
 40
0.0000000000
  9
$TDUSRTIMER
 40
0.0000000000
  9
$USRTIMER
 70
     1
  9
$ANGBASE
 50
0.0
  9
$ANGDIR
 70
     0
  9
$PDMODE
 70
     0
  9
$PDSIZE
 40
0.0
  9
$PLINEWID
 40
0.0
  9
$SPLFRAME
 70
     0
  9
$SPLINETYPE
 70
     6
  9
$SPLINESEGS
 70
     8
  9
$HANDSEED
  5
285
  9
$SURFTAB1
 70
     6
  9
$SURFTAB2
 70
     6
  9
$SURFTYPE
 70
     6
  9
$SURFU
 70
     6
  9
$SURFV
 70
     6
  9
$UCSBASE
  2

  9
$UCSNAME
  2

  9
$UCSORG
 10
0.0
 20
0.0
 30
0.0
  9
$UCSXDIR
 10
1.0
 20
0.0
 30
0.0
  9
$UCSYDIR
 10
0.0
 20
1.0
 30
0.0
  9
$UCSORTHOREF
  2

  9
$UCSORTHOVIEW
 70
     0
  9
$UCSORGTOP
 10
0.0
 20
0.0
 30
0.0
  9
$UCSORGBOTTOM
 10
0.0
 20
0.0
 30
0.0
  9
$UCSORGLEFT
 10
0.0
 20
0.0
 30
0.0
  9
$UCSORGRIGHT
 10
0.0
 20
0.0
 30
0.0
  9
$UCSORGFRONT
 10
0.0
 20
0.0
 30
0.0
  9
$UCSORGBACK
 10
0.0
 20
0.0
 30
0.0
  9
$PUCSBASE
  2

  9
$PUCSNAME
  2

  9
$PUCSORG
 10
0.0
 20
0.0
 30
0.0
  9
$PUCSXDIR
 10
1.0
 20
0.0
 30
0.0
  9
$PUCSYDIR
 10
0.0
 20
1.0
 30
0.0
  9
$PUCSORTHOREF
  2

  9
$PUCSORTHOVIEW
 70
     0
  9
$PUCSORGTOP
 10
0.0
 20
0.0
 30
0.0
  9
$PUCSORGBOTTOM
 10
0.0
 20
0.0
 30
0.0
  9
$PUCSORGLEFT
 10
0.0
 20
0.0
 30
0.0
  9
$PUCSORGRIGHT
 10
0.0
 20
0.0
 30
0.0
  9
$PUCSORGFRONT
 10
0.0
 20
0.0
 30
0.0
  9
$PUCSORGBACK
 10
0.0
 20
0.0
 30
0.0
  9
$USERI1
 70
     0
  9
$USERI2
 70
     0
  9
$USERI3
 70
     0
  9
$USERI4
 70
     0
  9
$USERI5
 70
     0
  9
$USERR1
 40
0.0
  9
$USERR2
 40
0.0
  9
$USERR3
 40
0.0
  9
$USERR4
 40
0.0
  9
$USERR5
 40
0.0
  9
$WORLDVIEW
 70
     1
  9
$SHADEDGE
 70
     3
  9
$SHADEDIF
 70
    70
  9
$TILEMODE
 70
     1
  9
$MAXACTVP
 70
    16
  9
$PINSBASE
 10
0.0
 20
0.0
 30
0.0
  9
$PLIMCHECK
 70
     0
  9
$PEXTMIN
 10
1.000000E+20
 20
1.000000E+20
 30
1.000000E+20
  9
$PEXTMAX
 10
-1.000000E+20
 20
-1.000000E+20
 30
-1.000000E+20
  9
$PLIMMIN
 10
0.0
 20
0.0
  9
$PLIMMAX
 10
12.0
 20
9.0
  9
$UNITMODE
 70
     0
  9
$VISRETAIN
 70
     0
  9
$PLINEGEN
 70
     1
  9
$PSLTSCALE
 70
     0
  9
$TREEDEPTH
 70
  3020
  9
$CMLSTYLE
  2
Standard
  9
$CMLJUST
 70
     0
  9
$CMLSCALE
 40
1.0
  9
$PROXYGRAPHICS
 70
     0
  9
$MEASUREMENT
 70
     0
  9
$CELWEIGHT
370
     0
  9
$ENDCAPS
280
     0
  9
$JOINSTYLE
280
     0
  9
$LWDISPLAY
290
     0
  9
$INSUNITS
 70
     0
  9
$HYPERLINKBASE
  1

  9
$STYLESHEET
  1

  9
$XEDIT
290
     1
  9
$CEPSNTYPE
380
     0
  9
$PSTYLEMODE
290
     1
  9
$FINGERPRINTGUID
  2

  9
$VERSIONGUID
  2

  9
$EXTNAMES
290
     1
  9
$PSVPSCALE
 40
0.0
  0
ENDSEC
  0
SECTION
  2
CLASSES
  0
CLASS
  1
LWPOLYLINE
  2
AcDbPolyline
  3
AutoCAD 2000
 90
        0
280
     0
281
     1
  0
CLASS
  1
IMAGE
  2
AcDbRasterImage
  3
ISM
 90
      127
280
     0
281
     1
  0
CLASS
  1
OLE2FRAME
  2
AcDbOle2Frame
  3
AutoCAD 2000
 90
        0
280
     0
281
     1
  0
CLASS
  1
HATCH
  2
AcDbHatch
  3
AutoCAD 2000
 90
        0
280
     0
281
     1
  0
CLASS
  1
DICTIONARYVAR
  2
AcDbDictionaryVar
  3
AutoCAD 2000
 90
        0
280
     0
281
     0
  0
CLASS
  1
RASTERVARIABLES
  2
AcDbRasterVariables
  3
ISM
 90
        0
280
     0
281
     0
  0
CLASS
  1
IMAGEDEF
  2
AcDbRasterImageDef
  3
ISM
 90
        0
280
     0
281
     0
  0
CLASS
  1
IMAGEDEF_REACTOR
  2
AcDbRasterImageDefReactor
  3
ISM
 90
        1
280
     0
281
     0
  0
CLASS
  1
IDBUFFER
  2
AcDbIdBuffer
  3
AutoCAD 2000
 90
        0
280
     0
281
     0
  0
CLASS
  1
SPATIAL_FILTER
  2
AcDbSpatialFilter
  3
AutoCAD 2000
 90
        0
280
     0
281
     0
  0
CLASS
  1
XRECORD
  2
AcDbXrecord
  3
AutoCAD 2000
 90
        0
280
     0
281
     0
  0
CLASS
  1
SORTENTSTABLE
  2
AcDbSortentsTable
  3
AutoCAD 2000
 90
        0
280
     0
281
     0
  0
CLASS
  1
LAYER_INDEX
  2
AcDbLayerIndex
  3
AutoCAD 2000
 90
        0
280
     0
281
     0
  0
CLASS
  1
SPATIAL_INDEX
  2
AcDbSpatialIndex
  3
AutoCAD 2000
 90
        0
280
     0
281
     0
  0
CLASS
  1
OBJECT_PTR
  2
CAseDLPNTableRecord
  3
"ASE-LPNTableRecord"
 90
        1
280
     0
281
     0
  0
CLASS
  1
LAYOUT
  2
AcDbLayout
  3
AutoCAD 2000
 90
        0
280
     0
281
     0
  0
CLASS
  1
PLOTSETTINGS
  2
AcDbPlotSettings
  3
AutoCAD 2000
 90
        0
280
     0
281
     0
  0
CLASS
  1
ACDBDICTIONARYWDFLT
  2
AcDbDictionaryWithDefault
  3
AutoCAD 2000
 90
        0
280
     0
281
     0
  0
CLASS
  1
ACDBPLACEHOLDER
  2
AcDbPlaceHolder
  3
AutoCAD 2000
 90
        0
280
     0
281
     0
  0
CLASS
  1
VBA_PROJECT
  2
AcDbVbaProject
  3
acadvba
 90
        0
280
     0
281
     0
  0
CLASS
  1
WIPEOUT
  2
AcDbWipeout
  3
WipeOut|AutoCAD Express Tool|expresstools@autodesk.com
 90
      127
280
     0
281
     1
  0
CLASS
  1
WIPEOUTVARIABLES
  2
AcDbWipeoutVariables
  3
WipeOut|AutoCAD Express Tool|expresstools@autodesk.com
 90
        0
280
     0
281
     0
  0
CLASS
  1
RTEXT
  2
RText
  3
RText|AutoCAD Express Tool|expresstools@autodesk.com
 90
        0
280
     0
281
     1
  0
CLASS
  1
ARCALIGNEDTEXT
  2
AcDbArcAlignedText
  3
ATEXT|AutoCAD Express Tool|expresstools@autodesk.com
 90
        0
280
     0
281
     1
  0
ENDSEC
  0
SECTION
  2
TABLES
  0
TABLE
  2
VPORT
  5
7
100
AcDbSymbolTable
 70
     1
  0
VPORT
  5
15
100
AcDbSymbolTableRecord
100
AcDbViewportTableRecord
  2
*ACTIVE
 70
     0
 10
0.0
 20
0.0
 11
1.0
 21
1.0
 12
6.591288
 22
4.579184
 13
0.0
 23
0.0
 14
1.0
 24
1.0
 15
0.0
 25
0.0
 16
0.0
 26
0.0
 36
1.0
 17
0.0
 27
0.0
 37
0.0
 40
9.158369
 41
0.688564
 42
50.0
 43
0.0
 44
0.0
 50
0.0
 51
0.0
 71
     0
 72
   100
 73
     1
 74
     1
 75
     0
 76
     0
 77
     0
 78
     0
281
     0
 65
     0
110
0.0
120
0.0
130
0.0
111
1.0
121
0.0
131
0.0
112
0.0
122
1.0
132
0.0
345
0
346
0
 79
     0
146
0.0
  0
ENDTAB
  0
TABLE
  2
LTYPE
  5
4
100
AcDbSymbolTable
 70
     3
  0
LTYPE
  5
11
100
AcDbSymbolTableRecord
100
AcDbLinetypeTableRecord
  2
ByBlock
 70
    64
  3

 72
    65
 73
     0
 40
0.0
  0
LTYPE
  5
12
100
AcDbSymbolTableRecord
100
AcDbLinetypeTableRecord
  2
ByLayer
 70
    64
  3

 72
    65
 73
     0
 40
0.0
  0
LTYPE
  5
13
100
AcDbSymbolTableRecord
100
AcDbLinetypeTableRecord
  2
Continuous
 70
    64
  3
Solid line
 72
    65
 73
     0
 40
0.0
  0
ENDTAB
  0
TABLE
  2
LAYER
  5
2
100
AcDbSymbolTable
 70
     1
  0
LAYER
  5
14
100
AcDbSymbolTableRecord
100
AcDbLayerTableRecord
  2
0
 70
     0
 62
     7
  6
Continuous
290
     1
370
    -3
390
1D
  0
ENDTAB
  0
TABLE
  2
STYLE
  5
3
100
AcDbSymbolTable
 70
     1
  0
STYLE
  5
17
100
AcDbSymbolTableRecord
100
AcDbTextStyleTableRecord
  2
Standard
 70
     0
 40
0.0
 41
1.0
 50
0.0
 71
     0
 42
0.0
  3
FG教科書体NT-M
  4

1001
ACAD
1000
FG教科書体NT-M
1071
        0
  0
ENDTAB
  0
TABLE
  2
VIEW
  5
5
100
AcDbSymbolTable
 70
     0
  0
ENDTAB
  0
TABLE
  2
UCS
  5
6
100
AcDbSymbolTable
 70
     0
  0
ENDTAB
  0
TABLE
  2
APPID
  5
8
100
AcDbSymbolTable
 70
     2
  0
APPID
  5
16
100
AcDbSymbolTableRecord
100
AcDbRegAppTableRecord
  2
ACAD
 70
     0
  0
APPID
  5
26
100
AcDbSymbolTableRecord
100
AcDbRegAppTableRecord
  2
TOPsolid_Design
 70
     0
  0
ENDTAB
  0
TABLE
  2
DIMSTYLE
  5
9
100
AcDbSymbolTable
 70
     1
100
AcDbDimStyleTable
 71
     0
  0
DIMSTYLE
105
18
100
AcDbSymbolTableRecord
100
AcDbDimStyleTableRecord
  2
Standard
 70
     0
  3

  4

 40
1.0
 41
1.40208
 42
1.40208
 43
0.38
 44
1.05156
 45
0.0
 46
0.0
 47
0.0
 48
0.0
 71
     0
 72
     0
 73
     0
 74
     0
 75
     0
 76
     0
 77
     1
 78
     0
 79
     0
140
3.5052
141
0.09
142
0.0
143
25.4
144
1.0
145
0.0
146
0.5
147
1.7526
148
0.0
170
     0
171
     2
172
     0
173
     0
174
     0
175
     0
176
     7
177
     7
178
     7
179
     0
271
     2
272
     4
273
     2
274
     2
275
     0
276
     0
277
     2
278
    46
279
     0
280
     0
281
     0
282
     0
283
     1
284
     0
285
     0
286
     0
288
     0
289
     3
340
17
341
0
342
0
343
0
344
0
371
    -2
372
    -2
  0
ENDTAB
  0
TABLE
  2
BLOCK_RECORD
  5
1
100
AcDbSymbolTable
 70
     0
  0
BLOCK_RECORD
  5
A
100
AcDbSymbolTableRecord
100
AcDbBlockTableRecord
  2
*MODEL_SPACE
340
20
  0
BLOCK_RECORD
  5
B
100
AcDbSymbolTableRecord
100
AcDbBlockTableRecord
  2
*PAPER_SPACE
340
21
  0
ENDTAB
  0
ENDSEC
  0
SECTION
  2
BLOCKS
  0
BLOCK
  5
D
100
AcDbEntity
  8
0
390
0
100
AcDbBlockBegin
  2
*MODEL_SPACE
 70
     0
 10
0.0
 20
0.0
 30
0.0
  3
*MODEL_SPACE
  1

  0
ENDBLK
  5
E
100
AcDbEntity
  8
0
390
0
100
AcDbBlockEnd
  0
BLOCK
  5
F
100
AcDbEntity
 67
     1
  8
0
390
0
100
AcDbBlockBegin
  2
*PAPER_SPACE
 70
     0
 10
0.0
 20
0.0
 30
0.0
  3
*PAPER_SPACE
  1

  0
ENDBLK
  5
10
100
AcDbEntity
 67
     1
  8
0
390
0
100
AcDbBlockEnd
  0
ENDSEC
  0
SECTION
  2
ENTITIES
  0
LINE
  5
27
100
AcDbEntity
  8
0
390
0
  6
Continuous
 62
     7
100
AcDbLine
 10
6.4
 20
-14.646742
 30
0.0
 11
6.4
 21
0.0
 31
0.0
  0
LINE
  5
28
100
AcDbEntity
  8
0
390
0
  6
Continuous
 62
     7
100
AcDbLine
 10
3.462882
 20
14.492814
 30
0.0
 11
3.492854
 21
14.429322
 31
0.0
  0
LINE
  5
29
100
AcDbEntity
  8
0
390
0
  6
Continuous
 62
     7
100
AcDbLine
 10
3.492854
 20
14.429322
 30
0.0
 11
3.495328
 21
14.3999
 31
0.0
  0
LINE
  5
2A
100
AcDbEntity
  8
0
390
0
  6
Continuous
 62
     7
100
AcDbLine
 10
3.492854
 20
-14.429322
 30
0.0
 11
3.462882
 21
-14.492814
 31
0.0
  0
LINE
  5
2B
100
AcDbEntity
  8
0
390
0
  6
Continuous
 62
     7
100
AcDbLine
 10
3.495328
 20
-14.3999
 30
0.0
 11
3.492854
 21
-14.429322
 31
0.0
  0
LINE
  5
2C
100
AcDbEntity
  8
0
390
0
  6
Continuous
 62
     7
100
AcDbLine
 10
3.495328
 20
-8.631859
 30
0.0
 11
3.495328
 21
-14.3999
 31
0.0
  0
LINE
  5
2D
100
AcDbEntity
  8
0
390
0
  6
Continuous
 62
     7
100
AcDbLine
 10
3.492854
 20
-8.402682
 30
0.0
 11
3.495328
 21
-8.631859
 31
0.0
  0
LINE
  5
2E
100
AcDbEntity
  8
0
390
0
  6
Continuous
 62
     7
100
AcDbLine
 10
3.492854
 20
-6.026639
 30
0.0
 11
3.492854
 21
-8.402682
 31
0.0
  0
LINE
  5
2F
100
AcDbEntity
  8
0
390
0
  6
Continuous
 62
     7
100
AcDbLine
 10
3.495328
 20
-5.768041
 30
0.0
 11
3.492854
 21
-6.026639
 31
0.0
  0
LINE
  5
30
100
AcDbEntity
  8
0
390
0
  6
Continuous
 62
     7
100
AcDbLine
 10
3.495328
 20
5.768041
 30
0.0
 11
3.495328
 21
-5.768041
 31
0.0
  0
LINE
  5
31
100
AcDbEntity
  8
0
390
0
  6
Continuous
 62
     7
100
AcDbLine
 10
3.492854
 20
6.026639
 30
0.0
 11
3.495328
 21
5.768041
 31
0.0
  0
LINE
  5
32
100
AcDbEntity
  8
0
390
0
  6
Continuous
 62
     7
100
AcDbLine
 10
3.492854
 20
8.402682
 30
0.0
 11
3.492854
 21
6.026639
 31
0.0
  0
LINE
  5
33
100
AcDbEntity
  8
0
390
0
  6
Continuous
 62
     7
100
AcDbLine
 10
3.495328
 20
8.631859
 30
0.0
 11
3.492854
 21
8.402682
 31
0.0
  0
LINE
  5
34
100
AcDbEntity
  8
0
390
0
  6
Continuous
 62
     7
100
AcDbLine
 10
3.495328
 20
14.3999
 30
0.0
 11
3.495328
 21
8.631859
 31
0.0
  0
LINE
  5
35
100
AcDbEntity
  8
0
390
0
  6
Continuous
 62
     7
100
AcDbLine
 10
6.4
 20
0.0
 30
0.0
 11
6.4
 21
14.646742
 31
0.0
  0
ELLIPSE
  5
36
100
AcDbEntity
  8
0
390
0
  6
Continuous
 62
     7
100
AcDbEllipse
 10
3.6
 20
-4.973239
 30
0.0
 11
-2.0000000000000018
 21
0.0
 31
0.0
210
0.0
220
0.0
230
0.9999999999999999
 40
0.397946
 41
0.5546029802479635
 42
1.5184364492350666
  0
LINE
  5
37
100
AcDbEntity
  8
0
390
0
  6
Continuous
 62
     7
100
AcDbLine
 10
1.843089
 20
-4.851558
 30
0.0
 11
1.899781
 21
-5.392361
 31
0.0
  0
ARC
  5
38
100
AcDbEntity
  8
0
390
0
  6
Continuous
 62
     7
100
AcDbCircle
 10
64.254873
 20
0.0
 30
0.0
 40
62.600067
210
0.0
220
0.0
230
1.0
100
AcDbArc
 50
175.555071
 51
184.444929
  0
LINE
  5
39
100
AcDbEntity
  8
0
390
0
  6
Continuous
 62
     7
100
AcDbLine
 10
1.899781
 20
5.392361
 30
0.0
 11
1.843089
 21
4.851558
 31
0.0
  0
ELLIPSE
  5
3A
100
AcDbEntity
  8
0
390
0
  6
Continuous
 62
     7
100
AcDbEllipse
 10
3.6
 20
4.973239
 30
0.0
 11
-2.0000000000000018
 21
0.0
 31
0.0
210
0.0
220
0.0
230
0.9999999999999999
 40
0.397946
 41
4.7647488579445199
 42
5.728582326931611
  0
ELLIPSE
  5
3B
100
AcDbEntity
  8
0
390
0
  6
Continuous
 62
     7
100
AcDbEllipse
 10
0.086178
 20
-5.196196
 30
0.0
 11
-1.961944397926213
 21
-0.3882965097010138
 31
0.0
210
0.0
220
0.0
230
1.0
 40
0.003389
 41
1.5879174887693568
 42
2.6796666467847277
  0
ARC
  5
3C
100
AcDbEntity
  8
0
390
0
  6
Continuous
 62
     7
100
AcDbCircle
 10
35.80413
 20
0.0
 30
0.0
 40
36.0594
210
0.0
220
0.0
230
1.0
100
AcDbArc
 50
171.714775
 51
188.285225
  0
ELLIPSE
  5
3D
100
AcDbEntity
  8
0
390
0
  6
Continuous
 62
     7
100
AcDbEllipse
 10
0.086178
 20
5.196196
 30
0.0
 11
-1.9619443979397577
 21
0.3882965096325963
 31
0.0
210
0.0
220
0.0
230
1.0
 40
0.003389
 41
3.6035186603585063
 42
4.6952678170465427
  0
LINE
  5
3E
100
AcDbEntity
  8
0
390
0
  6
Continuous
 62
     7
100
AcDbLine
 10
1.915472
 20
5.615184
 30
0.0
 11
1.899781
 21
5.392361
 31
0.0
  0
ELLIPSE
  5
3F
100
AcDbEntity
  8
0
390
0
  6
Continuous
 62
     7
100
AcDbEllipse
 10
3.597526
 20
5.196196
 30
0.0
 11
-1.9994790883661739
 21
-0.0456440049330653
 31
0.0
210
0.0
220
0.0
230
1.0
 40
0.41669
 41
4.7552482397263978
 42
5.7023902181192732
  0
ELLIPSE
  5
40
100
AcDbEntity
  8
0
390
0
  6
Continuous
 62
     7
100
AcDbEllipse
 10
3.597526
 20
-5.196196
 30
0.0
 11
-1.9994790883850755
 21
0.0456440041051998
 31
0.0
210
0.0
220
0.0
230
1.0
 40
0.41669
 41
0.5807950889311596
 42
1.5279370672798025
  0
LINE
  5
41
100
AcDbEntity
  8
0
390
0
  6
Continuous
 62
     7
100
AcDbLine
 10
1.899781
 20
-5.392361
 30
0.0
 11
1.915472
 21
-5.615184
 31
0.0
  0
ELLIPSE
  5
42
100
AcDbEntity
  8
0
390
0
  6
Continuous
 62
     7
100
AcDbEllipse
 10
3.597526
 20
-7.244832
 30
0.0
 11
-1.9993527568969993
 21
-0.0508778290448375
 31
0.0
210
0.0
220
0.0
230
1.0
 40
0.578709
 41
0.5565577635903054
 42
1.5036997419828342
  0
LINE
  5
43
100
AcDbEntity
  8
0
390
0
  6
Continuous
 62
     7
100
AcDbLine
 10
1.915472
 20
-5.615184
 30
0.0
 11
1.915472
 21
-7.899258
 31
0.0
  0
LINE
  5
44
100
AcDbEntity
  8
0
390
0
  6
Continuous
 62
     7
100
AcDbLine
 10
1.915472
 20
7.899258
 30
0.0
 11
1.915472
 21
5.615184
 31
0.0
  0
ELLIPSE
  5
45
100
AcDbEntity
  8
0
390
0
  6
Continuous
 62
     7
100
AcDbEllipse
 10
3.597526
 20
7.244832
 30
0.0
 11
-1.9993527569203973
 21
0.0508778281258504
 31
0.0
210
0.0
220
0.0
230
1.0
 40
0.578709
 41
4.7794855649316128
 42
5.7266275432801423
  0
LINE
  5
46
100
AcDbEntity
  8
0
390
0
  6
Continuous
 62
     7
100
AcDbLine
 10
0.121083
 20
5.196196
 30
0.0
 11
0.234459
 21
5.531118
 31
0.0
  0
ELLIPSE
  5
47
100
AcDbEntity
  8
0
390
0
  6
Continuous
 62
     7
100
AcDbEllipse
 10
0.199562
 20
5.811483
 30
0.0
 11
-1.9724503351592759
 21
0.3308166793407341
 31
0.0
210
0.0
220
0.0
230
1.0
 40
0.135476
 41
1.6112027315333914
 42
2.6322446057102367
  0
ELLIPSE
  5
48
100
AcDbEntity
  8
0
390
0
  6
Continuous
 62
     7
100
AcDbEllipse
 10
0.199562
 20
-5.811483
 30
0.0
 11
-1.9724503351592759
 21
-0.3308166793407341
 31
0.0
210
0.0
220
0.0
230
1.0
 40
0.135476
 41
3.6509407014692985
 42
4.6719825756461182
  0
LINE
  5
49
100
AcDbEntity
  8
0
390
0
  6
Continuous
 62
     7
100
AcDbLine
 10
0.234459
 20
-5.531118
 30
0.0
 11
0.121083
 21
-5.196196
 31
0.0
  0
LINE
  5
4A
100
AcDbEntity
  8
0
390
0
  6
Continuous
 62
     7
100
AcDbLine
 10
0.234459
 20
5.531118
 30
0.0
 11
0.26831
 21
5.653021
 31
0.0
  0
ELLIPSE
  5
4B
100
AcDbEntity
  8
0
390
0
  6
Continuous
 62
     7
100
AcDbEllipse
 10
0.233419
 20
6.034172
 30
0.0
 11
-1.9819236359458203
 21
0.2682884665416996
 31
0.0
210
0.0
220
0.0
230
1.0
 40
0.186685
 41
1.6136620621541229
 42
2.6090676402895054
  0
ELLIPSE
  5
4C
100
AcDbEntity
  8
0
390
0
  6
Continuous
 62
     7
100
AcDbEllipse
 10
0.233419
 20
-6.034172
 30
0.0
 11
-1.9819236360235082
 21
-0.2682884659677698
 31
0.0
210
0.0
220
0.0
230
0.9999999999999999
 40
0.186685
 41
3.6741176669093156
 42
4.669523245095486
  0
LINE
  5
4D
100
AcDbEntity
  8
0
390
0
  6
Continuous
 62
     7
100
AcDbLine
 10
0.26831
 20
-5.653021
 30
0.0
 11
0.234459
 21
-5.531118
 31
0.0
  0
ARC
  5
4E
100
AcDbEntity
  8
0
390
0
  6
Continuous
 62
     7
100
AcDbCircle
 10
-2.463211
 20
6.348622
 30
0.0
 40
2.8187
210
0.0
220
0.0
230
0.9999999999999999
100
AcDbArc
 50
345.712909
 51
14.287091
  0
ELLIPSE
  5
4F
100
AcDbEntity
  8
0
390
0
  6
Continuous
 62
     7
100
AcDbEllipse
 10
0.233419
 20
8.553685
 30
0.0
 11
-1.9599328833243002
 21
-0.3983253605585879
 31
0.0
210
0.0
220
0.0
230
1.0
 40
0.749769
 41
1.4371809720631716
 42
2.4325865502492117
  0
ELLIPSE
  5
50
100
AcDbEntity
  8
0
390
0
  6
Continuous
 62
     7
100
AcDbEllipse
 10
0.233419
 20
-8.553685
 30
0.0
 11
-1.9599328831678697
 21
0.3983253613282778
 31
0.0
210
0.0
220
0.0
230
1.0
 40
0.749769
 41
3.8505987572598293
 42
4.846004335394464
  0
ARC
  5
51
100
AcDbEntity
  8
0
390
0
  6
Continuous
 62
     7
100
AcDbCircle
 10
-2.358521
 20
-6.348622
 30
0.0
 40
2.71737
210
0.0
220
0.0
230
1.0
100
AcDbArc
 50
345.168158
 51
14.831842
  0
ELLIPSE
  5
52
100
AcDbEntity
  8
0
390
0
  6
Continuous
 62
     7
100
AcDbEllipse
 10
3.6
 20
-7.44244
 30
0.0
 11
-2.0000000000000018
 21
0.0
 31
0.0
210
0.0
220
0.0
230
1.0
 40
0.595526
 41
0.5546029802482499
 42
1.5184364492350664
  0
LINE
  5
53
100
AcDbEntity
  8
0
390
0
  6
Continuous
 62
     7
100
AcDbLine
 10
1.915472
 20
-7.899258
 30
0.0
 11
1.899781
 21
-8.069655
 31
0.0
  0
LINE
  5
54
100
AcDbEntity
  8
0
390
0
  6
Continuous
 62
     7
100
AcDbLine
 10
1.899781
 20
8.069655
 30
0.0
 11
1.915472
 21
7.899258
 31
0.0
  0
ELLIPSE
  5
55
100
AcDbEntity
  8
0
390
0
  6
Continuous
 62
     7
100
AcDbEllipse
 10
3.6
 20
7.44244
 30
0.0
 11
-2.0000000000000018
 21
0.0
 31
0.0
210
0.0
220
0.0
230
1.0
 40
0.595526
 41
4.7647488579445199
 42
5.7285823269315328
  0
LINE
  5
56
100
AcDbEntity
  8
0
390
0
  6
Continuous
 62
     7
100
AcDbLine
 10
1.899781
 20
-8.069655
 30
0.0
 11
1.843089
 21
-8.440787
 31
0.0
  0
ELLIPSE
  5
57
100
AcDbEntity
  8
0
390
0
  6
Continuous
 62
     7
100
AcDbEllipse
 10
3.6
 20
-12.415679
 30
0.0
 11
-2.0000000000000018
 21
0.0000000000000278
 31
0.0
210
0.0
220
0.0
230
1.0
 40
0.993472
 41
0.5546029802481978
 42
1.518436449235077
  0
LINE
  5
58
100
AcDbEntity
  8
0
390
0
  6
Continuous
 62
     7
100
AcDbLine
 10
1.843089
 20
-13.292345
 30
0.0
 11
1.899781
 21
-13.462015
 31
0.0
  0
ARC
  5
59
100
AcDbEntity
  8
0
390
0
  6
Continuous
 62
     7
100
AcDbCircle
 10
17.458747
 20
-10.866566
 30
0.0
 40
15.802948
210
0.0
220
0.0
230
1.0
100
AcDbArc
 50
171.170091
 51
188.829909
  0
LINE
  5
5A
100
AcDbEntity
  8
0
390
0
  6
Continuous
 62
     7
100
AcDbLine
 10
1.843089
 20
8.440787
 30
0.0
 11
1.899781
 21
8.069655
 31
0.0
  0
ARC
  5
5B
100
AcDbEntity
  8
0
390
0
  6
Continuous
 62
     7
100
AcDbCircle
 10
16.606274
 20
10.866566
 30
0.0
 40
14.96115
210
0.0
220
0.0
230
1.0
100
AcDbArc
 50
170.668953
 51
189.331047
  0
LINE
  5
5C
100
AcDbEntity
  8
0
390
0
  6
Continuous
 62
     7
100
AcDbLine
 10
1.899781
 20
13.462015
 30
0.0
 11
1.843089
 21
13.292345
 31
0.0
  0
ELLIPSE
  5
5D
100
AcDbEntity
  8
0
390
0
  6
Continuous
 62
     7
100
AcDbEllipse
 10
3.6
 20
12.415678
 30
0.0
 11
2.0000000000000018
 21
0.0
 31
0.0
210
0.0
220
0.0
230
1.0
 40
0.993472
 41
1.6231562043547256
 42
2.5869896733419253
  0
LINE
  5
5E
100
AcDbEntity
  8
0
390
0
  6
Continuous
 62
     7
100
AcDbLine
 10
-6.4
 20
5.196196
 30
0.0
 11
-6.4
 21
5.507947
 31
0.0
  0
ELLIPSE
  5
5F
100
AcDbEntity
  8
0
390
0
  6
Continuous
 62
     7
100
AcDbEllipse
 10
-4.4
 20
5.507947
 30
0.0
 11
-2.0000000000000018
 21
0.0
 31
0.0
210
0.0
220
0.0
230
1.0
 40
0.866025
 41
4.7298422729046328
 42
6.2831853071795862
  0
LINE
  5
60
100
AcDbEntity
  8
0
390
0
  6
Continuous
 62
     7
100
AcDbLine
 10
-4.434905
 20
7.239734
 30
0.0
 11
-4.434905
 21
5.196196
 31
0.0
  0
LINE
  5
61
100
AcDbEntity
  8
0
390
0
  6
Continuous
 62
     7
100
AcDbLine
 10
-6.4
 20
5.196196
 30
0.0
 11
-4.434905
 21
5.196196
 31
0.0
  0
LINE
  5
62
100
AcDbEntity
  8
0
390
0
  6
Continuous
 62
     7
100
AcDbLine
 10
-4.434905
 20
5.196196
 30
0.0
 11
0.121083
 21
5.196196
 31
0.0
  0
LINE
  5
63
100
AcDbEntity
  8
0
390
0
  6
Continuous
 62
     7
100
AcDbLine
 10
-4.434905
 20
7.239734
 30
0.0
 11
0.121083
 21
7.308605
 31
0.0
  0
LINE
  5
64
100
AcDbEntity
  8
0
390
0
  6
Continuous
 62
     7
100
AcDbLine
 10
0.234459
 20
7.12237
 30
0.0
 11
0.121083
 21
7.308605
 31
0.0
  0
LINE
  5
65
100
AcDbEntity
  8
0
390
0
  6
Continuous
 62
     7
100
AcDbLine
 10
0.26831
 20
7.044222
 30
0.0
 11
0.234459
 21
7.12237
 31
0.0
  0
LINE
  5
66
100
AcDbEntity
  8
0
390
0
  6
Continuous
 62
     7
100
AcDbLine
 10
-4.434905
 20
-5.196196
 30
0.0
 11
-4.434905
 21
-7.239734
 31
0.0
  0
ELLIPSE
  5
67
100
AcDbEntity
  8
0
390
0
  6
Continuous
 62
     7
100
AcDbEllipse
 10
-4.4
 20
-5.507947
 30
0.0
 11
2.0000000000000018
 21
0.0
 31
0.0
210
0.0
220
0.0
230
1.0
 40
0.866025
 41
3.1415926535897931
 42
4.6949356878647457
  0
LINE
  5
68
100
AcDbEntity
  8
0
390
0
  6
Continuous
 62
     7
100
AcDbLine
 10
-6.4
 20
-5.507947
 30
0.0
 11
-6.4
 21
-5.196196
 31
0.0
  0
LINE
  5
69
100
AcDbEntity
  8
0
390
0
  6
Continuous
 62
     7
100
AcDbLine
 10
-4.434905
 20
-5.196196
 30
0.0
 11
-6.4
 21
-5.196196
 31
0.0
  0
LINE
  5
6A
100
AcDbEntity
  8
0
390
0
  6
Continuous
 62
     7
100
AcDbLine
 10
0.234459
 20
-7.12237
 30
0.0
 11
0.26831
 21
-7.044222
 31
0.0
  0
LINE
  5
6B
100
AcDbEntity
  8
0
390
0
  6
Continuous
 62
     7
100
AcDbLine
 10
0.121083
 20
-7.308605
 30
0.0
 11
0.234459
 21
-7.12237
 31
0.0
  0
LINE
  5
6C
100
AcDbEntity
  8
0
390
0
  6
Continuous
 62
     7
100
AcDbLine
 10
-4.434905
 20
-7.239734
 30
0.0
 11
0.121083
 21
-7.308605
 31
0.0
  0
LINE
  5
6D
100
AcDbEntity
  8
0
390
0
  6
Continuous
 62
     7
100
AcDbLine
 10
-4.434905
 20
-5.196196
 30
0.0
 11
0.121083
 21
-5.196196
 31
0.0
  0
LINE
  5
6E
100
AcDbEntity
  8
0
390
0
  6
Continuous
 62
     7
100
AcDbLine
 10
-4.434905
 20
5.196196
 30
0.0
 11
-4.434905
 21
-5.196196
 31
0.0
  0
LINE
  5
6F
100
AcDbEntity
  8
0
390
0
  6
Continuous
 62
     7
100
AcDbLine
 10
-6.4
 20
-5.196196
 30
0.0
 11
-6.4
 21
5.196196
 31
0.0
  0
ELLIPSE
  5
70
100
AcDbEntity
  8
0
390
0
  6
Continuous
 62
     7
100
AcDbEllipse
 10
0.199562
 20
8.696869
 30
0.0
 11
-1.9306233452706933
 21
-0.5222006306926375
 31
0.0
210
0.0
220
0.0
230
1.0
 40
0.778484
 41
1.3809500181161776
 42
2.4019918922929255
  0
ELLIPSE
  5
71
100
AcDbEntity
  8
0
390
0
  6
Continuous
 62
     7
100
AcDbEllipse
 10
0.199562
 20
-8.696869
 30
0.0
 11
-1.9306233452704711
 21
0.5222006306934979
 31
0.0
210
0.0
220
0.0
230
1.0
 40
0.778484
 41
3.8811934148872544
 42
4.9022352890619327
  0
ELLIPSE
  5
72
100
AcDbEntity
  8
0
390
0
  6
Continuous
 62
     7
100
AcDbEllipse
 10
0.086178
 20
-9.040392
 30
0.0
 11
-1.8580974463589528
 21
0.7399147787646443
 31
0.0
210
0.0
220
0.0
230
1.0
 40
0.851236
 41
3.9296644002537366
 42
5.0214135569427496
  0
ELLIPSE
  5
73
100
AcDbEntity
  8
0
390
0
  6
Continuous
 62
     7
100
AcDbEllipse
 10
0.086178
 20
9.040392
 30
0.0
 11
-1.8580974463121569
 21
-0.7399147788821892
 31
0.0
210
0.0
220
0.0
230
0.9999999999999999
 40
0.851236
 41
1.2617717488201581
 42
2.3535209068355893
  0
ARC
  5
74
100
AcDbEntity
  8
0
390
0
  6
Continuous
 62
     7
100
AcDbCircle
 10
8.905254
 20
9.906703
 30
0.0
 40
9.160337
210
0.0
220
0.0
230
1.0
100
AcDbArc
 50
163.52334
 51
196.47666
  0
ELLIPSE
  5
75
100
AcDbEntity
  8
0
390
0
  6
Continuous
 62
     7
100
AcDbEllipse
 10
0.086178
 20
14.236588
 30
0.0
 11
-1.8611120828014582
 21
0.7322989930693691
 31
0.0
210
0.0
220
0.0
230
1.0
 40
0.847848
 41
1.9105840015889883
 42
3.0023331582767465
  0
ELLIPSE
  5
76
100
AcDbEntity
  8
0
390
0
  6
Continuous
 62
     7
100
AcDbEllipse
 10
0.086178
 20
-14.236588
 30
0.0
 11
1.861112074201754
 21
0.7322990149252473
 31
0.0
210
0.0
220
0.0
230
1.0
 40
0.847848
 41
0.1392594853571695
 42
1.2310086433022196
  0
ARC
  5
77
100
AcDbEntity
  8
0
390
0
  6
Continuous
 62
     7
100
AcDbCircle
 10
8.898292
 20
-9.906703
 30
0.0
 40
9.153661
210
0.0
220
0.0
230
1.0
100
AcDbArc
 50
163.51098
 51
196.48902
  0
LINE
  5
78
100
AcDbEntity
  8
0
390
0
  6
Continuous
 62
     7
100
AcDbLine
 10
-4.434905
 20
12.43593
 30
0.0
 11
-4.434905
 21
7.239734
 31
0.0
  0
LINE
  5
79
100
AcDbEntity
  8
0
390
0
  6
Continuous
 62
     7
100
AcDbLine
 10
-4.434905
 20
12.43593
 30
0.0
 11
0.121083
 21
12.504801
 31
0.0
  0
LINE
  5
7A
100
AcDbEntity
  8
0
390
0
  6
Continuous
 62
     7
100
AcDbLine
 10
-4.434905
 20
-7.239734
 30
0.0
 11
-4.434905
 21
-12.43593
 31
0.0
  0
LINE
  5
7B
100
AcDbEntity
  8
0
390
0
  6
Continuous
 62
     7
100
AcDbLine
 10
-4.434905
 20
-12.43593
 30
0.0
 11
0.121083
 21
-12.504801
 31
0.0
  0
LINE
  5
7C
100
AcDbEntity
  8
0
390
0
  6
Continuous
 62
     7
100
AcDbLine
 10
-6.4
 20
5.507947
 30
0.0
 11
-6.4
 21
10.704143
 31
0.0
  0
ELLIPSE
  5
7D
100
AcDbEntity
  8
0
390
0
  6
Continuous
 62
     7
100
AcDbEllipse
 10
-4.4
 20
10.704143
 30
0.0
 11
-2.0000000000000018
 21
0.0
 31
0.0
210
0.0
220
0.0
230
1.0
 40
0.866025
 41
4.7298422729046319
 42
6.2831853071795862
  0
ELLIPSE
  5
7E
100
AcDbEntity
  8
0
390
0
  6
Continuous
 62
     7
100
AcDbEllipse
 10
-4.4
 20
-10.704143
 30
0.0
 11
2.0000000000000018
 21
0.0
 31
0.0
210
0.0
220
0.0
230
1.0
 40
0.866025
 41
3.1415926535897913
 42
4.6949356878647466
  0
LINE
  5
7F
100
AcDbEntity
  8
0
390
0
  6
Continuous
 62
     7
100
AcDbLine
 10
-6.4
 20
-10.704143
 30
0.0
 11
-6.4
 21
-5.507947
 31
0.0
  0
LINE
  5
80
100
AcDbEntity
  8
0
390
0
  6
Continuous
 62
     7
100
AcDbLine
 10
0.121083
 20
12.504801
 30
0.0
 11
0.234459
 21
12.653488
 31
0.0
  0
ELLIPSE
  5
81
100
AcDbEntity
  8
0
390
0
  6
Continuous
 62
     7
100
AcDbEllipse
 10
0.199562
 20
14.508352
 30
0.0
 11
-1.8296524825803517
 21
0.8076953590231695
 31
0.0
210
0.0
220
0.0
230
1.0
 40
0.91396
 41
1.9719748417627525
 42
2.9930167159396452
  0
LINE
  5
82
100
AcDbEntity
  8
0
390
0
  6
Continuous
 62
     7
100
AcDbLine
 10
0.234459
 20
-12.653488
 30
0.0
 11
0.121083
 21
-12.504801
 31
0.0
  0
ELLIPSE
  5
83
100
AcDbEntity
  8
0
390
0
  6
Continuous
 62
     7
100
AcDbEllipse
 10
0.199562
 20
-14.508352
 30
0.0
 11
1.8296524825797689
 21
0.8076953590245017
 31
0.0
210
0.0
220
0.0
230
1.0
 40
0.91396
 41
0.1485759376497424
 42
1.1696178118264593
  0
LINE
  5
84
100
AcDbEntity
  8
0
390
0
  6
Continuous
 62
     7
100
AcDbLine
 10
1.915472
 20
13.514443
 30
0.0
 11
1.899781
 21
13.462015
 31
0.0
  0
ELLIPSE
  5
85
100
AcDbEntity
  8
0
390
0
  6
Continuous
 62
     7
100
AcDbEllipse
 10
3.597526
 20
12.441028
 30
0.0
 11
1.9525536987902714
 21
0.4330520215175271
 31
0.0
210
0.0
220
0.0
230
1.0
 40
0.995399
 41
1.4058856001712652
 42
2.3530275785799524
  0
ELLIPSE
  5
86
100
AcDbEntity
  8
0
390
0
  6
Continuous
 62
     7
100
AcDbEllipse
 10
3.597526
 20
-12.441028
 30
0.0
 11
-1.9525536990191161
 21
0.4330520204857413
 31
0.0
210
0.0
220
0.0
230
1.0
 40
0.995399
 41
0.7885650745432814
 42
1.7357070528916729
  0
LINE
  5
87
100
AcDbEntity
  8
0
390
0
  6
Continuous
 62
     7
100
AcDbLine
 10
1.899781
 20
-13.462015
 30
0.0
 11
1.915472
 21
-13.514443
 31
0.0
  0
LINE
  5
88
100
AcDbEntity
  8
0
390
0
  6
Continuous
 62
     7
100
AcDbLine
 10
0.26831
 20
-12.697243
 30
0.0
 11
0.234459
 21
-12.653488
 31
0.0
  0
ELLIPSE
  5
89
100
AcDbEntity
  8
0
390
0
  6
Continuous
 62
     7
100
AcDbEllipse
 10
0.233419
 20
-14.587857
 30
0.0
 11
1.8534983981599584
 21
0.7513612233929212
 31
0.0
210
0.0
220
0.0
230
1.0
 40
0.936453
 41
0.1949807090234527
 42
1.1903862872094071
  0
LINE
  5
8A
100
AcDbEntity
  8
0
390
0
  6
Continuous
 62
     7
100
AcDbLine
 10
0.234459
 20
12.653488
 30
0.0
 11
0.26831
 21
12.697243
 31
0.0
  0
ELLIPSE
  5
8B
100
AcDbEntity
  8
0
390
0
  6
Continuous
 62
     7
100
AcDbEllipse
 10
0.233419
 20
14.587857
 30
0.0
 11
-1.8534983974745902
 21
0.7513612250835966
 31
0.0
210
0.0
220
0.0
230
0.9999999999999999
 40
0.936453
 41
1.9512063672277569
 42
2.9466119454031356
  0
LINE
  5
8C
100
AcDbEntity
  8
0
390
0
  6
Continuous
 62
     7
100
AcDbLine
 10
1.944334
 20
13.663955
 30
0.0
 11
1.915472
 21
13.514443
 31
0.0
  0
LINE
  5
8D
100
AcDbEntity
  8
0
390
0
  6
Continuous
 62
     7
100
AcDbLine
 10
1.915472
 20
-13.514443
 30
0.0
 11
1.944334
 21
-13.663955
 31
0.0
  0
LINE
  5
8E
100
AcDbEntity
  8
0
390
0
  6
Continuous
 62
     7
100
AcDbLine
 10
0.26831
 20
12.697243
 30
0.0
 11
0.355978
 21
12.832659
 31
0.0
  0
LINE
  5
8F
100
AcDbEntity
  8
0
390
0
  6
Continuous
 62
     7
100
AcDbLine
 10
0.355978
 20
-12.832659
 30
0.0
 11
0.26831
 21
-12.697243
 31
0.0
  0
LINE
  5
90
100
AcDbEntity
  8
0
390
0
  6
Continuous
 62
     7
100
AcDbLine
 10
-4.434863
 20
12.749134
 30
0.0
 11
-4.434905
 21
12.43593
 31
0.0
  0
LINE
  5
91
100
AcDbEntity
  8
0
390
0
  6
Continuous
 62
     7
100
AcDbLine
 10
-4.434905
 20
-12.43593
 30
0.0
 11
-4.434863
 21
-12.749134
 31
0.0
  0
LINE
  5
92
100
AcDbEntity
  8
0
390
0
  6
Continuous
 62
     7
100
AcDbLine
 10
-6.4
 20
10.746756
 30
0.0
 11
-6.4
 21
10.749268
 31
0.0
  0
LINE
  5
93
100
AcDbEntity
  8
0
390
0
  6
Continuous
 62
     7
100
AcDbLine
 10
-6.4
 20
10.704143
 30
0.0
 11
-6.4
 21
10.746756
 31
0.0
  0
LINE
  5
94
100
AcDbEntity
  8
0
390
0
  6
Continuous
 62
     7
100
AcDbLine
 10
-6.4
 20
-10.749266
 30
0.0
 11
-6.4
 21
-10.704143
 31
0.0
  0
LINE
  5
95
100
AcDbEntity
  8
0
390
0
  6
Continuous
 62
     7
100
AcDbLine
 10
6.4
 20
14.646742
 30
0.0
 11
3.462934
 21
14.492817
 31
0.0
  0
LINE
  5
96
100
AcDbEntity
  8
0
390
0
  6
Continuous
 62
     7
100
AcDbLine
 10
3.462934
 20
-14.492817
 30
0.0
 11
6.4
 21
-14.646742
 31
0.0
  0
ARC
  5
97
100
AcDbEntity
  8
0
390
0
  6
Continuous
 62
     7
100
AcDbCircle
 10
3.567554
 20
12.495555
 30
0.0
 40
2.0
210
0.0
220
0.0
230
1.0
100
AcDbArc
 50
93.0
 51
144.253501
  0
ARC
  5
98
100
AcDbEntity
  8
0
390
0
  6
Continuous
 62
     7
100
AcDbCircle
 10
3.567554
 20
12.495555
 30
0.0
 40
2.0
210
0.0
220
0.0
230
1.0
100
AcDbArc
 50
144.253501
 51
145.80901
  0
ARC
  5
99
100
AcDbEntity
  8
0
390
0
  6
Continuous
 62
     7
100
AcDbCircle
 10
3.567554
 20
-12.495555
 30
0.0
 40
2.0
210
0.0
220
0.0
230
1.0
100
AcDbArc
 50
214.19099
 51
215.746499
  0
ARC
  5
9A
100
AcDbEntity
  8
0
390
0
  6
Continuous
 62
     7
100
AcDbCircle
 10
3.567554
 20
-12.495555
 30
0.0
 40
2.0
210
0.0
220
0.0
230
1.0
100
AcDbArc
 50
215.746499
 51
267.0
  0
ARC
  5
9B
100
AcDbEntity
  8
0
390
0
  6
Continuous
 62
     7
100
AcDbCircle
 10
0.321115
 20
14.832355
 30
0.0
 40
2.0
210
0.0
220
0.0
230
1.0
100
AcDbArc
 50
270.998809
 51
324.253501
  0
ARC
  5
9C
100
AcDbEntity
  8
0
390
0
  6
Continuous
 62
     7
100
AcDbCircle
 10
0.321115
 20
-14.832355
 30
0.0
 40
2.0
210
0.0
220
0.0
230
1.0
100
AcDbArc
 50
35.746499
 51
89.001191
  0
LINE
  5
9D
100
AcDbEntity
  8
0
390
0
  6
Continuous
 62
     7
100
AcDbLine
 10
0.391688
 20
12.833282
 30
0.0
 11
0.355978
 21
12.832659
 31
0.0
  0
LINE
  5
9E
100
AcDbEntity
  8
0
390
0
  6
Continuous
 62
     7
100
AcDbLine
 10
0.355978
 20
12.832659
 30
0.0
 11
-4.434863
 21
12.749134
 31
0.0
  0
LINE
  5
9F
100
AcDbEntity
  8
0
390
0
  6
Continuous
 62
     7
100
AcDbLine
 10
-4.434863
 20
12.749134
 30
0.0
 11
-4.463692
 21
12.748632
 31
0.0
  0
LINE
  5
A0
100
AcDbEntity
  8
0
390
0
  6
Continuous
 62
     7
100
AcDbLine
 10
-4.463692
 20
-12.748632
 30
0.0
 11
-4.434863
 21
-12.749134
 31
0.0
  0
LINE
  5
A1
100
AcDbEntity
  8
0
390
0
  6
Continuous
 62
     7
100
AcDbLine
 10
-4.434863
 20
-12.749134
 30
0.0
 11
0.355978
 21
-12.832659
 31
0.0
  0
LINE
  5
A2
100
AcDbEntity
  8
0
390
0
  6
Continuous
 62
     7
100
AcDbLine
 10
0.355978
 20
-12.832659
 30
0.0
 11
0.391688
 21
-12.833282
 31
0.0
  0
ARC
  5
A3
100
AcDbEntity
  8
0
390
0
  6
Continuous
 62
     7
100
AcDbCircle
 10
-4.4
 20
10.749438
 30
0.0
 40
2.0
210
0.0
220
0.0
230
1.0
100
AcDbArc
 50
90.998809
 51
180.0
  0
ARC
  5
A4
100
AcDbEntity
  8
0
390
0
  6
Continuous
 62
     7
100
AcDbCircle
 10
-4.4
 20
-10.749438
 30
0.0
 40
2.0
210
0.0
220
0.0
230
1.0
100
AcDbArc
 50
180.0
 51
269.001191
  0
CIRCLE
  5
A5
100
AcDbEntity
  8
0
390
0
  6
Continuous
 62
     7
100
AcDbCircle
 10
91.045159
 20
0.0
 30
0.0
 40
14.646742
210
0.0
220
0.0
230
1.0
  0
CIRCLE
  5
A6
100
AcDbEntity
  8
0
390
0
  6
Continuous
 62
     7
100
AcDbCircle
 10
91.045159
 20
0.0
 30
0.0
 40
12.646742
210
0.0
220
0.0
230
1.0
  0
ARC
  5
A7
100
AcDbEntity
  8
0
390
0
  6
Continuous
 62
     7
100
AcDbCircle
 10
91.045159
 20
0.0
 30
0.0
 40
12.5
210
0.0
220
0.0
230
0.9999999999999999
100
AcDbArc
 50
156.524653
 51
203.475347
  0
ARC
  5
A8
100
AcDbEntity
  8
0
390
0
  6
Continuous
 62
     7
100
AcDbCircle
 10
91.045159
 20
0.0
 30
0.0
 40
12.5
210
0.0
220
0.0
230
0.9999999999999999
100
AcDbArc
 50
203.475347
 51
204.298224
  0
ARC
  5
A9
100
AcDbEntity
  8
0
390
0
  6
Continuous
 62
     7
100
AcDbCircle
 10
91.045159
 20
0.0
 30
0.0
 40
12.5
210
0.0
220
0.0
230
1.0
100
AcDbArc
 50
204.298224
 51
215.701776
  0
ARC
  5
AA
100
AcDbEntity
  8
0
390
0
  6
Continuous
 62
     7
100
AcDbCircle
 10
91.045159
 20
0.0
 30
0.0
 40
12.5
210
0.0
220
0.0
230
1.0
100
AcDbArc
 50
215.701776
 51
216.524653
  0
ARC
  5
AB
100
AcDbEntity
  8
0
390
0
  6
Continuous
 62
     7
100
AcDbCircle
 10
91.045159
 20
0.0
 30
0.0
 40
12.5
210
0.0
220
0.0
230
0.9999999999999999
100
AcDbArc
 50
216.524653
 51
263.475347
  0
ARC
  5
AC
100
AcDbEntity
  8
0
390
0
  6
Continuous
 62
     7
100
AcDbCircle
 10
91.045159
 20
0.0
 30
0.0
 40
12.5
210
0.0
220
0.0
230
1.0
100
AcDbArc
 50
263.475347
 51
264.298224
  0
ARC
  5
AD
100
AcDbEntity
  8
0
390
0
  6
Continuous
 62
     7
100
AcDbCircle
 10
91.045159
 20
0.0
 30
0.0
 40
12.5
210
0.0
220
0.0
230
1.0
100
AcDbArc
 50
264.298224
 51
275.701776
  0
ARC
  5
AE
100
AcDbEntity
  8
0
390
0
  6
Continuous
 62
     7
100
AcDbCircle
 10
91.045159
 20
0.0
 30
0.0
 40
12.5
210
0.0
220
0.0
230
1.0
100
AcDbArc
 50
275.701776
 51
276.524653
  0
ARC
  5
AF
100
AcDbEntity
  8
0
390
0
  6
Continuous
 62
     7
100
AcDbCircle
 10
91.045159
 20
0.0
 30
0.0
 40
12.5
210
0.0
220
0.0
230
1.0
100
AcDbArc
 50
276.524653
 51
323.475347
  0
ARC
  5
B0
100
AcDbEntity
  8
0
390
0
  6
Continuous
 62
     7
100
AcDbCircle
 10
91.045159
 20
0.0
 30
0.0
 40
12.5
210
0.0
220
0.0
230
1.0
100
AcDbArc
 50
323.475347
 51
324.298224
  0
ARC
  5
B1
100
AcDbEntity
  8
0
390
0
  6
Continuous
 62
     7
100
AcDbCircle
 10
91.045159
 20
0.0
 30
0.0
 40
12.5
210
0.0
220
0.0
230
1.0
100
AcDbArc
 50
324.298224
 51
335.701776
  0
ARC
  5
B2
100
AcDbEntity
  8
0
390
0
  6
Continuous
 62
     7
100
AcDbCircle
 10
91.045159
 20
0.0
 30
0.0
 40
12.5
210
0.0
220
0.0
230
1.0
100
AcDbArc
 50
335.701776
 51
336.524653
  0
ARC
  5
B3
100
AcDbEntity
  8
0
390
0
  6
Continuous
 62
     7
100
AcDbCircle
 10
91.045159
 20
0.0
 30
0.0
 40
12.5
210
0.0
220
0.0
230
0.9999999999999999
100
AcDbArc
 50
336.524653
 51
23.475347
  0
ARC
  5
B4
100
AcDbEntity
  8
0
390
0
  6
Continuous
 62
     7
100
AcDbCircle
 10
91.045159
 20
0.0
 30
0.0
 40
12.5
210
0.0
220
0.0
230
0.9999999999999999
100
AcDbArc
 50
23.475347
 51
24.298224
  0
ARC
  5
B5
100
AcDbEntity
  8
0
390
0
  6
Continuous
 62
     7
100
AcDbCircle
 10
91.045159
 20
0.0
 30
0.0
 40
12.5
210
0.0
220
0.0
230
1.0
100
AcDbArc
 50
24.298224
 51
35.701776
  0
ARC
  5
B6
100
AcDbEntity
  8
0
390
0
  6
Continuous
 62
     7
100
AcDbCircle
 10
91.045159
 20
0.0
 30
0.0
 40
12.5
210
0.0
220
0.0
230
1.0
100
AcDbArc
 50
35.701776
 51
36.524653
  0
ARC
  5
B7
100
AcDbEntity
  8
0
390
0
  6
Continuous
 62
     7
100
AcDbCircle
 10
91.045159
 20
0.0
 30
0.0
 40
12.5
210
0.0
220
0.0
230
1.0
100
AcDbArc
 50
36.524653
 51
83.475347
  0
ARC
  5
B8
100
AcDbEntity
  8
0
390
0
  6
Continuous
 62
     7
100
AcDbCircle
 10
91.045159
 20
0.0
 30
0.0
 40
12.5
210
0.0
220
0.0
230
1.0
100
AcDbArc
 50
83.475347
 51
84.298224
  0
ARC
  5
B9
100
AcDbEntity
  8
0
390
0
  6
Continuous
 62
     7
100
AcDbCircle
 10
91.045159
 20
0.0
 30
0.0
 40
12.5
210
0.0
220
0.0
230
1.0
100
AcDbArc
 50
84.298224
 51
95.701776
  0
ARC
  5
BA
100
AcDbEntity
  8
0
390
0
  6
Continuous
 62
     7
100
AcDbCircle
 10
91.045159
 20
0.0
 30
0.0
 40
12.5
210
0.0
220
0.0
230
1.0
100
AcDbArc
 50
95.701776
 51
96.524653
  0
ARC
  5
BB
100
AcDbEntity
  8
0
390
0
  6
Continuous
 62
     7
100
AcDbCircle
 10
91.045159
 20
0.0
 30
0.0
 40
12.5
210
0.0
220
0.0
230
1.0
100
AcDbArc
 50
96.524653
 51
143.475347
  0
ARC
  5
BC
100
AcDbEntity
  8
0
390
0
  6
Continuous
 62
     7
100
AcDbCircle
 10
91.045159
 20
0.0
 30
0.0
 40
12.5
210
0.0
220
0.0
230
1.0
100
AcDbArc
 50
143.475347
 51
144.298224
  0
ARC
  5
BD
100
AcDbEntity
  8
0
390
0
  6
Continuous
 62
     7
100
AcDbCircle
 10
91.045159
 20
0.0
 30
0.0
 40
12.5
210
0.0
220
0.0
230
1.0
100
AcDbArc
 50
144.298224
 51
155.701776
  0
ARC
  5
BE
100
AcDbEntity
  8
0
390
0
  6
Continuous
 62
     7
100
AcDbCircle
 10
91.045159
 20
0.0
 30
0.0
 40
12.5
210
0.0
220
0.0
230
1.0
100
AcDbArc
 50
155.701776
 51
156.524653
  0
LINE
  5
BF
100
AcDbEntity
  8
0
390
0
  6
Continuous
 62
     7
100
AcDbLine
 10
79.579765
 20
4.979431
 30
0.0
 11
79.579765
 21
-4.979431
 31
0.0
  0
POLYLINE
  5
C0
100
AcDbEntity
  8
0
390
0
  6
Continuous
 62
     7
100
AcDb2dPolyline
 66
     1
 10
0.0
 20
0.0
 30
0.0
 40
0.1
 41
0.1
  0
VERTEX
  5
C1
100
AcDbEntity
  8
0
390
0
 62
     7
100
AcDbVertex
100
AcDb2dVertex
 10
81.579432
 20
5.176409
 30
0.0
  0
VERTEX
  5
C2
100
AcDbEntity
  8
0
390
0
 62
     7
100
AcDbVertex
100
AcDb2dVertex
 10
81.579942
 20
5.200255
 30
0.0
  0
VERTEX
  5
C3
100
AcDbEntity
  8
0
390
0
 62
     7
100
AcDbVertex
100
AcDb2dVertex
 10
81.58157
 20
5.224009
 30
0.0
  0
VERTEX
  5
C4
100
AcDbEntity
  8
0
390
0
 62
     7
100
AcDbVertex
100
AcDb2dVertex
 10
81.584312
 20
5.247628
 30
0.0
  0
VERTEX
  5
C5
100
AcDbEntity
  8
0
390
0
 62
     7
100
AcDbVertex
100
AcDb2dVertex
 10
81.588164
 20
5.27107
 30
0.0
  0
VERTEX
  5
C6
100
AcDbEntity
  8
0
390
0
 62
     7
100
AcDbVertex
100
AcDb2dVertex
 10
81.59312
 20
5.294289
 30
0.0
  0
VERTEX
  5
C7
100
AcDbEntity
  8
0
390
0
 62
     7
100
AcDbVertex
100
AcDb2dVertex
 10
81.599176
 20
5.317244
 30
0.0
  0
VERTEX
  5
C8
100
AcDbEntity
  8
0
390
0
 62
     7
100
AcDbVertex
100
AcDb2dVertex
 10
81.604185
 20
5.333492
 30
0.0
  0
VERTEX
  5
C9
100
AcDbEntity
  8
0
390
0
 62
     7
100
AcDbVertex
100
AcDb2dVertex
 10
81.609769
 20
5.349612
 30
0.0
  0
VERTEX
  5
CA
100
AcDbEntity
  8
0
390
0
 62
     7
100
AcDbVertex
100
AcDb2dVertex
 10
81.615919
 20
5.365568
 30
0.0
  0
VERTEX
  5
CB
100
AcDbEntity
  8
0
390
0
 62
     7
100
AcDbVertex
100
AcDb2dVertex
 10
81.62263
 20
5.381327
 30
0.0
  0
VERTEX
  5
CC
100
AcDbEntity
  8
0
390
0
 62
     7
100
AcDbVertex
100
AcDb2dVertex
 10
81.630122
 20
5.397322
 30
0.0
  0
VERTEX
  5
CD
100
AcDbEntity
  8
0
390
0
 62
     7
100
AcDbVertex
100
AcDb2dVertex
 10
81.638203
 20
5.413076
 30
0.0
  0
VERTEX
  5
CE
100
AcDbEntity
  8
0
390
0
 62
     7
100
AcDbVertex
100
AcDb2dVertex
 10
81.646849
 20
5.428542
 30
0.0
  0
VERTEX
  5
CF
100
AcDbEntity
  8
0
390
0
 62
     7
100
AcDbVertex
100
AcDb2dVertex
 10
81.656035
 20
5.443669
 30
0.0
  0
VERTEX
  5
D0
100
AcDbEntity
  8
0
390
0
 62
     7
100
AcDbVertex
100
AcDb2dVertex
 10
81.664113
 20
5.456029
 30
0.0
  0
VERTEX
  5
D1
100
AcDbEntity
  8
0
390
0
 62
     7
100
AcDbVertex
100
AcDb2dVertex
 10
81.672547
 20
5.468127
 30
0.0
  0
VERTEX
  5
D2
100
AcDbEntity
  8
0
390
0
 62
     7
100
AcDbVertex
100
AcDb2dVertex
 10
81.684989
 20
5.484668
 30
0.0
  0
VERTEX
  5
D3
100
AcDbEntity
  8
0
390
0
 62
     7
100
AcDbVertex
100
AcDb2dVertex
 10
81.69809
 20
5.500647
 30
0.0
  0
VERTEX
  5
D4
100
AcDbEntity
  8
0
390
0
 62
     7
100
AcDbVertex
100
AcDb2dVertex
 10
81.711804
 20
5.516023
 30
0.0
  0
VERTEX
  5
D5
100
AcDbEntity
  8
0
390
0
 62
     7
100
AcDbVertex
100
AcDb2dVertex
 10
81.726085
 20
5.530757
 30
0.0
  0
VERTEX
  5
D6
100
AcDbEntity
  8
0
390
0
 62
     7
100
AcDbVertex
100
AcDb2dVertex
 10
81.741414
 20
5.545299
 30
0.0
  0
VERTEX
  5
D7
100
AcDbEntity
  8
0
390
0
 62
     7
100
AcDbVertex
100
AcDb2dVertex
 10
81.757335
 20
5.559171
 30
0.0
  0
VERTEX
  5
D8
100
AcDbEntity
  8
0
390
0
 62
     7
100
AcDbVertex
100
AcDb2dVertex
 10
81.773823
 20
5.572358
 30
0.0
  0
VERTEX
  5
D9
100
AcDbEntity
  8
0
390
0
 62
     7
100
AcDbVertex
100
AcDb2dVertex
 10
81.790855
 20
5.584844
 30
0.0
  0
VERTEX
  5
DA
100
AcDbEntity
  8
0
390
0
 62
     7
100
AcDbVertex
100
AcDb2dVertex
 10
81.809811
 20
5.59751
 30
0.0
  0
VERTEX
  5
DB
100
AcDbEntity
  8
0
390
0
 62
     7
100
AcDbVertex
100
AcDb2dVertex
 10
81.829394
 20
5.609356
 30
0.0
  0
SEQEND
  5
DC
100
AcDbEntity
  8
0
390
0
  0
ELLIPSE
  5
DD
100
AcDbEntity
  8
0
390
0
  6
Continuous
 62
     7
100
AcDbEllipse
 10
79.579737
 20
5.176409
 30
0.0
 11
-1.999999917655565
 21
-0.0005739143744687
 31
0.0
210
0.0
220
0.0
230
1.0
 40
0.016438
 41
1.6071605856378344
 42
3.1241370024747268
  0
ELLIPSE
  5
DE
100
AcDbEntity
  8
0
390
0
  6
Continuous
 62
     7
100
AcDbEllipse
 10
80.829547
 20
7.341143
 30
0.0
 11
-0.999502934399904
 21
1.7323376934437473
 31
0.0
210
0.0
220
0.0
230
1.0
 40
0.016438
 41
3.1590483047043723
 42
4.6760247215417827
  0
LINE
  5
DF
100
AcDbEntity
  8
0
390
0
  6
Continuous
 62
     7
100
AcDbLine
 10
81.000149
 20
-7.439608
 30
0.0
 11
89.624775
 21
-12.419038
 31
0.0
  0
POLYLINE
  5
E0
100
AcDbEntity
  8
0
390
0
  6
Continuous
 62
     7
100
AcDb2dPolyline
 66
     1
 10
0.0
 20
0.0
 30
0.0
 40
0.1
 41
0.1
  0
VERTEX
  5
E1
100
AcDbEntity
  8
0
390
0
 62
     7
100
AcDbVertex
100
AcDb2dVertex
 10
81.829394
 20
-5.609356
 30
0.0
  0
VERTEX
  5
E2
100
AcDbEntity
  8
0
390
0
 62
     7
100
AcDbVertex
100
AcDb2dVertex
 10
81.808998
 20
-5.596991
 30
0.0
  0
VERTEX
  5
E3
100
AcDbEntity
  8
0
390
0
 62
     7
100
AcDbVertex
100
AcDb2dVertex
 10
81.78924
 20
-5.583704
 30
0.0
  0
VERTEX
  5
E4
100
AcDbEntity
  8
0
390
0
 62
     7
100
AcDbVertex
100
AcDb2dVertex
 10
81.770156
 20
-5.56952
 30
0.0
  0
VERTEX
  5
E5
100
AcDbEntity
  8
0
390
0
 62
     7
100
AcDbVertex
100
AcDb2dVertex
 10
81.751781
 20
-5.554464
 30
0.0
  0
VERTEX
  5
E6
100
AcDbEntity
  8
0
390
0
 62
     7
100
AcDbVertex
100
AcDb2dVertex
 10
81.734151
 20
-5.538562
 30
0.0
  0
VERTEX
  5
E7
100
AcDbEntity
  8
0
390
0
 62
     7
100
AcDbVertex
100
AcDb2dVertex
 10
81.717299
 20
-5.52184
 30
0.0
  0
VERTEX
  5
E8
100
AcDbEntity
  8
0
390
0
 62
     7
100
AcDbVertex
100
AcDb2dVertex
 10
81.705733
 20
-5.509377
 30
0.0
  0
VERTEX
  5
E9
100
AcDbEntity
  8
0
390
0
 62
     7
100
AcDbVertex
100
AcDb2dVertex
 10
81.694565
 20
-5.496482
 30
0.0
  0
VERTEX
  5
EA
100
AcDbEntity
  8
0
390
0
 62
     7
100
AcDbVertex
100
AcDb2dVertex
 10
81.683821
 20
-5.483177
 30
0.0
  0
VERTEX
  5
EB
100
AcDbEntity
  8
0
390
0
 62
     7
100
AcDbVertex
100
AcDb2dVertex
 10
81.673529
 20
-5.469487
 30
0.0
  0
VERTEX
  5
EC
100
AcDbEntity
  8
0
390
0
 62
     7
100
AcDbVertex
100
AcDb2dVertex
 10
81.663423
 20
-5.455001
 30
0.0
  0
VERTEX
  5
ED
100
AcDbEntity
  8
0
390
0
 62
     7
100
AcDbVertex
100
AcDb2dVertex
 10
81.65382
 20
-5.440125
 30
0.0
  0
VERTEX
  5
EE
100
AcDbEntity
  8
0
390
0
 62
     7
100
AcDbVertex
100
AcDb2dVertex
 10
81.644749
 20
-5.424905
 30
0.0
  0
VERTEX
  5
EF
100
AcDbEntity
  8
0
390
0
 62
     7
100
AcDbVertex
100
AcDb2dVertex
 10
81.636242
 20
-5.409386
 30
0.0
  0
VERTEX
  5
F0
100
AcDbEntity
  8
0
390
0
 62
     7
100
AcDbVertex
100
AcDb2dVertex
 10
81.629576
 20
-5.39621
 30
0.0
  0
VERTEX
  5
F1
100
AcDbEntity
  8
0
390
0
 62
     7
100
AcDbVertex
100
AcDb2dVertex
 10
81.623316
 20
-5.382857
 30
0.0
  0
VERTEX
  5
F2
100
AcDbEntity
  8
0
390
0
 62
     7
100
AcDbVertex
100
AcDb2dVertex
 10
81.615212
 20
-5.363811
 30
0.0
  0
VERTEX
  5
F3
100
AcDbEntity
  8
0
390
0
 62
     7
100
AcDbVertex
100
AcDb2dVertex
 10
81.607925
 20
-5.344476
 30
0.0
  0
VERTEX
  5
F4
100
AcDbEntity
  8
0
390
0
 62
     7
100
AcDbVertex
100
AcDb2dVertex
 10
81.601466
 20
-5.324912
 30
0.0
  0
VERTEX
  5
F5
100
AcDbEntity
  8
0
390
0
 62
     7
100
AcDbVertex
100
AcDb2dVertex
 10
81.595846
 20
-5.305177
 30
0.0
  0
VERTEX
  5
F6
100
AcDbEntity
  8
0
390
0
 62
     7
100
AcDbVertex
100
AcDb2dVertex
 10
81.590916
 20
-5.284631
 30
0.0
  0
VERTEX
  5
F7
100
AcDbEntity
  8
0
390
0
 62
     7
100
AcDbVertex
100
AcDb2dVertex
 10
81.586863
 20
-5.263907
 30
0.0
  0
VERTEX
  5
F8
100
AcDbEntity
  8
0
390
0
 62
     7
100
AcDbVertex
100
AcDb2dVertex
 10
81.583688
 20
-5.243034
 30
0.0
  0
VERTEX
  5
F9
100
AcDbEntity
  8
0
390
0
 62
     7
100
AcDbVertex
100
AcDb2dVertex
 10
81.581391
 20
-5.22204
 30
0.0
  0
VERTEX
  5
FA
100
AcDbEntity
  8
0
390
0
 62
     7
100
AcDbVertex
100
AcDb2dVertex
 10
81.579899
 20
-5.199292
 30
0.0
  0
VERTEX
  5
FB
100
AcDbEntity
  8
0
390
0
 62
     7
100
AcDbVertex
100
AcDb2dVertex
 10
81.579432
 20
-5.176409
 30
0.0
  0
SEQEND
  5
FC
100
AcDbEntity
  8
0
390
0
  0
ELLIPSE
  5
FD
100
AcDbEntity
  8
0
390
0
  6
Continuous
 62
     7
100
AcDbEllipse
 10
80.829547
 20
-7.341143
 30
0.0
 11
-0.999502934399904
 21
-1.7323376934437473
 31
0.0
210
0.0
220
0.0
230
1.0
 40
0.016438
 41
1.6071605856377862
 42
3.1241370024747974
  0
ELLIPSE
  5
FE
100
AcDbEntity
  8
0
390
0
  6
Continuous
 62
     7
100
AcDbEllipse
 10
79.579737
 20
-5.176409
 30
0.0
 11
-1.999999917655565
 21
0.0005739143744687
 31
0.0
210
0.0
220
0.0
230
1.0
 40
0.016438
 41
3.1590483047049287
 42
4.6760247215417552
  0
LINE
  5
FF
100
AcDbEntity
  8
0
390
0
  6
Continuous
 62
     7
100
AcDbLine
 10
89.624775
 20
12.419038
 30
0.0
 11
81.000149
 21
7.439608
 31
0.0
  0
LINE
  5
100
100
AcDbEntity
  8
0
390
0
  6
Continuous
 62
     7
100
AcDbLine
 10
81.999997
 20
5.707821
 30
0.0
 11
90.624623
 21
10.687251
 31
0.0
  0
LINE
  5
101
100
AcDbEntity
  8
0
390
0
  6
Continuous
 62
     7
100
AcDbLine
 10
81.000149
 20
7.439608
 30
0.0
 11
81.999997
 21
5.707821
 31
0.0
  0
LINE
  5
102
100
AcDbEntity
  8
0
390
0
  6
Continuous
 62
     7
100
AcDbLine
 10
89.624775
 20
12.419038
 30
0.0
 11
90.624623
 21
10.687251
 31
0.0
  0
LINE
  5
103
100
AcDbEntity
  8
0
390
0
  6
Continuous
 62
     7
100
AcDbLine
 10
81.829394
 20
5.609356
 30
0.0
 11
81.999997
 21
5.707821
 31
0.0
  0
LINE
  5
104
100
AcDbEntity
  8
0
390
0
  6
Continuous
 62
     7
100
AcDbLine
 10
81.57946
 20
-4.979431
 30
0.0
 11
81.57946
 21
4.979431
 31
0.0
  0
LINE
  5
105
100
AcDbEntity
  8
0
390
0
  6
Continuous
 62
     7
100
AcDbLine
 10
79.579765
 20
-4.979431
 30
0.0
 11
81.57946
 21
-4.979431
 31
0.0
  0
LINE
  5
106
100
AcDbEntity
  8
0
390
0
  6
Continuous
 62
     7
100
AcDbLine
 10
79.579765
 20
4.979431
 30
0.0
 11
81.57946
 21
4.979431
 31
0.0
  0
LINE
  5
107
100
AcDbEntity
  8
0
390
0
  6
Continuous
 62
     7
100
AcDbLine
 10
81.57946
 20
4.979431
 30
0.0
 11
81.579432
 21
5.176409
 31
0.0
  0
LINE
  5
108
100
AcDbEntity
  8
0
390
0
  6
Continuous
 62
     7
100
AcDbLine
 10
90.624623
 20
-10.687251
 30
0.0
 11
81.999997
 21
-5.707821
 31
0.0
  0
LINE
  5
109
100
AcDbEntity
  8
0
390
0
  6
Continuous
 62
     7
100
AcDbLine
 10
89.624775
 20
-12.419038
 30
0.0
 11
90.624623
 21
-10.687251
 31
0.0
  0
LINE
  5
10A
100
AcDbEntity
  8
0
390
0
  6
Continuous
 62
     7
100
AcDbLine
 10
81.000149
 20
-7.439608
 30
0.0
 11
81.999997
 21
-5.707821
 31
0.0
  0
LINE
  5
10B
100
AcDbEntity
  8
0
390
0
  6
Continuous
 62
     7
100
AcDbLine
 10
81.999997
 20
-5.707821
 30
0.0
 11
81.829394
 21
-5.609356
 31
0.0
  0
LINE
  5
10C
100
AcDbEntity
  8
0
390
0
  6
Continuous
 62
     7
100
AcDbLine
 10
81.579432
 20
-5.176409
 30
0.0
 11
81.57946
 21
-4.979431
 31
0.0
  0
ELLIPSE
  5
10D
100
AcDbEntity
  8
0
390
0
  6
Continuous
 62
     7
100
AcDbEllipse
 10
92.294969
 20
-12.517551
 30
0.0
 11
-1.0004969832556609
 21
1.7317637790692786
 31
0.0
210
0.0
220
0.0
230
1.0
 40
0.016438
 41
4.7487532392276046
 42
6.2657296560651492
  0
LINE
  5
10E
100
AcDbEntity
  8
0
390
0
  6
Continuous
 62
     7
100
AcDbLine
 10
91.465696
 20
-10.687251
 30
0.0
 11
91.295121
 21
-10.785764
 31
0.0
  0
LINE
  5
10F
100
AcDbEntity
  8
0
390
0
  6
Continuous
 62
     7
100
AcDbLine
 10
91.465696
 20
-10.687251
 30
0.0
 11
92.465543
 21
-12.419038
 31
0.0
  0
LINE
  5
110
100
AcDbEntity
  8
0
390
0
  6
Continuous
 62
     7
100
AcDbLine
 10
90.795198
 20
-10.785764
 30
0.0
 11
90.624623
 21
-10.687251
 31
0.0
  0
ELLIPSE
  5
111
100
AcDbEntity
  8
0
390
0
  6
Continuous
 62
     7
100
AcDbEllipse
 10
89.79535
 20
-12.517551
 30
0.0
 11
1.0004969832556609
 21
1.7317637790692786
 31
0.0
210
0.0
220
0.0
230
1.0
 40
0.016438
 41
0.0174556511145729
 42
1.5344320679519885
  0
POLYLINE
  5
112
100
AcDbEntity
  8
0
390
0
  6
Continuous
 62
     7
100
AcDb2dPolyline
 66
     1
 10
0.0
 20
0.0
 30
0.0
 40
0.1
 41
0.1
  0
VERTEX
  5
113
100
AcDbEntity
  8
0
390
0
 62
     7
100
AcDbVertex
100
AcDb2dVertex
 10
91.295121
 20
-10.785764
 30
0.0
  0
VERTEX
  5
114
100
AcDbEntity
  8
0
390
0
 62
     7
100
AcDbVertex
100
AcDb2dVertex
 10
91.274396
 20
-10.797153
 30
0.0
  0
VERTEX
  5
115
100
AcDbEntity
  8
0
390
0
 62
     7
100
AcDbVertex
100
AcDb2dVertex
 10
91.253233
 20
-10.807529
 30
0.0
  0
VERTEX
  5
116
100
AcDbEntity
  8
0
390
0
 62
     7
100
AcDbVertex
100
AcDb2dVertex
 10
91.23168
 20
-10.816877
 30
0.0
  0
VERTEX
  5
117
100
AcDbEntity
  8
0
390
0
 62
     7
100
AcDbVertex
100
AcDb2dVertex
 10
91.209277
 20
-10.82536
 30
0.0
  0
VERTEX
  5
118
100
AcDbEntity
  8
0
390
0
 62
     7
100
AcDbVertex
100
AcDb2dVertex
 10
91.186463
 20
-10.83277
 30
0.0
  0
VERTEX
  5
119
100
AcDbEntity
  8
0
390
0
 62
     7
100
AcDbVertex
100
AcDb2dVertex
 10
91.163283
 20
-10.839084
 30
0.0
  0
VERTEX
  5
11A
100
AcDbEntity
  8
0
390
0
 62
     7
100
AcDbVertex
100
AcDb2dVertex
 10
91.146707
 20
-10.842869
 30
0.0
  0
VERTEX
  5
11B
100
AcDbEntity
  8
0
390
0
 62
     7
100
AcDbVertex
100
AcDb2dVertex
 10
91.129955
 20
-10.846094
 30
0.0
  0
VERTEX
  5
11C
100
AcDbEntity
  8
0
390
0
 62
     7
100
AcDbVertex
100
AcDb2dVertex
 10
91.113061
 20
-10.848746
 30
0.0
  0
VERTEX
  5
11D
100
AcDbEntity
  8
0
390
0
 62
     7
100
AcDbVertex
100
AcDb2dVertex
 10
91.096058
 20
-10.850813
 30
0.0
  0
VERTEX
  5
11E
100
AcDbEntity
  8
0
390
0
 62
     7
100
AcDbVertex
100
AcDb2dVertex
 10
91.07846
 20
-10.852323
 30
0.0
  0
VERTEX
  5
11F
100
AcDbEntity
  8
0
390
0
 62
     7
100
AcDbVertex
100
AcDb2dVertex
 10
91.060776
 20
-10.853201
 30
0.0
  0
VERTEX
  5
120
100
AcDbEntity
  8
0
390
0
 62
     7
100
AcDbVertex
100
AcDb2dVertex
 10
91.04306
 20
-10.853446
 30
0.0
  0
VERTEX
  5
121
100
AcDbEntity
  8
0
390
0
 62
     7
100
AcDbVertex
100
AcDb2dVertex
 10
91.025366
 20
-10.853055
 30
0.0
  0
VERTEX
  5
122
100
AcDbEntity
  8
0
390
0
 62
     7
100
AcDbVertex
100
AcDb2dVertex
 10
91.010633
 20
-10.85224
 30
0.0
  0
VERTEX
  5
123
100
AcDbEntity
  8
0
390
0
 62
     7
100
AcDbVertex
100
AcDb2dVertex
 10
90.995929
 20
-10.850984
 30
0.0
  0
VERTEX
  5
124
100
AcDbEntity
  8
0
390
0
 62
     7
100
AcDbVertex
100
AcDb2dVertex
 10
90.975382
 20
-10.84848
 30
0.0
  0
VERTEX
  5
125
100
AcDbEntity
  8
0
390
0
 62
     7
100
AcDbVertex
100
AcDb2dVertex
 10
90.954995
 20
-10.845123
 30
0.0
  0
VERTEX
  5
126
100
AcDbEntity
  8
0
390
0
 62
     7
100
AcDbVertex
100
AcDb2dVertex
 10
90.934822
 20
-10.840935
 30
0.0
  0
VERTEX
  5
127
100
AcDbEntity
  8
0
390
0
 62
     7
100
AcDbVertex
100
AcDb2dVertex
 10
90.91492
 20
-10.835934
 30
0.0
  0
VERTEX
  5
128
100
AcDbEntity
  8
0
390
0
 62
     7
100
AcDbVertex
100
AcDb2dVertex
 10
90.894662
 20
-10.82993
 30
0.0
  0
VERTEX
  5
129
100
AcDbEntity
  8
0
390
0
 62
     7
100
AcDbVertex
100
AcDb2dVertex
 10
90.874688
 20
-10.823078
 30
0.0
  0
VERTEX
  5
12A
100
AcDbEntity
  8
0
390
0
 62
     7
100
AcDbVertex
100
AcDb2dVertex
 10
90.855024
 20
-10.815392
 30
0.0
  0
VERTEX
  5
12B
100
AcDbEntity
  8
0
390
0
 62
     7
100
AcDbVertex
100
AcDb2dVertex
 10
90.835695
 20
-10.806884
 30
0.0
  0
VERTEX
  5
12C
100
AcDbEntity
  8
0
390
0
 62
     7
100
AcDbVertex
100
AcDb2dVertex
 10
90.815275
 20
-10.796816
 30
0.0
  0
VERTEX
  5
12D
100
AcDbEntity
  8
0
390
0
 62
     7
100
AcDbVertex
100
AcDb2dVertex
 10
90.805185
 20
-10.79141
 30
0.0
  0
VERTEX
  5
12E
100
AcDbEntity
  8
0
390
0
 62
     7
100
AcDbVertex
100
AcDb2dVertex
 10
90.795198
 20
-10.785764
 30
0.0
  0
SEQEND
  5
12F
100
AcDbEntity
  8
0
390
0
  0
LINE
  5
130
100
AcDbEntity
  8
0
390
0
  6
Continuous
 62
     7
100
AcDbLine
 10
101.09017
 20
7.439608
 30
0.0
 11
92.465543
 21
12.419038
 31
0.0
  0
LINE
  5
131
100
AcDbEntity
  8
0
390
0
  6
Continuous
 62
     7
100
AcDbLine
 10
100.090322
 20
5.707821
 30
0.0
 11
101.09017
 21
7.439608
 31
0.0
  0
LINE
  5
132
100
AcDbEntity
  8
0
390
0
  6
Continuous
 62
     7
100
AcDbLine
 10
91.465696
 20
10.687251
 30
0.0
 11
100.090322
 21
5.707821
 31
0.0
  0
LINE
  5
133
100
AcDbEntity
  8
0
390
0
  6
Continuous
 62
     7
100
AcDbLine
 10
91.465696
 20
10.687251
 30
0.0
 11
92.465543
 21
12.419038
 31
0.0
  0
LINE
  5
134
100
AcDbEntity
  8
0
390
0
  6
Continuous
 62
     7
100
AcDbLine
 10
92.465543
 20
-12.419038
 30
0.0
 11
101.09017
 21
-7.439608
 31
0.0
  0
LINE
  5
135
100
AcDbEntity
  8
0
390
0
  6
Continuous
 62
     7
100
AcDbLine
 10
100.090322
 20
-5.707821
 30
0.0
 11
91.465696
 21
-10.687251
 31
0.0
  0
LINE
  5
136
100
AcDbEntity
  8
0
390
0
  6
Continuous
 62
     7
100
AcDbLine
 10
100.090322
 20
-5.707821
 30
0.0
 11
101.09017
 21
-7.439608
 31
0.0
  0
POLYLINE
  5
137
100
AcDbEntity
  8
0
390
0
  6
Continuous
 62
     7
100
AcDb2dPolyline
 66
     1
 10
0.0
 20
0.0
 30
0.0
 40
0.1
 41
0.1
  0
VERTEX
  5
138
100
AcDbEntity
  8
0
390
0
 62
     7
100
AcDbVertex
100
AcDb2dVertex
 10
90.795198
 20
10.785764
 30
0.0
  0
VERTEX
  5
139
100
AcDbEntity
  8
0
390
0
 62
     7
100
AcDbVertex
100
AcDb2dVertex
 10
90.815923
 20
10.797153
 30
0.0
  0
VERTEX
  5
13A
100
AcDbEntity
  8
0
390
0
 62
     7
100
AcDbVertex
100
AcDb2dVertex
 10
90.837086
 20
10.807529
 30
0.0
  0
VERTEX
  5
13B
100
AcDbEntity
  8
0
390
0
 62
     7
100
AcDbVertex
100
AcDb2dVertex
 10
90.858639
 20
10.816877
 30
0.0
  0
VERTEX
  5
13C
100
AcDbEntity
  8
0
390
0
 62
     7
100
AcDbVertex
100
AcDb2dVertex
 10
90.881042
 20
10.82536
 30
0.0
  0
VERTEX
  5
13D
100
AcDbEntity
  8
0
390
0
 62
     7
100
AcDbVertex
100
AcDb2dVertex
 10
90.903856
 20
10.83277
 30
0.0
  0
VERTEX
  5
13E
100
AcDbEntity
  8
0
390
0
 62
     7
100
AcDbVertex
100
AcDb2dVertex
 10
90.927036
 20
10.839084
 30
0.0
  0
VERTEX
  5
13F
100
AcDbEntity
  8
0
390
0
 62
     7
100
AcDbVertex
100
AcDb2dVertex
 10
90.943612
 20
10.842869
 30
0.0
  0
VERTEX
  5
140
100
AcDbEntity
  8
0
390
0
 62
     7
100
AcDbVertex
100
AcDb2dVertex
 10
90.960364
 20
10.846094
 30
0.0
  0
VERTEX
  5
141
100
AcDbEntity
  8
0
390
0
 62
     7
100
AcDbVertex
100
AcDb2dVertex
 10
90.977258
 20
10.848745
 30
0.0
  0
VERTEX
  5
142
100
AcDbEntity
  8
0
390
0
 62
     7
100
AcDbVertex
100
AcDb2dVertex
 10
90.994261
 20
10.850813
 30
0.0
  0
VERTEX
  5
143
100
AcDbEntity
  8
0
390
0
 62
     7
100
AcDbVertex
100
AcDb2dVertex
 10
91.011859
 20
10.852323
 30
0.0
  0
VERTEX
  5
144
100
AcDbEntity
  8
0
390
0
 62
     7
100
AcDbVertex
100
AcDb2dVertex
 10
91.029543
 20
10.853201
 30
0.0
  0
VERTEX
  5
145
100
AcDbEntity
  8
0
390
0
 62
     7
100
AcDbVertex
100
AcDb2dVertex
 10
91.047259
 20
10.853446
 30
0.0
  0
VERTEX
  5
146
100
AcDbEntity
  8
0
390
0
 62
     7
100
AcDbVertex
100
AcDb2dVertex
 10
91.064953
 20
10.853055
 30
0.0
  0
VERTEX
  5
147
100
AcDbEntity
  8
0
390
0
 62
     7
100
AcDbVertex
100
AcDb2dVertex
 10
91.079686
 20
10.85224
 30
0.0
  0
VERTEX
  5
148
100
AcDbEntity
  8
0
390
0
 62
     7
100
AcDbVertex
100
AcDb2dVertex
 10
91.09439
 20
10.850984
 30
0.0
  0
VERTEX
  5
149
100
AcDbEntity
  8
0
390
0
 62
     7
100
AcDbVertex
100
AcDb2dVertex
 10
91.114936
 20
10.84848
 30
0.0
  0
VERTEX
  5
14A
100
AcDbEntity
  8
0
390
0
 62
     7
100
AcDbVertex
100
AcDb2dVertex
 10
91.135324
 20
10.845123
 30
0.0
  0
VERTEX
  5
14B
100
AcDbEntity
  8
0
390
0
 62
     7
100
AcDbVertex
100
AcDb2dVertex
 10
91.155497
 20
10.840935
 30
0.0
  0
VERTEX
  5
14C
100
AcDbEntity
  8
0
390
0
 62
     7
100
AcDbVertex
100
AcDb2dVertex
 10
91.175398
 20
10.835934
 30
0.0
  0
VERTEX
  5
14D
100
AcDbEntity
  8
0
390
0
 62
     7
100
AcDbVertex
100
AcDb2dVertex
 10
91.195657
 20
10.82993
 30
0.0
  0
VERTEX
  5
14E
100
AcDbEntity
  8
0
390
0
 62
     7
100
AcDbVertex
100
AcDb2dVertex
 10
91.215631
 20
10.823078
 30
0.0
  0
VERTEX
  5
14F
100
AcDbEntity
  8
0
390
0
 62
     7
100
AcDbVertex
100
AcDb2dVertex
 10
91.235295
 20
10.815392
 30
0.0
  0
VERTEX
  5
150
100
AcDbEntity
  8
0
390
0
 62
     7
100
AcDbVertex
100
AcDb2dVertex
 10
91.254624
 20
10.806884
 30
0.0
  0
VERTEX
  5
151
100
AcDbEntity
  8
0
390
0
 62
     7
100
AcDbVertex
100
AcDb2dVertex
 10
91.275044
 20
10.796816
 30
0.0
  0
VERTEX
  5
152
100
AcDbEntity
  8
0
390
0
 62
     7
100
AcDbVertex
100
AcDb2dVertex
 10
91.285134
 20
10.791409
 30
0.0
  0
VERTEX
  5
153
100
AcDbEntity
  8
0
390
0
 62
     7
100
AcDbVertex
100
AcDb2dVertex
 10
91.295121
 20
10.785764
 30
0.0
  0
SEQEND
  5
154
100
AcDbEntity
  8
0
390
0
  0
ELLIPSE
  5
155
100
AcDbEntity
  8
0
390
0
  6
Continuous
 62
     7
100
AcDbEllipse
 10
89.79535
 20
12.517551
 30
0.0
 11
-1.0004969832556609
 21
1.7317637790692786
 31
0.0
210
0.0
220
0.0
230
1.0
 40
0.016438
 41
1.6071605856378228
 42
3.124137002475214
  0
ELLIPSE
  5
156
100
AcDbEntity
  8
0
390
0
  6
Continuous
 62
     7
100
AcDbEllipse
 10
92.294969
 20
12.517551
 30
0.0
 11
1.0004969832556609
 21
1.7317637790692786
 31
0.0
210
0.0
220
0.0
230
1.0
 40
0.016438
 41
3.1590483047043727
 42
4.6760247215417641
  0
LINE
  5
157
100
AcDbEntity
  8
0
390
0
  6
Continuous
 62
     7
100
AcDbLine
 10
90.624623
 20
10.687251
 30
0.0
 11
90.795198
 21
10.785764
 31
0.0
  0
LINE
  5
158
100
AcDbEntity
  8
0
390
0
  6
Continuous
 62
     7
100
AcDbLine
 10
91.295121
 20
10.785764
 30
0.0
 11
91.465696
 21
10.687251
 31
0.0
  0
ELLIPSE
  5
159
100
AcDbEntity
  8
0
390
0
  6
Continuous
 62
     7
100
AcDbEllipse
 10
102.510582
 20
-5.176409
 30
0.0
 11
-1.9999999176555372
 21
-0.0005739143744687
 31
0.0
210
0.0
220
0.0
230
1.0
 40
0.016438
 41
4.7487532392275984
 42
6.2657296560644369
  0
LINE
  5
15A
100
AcDbEntity
  8
0
390
0
  6
Continuous
 62
     7
100
AcDbLine
 10
100.510859
 20
-4.979431
 30
0.0
 11
100.510886
 21
-5.176409
 31
0.0
  0
LINE
  5
15B
100
AcDbEntity
  8
0
390
0
  6
Continuous
 62
     7
100
AcDbLine
 10
100.510859
 20
-4.979431
 30
0.0
 11
102.510554
 21
-4.979431
 31
0.0
  0
ELLIPSE
  5
15C
100
AcDbEntity
  8
0
390
0
  6
Continuous
 62
     7
100
AcDbEllipse
 10
101.260772
 20
7.341143
 30
0.0
 11
-0.9995029343999318
 21
-1.7323376934437473
 31
0.0
210
0.0
220
0.0
230
1.0
 40
0.016438
 41
4.7487532392276242
 42
6.2657296560646287
  0
LINE
  5
15D
100
AcDbEntity
  8
0
390
0
  6
Continuous
 62
     7
100
AcDbLine
 10
100.090322
 20
5.707821
 30
0.0
 11
100.260924
 21
5.609356
 31
0.0
  0
LINE
  5
15E
100
AcDbEntity
  8
0
390
0
  6
Continuous
 62
     7
100
AcDbLine
 10
100.260924
 20
-5.609356
 30
0.0
 11
100.090322
 21
-5.707821
 31
0.0
  0
ELLIPSE
  5
15F
100
AcDbEntity
  8
0
390
0
  6
Continuous
 62
     7
100
AcDbEllipse
 10
101.260772
 20
-7.341143
 30
0.0
 11
-0.9995029343999318
 21
1.7323376934437473
 31
0.0
210
0.0
220
0.0
230
1.0
 40
0.016438
 41
0.0174556511147033
 42
1.5344320679520063
  0
LINE
  5
160
100
AcDbEntity
  8
0
390
0
  6
Continuous
 62
     7
100
AcDbLine
 10
102.510554
 20
-4.979431
 30
0.0
 11
102.510554
 21
4.979431
 31
0.0
  0
POLYLINE
  5
161
100
AcDbEntity
  8
0
390
0
  6
Continuous
 62
     7
100
AcDb2dPolyline
 66
     1
 10
0.0
 20
0.0
 30
0.0
 40
0.1
 41
0.1
  0
VERTEX
  5
162
100
AcDbEntity
  8
0
390
0
 62
     7
100
AcDbVertex
100
AcDb2dVertex
 10
100.510886
 20
-5.176409
 30
0.0
  0
VERTEX
  5
163
100
AcDbEntity
  8
0
390
0
 62
     7
100
AcDbVertex
100
AcDb2dVertex
 10
100.510377
 20
-5.200255
 30
0.0
  0
VERTEX
  5
164
100
AcDbEntity
  8
0
390
0
 62
     7
100
AcDbVertex
100
AcDb2dVertex
 10
100.508748
 20
-5.224009
 30
0.0
  0
VERTEX
  5
165
100
AcDbEntity
  8
0
390
0
 62
     7
100
AcDbVertex
100
AcDb2dVertex
 10
100.506006
 20
-5.247628
 30
0.0
  0
VERTEX
  5
166
100
AcDbEntity
  8
0
390
0
 62
     7
100
AcDbVertex
100
AcDb2dVertex
 10
100.502155
 20
-5.27107
 30
0.0
  0
VERTEX
  5
167
100
AcDbEntity
  8
0
390
0
 62
     7
100
AcDbVertex
100
AcDb2dVertex
 10
100.497199
 20
-5.294289
 30
0.0
  0
VERTEX
  5
168
100
AcDbEntity
  8
0
390
0
 62
     7
100
AcDbVertex
100
AcDb2dVertex
 10
100.491143
 20
-5.317244
 30
0.0
  0
VERTEX
  5
169
100
AcDbEntity
  8
0
390
0
 62
     7
100
AcDbVertex
100
AcDb2dVertex
 10
100.486133
 20
-5.333492
 30
0.0
  0
VERTEX
  5
16A
100
AcDbEntity
  8
0
390
0
 62
     7
100
AcDbVertex
100
AcDb2dVertex
 10
100.48055
 20
-5.349612
 30
0.0
  0
VERTEX
  5
16B
100
AcDbEntity
  8
0
390
0
 62
     7
100
AcDbVertex
100
AcDb2dVertex
 10
100.474399
 20
-5.365568
 30
0.0
  0
VERTEX
  5
16C
100
AcDbEntity
  8
0
390
0
 62
     7
100
AcDbVertex
100
AcDb2dVertex
 10
100.467689
 20
-5.381327
 30
0.0
  0
VERTEX
  5
16D
100
AcDbEntity
  8
0
390
0
 62
     7
100
AcDbVertex
100
AcDb2dVertex
 10
100.460197
 20
-5.397322
 30
0.0
  0
VERTEX
  5
16E
100
AcDbEntity
  8
0
390
0
 62
     7
100
AcDbVertex
100
AcDb2dVertex
 10
100.452116
 20
-5.413076
 30
0.0
  0
VERTEX
  5
16F
100
AcDbEntity
  8
0
390
0
 62
     7
100
AcDbVertex
100
AcDb2dVertex
 10
100.44347
 20
-5.428542
 30
0.0
  0
VERTEX
  5
170
100
AcDbEntity
  8
0
390
0
 62
     7
100
AcDbVertex
100
AcDb2dVertex
 10
100.434284
 20
-5.443669
 30
0.0
  0
VERTEX
  5
171
100
AcDbEntity
  8
0
390
0
 62
     7
100
AcDbVertex
100
AcDb2dVertex
 10
100.426206
 20
-5.456029
 30
0.0
  0
VERTEX
  5
172
100
AcDbEntity
  8
0
390
0
 62
     7
100
AcDbVertex
100
AcDb2dVertex
 10
100.417772
 20
-5.468127
 30
0.0
  0
VERTEX
  5
173
100
AcDbEntity
  8
0
390
0
 62
     7
100
AcDbVertex
100
AcDb2dVertex
 10
100.40533
 20
-5.484668
 30
0.0
  0
VERTEX
  5
174
100
AcDbEntity
  8
0
390
0
 62
     7
100
AcDbVertex
100
AcDb2dVertex
 10
100.392229
 20
-5.500647
 30
0.0
  0
VERTEX
  5
175
100
AcDbEntity
  8
0
390
0
 62
     7
100
AcDbVertex
100
AcDb2dVertex
 10
100.378515
 20
-5.516023
 30
0.0
  0
VERTEX
  5
176
100
AcDbEntity
  8
0
390
0
 62
     7
100
AcDbVertex
100
AcDb2dVertex
 10
100.364234
 20
-5.530757
 30
0.0
  0
VERTEX
  5
177
100
AcDbEntity
  8
0
390
0
 62
     7
100
AcDbVertex
100
AcDb2dVertex
 10
100.348905
 20
-5.545299
 30
0.0
  0
VERTEX
  5
178
100
AcDbEntity
  8
0
390
0
 62
     7
100
AcDbVertex
100
AcDb2dVertex
 10
100.332984
 20
-5.559171
 30
0.0
  0
VERTEX
  5
179
100
AcDbEntity
  8
0
390
0
 62
     7
100
AcDbVertex
100
AcDb2dVertex
 10
100.316496
 20
-5.572358
 30
0.0
  0
VERTEX
  5
17A
100
AcDbEntity
  8
0
390
0
 62
     7
100
AcDbVertex
100
AcDb2dVertex
 10
100.299463
 20
-5.584844
 30
0.0
  0
VERTEX
  5
17B
100
AcDbEntity
  8
0
390
0
 62
     7
100
AcDbVertex
100
AcDb2dVertex
 10
100.280508
 20
-5.59751
 30
0.0
  0
VERTEX
  5
17C
100
AcDbEntity
  8
0
390
0
 62
     7
100
AcDbVertex
100
AcDb2dVertex
 10
100.260924
 20
-5.609356
 30
0.0
  0
SEQEND
  5
17D
100
AcDbEntity
  8
0
390
0
  0
LINE
  5
17E
100
AcDbEntity
  8
0
390
0
  6
Continuous
 62
     7
100
AcDbLine
 10
100.510859
 20
4.979431
 30
0.0
 11
102.510554
 21
4.979431
 31
0.0
  0
LINE
  5
17F
100
AcDbEntity
  8
0
390
0
  6
Continuous
 62
     7
100
AcDbLine
 10
100.510886
 20
5.176409
 30
0.0
 11
100.510859
 21
4.979431
 31
0.0
  0
ELLIPSE
  5
180
100
AcDbEntity
  8
0
390
0
  6
Continuous
 62
     7
100
AcDbEllipse
 10
102.510582
 20
5.176409
 30
0.0
 11
-1.9999999176555372
 21
0.0005739143744687
 31
0.0
210
0.0
220
0.0
230
1.0
 40
0.016438
 41
0.0174556511151078
 42
1.5344320679519883
  0
POLYLINE
  5
181
100
AcDbEntity
  8
0
390
0
  6
Continuous
 62
     7
100
AcDb2dPolyline
 66
     1
 10
0.0
 20
0.0
 30
0.0
 40
0.1
 41
0.1
  0
VERTEX
  5
182
100
AcDbEntity
  8
0
390
0
 62
     7
100
AcDbVertex
100
AcDb2dVertex
 10
100.260924
 20
5.609356
 30
0.0
  0
VERTEX
  5
183
100
AcDbEntity
  8
0
390
0
 62
     7
100
AcDbVertex
100
AcDb2dVertex
 10
100.281321
 20
5.596991
 30
0.0
  0
VERTEX
  5
184
100
AcDbEntity
  8
0
390
0
 62
     7
100
AcDbVertex
100
AcDb2dVertex
 10
100.301079
 20
5.583704
 30
0.0
  0
VERTEX
  5
185
100
AcDbEntity
  8
0
390
0
 62
     7
100
AcDbVertex
100
AcDb2dVertex
 10
100.320163
 20
5.56952
 30
0.0
  0
VERTEX
  5
186
100
AcDbEntity
  8
0
390
0
 62
     7
100
AcDbVertex
100
AcDb2dVertex
 10
100.338538
 20
5.554464
 30
0.0
  0
VERTEX
  5
187
100
AcDbEntity
  8
0
390
0
 62
     7
100
AcDbVertex
100
AcDb2dVertex
 10
100.356168
 20
5.538562
 30
0.0
  0
VERTEX
  5
188
100
AcDbEntity
  8
0
390
0
 62
     7
100
AcDbVertex
100
AcDb2dVertex
 10
100.37302
 20
5.52184
 30
0.0
  0
VERTEX
  5
189
100
AcDbEntity
  8
0
390
0
 62
     7
100
AcDbVertex
100
AcDb2dVertex
 10
100.384586
 20
5.509377
 30
0.0
  0
VERTEX
  5
18A
100
AcDbEntity
  8
0
390
0
 62
     7
100
AcDbVertex
100
AcDb2dVertex
 10
100.395754
 20
5.496482
 30
0.0
  0
VERTEX
  5
18B
100
AcDbEntity
  8
0
390
0
 62
     7
100
AcDbVertex
100
AcDb2dVertex
 10
100.406498
 20
5.483177
 30
0.0
  0
VERTEX
  5
18C
100
AcDbEntity
  8
0
390
0
 62
     7
100
AcDbVertex
100
AcDb2dVertex
 10
100.41679
 20
5.469486
 30
0.0
  0
VERTEX
  5
18D
100
AcDbEntity
  8
0
390
0
 62
     7
100
AcDbVertex
100
AcDb2dVertex
 10
100.426896
 20
5.455001
 30
0.0
  0
VERTEX
  5
18E
100
AcDbEntity
  8
0
390
0
 62
     7
100
AcDbVertex
100
AcDb2dVertex
 10
100.436499
 20
5.440125
 30
0.0
  0
VERTEX
  5
18F
100
AcDbEntity
  8
0
390
0
 62
     7
100
AcDbVertex
100
AcDb2dVertex
 10
100.44557
 20
5.424905
 30
0.0
  0
VERTEX
  5
190
100
AcDbEntity
  8
0
390
0
 62
     7
100
AcDbVertex
100
AcDb2dVertex
 10
100.454077
 20
5.409386
 30
0.0
  0
VERTEX
  5
191
100
AcDbEntity
  8
0
390
0
 62
     7
100
AcDbVertex
100
AcDb2dVertex
 10
100.460743
 20
5.39621
 30
0.0
  0
VERTEX
  5
192
100
AcDbEntity
  8
0
390
0
 62
     7
100
AcDbVertex
100
AcDb2dVertex
 10
100.467003
 20
5.382857
 30
0.0
  0
VERTEX
  5
193
100
AcDbEntity
  8
0
390
0
 62
     7
100
AcDbVertex
100
AcDb2dVertex
 10
100.475107
 20
5.363811
 30
0.0
  0
VERTEX
  5
194
100
AcDbEntity
  8
0
390
0
 62
     7
100
AcDbVertex
100
AcDb2dVertex
 10
100.482394
 20
5.344476
 30
0.0
  0
VERTEX
  5
195
100
AcDbEntity
  8
0
390
0
 62
     7
100
AcDbVertex
100
AcDb2dVertex
 10
100.488853
 20
5.324912
 30
0.0
  0
VERTEX
  5
196
100
AcDbEntity
  8
0
390
0
 62
     7
100
AcDbVertex
100
AcDb2dVertex
 10
100.494473
 20
5.305177
 30
0.0
  0
VERTEX
  5
197
100
AcDbEntity
  8
0
390
0
 62
     7
100
AcDbVertex
100
AcDb2dVertex
 10
100.499403
 20
5.284631
 30
0.0
  0
VERTEX
  5
198
100
AcDbEntity
  8
0
390
0
 62
     7
100
AcDbVertex
100
AcDb2dVertex
 10
100.503456
 20
5.263907
 30
0.0
  0
VERTEX
  5
199
100
AcDbEntity
  8
0
390
0
 62
     7
100
AcDbVertex
100
AcDb2dVertex
 10
100.506631
 20
5.243034
 30
0.0
  0
VERTEX
  5
19A
100
AcDbEntity
  8
0
390
0
 62
     7
100
AcDbVertex
100
AcDb2dVertex
 10
100.508928
 20
5.22204
 30
0.0
  0
VERTEX
  5
19B
100
AcDbEntity
  8
0
390
0
 62
     7
100
AcDbVertex
100
AcDb2dVertex
 10
100.51042
 20
5.199292
 30
0.0
  0
VERTEX
  5
19C
100
AcDbEntity
  8
0
390
0
 62
     7
100
AcDbVertex
100
AcDb2dVertex
 10
100.510886
 20
5.176409
 30
0.0
  0
SEQEND
  5
19D
100
AcDbEntity
  8
0
390
0
  0
LINE
  5
19E
100
AcDbEntity
  8
0
390
0
  6
Continuous
 62
     7
100
AcDbLine
 10
100.510859
 20
4.979431
 30
0.0
 11
100.510859
 21
-4.979431
 31
0.0
  0
LINE
  5
19F
100
AcDbEntity
  8
0
390
0
  6
Continuous
 62
     7
100
AcDbLine
 10
81.934762
 20
5.548522
 30
0.0
 11
81.829394
 21
5.609356
 31
0.0
  0
ELLIPSE
  5
1A0
100
AcDbEntity
  8
0
390
0
  6
Continuous
 62
     7
100
AcDbEllipse
 10
82.184876
 20
5.115487
 30
0.0
 11
-0.4331006462970355
 21
0.2500507747257852
 31
0.0
210
0.0
220
0.0
230
1.0
 40
0.999797
 41
5.7596744625918594
 42
6.8066961517673095
  0
LINE
  5
1A1
100
AcDbEntity
  8
0
390
0
  6
Continuous
 62
     7
100
AcDbLine
 10
81.579432
 20
5.176409
 30
0.0
 11
81.6848
 21
5.115575
 31
0.0
  0
LINE
  5
1A2
100
AcDbEntity
  8
0
390
0
  6
Continuous
 62
     7
100
AcDbLine
 10
81.6848
 20
-5.115575
 30
0.0
 11
81.579432
 21
-5.176409
 31
0.0
  0
ELLIPSE
  5
1A3
100
AcDbEntity
  8
0
390
0
  6
Continuous
 62
     7
100
AcDbEllipse
 10
82.184876
 20
-5.115487
 30
0.0
 11
-0.4331006462970355
 21
-0.2500507747257852
 31
0.0
210
0.0
220
0.0
230
1.0
 40
0.999797
 41
5.7596744625918621
 42
6.8066961517673121
  0
LINE
  5
1A4
100
AcDbEntity
  8
0
390
0
  6
Continuous
 62
     7
100
AcDbLine
 10
81.829394
 20
-5.609356
 30
0.0
 11
81.934762
 21
-5.548522
 31
0.0
  0
LINE
  5
1A5
100
AcDbEntity
  8
0
390
0
  6
Continuous
 62
     7
100
AcDbLine
 10
90.795198
 20
-10.664097
 30
0.0
 11
90.795198
 21
-10.785764
 31
0.0
  0
ELLIPSE
  5
1A6
100
AcDbEntity
  8
0
390
0
  6
Continuous
 62
     7
100
AcDbEllipse
 10
91.045159
 20
-10.230974
 30
0.0
 11
0.0
 21
-0.5001015494515981
 31
0.0
210
0.0
220
0.0
230
1.0
 40
0.999797
 41
5.7596744625918648
 42
6.8066961517673095
  0
LINE
  5
1A7
100
AcDbEntity
  8
0
390
0
  6
Continuous
 62
     7
100
AcDbLine
 10
91.295121
 20
-10.785764
 30
0.0
 11
91.295121
 21
-10.664097
 31
0.0
  0
LINE
  5
1A8
100
AcDbEntity
  8
0
390
0
  6
Continuous
 62
     7
100
AcDbLine
 10
100.405519
 20
5.115575
 30
0.0
 11
100.510886
 21
5.176409
 31
0.0
  0
ELLIPSE
  5
1A9
100
AcDbEntity
  8
0
390
0
  6
Continuous
 62
     7
100
AcDbEllipse
 10
99.905443
 20
5.115487
 30
0.0
 11
0.4331006462970355
 21
0.2500507747257852
 31
0.0
210
0.0
220
0.0
230
1.0
 40
0.999797
 41
5.7596744625918612
 42
6.8066961517673121
  0
LINE
  5
1AA
100
AcDbEntity
  8
0
390
0
  6
Continuous
 62
     7
100
AcDbLine
 10
100.260924
 20
5.609356
 30
0.0
 11
100.155557
 21
5.548522
 31
0.0
  0
LINE
  5
1AB
100
AcDbEntity
  8
0
390
0
  6
Continuous
 62
     7
100
AcDbLine
 10
100.155557
 20
-5.548522
 30
0.0
 11
100.260924
 21
-5.609356
 31
0.0
  0
ELLIPSE
  5
1AC
100
AcDbEntity
  8
0
390
0
  6
Continuous
 62
     7
100
AcDbEllipse
 10
99.905443
 20
-5.115487
 30
0.0
 11
0.4331006462970355
 21
-0.2500507747257852
 31
0.0
210
0.0
220
0.0
230
1.0
 40
0.999797
 41
5.7596744625918594
 42
6.8066961517673139
  0
LINE
  5
1AD
100
AcDbEntity
  8
0
390
0
  6
Continuous
 62
     7
100
AcDbLine
 10
100.510886
 20
-5.176409
 30
0.0
 11
100.405519
 21
-5.115575
 31
0.0
  0
LINE
  5
1AE
100
AcDbEntity
  8
0
390
0
  6
Continuous
 62
     7
100
AcDbLine
 10
91.295121
 20
10.664097
 30
0.0
 11
91.295121
 21
10.785764
 31
0.0
  0
ELLIPSE
  5
1AF
100
AcDbEntity
  8
0
390
0
  6
Continuous
 62
     7
100
AcDbEllipse
 10
91.045159
 20
10.230974
 30
0.0
 11
0.0
 21
0.5001015494515981
 31
0.0
210
0.0
220
0.0
230
1.0
 40
0.999797
 41
5.7596744625918612
 42
6.8066961517673148
  0
LINE
  5
1B0
100
AcDbEntity
  8
0
390
0
  6
Continuous
 62
     7
100
AcDbLine
 10
90.795198
 20
10.785764
 30
0.0
 11
90.795198
 21
10.664097
 31
0.0
  0
LINE
  5
1B1
100
AcDbEntity
  8
0
390
0
  6
Continuous
 62
     7
100
AcDbLine
 10
81.6848
 20
-5.115575
 30
0.0
 11
81.6848
 21
5.115575
 31
0.0
  0
LINE
  5
1B2
100
AcDbEntity
  8
0
390
0
  6
Continuous
 62
     7
100
AcDbLine
 10
81.934762
 20
5.548522
 30
0.0
 11
90.795198
 21
10.664097
 31
0.0
  0
LINE
  5
1B3
100
AcDbEntity
  8
0
390
0
  6
Continuous
 62
     7
100
AcDbLine
 10
90.795198
 20
-10.664097
 30
0.0
 11
81.934762
 21
-5.548522
 31
0.0
  0
LINE
  5
1B4
100
AcDbEntity
  8
0
390
0
  6
Continuous
 62
     7
100
AcDbLine
 10
91.295121
 20
10.664097
 30
0.0
 11
100.155557
 21
5.548522
 31
0.0
  0
LINE
  5
1B5
100
AcDbEntity
  8
0
390
0
  6
Continuous
 62
     7
100
AcDbLine
 10
100.155557
 20
-5.548522
 30
0.0
 11
91.295121
 21
-10.664097
 31
0.0
  0
LINE
  5
1B6
100
AcDbEntity
  8
0
390
0
  6
Continuous
 62
     7
100
AcDbLine
 10
100.405519
 20
5.115575
 30
0.0
 11
100.405519
 21
-5.115575
 31
0.0
  0
ARC
  5
1B7
100
AcDbEntity
  8
0
390
0
  6
Continuous
 62
     7
100
AcDbCircle
 10
-82.065811
 20
-5.185118
 30
0.0
 40
2.378889
210
0.0
220
0.0
230
1.0
100
AcDbArc
 50
300.266831
 51
359.733169
  0
LINE
  5
1B8
100
AcDbEntity
  8
0
390
0
  6
Continuous
 62
     7
100
AcDbLine
 10
-80.866785
 20
-7.239734
 30
0.0
 11
-81.866633
 21
-5.507947
 31
0.0
  0
LINE
  5
1B9
100
AcDbEntity
  8
0
390
0
  6
Continuous
 62
     7
100
AcDbLine
 10
-81.866633
 20
-5.507947
 30
0.0
 11
-81.686643
 21
-5.196196
 31
0.0
  0
LINE
  5
1BA
100
AcDbEntity
  8
0
390
0
  6
Continuous
 62
     7
100
AcDbLine
 10
-79.686948
 20
-5.196196
 30
0.0
 11
-81.686643
 21
-5.196196
 31
0.0
  0
LINE
  5
1BB
100
AcDbEntity
  8
0
390
0
  6
Continuous
 62
     7
100
AcDbLine
 10
-81.686643
 20
5.196196
 30
0.0
 11
-81.866633
 21
5.507947
 31
0.0
  0
LINE
  5
1BC
100
AcDbEntity
  8
0
390
0
  6
Continuous
 62
     7
100
AcDbLine
 10
-81.866633
 20
5.507947
 30
0.0
 11
-80.866785
 21
7.239734
 31
0.0
  0
ARC
  5
1BD
100
AcDbEntity
  8
0
390
0
  6
Continuous
 62
     7
100
AcDbCircle
 10
-82.065811
 20
5.185118
 30
0.0
 40
2.378889
210
0.0
220
0.0
230
1.0
100
AcDbArc
 50
0.266831
 51
59.733169
  0
LINE
  5
1BE
100
AcDbEntity
  8
0
390
0
  6
Continuous
 62
     7
100
AcDbLine
 10
-81.686643
 20
5.196196
 30
0.0
 11
-79.686948
 21
5.196196
 31
0.0
  0
LINE
  5
1BF
100
AcDbEntity
  8
0
390
0
  6
Continuous
 62
     7
100
AcDbLine
 10
-80.866785
 20
-7.239734
 30
0.0
 11
-89.866861
 21
-12.43593
 31
0.0
  0
LINE
  5
1C0
100
AcDbEntity
  8
0
390
0
  6
Continuous
 62
     7
100
AcDbLine
 10
-89.866861
 20
-12.43593
 30
0.0
 11
-90.866709
 21
-10.704143
 31
0.0
  0
LINE
  5
1C1
100
AcDbEntity
  8
0
390
0
  6
Continuous
 62
     7
100
AcDbLine
 10
-90.866709
 20
-10.704143
 30
0.0
 11
-81.866633
 21
-5.507947
 31
0.0
  0
LINE
  5
1C2
100
AcDbEntity
  8
0
390
0
  6
Continuous
 62
     7
100
AcDbLine
 10
-81.866633
 20
5.507947
 30
0.0
 11
-90.866709
 21
10.704143
 31
0.0
  0
LINE
  5
1C3
100
AcDbEntity
  8
0
390
0
  6
Continuous
 62
     7
100
AcDbLine
 10
-90.866709
 20
10.704143
 30
0.0
 11
-89.866861
 21
12.43593
 31
0.0
  0
LINE
  5
1C4
100
AcDbEntity
  8
0
390
0
  6
Continuous
 62
     7
100
AcDbLine
 10
-89.866861
 20
12.43593
 30
0.0
 11
-80.866785
 21
7.239734
 31
0.0
  0
ARC
  5
1C5
100
AcDbEntity
  8
0
390
0
  6
Continuous
 62
     7
100
AcDbCircle
 10
-91.046698
 20
-10.370893
 30
0.0
 40
2.378318
210
0.0
220
0.0
230
1.0
100
AcDbArc
 50
240.258979
 51
299.741021
  0
LINE
  5
1C6
100
AcDbEntity
  8
0
390
0
  6
Continuous
 62
     7
100
AcDbLine
 10
-92.226535
 20
-12.43593
 30
0.0
 11
-91.226688
 21
-10.704143
 31
0.0
  0
LINE
  5
1C7
100
AcDbEntity
  8
0
390
0
  6
Continuous
 62
     7
100
AcDbLine
 10
-91.226688
 20
-10.704143
 30
0.0
 11
-90.866709
 21
-10.704143
 31
0.0
  0
LINE
  5
1C8
100
AcDbEntity
  8
0
390
0
  6
Continuous
 62
     7
100
AcDbLine
 10
-90.866709
 20
10.704143
 30
0.0
 11
-91.226688
 21
10.704143
 31
0.0
  0
LINE
  5
1C9
100
AcDbEntity
  8
0
390
0
  6
Continuous
 62
     7
100
AcDbLine
 10
-91.226688
 20
10.704143
 30
0.0
 11
-92.226535
 21
12.43593
 31
0.0
  0
ARC
  5
1CA
100
AcDbEntity
  8
0
390
0
  6
Continuous
 62
     7
100
AcDbCircle
 10
-91.046698
 20
10.370893
 30
0.0
 40
2.378318
210
0.0
220
0.0
230
1.0
100
AcDbArc
 50
60.258979
 51
119.741021
  0
LINE
  5
1CB
100
AcDbEntity
  8
0
390
0
  6
Continuous
 62
     7
100
AcDbLine
 10
-92.226535
 20
-12.43593
 30
0.0
 11
-101.226611
 21
-7.239734
 31
0.0
  0
LINE
  5
1CC
100
AcDbEntity
  8
0
390
0
  6
Continuous
 62
     7
100
AcDbLine
 10
-101.226611
 20
-7.239734
 30
0.0
 11
-100.226764
 21
-5.507947
 31
0.0
  0
LINE
  5
1CD
100
AcDbEntity
  8
0
390
0
  6
Continuous
 62
     7
100
AcDbLine
 10
-100.226764
 20
-5.507947
 30
0.0
 11
-91.226688
 21
-10.704143
 31
0.0
  0
LINE
  5
1CE
100
AcDbEntity
  8
0
390
0
  6
Continuous
 62
     7
100
AcDbLine
 10
-91.226688
 20
10.704143
 30
0.0
 11
-100.226764
 21
5.507947
 31
0.0
  0
LINE
  5
1CF
100
AcDbEntity
  8
0
390
0
  6
Continuous
 62
     7
100
AcDbLine
 10
-100.226764
 20
5.507947
 30
0.0
 11
-101.226611
 21
7.239734
 31
0.0
  0
LINE
  5
1D0
100
AcDbEntity
  8
0
390
0
  6
Continuous
 62
     7
100
AcDbLine
 10
-101.226611
 20
7.239734
 30
0.0
 11
-92.226535
 21
12.43593
 31
0.0
  0
ARC
  5
1D1
100
AcDbEntity
  8
0
390
0
  6
Continuous
 62
     7
100
AcDbCircle
 10
-100.027586
 20
-5.185118
 30
0.0
 40
2.378889
210
0.0
220
0.0
230
1.0
100
AcDbArc
 50
180.266831
 51
239.733169
  0
LINE
  5
1D2
100
AcDbEntity
  8
0
390
0
  6
Continuous
 62
     7
100
AcDbLine
 10
-102.406448
 20
-5.196196
 30
0.0
 11
-100.406753
 21
-5.196196
 31
0.0
  0
LINE
  5
1D3
100
AcDbEntity
  8
0
390
0
  6
Continuous
 62
     7
100
AcDbLine
 10
-100.406753
 20
-5.196196
 30
0.0
 11
-100.226764
 21
-5.507947
 31
0.0
  0
LINE
  5
1D4
100
AcDbEntity
  8
0
390
0
  6
Continuous
 62
     7
100
AcDbLine
 10
-100.226764
 20
5.507947
 30
0.0
 11
-100.406753
 21
5.196196
 31
0.0
  0
LINE
  5
1D5
100
AcDbEntity
  8
0
390
0
  6
Continuous
 62
     7
100
AcDbLine
 10
-100.406753
 20
5.196196
 30
0.0
 11
-102.406448
 21
5.196196
 31
0.0
  0
ARC
  5
1D6
100
AcDbEntity
  8
0
390
0
  6
Continuous
 62
     7
100
AcDbCircle
 10
-100.027586
 20
5.185118
 30
0.0
 40
2.378889
210
0.0
220
0.0
230
1.0
100
AcDbArc
 50
120.266831
 51
179.733169
  0
LINE
  5
1D7
100
AcDbEntity
  8
0
390
0
  6
Continuous
 62
     7
100
AcDbLine
 10
-102.406448
 20
-5.196196
 30
0.0
 11
-102.406448
 21
5.196196
 31
0.0
  0
LINE
  5
1D8
100
AcDbEntity
  8
0
390
0
  6
Continuous
 62
     7
100
AcDbLine
 10
-100.406753
 20
5.196196
 30
0.0
 11
-100.406753
 21
-5.196196
 31
0.0
  0
LINE
  5
1D9
100
AcDbEntity
  8
0
390
0
  6
Continuous
 62
     7
100
AcDbLine
 10
-79.686948
 20
5.196196
 30
0.0
 11
-79.686948
 21
-5.196196
 31
0.0
  0
LINE
  5
1DA
100
AcDbEntity
  8
0
390
0
  6
Continuous
 62
     7
100
AcDbLine
 10
-81.686643
 20
-5.196196
 30
0.0
 11
-81.686643
 21
5.196196
 31
0.0
  0
ARC
  5
1DB
100
AcDbEntity
  8
0
390
0
  6
Continuous
 62
     7
100
AcDbCircle
 10
-91.046698
 20
10.382858
 30
0.0
 40
2.449801
210
0.0
220
0.0
230
1.0
100
AcDbArc
 50
70.860602
 51
109.139398
  0
LINE
  5
1DC
100
AcDbEntity
  8
0
390
0
  6
Continuous
 62
     7
100
AcDbLine
 10
-90.127989
 20
12.653488
 30
0.0
 11
-90.243488
 21
12.697243
 31
0.0
  0
LINE
  5
1DD
100
AcDbEntity
  8
0
390
0
  6
Continuous
 62
     7
100
AcDbLine
 10
-89.827099
 20
12.504801
 30
0.0
 11
-90.127989
 21
12.653488
 31
0.0
  0
LINE
  5
1DE
100
AcDbEntity
  8
0
390
0
  6
Continuous
 62
     7
100
AcDbLine
 10
-89.866861
 20
12.43593
 30
0.0
 11
-89.827099
 21
12.504801
 31
0.0
  0
LINE
  5
1DF
100
AcDbEntity
  8
0
390
0
  6
Continuous
 62
     7
100
AcDbLine
 10
-92.226535
 20
12.43593
 30
0.0
 11
-92.266298
 21
12.504801
 31
0.0
  0
LINE
  5
1E0
100
AcDbEntity
  8
0
390
0
  6
Continuous
 62
     7
100
AcDbLine
 10
-91.965408
 20
12.653488
 30
0.0
 11
-92.266298
 21
12.504801
 31
0.0
  0
LINE
  5
1E1
100
AcDbEntity
  8
0
390
0
  6
Continuous
 62
     7
100
AcDbLine
 10
-91.849909
 20
12.697243
 30
0.0
 11
-91.965408
 21
12.653488
 31
0.0
  0
ARC
  5
1E2
100
AcDbEntity
  8
0
390
0
  6
Continuous
 62
     7
100
AcDbCircle
 10
-82.054903
 20
5.191415
 30
0.0
 40
2.449827
210
0.0
220
0.0
230
1.0
100
AcDbArc
 50
10.86081
 51
49.13919
  0
LINE
  5
1E3
100
AcDbEntity
  8
0
390
0
  6
Continuous
 62
     7
100
AcDbLine
 10
-79.629101
 20
5.531118
 30
0.0
 11
-79.648958
 21
5.653021
 31
0.0
  0
LINE
  5
1E4
100
AcDbEntity
  8
0
390
0
  6
Continuous
 62
     7
100
AcDbLine
 10
-79.607423
 20
5.196196
 30
0.0
 11
-79.629101
 21
5.531118
 31
0.0
  0
LINE
  5
1E5
100
AcDbEntity
  8
0
390
0
  6
Continuous
 62
     7
100
AcDbLine
 10
-79.686948
 20
5.196196
 30
0.0
 11
-79.607423
 21
5.196196
 31
0.0
  0
LINE
  5
1E6
100
AcDbEntity
  8
0
390
0
  6
Continuous
 62
     7
100
AcDbLine
 10
-80.866785
 20
7.239734
 30
0.0
 11
-80.827023
 21
7.308605
 31
0.0
  0
LINE
  5
1E7
100
AcDbEntity
  8
0
390
0
  6
Continuous
 62
     7
100
AcDbLine
 10
-80.547811
 20
7.12237
 30
0.0
 11
-80.827023
 21
7.308605
 31
0.0
  0
LINE
  5
1E8
100
AcDbEntity
  8
0
390
0
  6
Continuous
 62
     7
100
AcDbLine
 10
-80.452168
 20
7.044222
 30
0.0
 11
-80.547811
 21
7.12237
 31
0.0
  0
ARC
  5
1E9
100
AcDbEntity
  8
0
390
0
  6
Continuous
 62
     7
100
AcDbCircle
 10
-100.038493
 20
5.191415
 30
0.0
 40
2.449827
210
0.0
220
0.0
230
1.0
100
AcDbArc
 50
130.86081
 51
169.13919
  0
LINE
  5
1EA
100
AcDbEntity
  8
0
390
0
  6
Continuous
 62
     7
100
AcDbLine
 10
-101.545585
 20
7.12237
 30
0.0
 11
-101.641228
 21
7.044222
 31
0.0
  0
LINE
  5
1EB
100
AcDbEntity
  8
0
390
0
  6
Continuous
 62
     7
100
AcDbLine
 10
-101.266374
 20
7.308605
 30
0.0
 11
-101.545585
 21
7.12237
 31
0.0
  0
LINE
  5
1EC
100
AcDbEntity
  8
0
390
0
  6
Continuous
 62
     7
100
AcDbLine
 10
-101.226611
 20
7.239734
 30
0.0
 11
-101.266374
 21
7.308605
 31
0.0
  0
LINE
  5
1ED
100
AcDbEntity
  8
0
390
0
  6
Continuous
 62
     7
100
AcDbLine
 10
-102.406448
 20
5.196196
 30
0.0
 11
-102.485974
 21
5.196196
 31
0.0
  0
LINE
  5
1EE
100
AcDbEntity
  8
0
390
0
  6
Continuous
 62
     7
100
AcDbLine
 10
-102.464295
 20
5.531118
 30
0.0
 11
-102.485974
 21
5.196196
 31
0.0
  0
LINE
  5
1EF
100
AcDbEntity
  8
0
390
0
  6
Continuous
 62
     7
100
AcDbLine
 10
-102.444439
 20
5.653021
 30
0.0
 11
-102.464295
 21
5.531118
 31
0.0
  0
ARC
  5
1F0
100
AcDbEntity
  8
0
390
0
  6
Continuous
 62
     7
100
AcDbCircle
 10
-82.054903
 20
-5.191415
 30
0.0
 40
2.449827
210
0.0
220
0.0
230
1.0
100
AcDbArc
 50
310.86081
 51
349.13919
  0
LINE
  5
1F1
100
AcDbEntity
  8
0
390
0
  6
Continuous
 62
     7
100
AcDbLine
 10
-80.547811
 20
-7.12237
 30
0.0
 11
-80.452168
 21
-7.044222
 31
0.0
  0
LINE
  5
1F2
100
AcDbEntity
  8
0
390
0
  6
Continuous
 62
     7
100
AcDbLine
 10
-80.827023
 20
-7.308605
 30
0.0
 11
-80.547811
 21
-7.12237
 31
0.0
  0
LINE
  5
1F3
100
AcDbEntity
  8
0
390
0
  6
Continuous
 62
     7
100
AcDbLine
 10
-80.866785
 20
-7.239734
 30
0.0
 11
-80.827023
 21
-7.308605
 31
0.0
  0
LINE
  5
1F4
100
AcDbEntity
  8
0
390
0
  6
Continuous
 62
     7
100
AcDbLine
 10
-79.686948
 20
-5.196196
 30
0.0
 11
-79.607423
 21
-5.196196
 31
0.0
  0
LINE
  5
1F5
100
AcDbEntity
  8
0
390
0
  6
Continuous
 62
     7
100
AcDbLine
 10
-79.629101
 20
-5.531118
 30
0.0
 11
-79.607423
 21
-5.196196
 31
0.0
  0
LINE
  5
1F6
100
AcDbEntity
  8
0
390
0
  6
Continuous
 62
     7
100
AcDbLine
 10
-79.648958
 20
-5.653021
 30
0.0
 11
-79.629101
 21
-5.531118
 31
0.0
  0
ARC
  5
1F7
100
AcDbEntity
  8
0
390
0
  6
Continuous
 62
     7
100
AcDbCircle
 10
-100.038493
 20
-5.191415
 30
0.0
 40
2.449827
210
0.0
220
0.0
230
1.0
100
AcDbArc
 50
190.86081
 51
229.13919
  0
LINE
  5
1F8
100
AcDbEntity
  8
0
390
0
  6
Continuous
 62
     7
100
AcDbLine
 10
-102.464295
 20
-5.531118
 30
0.0
 11
-102.444439
 21
-5.653021
 31
0.0
  0
LINE
  5
1F9
100
AcDbEntity
  8
0
390
0
  6
Continuous
 62
     7
100
AcDbLine
 10
-102.485974
 20
-5.196196
 30
0.0
 11
-102.464295
 21
-5.531118
 31
0.0
  0
LINE
  5
1FA
100
AcDbEntity
  8
0
390
0
  6
Continuous
 62
     7
100
AcDbLine
 10
-102.406448
 20
-5.196196
 30
0.0
 11
-102.485974
 21
-5.196196
 31
0.0
  0
LINE
  5
1FB
100
AcDbEntity
  8
0
390
0
  6
Continuous
 62
     7
100
AcDbLine
 10
-101.226611
 20
-7.239734
 30
0.0
 11
-101.266374
 21
-7.308605
 31
0.0
  0
LINE
  5
1FC
100
AcDbEntity
  8
0
390
0
  6
Continuous
 62
     7
100
AcDbLine
 10
-101.545585
 20
-7.12237
 30
0.0
 11
-101.266374
 21
-7.308605
 31
0.0
  0
LINE
  5
1FD
100
AcDbEntity
  8
0
390
0
  6
Continuous
 62
     7
100
AcDbLine
 10
-101.641228
 20
-7.044222
 30
0.0
 11
-101.545585
 21
-7.12237
 31
0.0
  0
ARC
  5
1FE
100
AcDbEntity
  8
0
390
0
  6
Continuous
 62
     7
100
AcDbCircle
 10
-91.046698
 20
-10.382858
 30
0.0
 40
2.449801
210
0.0
220
0.0
230
1.0
100
AcDbArc
 50
250.860602
 51
289.139398
  0
LINE
  5
1FF
100
AcDbEntity
  8
0
390
0
  6
Continuous
 62
     7
100
AcDbLine
 10
-91.965408
 20
-12.653488
 30
0.0
 11
-91.849909
 21
-12.697243
 31
0.0
  0
LINE
  5
200
100
AcDbEntity
  8
0
390
0
  6
Continuous
 62
     7
100
AcDbLine
 10
-92.266298
 20
-12.504801
 30
0.0
 11
-91.965408
 21
-12.653488
 31
0.0
  0
LINE
  5
201
100
AcDbEntity
  8
0
390
0
  6
Continuous
 62
     7
100
AcDbLine
 10
-92.226535
 20
-12.43593
 30
0.0
 11
-92.266298
 21
-12.504801
 31
0.0
  0
LINE
  5
202
100
AcDbEntity
  8
0
390
0
  6
Continuous
 62
     7
100
AcDbLine
 10
-89.866861
 20
-12.43593
 30
0.0
 11
-89.827099
 21
-12.504801
 31
0.0
  0
LINE
  5
203
100
AcDbEntity
  8
0
390
0
  6
Continuous
 62
     7
100
AcDbLine
 10
-90.127989
 20
-12.653488
 30
0.0
 11
-89.827099
 21
-12.504801
 31
0.0
  0
LINE
  5
204
100
AcDbEntity
  8
0
390
0
  6
Continuous
 62
     7
100
AcDbLine
 10
-90.243488
 20
-12.697243
 30
0.0
 11
-90.127989
 21
-12.653488
 31
0.0
  0
LINE
  5
205
100
AcDbEntity
  8
0
390
0
  6
Continuous
 62
     7
100
AcDbLine
 10
-92.266298
 20
12.504801
 30
0.0
 11
-101.266374
 21
7.308605
 31
0.0
  0
LINE
  5
206
100
AcDbEntity
  8
0
390
0
  6
Continuous
 62
     7
100
AcDbLine
 10
-89.827099
 20
-12.504801
 30
0.0
 11
-80.827023
 21
-7.308605
 31
0.0
  0
LINE
  5
207
100
AcDbEntity
  8
0
390
0
  6
Continuous
 62
     7
100
AcDbLine
 10
-80.827023
 20
7.308605
 30
0.0
 11
-89.827099
 21
12.504801
 31
0.0
  0
LINE
  5
208
100
AcDbEntity
  8
0
390
0
  6
Continuous
 62
     7
100
AcDbLine
 10
-101.266374
 20
-7.308605
 30
0.0
 11
-92.266298
 21
-12.504801
 31
0.0
  0
LINE
  5
209
100
AcDbEntity
  8
0
390
0
  6
Continuous
 62
     7
100
AcDbLine
 10
-102.485974
 20
5.196196
 30
0.0
 11
-102.485974
 21
-5.196196
 31
0.0
  0
LINE
  5
20A
100
AcDbEntity
  8
0
390
0
  6
Continuous
 62
     7
100
AcDbLine
 10
-79.607423
 20
-5.196196
 30
0.0
 11
-79.607423
 21
5.196196
 31
0.0
  0
ARC
  5
20B
100
AcDbEntity
  8
0
390
0
  6
Continuous
 62
     7
100
AcDbCircle
 10
-98.778949
 20
-13.392651
 30
0.0
 40
28.42916
210
0.0
220
0.0
230
1.0
100
AcDbArc
 50
50.174137
 51
69.825863
  0
ELLIPSE
  5
20C
100
AcDbEntity
  8
0
390
0
  6
Continuous
 62
     7
100
AcDbEllipse
 10
-79.827175
 20
9.040392
 30
0.0
 11
-0.9940105191217213
 21
-1.7354950555606152
 31
0.0
210
0.0
220
0.0
230
1.0
 40
0.194147
 41
5.1736442858212772
 42
6.2653934438366958
  0
ELLIPSE
  5
20D
100
AcDbEntity
  8
0
390
0
  6
Continuous
 62
     7
100
AcDbEllipse
 10
-88.827251
 20
14.236588
 30
0.0
 11
-1.0059775466960685
 21
-1.7285858889691808
 31
0.0
210
0.0
220
0.0
230
1.0
 40
0.194147
 41
0.0177918647066672
 42
1.1095410213944188
  0
ELLIPSE
  5
20E
100
AcDbEntity
  8
0
390
0
  6
Continuous
 62
     7
100
AcDbEllipse
 10
-93.266145
 20
-14.236588
 30
0.0
 11
-1.0059775471715493
 21
-1.7285858886924854
 31
0.0
210
0.0
220
0.0
230
1.0
 40
0.194147
 41
3.1593845183492251
 42
4.2511336750375843
  0
ARC
  5
20F
100
AcDbEntity
  8
0
390
0
  6
Continuous
 62
     7
100
AcDbCircle
 10
-83.314447
 20
13.392651
 30
0.0
 40
28.42916
210
0.0
220
0.0
230
1.0
100
AcDbArc
 50
230.174137
 51
249.825863
  0
ELLIPSE
  5
210
100
AcDbEntity
  8
0
390
0
  6
Continuous
 62
     7
100
AcDbEllipse
 10
-102.266222
 20
-9.040392
 30
0.0
 11
-0.9940105312866016
 21
-1.7354950485931608
 31
0.0
210
0.0
220
0.0
230
1.0
 40
0.194147
 41
2.032051633557082
 42
3.123800791501965
  0
ARC
  5
211
100
AcDbEntity
  8
0
390
0
  6
Continuous
 62
     7
100
AcDbCircle
 10
-106.5112
 20
0.0
 30
0.0
 40
28.42916
210
0.0
220
0.0
230
1.0
100
AcDbArc
 50
350.174137
 51
9.825863
  0
ELLIPSE
  5
212
100
AcDbEntity
  8
0
390
0
  6
Continuous
 62
     7
100
AcDbEllipse
 10
-77.607728
 20
-5.196196
 30
0.0
 11
-1.9999880658186502
 21
-0.0069091665919341
 31
0.0
210
0.0
220
0.0
230
0.9999999999999999
 40
0.194147
 41
5.1736442858212595
 42
6.2653934438367038
  0
ELLIPSE
  5
213
100
AcDbEntity
  8
0
390
0
  6
Continuous
 62
     7
100
AcDbEllipse
 10
-77.607728
 20
5.196196
 30
0.0
 11
-1.9999880658186364
 21
0.0069091665909349
 31
0.0
210
0.0
220
0.0
230
0.9999999999999999
 40
0.194147
 41
0.0177918647063904
 42
1.1095410213944279
  0
ARC
  5
214
100
AcDbEntity
  8
0
390
0
  6
Continuous
 62
     7
100
AcDbCircle
 10
-83.314447
 20
-13.392651
 30
0.0
 40
28.42916
210
0.0
220
0.0
230
1.0
100
AcDbArc
 50
110.174137
 51
129.825863
  0
ELLIPSE
  5
215
100
AcDbEntity
  8
0
390
0
  6
Continuous
 62
     7
100
AcDbEllipse
 10
-93.266145
 20
14.236588
 30
0.0
 11
1.0059775466969012
 21
-1.7285858889686812
 31
0.0
210
0.0
220
0.0
230
1.0
 40
0.194147
 41
5.1736442858212683
 42
6.2653934438366718
  0
ELLIPSE
  5
216
100
AcDbEntity
  8
0
390
0
  6
Continuous
 62
     7
100
AcDbEllipse
 10
-102.266222
 20
9.040392
 30
0.0
 11
-0.9940105186452691
 21
1.735495055833508
 31
0.0
210
0.0
220
0.0
230
1.0
 40
0.194147
 41
3.1593845183490861
 42
4.2511336750375888
  0
ELLIPSE
  5
217
100
AcDbEntity
  8
0
390
0
  6
Continuous
 62
     7
100
AcDbEllipse
 10
-104.485669
 20
-5.196196
 30
0.0
 11
-1.999988065816749
 21
0.0069091671411337
 31
0.0
210
0.0
220
0.0
230
0.9999999999999999
 40
0.194147
 41
3.1593845183494111
 42
4.2511336750376003
  0
ARC
  5
218
100
AcDbEntity
  8
0
390
0
  6
Continuous
 62
     7
100
AcDbCircle
 10
-75.582197
 20
0.0
 30
0.0
 40
28.42916
210
0.0
220
0.0
230
1.0
100
AcDbArc
 50
170.174137
 51
189.825863
  0
ELLIPSE
  5
219
100
AcDbEntity
  8
0
390
0
  6
Continuous
 62
     7
100
AcDbEllipse
 10
-104.485669
 20
5.196196
 30
0.0
 11
-1.9999880658670977
 21
-0.0069091525661535
 31
0.0
210
0.0
220
0.0
230
0.9999999999999999
 40
0.194147
 41
2.0320516335577414
 42
3.1238007915026484
  0
ARC
  5
21A
100
AcDbEntity
  8
0
390
0
  6
Continuous
 62
     7
100
AcDbCircle
 10
-98.778949
 20
13.392651
 30
0.0
 40
28.42916
210
0.0
220
0.0
230
1.0
100
AcDbArc
 50
290.174137
 51
309.825863
  0
ELLIPSE
  5
21B
100
AcDbEntity
  8
0
390
0
  6
Continuous
 62
     7
100
AcDbEllipse
 10
-88.827251
 20
-14.236588
 30
0.0
 11
1.0059775345796773
 21
-1.7285858960204847
 31
0.0
210
0.0
220
0.0
230
1.0
 40
0.194147
 41
2.0320516335570065
 42
3.1238007915020729
  0
ELLIPSE
  5
21C
100
AcDbEntity
  8
0
390
0
  6
Continuous
 62
     7
100
AcDbEllipse
 10
-79.827175
 20
-9.040392
 30
0.0
 11
-0.994010519122554
 21
1.7354950555601434
 31
0.0
210
0.0
220
0.0
230
1.0
 40
0.194147
 41
0.0177918647056563
 42
1.1095410213946413
  0
LINE
  5
21D
100
AcDbEntity
  8
0
390
0
  6
Continuous
 62
     7
100
AcDbLine
 10
-78.499069
 20
-4.851558
 30
0.0
 11
-78.615383
 21
-5.392361
 31
0.0
  0
ELLIPSE
  5
21E
100
AcDbEntity
  8
0
390
0
  6
Continuous
 62
     7
100
AcDbEllipse
 10
-77.649157
 20
-5.811483
 30
0.0
 11
-1.9810500145491377
 21
0.2746649592773875
 31
0.0
210
0.0
220
0.0
230
1.0
 40
0.163883
 41
5.2444549197807433
 42
6.2654967939575883
  0
LINE
  5
21F
100
AcDbEntity
  8
0
390
0
  6
Continuous
 62
     7
100
AcDbLine
 10
-88.974456
 20
-13.292345
 30
0.0
 11
-89.500962
 21
-13.462015
 31
0.0
  0
ELLIPSE
  5
220
100
AcDbEntity
  8
0
390
0
  6
Continuous
 62
     7
100
AcDbEllipse
 10
-89.380819
 20
-14.508352
 30
0.0
 11
0.752658175012022
 21
-1.8529721184053494
 31
0.0
210
0.0
220
0.0
230
1.0
 40
0.163883
 41
2.102862266191059
 42
3.1239041403677645
  0
LINE
  5
221
100
AcDbEntity
  8
0
390
0
  6
Continuous
 62
     7
100
AcDbLine
 10
-80.571311
 20
8.440787
 30
0.0
 11
-80.161119
 21
8.069655
 31
0.0
  0
ELLIPSE
  5
222
100
AcDbEntity
  8
0
390
0
  6
Continuous
 62
     7
100
AcDbEllipse
 10
-79.315036
 20
8.696869
 30
0.0
 11
-1.2283918395377957
 21
-1.5783071591287112
 31
0.0
210
0.0
220
0.0
230
1.0
 40
0.163883
 41
5.2444549197807575
 42
6.2654967939575492
  0
LINE
  5
223
100
AcDbEntity
  8
0
390
0
  6
Continuous
 62
     7
100
AcDbLine
 10
-93.11894
 20
13.292345
 30
0.0
 11
-92.592435
 21
13.462015
 31
0.0
  0
ELLIPSE
  5
224
100
AcDbEntity
  8
0
390
0
  6
Continuous
 62
     7
100
AcDbEllipse
 10
-92.712577
 20
14.508352
 30
0.0
 11
0.7526581750118555
 21
-1.8529721184054049
 31
0.0
210
0.0
220
0.0
230
1.0
 40
0.163883
 41
5.2444549197808374
 42
6.2654967939575199
  0
LINE
  5
225
100
AcDbEntity
  8
0
390
0
  6
Continuous
 62
     7
100
AcDbLine
 10
-101.522086
 20
-8.440787
 30
0.0
 11
-101.932277
 21
-8.069655
 31
0.0
  0
ELLIPSE
  5
226
100
AcDbEntity
  8
0
390
0
  6
Continuous
 62
     7
100
AcDbEllipse
 10
-102.77836
 20
-8.696869
 30
0.0
 11
-1.2283918395371156
 21
-1.5783071591292663
 31
0.0
210
0.0
220
0.0
230
1.0
 40
0.163883
 41
2.1028622661910807
 42
3.1239041403677712
  0
LINE
  5
227
100
AcDbEntity
  8
0
390
0
  6
Continuous
 62
     7
100
AcDbLine
 10
-103.594328
 20
4.851558
 30
0.0
 11
-103.478014
 21
5.392361
 31
0.0
  0
ELLIPSE
  5
228
100
AcDbEntity
  8
0
390
0
  6
Continuous
 62
     7
100
AcDbEllipse
 10
-104.444239
 20
5.811483
 30
0.0
 11
-1.9810500145491516
 21
0.274664959277332
 31
0.0
210
0.0
220
0.0
230
1.0
 40
0.163883
 41
2.1028622661909644
 42
3.1239041403677112
  0
LINE
  5
229
100
AcDbEntity
  8
0
390
0
  6
Continuous
 62
     7
100
AcDbLine
 10
-80.161119
 20
-8.069655
 30
0.0
 11
-80.571311
 21
-8.440787
 31
0.0
  0
ELLIPSE
  5
22A
100
AcDbEntity
  8
0
390
0
  6
Continuous
 62
     7
100
AcDbEllipse
 10
-79.315036
 20
-8.696869
 30
0.0
 11
-1.2283918395373932
 21
1.5783071591290165
 31
0.0
210
0.0
220
0.0
230
1.0
 40
0.163883
 41
0.0176885132239577
 42
1.0387303873986011
  0
ELLIPSE
  5
22B
100
AcDbEntity
  8
0
390
0
  6
Continuous
 62
     7
100
AcDbEllipse
 10
-102.77836
 20
8.696869
 30
0.0
 11
-1.2283918395373932
 21
1.5783071591290165
 31
0.0
210
0.0
220
0.0
230
1.0
 40
0.163883
 41
3.1592811668118261
 42
4.1803230409885543
  0
LINE
  5
22C
100
AcDbEntity
  8
0
390
0
  6
Continuous
 62
     7
100
AcDbLine
 10
-101.932277
 20
8.069655
 30
0.0
 11
-101.522086
 21
8.440787
 31
0.0
  0
ELLIPSE
  5
22D
100
AcDbEntity
  8
0
390
0
  6
Continuous
 62
     7
100
AcDbEllipse
 10
-92.712577
 20
-14.508352
 30
0.0
 11
-0.7526581750114808
 21
-1.8529721184055714
 31
0.0
210
0.0
220
0.0
230
1.0
 40
0.163883
 41
3.1592811668117995
 42
4.1803230409885899
  0
LINE
  5
22E
100
AcDbEntity
  8
0
390
0
  6
Continuous
 62
     7
100
AcDbLine
 10
-92.592435
 20
-13.462015
 30
0.0
 11
-93.11894
 21
-13.292345
 31
0.0
  0
ELLIPSE
  5
22F
100
AcDbEntity
  8
0
390
0
  6
Continuous
 62
     7
100
AcDbEllipse
 10
-104.444239
 20
-5.811483
 30
0.0
 11
-1.9810500145491794
 21
-0.2746649592770822
 31
0.0
210
0.0
220
0.0
230
1.0
 40
0.163883
 41
3.1592811668118057
 42
4.1803230409885517
  0
LINE
  5
230
100
AcDbEntity
  8
0
390
0
  6
Continuous
 62
     7
100
AcDbLine
 10
-103.478014
 20
-5.392361
 30
0.0
 11
-103.594328
 21
-4.851558
 31
0.0
  0
LINE
  5
231
100
AcDbEntity
  8
0
390
0
  6
Continuous
 62
     7
100
AcDbLine
 10
-78.615383
 20
5.392361
 30
0.0
 11
-78.499069
 21
4.851558
 31
0.0
  0
ELLIPSE
  5
232
100
AcDbEntity
  8
0
390
0
  6
Continuous
 62
     7
100
AcDbEllipse
 10
-77.649157
 20
5.811483
 30
0.0
 11
-1.9810500145491656
 21
-0.2746649592771933
 31
0.0
210
0.0
220
0.0
230
1.0
 40
0.163883
 41
0.0176885132219706
 42
1.0387303873988154
  0
LINE
  5
233
100
AcDbEntity
  8
0
390
0
  6
Continuous
 62
     7
100
AcDbLine
 10
-89.500962
 20
13.462015
 30
0.0
 11
-88.974456
 21
13.292345
 31
0.0
  0
ELLIPSE
  5
234
100
AcDbEntity
  8
0
390
0
  6
Continuous
 62
     7
100
AcDbEllipse
 10
-89.380819
 20
14.508352
 30
0.0
 11
-0.7526581750105787
 21
-1.8529721184059322
 31
0.0
210
0.0
220
0.0
230
1.0
 40
0.163883
 41
0.0176885132219428
 42
1.0387303873988563
  0
ARC
  5
235
100
AcDbEntity
  8
0
390
0
  6
Continuous
 62
     7
100
AcDbCircle
 10
-91.046698
 20
7.772163
 30
0.0
 40
5.891755
210
0.0
220
0.0
230
1.0
100
AcDbArc
 50
77.06632
 51
102.93368
  0
ELLIPSE
  5
236
100
AcDbEntity
  8
0
390
0
  6
Continuous
 62
     7
100
AcDbEllipse
 10
-89.592057
 20
14.587857
 30
0.0
 11
-0.6559142097481846
 21
-1.8893852305578995
 31
0.0
210
0.0
220
0.0
230
0.9999999999999999
 40
0.131786
 41
0.0176000497617116
 42
1.0130056279371089
  0
ELLIPSE
  5
237
100
AcDbEntity
  8
0
390
0
  6
Continuous
 62
     7
100
AcDbEllipse
 10
-92.501339
 20
14.587857
 30
0.0
 11
0.6559142098170739
 21
-1.889385230534002
 31
0.0
210
0.0
220
0.0
230
1.0
 40
0.131786
 41
5.2701796792361089
 42
6.2655852574002671
  0
ELLIPSE
  5
238
100
AcDbEntity
  8
0
390
0
  6
Continuous
 62
     7
100
AcDbEllipse
 10
-104.407474
 20
6.034172
 30
0.0
 11
-1.9642127120837043
 21
0.3766542468747469
 31
0.0
210
0.0
220
0.0
230
1.0
 40
0.131786
 41
2.1285870256463713
 42
3.1239926038112706
  0
ARC
  5
239
100
AcDbEntity
  8
0
390
0
  6
Continuous
 62
     7
100
AcDbCircle
 10
-97.77351
 20
3.883727
 30
0.0
 40
5.896345
210
0.0
220
0.0
230
1.0
100
AcDbArc
 50
137.076563
 51
162.923437
  0
ELLIPSE
  5
23A
100
AcDbEntity
  8
0
390
0
  6
Continuous
 62
     7
100
AcDbEllipse
 10
-102.952833
 20
8.553685
 30
0.0
 11
-1.3082985021188738
 21
1.5127309838016412
 31
0.0
210
0.0
220
0.0
230
1.0
 40
0.131786
 41
3.1591927033685372
 42
4.1545982815429738
  0
ELLIPSE
  5
23B
100
AcDbEntity
  8
0
390
0
  6
Continuous
 62
     7
100
AcDbEllipse
 10
-102.952833
 20
-8.553685
 30
0.0
 11
-1.3082985022783018
 21
-1.5127309836637515
 31
0.0
210
0.0
220
0.0
230
1.0
 40
0.131786
 41
2.1285870256466142
 42
3.1239926038112156
  0
ARC
  5
23C
100
AcDbEntity
  8
0
390
0
  6
Continuous
 62
     7
100
AcDbCircle
 10
-97.777589
 20
-3.886081
 30
0.0
 40
5.891755
210
0.0
220
0.0
230
1.0
100
AcDbArc
 50
197.06632
 51
222.93368
  0
ELLIPSE
  5
23D
100
AcDbEntity
  8
0
390
0
  6
Continuous
 62
     7
100
AcDbEllipse
 10
-104.407474
 20
-6.034172
 30
0.0
 11
-1.9642127121234365
 21
-0.3766542466675515
 31
0.0
210
0.0
220
0.0
230
0.9999999999999999
 40
0.131786
 41
3.1591927033686509
 42
4.1545982815431106
  0
ARC
  5
23E
100
AcDbEntity
  8
0
390
0
  6
Continuous
 62
     7
100
AcDbCircle
 10
-84.315808
 20
-3.886081
 30
0.0
 40
5.891755
210
0.0
220
0.0
230
1.0
100
AcDbArc
 50
317.06632
 51
342.93368
  0
ELLIPSE
  5
23F
100
AcDbEntity
  8
0
390
0
  6
Continuous
 62
     7
100
AcDbEllipse
 10
-79.140564
 20
-8.553685
 30
0.0
 11
-1.3082985023942506
 21
1.5127309835634983
 31
0.0
210
0.0
220
0.0
230
1.0
 40
0.131786
 41
0.0176000497789038
 42
1.0130056279135287
  0
ELLIPSE
  5
240
100
AcDbEntity
  8
0
390
0
  6
Continuous
 62
     7
100
AcDbEllipse
 10
-77.685923
 20
-6.034172
 30
0.0
 11
-1.9642127121035913
 21
0.3766542467710798
 31
0.0
210
0.0
220
0.0
230
1.0
 40
0.131786
 41
5.2701796792139159
 42
6.265585257400029
  0
ARC
  5
241
100
AcDbEntity
  8
0
390
0
  6
Continuous
 62
     7
100
AcDbCircle
 10
-84.315808
 20
3.886081
 30
0.0
 40
5.891755
210
0.0
220
0.0
230
1.0
100
AcDbArc
 50
17.06632
 51
42.93368
  0
ELLIPSE
  5
242
100
AcDbEntity
  8
0
390
0
  6
Continuous
 62
     7
100
AcDbEllipse
 10
-77.685923
 20
6.034172
 30
0.0
 11
-1.9642127120549775
 21
-0.376654247024627
 31
0.0
210
0.0
220
0.0
230
1.0
 40
0.131786
 41
0.0176000497784226
 42
1.0130056279138531
  0
ELLIPSE
  5
243
100
AcDbEntity
  8
0
390
0
  6
Continuous
 62
     7
100
AcDbEllipse
 10
-79.140564
 20
8.553685
 30
0.0
 11
-1.3082985021987543
 21
-1.5127309837325853
 31
0.0
210
0.0
220
0.0
230
1.0
 40
0.131786
 41
5.2701796792140216
 42
6.2655852574000761
  0
ELLIPSE
  5
244
100
AcDbEntity
  8
0
390
0
  6
Continuous
 62
     7
100
AcDbEllipse
 10
-89.592057
 20
-14.587857
 30
0.0
 11
0.6559142098928605
 21
-1.8893852305077175
 31
0.0
210
0.0
220
0.0
230
0.9999999999999999
 40
0.131786
 41
2.1285870256252122
 42
3.1239926038111903
  0
ARC
  5
245
100
AcDbEntity
  8
0
390
0
  6
Continuous
 62
     7
100
AcDbCircle
 10
-91.046698
 20
-7.772163
 30
0.0
 40
5.891755
210
0.0
220
0.0
230
1.0
100
AcDbArc
 50
257.06632
 51
282.93368
  0
ELLIPSE
  5
246
100
AcDbEntity
  8
0
390
0
  6
Continuous
 62
     7
100
AcDbEllipse
 10
-92.501339
 20
-14.587857
 30
0.0
 11
-0.6559142096728698
 21
-1.8893852305840453
 31
0.0
210
0.0
220
0.0
230
1.0
 40
0.131786
 41
3.1591927033690848
 42
4.1545982815043594
  0
LINE
  5
247
100
AcDbEntity
  8
0
390
0
  6
Continuous
 62
     7
100
AcDbLine
 10
-89.727988
 20
13.514443
 30
0.0
 11
-89.500962
 21
13.462015
 31
0.0
  0
LINE
  5
248
100
AcDbEntity
  8
0
390
0
  6
Continuous
 62
     7
100
AcDbLine
 10
-78.615383
 20
-5.392361
 30
0.0
 11
-78.683492
 21
-5.615184
 31
0.0
  0
LINE
  5
249
100
AcDbEntity
  8
0
390
0
  6
Continuous
 62
     7
100
AcDbLine
 10
-78.683492
 20
5.615184
 30
0.0
 11
-78.615383
 21
5.392361
 31
0.0
  0
LINE
  5
24A
100
AcDbEntity
  8
0
390
0
  6
Continuous
 62
     7
100
AcDbLine
 10
-103.478014
 20
5.392361
 30
0.0
 11
-103.409904
 21
5.615184
 31
0.0
  0
LINE
  5
24B
100
AcDbEntity
  8
0
390
0
  6
Continuous
 62
     7
100
AcDbLine
 10
-103.409904
 20
-5.615184
 30
0.0
 11
-103.478014
 21
-5.392361
 31
0.0
  0
LINE
  5
24C
100
AcDbEntity
  8
0
390
0
  6
Continuous
 62
     7
100
AcDbLine
 10
-92.365409
 20
-13.514443
 30
0.0
 11
-92.592435
 21
-13.462015
 31
0.0
  0
LINE
  5
24D
100
AcDbEntity
  8
0
390
0
  6
Continuous
 62
     7
100
AcDbLine
 10
-80.161119
 20
8.069655
 30
0.0
 11
-80.002203
 21
7.899258
 31
0.0
  0
LINE
  5
24E
100
AcDbEntity
  8
0
390
0
  6
Continuous
 62
     7
100
AcDbLine
 10
-102.091194
 20
7.899258
 30
0.0
 11
-101.932277
 21
8.069655
 31
0.0
  0
LINE
  5
24F
100
AcDbEntity
  8
0
390
0
  6
Continuous
 62
     7
100
AcDbLine
 10
-89.500962
 20
-13.462015
 30
0.0
 11
-89.727988
 21
-13.514443
 31
0.0
  0
LINE
  5
250
100
AcDbEntity
  8
0
390
0
  6
Continuous
 62
     7
100
AcDbLine
 10
-92.592435
 20
13.462015
 30
0.0
 11
-92.365409
 21
13.514443
 31
0.0
  0
LINE
  5
251
100
AcDbEntity
  8
0
390
0
  6
Continuous
 62
     7
100
AcDbLine
 10
-101.932277
 20
-8.069655
 30
0.0
 11
-102.091194
 21
-7.899258
 31
0.0
  0
LINE
  5
252
100
AcDbEntity
  8
0
390
0
  6
Continuous
 62
     7
100
AcDbLine
 10
-80.002203
 20
-7.899258
 30
0.0
 11
-80.161119
 21
-8.069655
 31
0.0
  0
ARC
  5
253
100
AcDbEntity
  8
0
390
0
  6
Continuous
 62
     7
100
AcDbCircle
 10
-91.046698
 20
0.0
 30
0.0
 40
14.494514
210
0.0
220
0.0
230
1.0
100
AcDbArc
 50
336.550134
 51
23.449866
  0
LINE
  5
254
100
AcDbEntity
  8
0
390
0
  6
Continuous
 62
     7
100
AcDbLine
 10
-78.615383
 20
-5.392361
 30
0.0
 11
-77.749306
 21
-5.768041
 31
0.0
  0
LINE
  5
255
100
AcDbEntity
  8
0
390
0
  6
Continuous
 62
     7
100
AcDbLine
 10
-78.615383
 20
5.392361
 30
0.0
 11
-77.749306
 21
5.768041
 31
0.0
  0
ARC
  5
256
100
AcDbEntity
  8
0
390
0
  6
Continuous
 62
     7
100
AcDbCircle
 10
-91.35722
 20
0.17928
 30
0.0
 40
14.851373
210
0.0
220
0.0
230
1.0
100
AcDbArc
 50
324.700081
 51
335.299919
  0
ELLIPSE
  5
257
100
AcDbEntity
  8
0
390
0
  6
Continuous
 62
     7
100
AcDbEllipse
 10
-80.863842
 20
-7.244832
 30
0.0
 11
-1.6308916708958066
 21
1.1576667732135504
 31
0.0
210
0.0
220
0.0
230
1.0
 40
0.020746
 41
2.1420795155966004
 42
3.0892214939889358
  0
ELLIPSE
  5
258
100
AcDbEntity
  8
0
390
0
  6
Continuous
 62
     7
100
AcDbEllipse
 10
-79.681062
 20
-5.196196
 30
0.0
 11
-1.8180146702189286
 21
0.8335602310983459
 31
0.0
210
0.0
220
0.0
230
1.0
 40
0.020746
 41
3.1939638131900194
 42
4.1411057915386076
  0
ARC
  5
259
100
AcDbEntity
  8
0
390
0
  6
Continuous
 62
     7
100
AcDbCircle
 10
-91.046698
 20
0.0
 30
0.0
 40
14.494514
210
0.0
220
0.0
230
1.0
100
AcDbArc
 50
96.550134
 51
143.449866
  0
LINE
  5
25A
100
AcDbEntity
  8
0
390
0
  6
Continuous
 62
     7
100
AcDbLine
 10
-92.700124
 20
14.3999
 30
0.0
 11
-92.592435
 21
13.462015
 31
0.0
  0
LINE
  5
25B
100
AcDbEntity
  8
0
390
0
  6
Continuous
 62
     7
100
AcDbLine
 10
-102.690665
 20
8.631859
 30
0.0
 11
-101.932277
 21
8.069655
 31
0.0
  0
ARC
  5
25C
100
AcDbEntity
  8
0
390
0
  6
Continuous
 62
     7
100
AcDbCircle
 10
-91.046698
 20
0.0
 30
0.0
 40
14.494514
210
0.0
220
0.0
230
1.0
100
AcDbArc
 50
36.550134
 51
83.449866
  0
LINE
  5
25D
100
AcDbEntity
  8
0
390
0
  6
Continuous
 62
     7
100
AcDbLine
 10
-80.161119
 20
8.069655
 30
0.0
 11
-79.402732
 21
8.631859
 31
0.0
  0
LINE
  5
25E
100
AcDbEntity
  8
0
390
0
  6
Continuous
 62
     7
100
AcDbLine
 10
-89.393272
 20
14.3999
 30
0.0
 11
-89.500962
 21
13.462015
 31
0.0
  0
ARC
  5
25F
100
AcDbEntity
  8
0
390
0
  6
Continuous
 62
     7
100
AcDbCircle
 10
-90.736177
 20
-0.17928
 30
0.0
 40
14.851373
210
0.0
220
0.0
230
1.0
100
AcDbArc
 50
144.700081
 51
155.299919
  0
ELLIPSE
  5
260
100
AcDbEntity
  8
0
390
0
  6
Continuous
 62
     7
100
AcDbEllipse
 10
-101.229555
 20
7.244832
 30
0.0
 11
-1.6308916713301258
 21
1.1576667726017065
 31
0.0
210
0.0
220
0.0
230
1.0
 40
0.020746
 41
5.283672169162422
 42
6.2308141475709062
  0
ELLIPSE
  5
261
100
AcDbEntity
  8
0
390
0
  6
Continuous
 62
     7
100
AcDbEllipse
 10
-102.412335
 20
5.196196
 30
0.0
 11
-1.8180146705315536
 21
0.8335602304165302
 31
0.0
210
0.0
220
0.0
230
0.9999999999999999
 40
0.020746
 41
0.0523711595926472
 42
0.9995131379264723
  0
ARC
  5
262
100
AcDbEntity
  8
0
390
0
  6
Continuous
 62
     7
100
AcDbCircle
 10
-91.35722
 20
-0.17928
 30
0.0
 40
14.851373
210
0.0
220
0.0
230
1.0
100
AcDbArc
 50
24.700081
 51
35.299919
  0
ELLIPSE
  5
263
100
AcDbEntity
  8
0
390
0
  6
Continuous
 62
     7
100
AcDbEllipse
 10
-79.681062
 20
5.196196
 30
0.0
 11
-1.8180146701679973
 21
-0.8335602312094237
 31
0.0
210
0.0
220
0.0
230
1.0
 40
0.020746
 41
2.1420795155959174
 42
3.0892214939891449
  0
ELLIPSE
  5
264
100
AcDbEntity
  8
0
390
0
  6
Continuous
 62
     7
100
AcDbEllipse
 10
-80.863842
 20
7.244832
 30
0.0
 11
-1.6308916708250716
 21
-1.1576667733131929
 31
0.0
210
0.0
220
0.0
230
1.0
 40
0.020746
 41
3.1939638131900572
 42
4.1411057915386955
  0
ARC
  5
265
100
AcDbEntity
  8
0
390
0
  6
Continuous
 62
     7
100
AcDbCircle
 10
-91.046698
 20
0.0
 30
0.0
 40
14.494514
210
0.0
220
0.0
230
0.9999999999999999
100
AcDbArc
 50
156.550134
 51
203.449866
  0
LINE
  5
266
100
AcDbEntity
  8
0
390
0
  6
Continuous
 62
     7
100
AcDbLine
 10
-104.344091
 20
5.768041
 30
0.0
 11
-103.478014
 21
5.392361
 31
0.0
  0
LINE
  5
267
100
AcDbEntity
  8
0
390
0
  6
Continuous
 62
     7
100
AcDbLine
 10
-104.344091
 20
-5.768041
 30
0.0
 11
-103.478014
 21
-5.392361
 31
0.0
  0
ARC
  5
268
100
AcDbEntity
  8
0
390
0
  6
Continuous
 62
     7
100
AcDbCircle
 10
-91.046698
 20
0.0
 30
0.0
 40
14.494514
210
0.0
220
0.0
230
1.0
100
AcDbArc
 50
216.550134
 51
263.449866
  0
LINE
  5
269
100
AcDbEntity
  8
0
390
0
  6
Continuous
 62
     7
100
AcDbLine
 10
-102.690665
 20
-8.631859
 30
0.0
 11
-101.932277
 21
-8.069655
 31
0.0
  0
LINE
  5
26A
100
AcDbEntity
  8
0
390
0
  6
Continuous
 62
     7
100
AcDbLine
 10
-92.592435
 20
-13.462015
 30
0.0
 11
-92.700124
 21
-14.3999
 31
0.0
  0
ARC
  5
26B
100
AcDbEntity
  8
0
390
0
  6
Continuous
 62
     7
100
AcDbCircle
 10
-91.046698
 20
-0.358559
 30
0.0
 40
14.851373
210
0.0
220
0.0
230
1.0
100
AcDbArc
 50
84.700081
 51
95.299919
  0
ELLIPSE
  5
26C
100
AcDbEntity
  8
0
390
0
  6
Continuous
 62
     7
100
AcDbEllipse
 10
-89.863918
 20
12.441028
 30
0.0
 11
0.1871229985247747
 21
1.9912270044932234
 31
0.0
210
0.0
220
0.0
230
1.0
 40
0.020746
 41
5.2836721691621973
 42
6.2308141475707508
  0
ELLIPSE
  5
26D
100
AcDbEntity
  8
0
390
0
  6
Continuous
 62
     7
100
AcDbEllipse
 10
-92.229478
 20
12.441028
 30
0.0
 11
-0.1871230001403296
 21
1.9912270043414282
 31
0.0
210
0.0
220
0.0
230
1.0
 40
0.020746
 41
0.0523711595925496
 42
0.9995131379266582
  0
ARC
  5
26E
100
AcDbEntity
  8
0
390
0
  6
Continuous
 62
     7
100
AcDbCircle
 10
-91.046698
 20
0.358559
 30
0.0
 40
14.851373
210
0.0
220
0.0
230
1.0
100
AcDbArc
 50
264.700081
 51
275.299919
  0
ELLIPSE
  5
26F
100
AcDbEntity
  8
0
390
0
  6
Continuous
 62
     7
100
AcDbEllipse
 10
-92.229478
 20
-12.441028
 30
0.0
 11
0.1871229992721907
 21
1.9912270044230018
 31
0.0
210
0.0
220
0.0
230
1.0
 40
0.020746
 41
2.1420795155961887
 42
3.0892214939888714
  0
ELLIPSE
  5
270
100
AcDbEntity
  8
0
390
0
  6
Continuous
 62
     7
100
AcDbEllipse
 10
-89.863918
 20
-12.441028
 30
0.0
 11
-0.1871229993938017
 21
1.9912270044115665
 31
0.0
210
0.0
220
0.0
230
0.9999999999999999
 40
0.020746
 41
3.1939638131902446
 42
4.1411057915387079
  0
ARC
  5
271
100
AcDbEntity
  8
0
390
0
  6
Continuous
 62
     7
100
AcDbCircle
 10
-90.736177
 20
0.17928
 30
0.0
 40
14.851373
210
0.0
220
0.0
230
1.0
100
AcDbArc
 50
204.700081
 51
215.299919
  0
ELLIPSE
  5
272
100
AcDbEntity
  8
0
390
0
  6
Continuous
 62
     7
100
AcDbEllipse
 10
-102.412335
 20
-5.196196
 30
0.0
 11
-1.8180146698552058
 21
-0.8335602318916557
 31
0.0
210
0.0
220
0.0
230
1.0
 40
0.020746
 41
5.28367216916247
 42
6.2308141475711603
  0
ELLIPSE
  5
273
100
AcDbEntity
  8
0
390
0
  6
Continuous
 62
     7
100
AcDbEllipse
 10
-101.229555
 20
-7.244832
 30
0.0
 11
-1.6308916703911824
 21
-1.1576667739244817
 31
0.0
210
0.0
220
0.0
230
1.0
 40
0.020746
 41
0.0523711595927469
 42
0.9995131379261688
  0
LINE
  5
274
100
AcDbEntity
  8
0
390
0
  6
Continuous
 62
     7
100
AcDbLine
 10
-80.161119
 20
-8.069655
 30
0.0
 11
-79.402732
 21
-8.631859
 31
0.0
  0
ARC
  5
275
100
AcDbEntity
  8
0
390
0
  6
Continuous
 62
     7
100
AcDbCircle
 10
-91.046698
 20
0.0
 30
0.0
 40
14.494514
210
0.0
220
0.0
230
1.0
100
AcDbArc
 50
276.550134
 51
323.449866
  0
LINE
  5
276
100
AcDbEntity
  8
0
390
0
  6
Continuous
 62
     7
100
AcDbLine
 10
-89.500962
 20
-13.462015
 30
0.0
 11
-89.393272
 21
-14.3999
 31
0.0
  0
LINE
  5
277
100
AcDbEntity
  8
0
390
0
  6
Continuous
 62
     7
100
AcDbLine
 10
-89.674889
 20
14.429322
 30
0.0
 11
-89.393272
 21
14.3999
 31
0.0
  0
LINE
  5
278
100
AcDbEntity
  8
0
390
0
  6
Continuous
 62
     7
100
AcDbLine
 10
-77.749306
 20
-5.768041
 30
0.0
 11
-77.864634
 21
-6.026639
 31
0.0
  0
LINE
  5
279
100
AcDbEntity
  8
0
390
0
  6
Continuous
 62
     7
100
AcDbLine
 10
-104.344091
 20
5.768041
 30
0.0
 11
-104.228762
 21
6.026639
 31
0.0
  0
LINE
  5
27A
100
AcDbEntity
  8
0
390
0
  6
Continuous
 62
     7
100
AcDbLine
 10
-77.864634
 20
6.026639
 30
0.0
 11
-77.749306
 21
5.768041
 31
0.0
  0
LINE
  5
27B
100
AcDbEntity
  8
0
390
0
  6
Continuous
 62
     7
100
AcDbLine
 10
-104.228762
 20
-6.026639
 30
0.0
 11
-104.344091
 21
-5.768041
 31
0.0
  0
LINE
  5
27C
100
AcDbEntity
  8
0
390
0
  6
Continuous
 62
     7
100
AcDbLine
 10
-79.402732
 20
8.631859
 30
0.0
 11
-79.236444
 21
8.402682
 31
0.0
  0
LINE
  5
27D
100
AcDbEntity
  8
0
390
0
  6
Continuous
 62
     7
100
AcDbLine
 10
-92.418507
 20
-14.429322
 30
0.0
 11
-92.700124
 21
-14.3999
 31
0.0
  0
LINE
  5
27E
100
AcDbEntity
  8
0
390
0
  6
Continuous
 62
     7
100
AcDbLine
 10
-92.700124
 20
14.3999
 30
0.0
 11
-92.418507
 21
14.429322
 31
0.0
  0
LINE
  5
27F
100
AcDbEntity
  8
0
390
0
  6
Continuous
 62
     7
100
AcDbLine
 10
-102.856953
 20
8.402682
 30
0.0
 11
-102.690665
 21
8.631859
 31
0.0
  0
LINE
  5
280
100
AcDbEntity
  8
0
390
0
  6
Continuous
 62
     7
100
AcDbLine
 10
-89.393272
 20
-14.3999
 30
0.0
 11
-89.674889
 21
-14.429322
 31
0.0
  0
LINE
  5
281
100
AcDbEntity
  8
0
390
0
  6
Continuous
 62
     7
100
AcDbLine
 10
-102.690665
 20
-8.631859
 30
0.0
 11
-102.856953
 21
-8.402682
 31
0.0
  0
LINE
  5
282
100
AcDbEntity
  8
0
390
0
  6
Continuous
 62
     7
100
AcDbLine
 10
-79.236444
 20
-8.402682
 30
0.0
 11
-79.402732
 21
-8.631859
 31
0.0
  0
CIRCLE
  5
283
100
AcDbEntity
  8
0
390
0
  6
Continuous
 62
     7
100
AcDbCircle
 10
-91.046698
 20
0.0
 30
0.0
 40
14.646742
210
0.0
220
0.0
230
1.0
  0
POINT
  5
284
100
AcDbEntity
  8
0
390
0
 62
     7
100
AcDbPoint
 10
0.0
 20
0.0
 30
0.0
  0
ENDSEC
  0
SECTION
  2
OBJECTS
  0
DICTIONARY
  5
19
100
AcDbDictionary
280
     0
281
     1
  3
ACAD_GROUP
350
1A
  3
ACAD_MLINESTYLE
350
1B
  3
ACAD_LAYOUT
350
1E
  3
ACAD_PLOTSETTINGS
350
22
  3
ACAD_PLOTSTYLENAME
350
1F
  3
ACAD_WIPEOUT_VARS
350
23
  0
DICTIONARY
  5
1A
102
{ACAD_REACTORS
330
19
102
}
100
AcDbDictionary
280
     0
281
     1
  0
DICTIONARY
  5
1B
102
{ACAD_REACTORS
330
19
102
}
100
AcDbDictionary
280
     0
281
     1
  3
Standard
350
1C
  0
MLINESTYLE
  5
1C
102
{ACAD_REACTORS
330
1B
102
}
100
AcDbMlineStyle
  2
Standard
 70
     0
  3

 62
     0
 51
90.0
 52
90.0
 71
     2
 49
0.5
 62
   256
  6
ByLayer
 49
-0.5
 62
   256
  6
ByLayer
  0
ACDBDICTIONARYWDFLT
  5
1F
102
{ACAD_REACTORS
330
19
102
}
100
AcDbDictionary
281
     1
  3
Normal
350
1D
100
AcDbDictionaryWithDefault
340
1D
  0
ACDBPLACEHOLDER
  5
1D
102
{ACAD_REACTORS
330
1F
102
}
  0
LAYOUT
  5
20
102
{ACAD_REACTORS
330
1E
102
}
100
AcDbPlotSettings
  1

  2

  4

  6

 40
0.0
 41
0.0
 42
0.0
 43
0.0
 44
0.0
 45
0.0
 46
0.0
 47
0.0
 48
0.0
 49
0.0
140
0.0
141
0.0
142
1.0
143
1.0
 70
  1024
 72
     0
 73
     0
 74
     0
  7

 75
     0
147
1.0
148
0.0
149
0.0
100
AcDbLayout
  1
Model
 70
     0
 71
     1
 10
0.0
 20
0.0
 11
0.0
 21
0.0
 12
0.0
 22
0.0
 32
0.0
 14
0.0
 24
0.0
 34
0.0
 15
0.0
 25
0.0
 35
0.0
146
0.0
 13
0.0
 23
0.0
 33
0.0
 16
0.0
 26
0.0
 36
0.0
 17
0.0
 27
0.0
 37
0.0
 76
     0
330
A
331
0
345
0
346
0
  0
LAYOUT
  5
21
102
{ACAD_REACTORS
330
1E
102
}
100
AcDbPlotSettings
  1

  2

  4

  6

 40
0.0
 41
0.0
 42
0.0
 43
0.0
 44
0.0
 45
0.0
 46
0.0
 47
0.0
 48
0.0
 49
0.0
140
0.0
141
0.0
142
1.0
143
1.0
 70
     0
 72
     0
 73
     0
 74
     0
  7

 75
     0
147
1.0
148
0.0
149
0.0
100
AcDbLayout
  1
Layout1
 70
     0
 71
     2
 10
0.0
 20
0.0
 11
0.0
 21
0.0
 12
0.0
 22
0.0
 32
0.0
 14
0.0
 24
0.0
 34
0.0
 15
0.0
 25
0.0
 35
0.0
146
0.0
 13
0.0
 23
0.0
 33
0.0
 16
0.0
 26
0.0
 36
0.0
 17
0.0
 27
0.0
 37
0.0
 76
     0
330
B
331
0
345
0
346
0
  0
DICTIONARY
  5
1E
102
{ACAD_REACTORS
330
19
102
}
100
AcDbDictionary
280
     0
281
     1
  3
Layout1
350
21
  3
Model
350
20
  0
DICTIONARY
  5
22
102
{ACAD_REACTORS
330
19
102
}
100
AcDbDictionary
280
     0
281
     1
  0
WIPEOUTVARIABLES
  5
23
100
AcDbWipeoutVariables
 70
     1
  0
ENDSEC
  0
EOF
