  0
SECTION
  2
HEADER
  9
$ACADVER
  1
AC1015
  9
$ACADMAINTVER
 70
     6
  9
$DWGCODEPAGE
  3
DOS932
  9
$INSBASE
 10
0.0
 20
0.0
 30
0.0
  9
$EXTMIN
 10
-80.578547
 20
-12.365297
 30
0.0
  9
$EXTMAX
 10
221.646015
 20
177.192694
 30
9.906
  9
$LIMMIN
 10
-80.578547
 20
-12.365297
  9
$LIMMAX
 10
221.646015
 20
177.192694
  9
$ORTHOMODE
 70
     0
  9
$REGENMODE
 70
     1
  9
$FILLMODE
 70
     1
  9
$QTEXTMODE
 70
     0
  9
$MIRRTEXT
 70
     1
  9
$LTSCALE
 40
10.0
  9
$ATTMODE
 70
     1
  9
$TEXTSIZE
 40
0.2
  9
$TRACEWID
 40
0.05
  9
$TEXTSTYLE
  7
Standard
  9
$CLAYER
  8
0
  9
$CELTYPE
  6
Continuous
  9
$CECOLOR
 62
   256
  9
$CELTSCALE
 40
1.0
  9
$DISPSILH
 70
     0
  9
$DIMSCALE
 40
1.0
  9
$DIMASZ
 40
1.40208
  9
$DIMEXO
 40
1.40208
  9
$DIMDLI
 40
0.38
  9
$DIMRND
 40
0.0
  9
$DIMDLE
 40
0.0
  9
$DIMEXE
 40
1.05156
  9
$DIMTP
 40
0.0
  9
$DIMTM
 40
0.0
  9
$DIMTXT
 40
3.5052
  9
$DIMCEN
 40
0.09
  9
$DIMTSZ
 40
0.0
  9
$DIMTOL
 70
     0
  9
$DIMLIM
 70
     0
  9
$DIMTIH
 70
     0
  9
$DIMTOH
 70
     0
  9
$DIMSE1
 70
     0
  9
$DIMSE2
 70
     0
  9
$DIMTAD
 70
     1
  9
$DIMZIN
 70
     0
  9
$DIMBLK
  1

  9
$DIMASO
 70
     1
  9
$DIMSHO
 70
     1
  9
$DIMPOST
  1

  9
$DIMAPOST
  1

  9
$DIMALT
 70
     0
  9
$DIMALTD
 70
     2
  9
$DIMALTF
 40
25.4
  9
$DIMLFAC
 40
1.0
  9
$DIMTOFL
 70
     0
  9
$DIMTVP
 40
0.0
  9
$DIMTIX
 70
     0
  9
$DIMSOXD
 70
     0
  9
$DIMSAH
 70
     0
  9
$DIMBLK1
  1

  9
$DIMBLK2
  1

  9
$DIMSTYLE
  2
Standard
  9
$DIMCLRD
 70
     7
  9
$DIMCLRE
 70
     7
  9
$DIMCLRT
 70
     7
  9
$DIMTFAC
 40
0.5
  9
$DIMGAP
 40
1.7526
  9
$DIMJUST
 70
     0
  9
$DIMSD1
 70
     0
  9
$DIMSD2
 70
     0
  9
$DIMTOLJ
 70
     1
  9
$DIMTZIN
 70
     0
  9
$DIMALTZ
 70
     0
  9
$DIMALTTZ
 70
     0
  9
$DIMUPT
 70
     0
  9
$DIMDEC
 70
     2
  9
$DIMTDEC
 70
     4
  9
$DIMALTU
 70
     2
  9
$DIMALTTD
 70
     2
  9
$DIMTXSTY
  7
Standard
  9
$DIMAUNIT
 70
     0
  9
$DIMADEC
 70
     0
  9
$DIMALTRND
 40
0.0
  9
$DIMAZIN
 70
     0
  9
$DIMDSEP
 70
     0
  9
$DIMATFIT
 70
     3
  9
$DIMFRAC
 70
     0
  9
$DIMLDRBLK
  1

  9
$DIMLUNIT
 70
     2
  9
$DIMLWD
 70
     0
  9
$DIMLWE
 70
     0
  9
$DIMTMOVE
 70
     0
  9
$LUNITS
 70
     2
  9
$LUPREC
 70
     4
  9
$SKETCHINC
 40
0.1
  9
$FILLETRAD
 40
0.0
  9
$AUNITS
 70
     0
  9
$AUPREC
 70
     0
  9
$MENU
  1
acad
  9
$ELEVATION
 40
0.0
  9
$PELEVATION
 40
0.0
  9
$THICKNESS
 40
0.0
  9
$LIMCHECK
 70
     0
  9
$CHAMFERA
 40
0.0
  9
$CHAMFERB
 40
0.0
  9
$CHAMFERC
 40
0.0
  9
$CHAMFERD
 40
0.0
  9
$SKPOLY
 70
     0
  9
$TDCREATE
 40
2459788.583333334
  9
$TDUCREATE
 40
0.000000000
  9
$TDUPDATE
 40
2459788.208252315
  9
$TDUUPDATE
 40
0.000000000
  9
$TDINDWG
 40
0.0000000000
  9
$TDUSRTIMER
 40
0.0000000000
  9
$USRTIMER
 70
     1
  9
$ANGBASE
 50
0.0
  9
$ANGDIR
 70
     0
  9
$PDMODE
 70
     0
  9
$PDSIZE
 40
0.0
  9
$PLINEWID
 40
0.0
  9
$SPLFRAME
 70
     0
  9
$SPLINETYPE
 70
     6
  9
$SPLINESEGS
 70
     8
  9
$HANDSEED
  5
299
  9
$SURFTAB1
 70
     6
  9
$SURFTAB2
 70
     6
  9
$SURFTYPE
 70
     6
  9
$SURFU
 70
     6
  9
$SURFV
 70
     6
  9
$UCSBASE
  2

  9
$UCSNAME
  2

  9
$UCSORG
 10
0.0
 20
0.0
 30
0.0
  9
$UCSXDIR
 10
1.0
 20
0.0
 30
0.0
  9
$UCSYDIR
 10
0.0
 20
1.0
 30
0.0
  9
$UCSORTHOREF
  2

  9
$UCSORTHOVIEW
 70
     0
  9
$UCSORGTOP
 10
0.0
 20
0.0
 30
0.0
  9
$UCSORGBOTTOM
 10
0.0
 20
0.0
 30
0.0
  9
$UCSORGLEFT
 10
0.0
 20
0.0
 30
0.0
  9
$UCSORGRIGHT
 10
0.0
 20
0.0
 30
0.0
  9
$UCSORGFRONT
 10
0.0
 20
0.0
 30
0.0
  9
$UCSORGBACK
 10
0.0
 20
0.0
 30
0.0
  9
$PUCSBASE
  2

  9
$PUCSNAME
  2

  9
$PUCSORG
 10
0.0
 20
0.0
 30
0.0
  9
$PUCSXDIR
 10
1.0
 20
0.0
 30
0.0
  9
$PUCSYDIR
 10
0.0
 20
1.0
 30
0.0
  9
$PUCSORTHOREF
  2

  9
$PUCSORTHOVIEW
 70
     0
  9
$PUCSORGTOP
 10
0.0
 20
0.0
 30
0.0
  9
$PUCSORGBOTTOM
 10
0.0
 20
0.0
 30
0.0
  9
$PUCSORGLEFT
 10
0.0
 20
0.0
 30
0.0
  9
$PUCSORGRIGHT
 10
0.0
 20
0.0
 30
0.0
  9
$PUCSORGFRONT
 10
0.0
 20
0.0
 30
0.0
  9
$PUCSORGBACK
 10
0.0
 20
0.0
 30
0.0
  9
$USERI1
 70
     0
  9
$USERI2
 70
     0
  9
$USERI3
 70
     0
  9
$USERI4
 70
     0
  9
$USERI5
 70
     0
  9
$USERR1
 40
0.0
  9
$USERR2
 40
0.0
  9
$USERR3
 40
0.0
  9
$USERR4
 40
0.0
  9
$USERR5
 40
0.0
  9
$WORLDVIEW
 70
     1
  9
$SHADEDGE
 70
     3
  9
$SHADEDIF
 70
    70
  9
$TILEMODE
 70
     1
  9
$MAXACTVP
 70
    16
  9
$PINSBASE
 10
0.0
 20
0.0
 30
0.0
  9
$PLIMCHECK
 70
     0
  9
$PEXTMIN
 10
1.000000E+20
 20
1.000000E+20
 30
1.000000E+20
  9
$PEXTMAX
 10
-1.000000E+20
 20
-1.000000E+20
 30
-1.000000E+20
  9
$PLIMMIN
 10
0.0
 20
0.0
  9
$PLIMMAX
 10
12.0
 20
9.0
  9
$UNITMODE
 70
     0
  9
$VISRETAIN
 70
     0
  9
$PLINEGEN
 70
     1
  9
$PSLTSCALE
 70
     0
  9
$TREEDEPTH
 70
  3020
  9
$CMLSTYLE
  2
Standard
  9
$CMLJUST
 70
     0
  9
$CMLSCALE
 40
1.0
  9
$PROXYGRAPHICS
 70
     0
  9
$MEASUREMENT
 70
     0
  9
$CELWEIGHT
370
     0
  9
$ENDCAPS
280
     0
  9
$JOINSTYLE
280
     0
  9
$LWDISPLAY
290
     0
  9
$INSUNITS
 70
     0
  9
$HYPERLINKBASE
  1

  9
$STYLESHEET
  1

  9
$XEDIT
290
     1
  9
$CEPSNTYPE
380
     0
  9
$PSTYLEMODE
290
     1
  9
$FINGERPRINTGUID
  2

  9
$VERSIONGUID
  2

  9
$EXTNAMES
290
     1
  9
$PSVPSCALE
 40
0.0
  0
ENDSEC
  0
SECTION
  2
CLASSES
  0
CLASS
  1
LWPOLYLINE
  2
AcDbPolyline
  3
AutoCAD 2000
 90
        0
280
     0
281
     1
  0
CLASS
  1
IMAGE
  2
AcDbRasterImage
  3
ISM
 90
      127
280
     0
281
     1
  0
CLASS
  1
OLE2FRAME
  2
AcDbOle2Frame
  3
AutoCAD 2000
 90
        0
280
     0
281
     1
  0
CLASS
  1
HATCH
  2
AcDbHatch
  3
AutoCAD 2000
 90
        0
280
     0
281
     1
  0
CLASS
  1
DICTIONARYVAR
  2
AcDbDictionaryVar
  3
AutoCAD 2000
 90
        0
280
     0
281
     0
  0
CLASS
  1
RASTERVARIABLES
  2
AcDbRasterVariables
  3
ISM
 90
        0
280
     0
281
     0
  0
CLASS
  1
IMAGEDEF
  2
AcDbRasterImageDef
  3
ISM
 90
        0
280
     0
281
     0
  0
CLASS
  1
IMAGEDEF_REACTOR
  2
AcDbRasterImageDefReactor
  3
ISM
 90
        1
280
     0
281
     0
  0
CLASS
  1
IDBUFFER
  2
AcDbIdBuffer
  3
AutoCAD 2000
 90
        0
280
     0
281
     0
  0
CLASS
  1
SPATIAL_FILTER
  2
AcDbSpatialFilter
  3
AutoCAD 2000
 90
        0
280
     0
281
     0
  0
CLASS
  1
XRECORD
  2
AcDbXrecord
  3
AutoCAD 2000
 90
        0
280
     0
281
     0
  0
CLASS
  1
SORTENTSTABLE
  2
AcDbSortentsTable
  3
AutoCAD 2000
 90
        0
280
     0
281
     0
  0
CLASS
  1
LAYER_INDEX
  2
AcDbLayerIndex
  3
AutoCAD 2000
 90
        0
280
     0
281
     0
  0
CLASS
  1
SPATIAL_INDEX
  2
AcDbSpatialIndex
  3
AutoCAD 2000
 90
        0
280
     0
281
     0
  0
CLASS
  1
OBJECT_PTR
  2
CAseDLPNTableRecord
  3
"ASE-LPNTableRecord"
 90
        1
280
     0
281
     0
  0
CLASS
  1
LAYOUT
  2
AcDbLayout
  3
AutoCAD 2000
 90
        0
280
     0
281
     0
  0
CLASS
  1
PLOTSETTINGS
  2
AcDbPlotSettings
  3
AutoCAD 2000
 90
        0
280
     0
281
     0
  0
CLASS
  1
ACDBDICTIONARYWDFLT
  2
AcDbDictionaryWithDefault
  3
AutoCAD 2000
 90
        0
280
     0
281
     0
  0
CLASS
  1
ACDBPLACEHOLDER
  2
AcDbPlaceHolder
  3
AutoCAD 2000
 90
        0
280
     0
281
     0
  0
CLASS
  1
VBA_PROJECT
  2
AcDbVbaProject
  3
acadvba
 90
        0
280
     0
281
     0
  0
CLASS
  1
WIPEOUT
  2
AcDbWipeout
  3
WipeOut|AutoCAD Express Tool|expresstools@autodesk.com
 90
      127
280
     0
281
     1
  0
CLASS
  1
WIPEOUTVARIABLES
  2
AcDbWipeoutVariables
  3
WipeOut|AutoCAD Express Tool|expresstools@autodesk.com
 90
        0
280
     0
281
     0
  0
CLASS
  1
RTEXT
  2
RText
  3
RText|AutoCAD Express Tool|expresstools@autodesk.com
 90
        0
280
     0
281
     1
  0
CLASS
  1
ARCALIGNEDTEXT
  2
AcDbArcAlignedText
  3
ATEXT|AutoCAD Express Tool|expresstools@autodesk.com
 90
        0
280
     0
281
     1
  0
ENDSEC
  0
SECTION
  2
TABLES
  0
TABLE
  2
VPORT
  5
7
100
AcDbSymbolTable
 70
     1
  0
VPORT
  5
15
100
AcDbSymbolTableRecord
100
AcDbViewportTableRecord
  2
*ACTIVE
 70
     0
 10
0.0
 20
0.0
 11
1.0
 21
1.0
 12
6.591288
 22
4.579184
 13
0.0
 23
0.0
 14
1.0
 24
1.0
 15
0.0
 25
0.0
 16
0.0
 26
0.0
 36
1.0
 17
0.0
 27
0.0
 37
0.0
 40
9.158369
 41
0.688564
 42
50.0
 43
0.0
 44
0.0
 50
0.0
 51
0.0
 71
     0
 72
   100
 73
     1
 74
     1
 75
     0
 76
     0
 77
     0
 78
     0
281
     0
 65
     0
110
0.0
120
0.0
130
0.0
111
1.0
121
0.0
131
0.0
112
0.0
122
1.0
132
0.0
345
0
346
0
 79
     0
146
0.0
  0
ENDTAB
  0
TABLE
  2
LTYPE
  5
4
100
AcDbSymbolTable
 70
     3
  0
LTYPE
  5
11
100
AcDbSymbolTableRecord
100
AcDbLinetypeTableRecord
  2
ByBlock
 70
    64
  3

 72
    65
 73
     0
 40
0.0
  0
LTYPE
  5
12
100
AcDbSymbolTableRecord
100
AcDbLinetypeTableRecord
  2
ByLayer
 70
    64
  3

 72
    65
 73
     0
 40
0.0
  0
LTYPE
  5
13
100
AcDbSymbolTableRecord
100
AcDbLinetypeTableRecord
  2
Continuous
 70
    64
  3
Solid line
 72
    65
 73
     0
 40
0.0
  0
ENDTAB
  0
TABLE
  2
LAYER
  5
2
100
AcDbSymbolTable
 70
     1
  0
LAYER
  5
14
100
AcDbSymbolTableRecord
100
AcDbLayerTableRecord
  2
0
 70
     0
 62
     7
  6
Continuous
290
     1
370
    -3
390
1D
  0
ENDTAB
  0
TABLE
  2
STYLE
  5
3
100
AcDbSymbolTable
 70
     1
  0
STYLE
  5
17
100
AcDbSymbolTableRecord
100
AcDbTextStyleTableRecord
  2
Standard
 70
     0
 40
0.0
 41
1.0
 50
0.0
 71
     0
 42
0.0
  3
FG教科書体NT-M
  4

1001
ACAD
1000
FG教科書体NT-M
1071
        0
  0
ENDTAB
  0
TABLE
  2
VIEW
  5
5
100
AcDbSymbolTable
 70
     0
  0
ENDTAB
  0
TABLE
  2
UCS
  5
6
100
AcDbSymbolTable
 70
     0
  0
ENDTAB
  0
TABLE
  2
APPID
  5
8
100
AcDbSymbolTable
 70
     2
  0
APPID
  5
16
100
AcDbSymbolTableRecord
100
AcDbRegAppTableRecord
  2
ACAD
 70
     0
  0
APPID
  5
26
100
AcDbSymbolTableRecord
100
AcDbRegAppTableRecord
  2
TOPsolid_Design
 70
     0
  0
ENDTAB
  0
TABLE
  2
DIMSTYLE
  5
9
100
AcDbSymbolTable
 70
     1
100
AcDbDimStyleTable
 71
     0
  0
DIMSTYLE
105
18
100
AcDbSymbolTableRecord
100
AcDbDimStyleTableRecord
  2
Standard
 70
     0
  3

  4

 40
1.0
 41
1.40208
 42
1.40208
 43
0.38
 44
1.05156
 45
0.0
 46
0.0
 47
0.0
 48
0.0
 71
     0
 72
     0
 73
     0
 74
     0
 75
     0
 76
     0
 77
     1
 78
     0
 79
     0
140
3.5052
141
0.09
142
0.0
143
25.4
144
1.0
145
0.0
146
0.5
147
1.7526
148
0.0
170
     0
171
     2
172
     0
173
     0
174
     0
175
     0
176
     7
177
     7
178
     7
179
     0
271
     2
272
     4
273
     2
274
     2
275
     0
276
     0
277
     2
278
    46
279
     0
280
     0
281
     0
282
     0
283
     1
284
     0
285
     0
286
     0
288
     0
289
     3
340
17
341
0
342
0
343
0
344
0
371
    -2
372
    -2
  0
ENDTAB
  0
TABLE
  2
BLOCK_RECORD
  5
1
100
AcDbSymbolTable
 70
     0
  0
BLOCK_RECORD
  5
A
100
AcDbSymbolTableRecord
100
AcDbBlockTableRecord
  2
*MODEL_SPACE
340
20
  0
BLOCK_RECORD
  5
B
100
AcDbSymbolTableRecord
100
AcDbBlockTableRecord
  2
*PAPER_SPACE
340
21
  0
ENDTAB
  0
ENDSEC
  0
SECTION
  2
BLOCKS
  0
BLOCK
  5
D
100
AcDbEntity
  8
0
390
0
100
AcDbBlockBegin
  2
*MODEL_SPACE
 70
     0
 10
0.0
 20
0.0
 30
0.0
  3
*MODEL_SPACE
  1

  0
ENDBLK
  5
E
100
AcDbEntity
  8
0
390
0
100
AcDbBlockEnd
  0
BLOCK
  5
F
100
AcDbEntity
 67
     1
  8
0
390
0
100
AcDbBlockBegin
  2
*PAPER_SPACE
 70
     0
 10
0.0
 20
0.0
 30
0.0
  3
*PAPER_SPACE
  1

  0
ENDBLK
  5
10
100
AcDbEntity
 67
     1
  8
0
390
0
100
AcDbBlockEnd
  0
ENDSEC
  0
SECTION
  2
ENTITIES
  0
LINE
  5
27
100
AcDbEntity
  8
0
390
0
  6
Continuous
 62
     7
100
AcDbLine
 10
5.85
 20
-12.365297
 30
0.0
 11
5.85
 21
0.0
 31
0.0
  0
LINE
  5
28
100
AcDbEntity
  8
0
390
0
  6
Continuous
 62
     7
100
AcDbLine
 10
3.49763
 20
12.242015
 30
0.0
 11
3.546927
 21
12.206085
 31
0.0
  0
LINE
  5
29
100
AcDbEntity
  8
0
390
0
  6
Continuous
 62
     7
100
AcDbLine
 10
3.546927
 20
12.206085
 30
0.0
 11
3.571496
 21
12.123076
 31
0.0
  0
LINE
  5
2A
100
AcDbEntity
  8
0
390
0
  6
Continuous
 62
     7
100
AcDbLine
 10
3.546927
 20
-12.206085
 30
0.0
 11
3.49763
 21
-12.242014
 31
0.0
  0
LINE
  5
2B
100
AcDbEntity
  8
0
390
0
  6
Continuous
 62
     7
100
AcDbLine
 10
3.571496
 20
-12.123075
 30
0.0
 11
3.546927
 21
-12.206085
 31
0.0
  0
LINE
  5
2C
100
AcDbEntity
  8
0
390
0
  6
Continuous
 62
     7
100
AcDbLine
 10
3.571496
 20
-7.559728
 30
0.0
 11
3.571496
 21
-12.123075
 31
0.0
  0
LINE
  5
2D
100
AcDbEntity
  8
0
390
0
  6
Continuous
 62
     7
100
AcDbLine
 10
3.546927
 20
-6.943431
 30
0.0
 11
3.571496
 21
-7.559728
 31
0.0
  0
LINE
  5
2E
100
AcDbEntity
  8
0
390
0
  6
Continuous
 62
     7
100
AcDbLine
 10
3.546927
 20
-5.262653
 30
0.0
 11
3.546927
 21
-6.943431
 31
0.0
  0
LINE
  5
2F
100
AcDbEntity
  8
0
390
0
  6
Continuous
 62
     7
100
AcDbLine
 10
3.571496
 20
-4.563347
 30
0.0
 11
3.546927
 21
-5.262653
 31
0.0
  0
LINE
  5
30
100
AcDbEntity
  8
0
390
0
  6
Continuous
 62
     7
100
AcDbLine
 10
3.571496
 20
4.563348
 30
0.0
 11
3.571496
 21
-4.563347
 31
0.0
  0
LINE
  5
31
100
AcDbEntity
  8
0
390
0
  6
Continuous
 62
     7
100
AcDbLine
 10
3.546927
 20
5.262654
 30
0.0
 11
3.571496
 21
4.563348
 31
0.0
  0
LINE
  5
32
100
AcDbEntity
  8
0
390
0
  6
Continuous
 62
     7
100
AcDbLine
 10
3.546927
 20
6.943432
 30
0.0
 11
3.546927
 21
5.262654
 31
0.0
  0
LINE
  5
33
100
AcDbEntity
  8
0
390
0
  6
Continuous
 62
     7
100
AcDbLine
 10
3.571496
 20
7.559728
 30
0.0
 11
3.546927
 21
6.943432
 31
0.0
  0
LINE
  5
34
100
AcDbEntity
  8
0
390
0
  6
Continuous
 62
     7
100
AcDbLine
 10
3.571496
 20
12.123076
 30
0.0
 11
3.571496
 21
7.559728
 31
0.0
  0
LINE
  5
35
100
AcDbEntity
  8
0
390
0
  6
Continuous
 62
     7
100
AcDbLine
 10
5.85
 20
0.0
 30
0.0
 11
5.85
 21
12.365297
 31
0.0
  0
ELLIPSE
  5
36
100
AcDbEntity
  8
0
390
0
  6
Continuous
 62
     7
100
AcDbEllipse
 10
3.65
 20
-4.005148
 30
0.0
 11
-1.5000000000000013
 21
0.0
 31
0.0
210
0.0
220
0.0
230
1.0
 40
0.372643
 41
0.5614002883807273
 42
1.5184364492350682
  0
ARC
  5
37
100
AcDbEntity
  8
0
390
0
  6
Continuous
 62
     7
100
AcDbCircle
 10
50.922319
 20
0.0
 30
0.0
 40
48.732407
210
0.0
220
0.0
230
1.0
100
AcDbArc
 50
174.934593
 51
185.065407
  0
ELLIPSE
  5
38
100
AcDbEntity
  8
0
390
0
  6
Continuous
 62
     7
100
AcDbEllipse
 10
3.65
 20
4.005149
 30
0.0
 11
-1.5000000000000013
 21
0.0
 31
0.0
210
0.0
220
0.0
230
1.0
 40
0.372643
 41
4.7647488579445172
 42
5.7217850187991042
  0
ELLIPSE
  5
39
100
AcDbEntity
  8
0
390
0
  6
Continuous
 62
     7
100
AcDbEllipse
 10
1.110468
 20
-4.600303
 30
0.0
 11
-1.4596446816675936
 21
-0.3455971690849158
 31
0.0
210
0.0
220
0.0
230
1.0
 40
0.004022
 41
1.5877800180877601
 42
2.6248717643586401
  0
ARC
  5
3A
100
AcDbEntity
  8
0
390
0
  6
Continuous
 62
     7
100
AcDbCircle
 10
28.654417
 20
0.0
 30
0.0
 40
27.89965
210
0.0
220
0.0
230
1.0
100
AcDbArc
 50
170.509302
 51
189.490698
  0
ELLIPSE
  5
3B
100
AcDbEntity
  8
0
390
0
  6
Continuous
 62
     7
100
AcDbEllipse
 10
1.110468
 20
4.600303
 30
0.0
 11
-1.4596446816675657
 21
0.3455971690850823
 31
0.0
210
0.0
220
0.0
230
1.0
 40
0.004022
 41
3.6583135428210167
 42
4.6954052890917612
  0
LINE
  5
3C
100
AcDbEntity
  8
0
390
0
  6
Continuous
 62
     7
100
AcDbLine
 10
2.382426
 20
4.320651
 30
0.0
 11
2.380234
 21
4.302726
 31
0.0
  0
LINE
  5
3D
100
AcDbEntity
  8
0
390
0
  6
Continuous
 62
     7
100
AcDbLine
 10
2.427384
 20
4.922214
 30
0.0
 11
2.382426
 21
4.320651
 31
0.0
  0
ELLIPSE
  5
3E
100
AcDbEntity
  8
0
390
0
  6
Continuous
 62
     7
100
AcDbEllipse
 10
3.625431
 20
4.618846
 30
0.0
 11
-1.4942039722780076
 21
-0.1317364384997855
 31
0.0
210
0.0
220
0.0
230
1.0
 40
0.432188
 41
4.7268285976602336
 42
5.6036260956042545
  0
ELLIPSE
  5
3F
100
AcDbEntity
  8
0
390
0
  6
Continuous
 62
     7
100
AcDbEllipse
 10
3.625431
 20
-4.618846
 30
0.0
 11
-1.4942039726185963
 21
0.1317364346367644
 31
0.0
210
0.0
220
0.0
230
1.0
 40
0.432188
 41
0.6795592106598903
 42
1.5563567083794636
  0
LINE
  5
40
100
AcDbEntity
  8
0
390
0
  6
Continuous
 62
     7
100
AcDbLine
 10
2.382426
 20
-4.32065
 30
0.0
 11
2.427384
 21
-4.922213
 31
0.0
  0
LINE
  5
41
100
AcDbEntity
  8
0
390
0
  6
Continuous
 62
     7
100
AcDbLine
 10
2.380234
 20
-4.302725
 30
0.0
 11
2.382426
 21
-4.32065
 31
0.0
  0
ELLIPSE
  5
42
100
AcDbEntity
  8
0
390
0
  6
Continuous
 62
     7
100
AcDbEllipse
 10
3.625431
 20
-6.094006
 30
0.0
 11
-1.4931097345034228
 21
-0.1436082195807042
 31
0.0
210
0.0
220
0.0
230
1.0
 40
0.561856
 41
0.5874866727712763
 42
1.4642841707154401
  0
LINE
  5
43
100
AcDbEntity
  8
0
390
0
  6
Continuous
 62
     7
100
AcDbLine
 10
2.427384
 20
-4.922213
 30
0.0
 11
2.427384
 21
-6.678521
 31
0.0
  0
LINE
  5
44
100
AcDbEntity
  8
0
390
0
  6
Continuous
 62
     7
100
AcDbLine
 10
2.427384
 20
6.678522
 30
0.0
 11
2.427384
 21
4.922214
 31
0.0
  0
ELLIPSE
  5
45
100
AcDbEntity
  8
0
390
0
  6
Continuous
 62
     7
100
AcDbEllipse
 10
3.625431
 20
6.094007
 30
0.0
 11
-1.4931097349014655
 21
0.1436082154422091
 31
0.0
210
0.0
220
0.0
230
1.0
 40
0.561856
 41
4.8189011349293773
 42
5.6956986326491332
  0
ELLIPSE
  5
46
100
AcDbEntity
  8
0
390
0
  6
Continuous
 62
     7
100
AcDbEllipse
 10
1.114867
 20
-4.618846
 30
0.0
 11
-1.4593427821945337
 21
-0.3468697796820686
 31
0.0
210
0.0
220
0.0
230
1.0
 40
0.004036
 41
1.5877765049999508
 42
2.6221686871548866
  0
LINE
  5
47
100
AcDbEntity
  8
0
390
0
  6
Continuous
 62
     7
100
AcDbLine
 10
1.141046
 20
-4.618846
 30
0.0
 11
1.136647
 21
-4.600303
 31
0.0
  0
LINE
  5
48
100
AcDbEntity
  8
0
390
0
  6
Continuous
 62
     7
100
AcDbLine
 10
1.136647
 20
4.600303
 30
0.0
 11
1.141046
 21
4.618846
 31
0.0
  0
ELLIPSE
  5
49
100
AcDbEntity
  8
0
390
0
  6
Continuous
 62
     7
100
AcDbEllipse
 10
1.114867
 20
4.618846
 30
0.0
 11
-1.4593427822024718
 21
0.3468697796487064
 31
0.0
210
0.0
220
0.0
230
1.0
 40
0.004036
 41
3.6610166199534637
 42
4.6954088021798253
  0
LINE
  5
4A
100
AcDbEntity
  8
0
390
0
  6
Continuous
 62
     7
100
AcDbLine
 10
1.141046
 20
4.618846
 30
0.0
 11
1.255507
 21
4.959523
 31
0.0
  0
ELLIPSE
  5
4B
100
AcDbEntity
  8
0
390
0
  6
Continuous
 62
     7
100
AcDbEllipse
 10
1.229337
 20
5.225581
 30
0.0
 11
-1.4880643181029996
 21
0.1888506954942637
 31
0.0
210
0.0
220
0.0
230
1.0
 40
0.173901
 41
1.6104455443991694
 42
2.528383538812073
  0
ELLIPSE
  5
4C
100
AcDbEntity
  8
0
390
0
  6
Continuous
 62
     7
100
AcDbEllipse
 10
1.229337
 20
-5.225581
 30
0.0
 11
1.4880643180935627
 21
0.1888506955685931
 31
0.0
210
0.0
220
0.0
230
0.9999999999999999
 40
0.173901
 41
0.6132091144473404
 42
1.5311471092116475
  0
LINE
  5
4D
100
AcDbEntity
  8
0
390
0
  6
Continuous
 62
     7
100
AcDbLine
 10
1.255507
 20
-4.959522
 30
0.0
 11
1.141046
 21
-4.618846
 31
0.0
  0
ARC
  5
4E
100
AcDbEntity
  8
0
390
0
  6
Continuous
 62
     7
100
AcDbCircle
 10
-1.086542
 20
-5.538674
 30
0.0
 40
2.412594
210
0.0
220
0.0
230
1.0
100
AcDbArc
 50
346.110297
 51
13.889703
  0
ELLIPSE
  5
4F
100
AcDbEntity
  8
0
390
0
  6
Continuous
 62
     7
100
AcDbEllipse
 10
1.229337
 20
-7.263036
 30
0.0
 11
1.4725441694595776
 21
-0.2856810616590211
 31
0.0
210
0.0
220
0.0
230
1.0
 40
0.759093
 41
0.7814923301269905
 42
1.6994303245352531
  0
ARC
  5
50
100
AcDbEntity
  8
0
390
0
  6
Continuous
 62
     7
100
AcDbCircle
 10
-1.256981
 20
5.538675
 30
0.0
 40
2.578374
210
0.0
220
0.0
230
1.0
100
AcDbArc
 50
347.019521
 51
12.980479
  0
ELLIPSE
  5
51
100
AcDbEntity
  8
0
390
0
  6
Continuous
 62
     7
100
AcDbEllipse
 10
1.229337
 20
7.263037
 30
0.0
 11
-1.4725441696552266
 21
-0.2856810606505222
 31
0.0
210
0.0
220
0.0
230
1.0
 40
0.759093
 41
1.4421623295522712
 42
2.3601003243167797
  0
ELLIPSE
  5
52
100
AcDbEntity
  8
0
390
0
  6
Continuous
 62
     7
100
AcDbEllipse
 10
3.65
 20
-6.635005
 30
0.0
 11
-1.5000000000000013
 21
0.0
 31
0.0
210
0.0
220
0.0
230
1.0
 40
0.617328
 41
0.561400288380479
 42
1.5184364492350673
  0
LINE
  5
53
100
AcDbEntity
  8
0
390
0
  6
Continuous
 62
     7
100
AcDbLine
 10
2.382426
 20
-7.11603
 30
0.0
 11
2.380234
 21
-7.127977
 31
0.0
  0
LINE
  5
54
100
AcDbEntity
  8
0
390
0
  6
Continuous
 62
     7
100
AcDbLine
 10
2.427384
 20
-6.678521
 30
0.0
 11
2.382426
 21
-7.11603
 31
0.0
  0
ELLIPSE
  5
55
100
AcDbEntity
  8
0
390
0
  6
Continuous
 62
     7
100
AcDbEllipse
 10
3.65
 20
6.635005
 30
0.0
 11
-1.5000000000000013
 21
0.0
 31
0.0
210
0.0
220
0.0
230
1.0
 40
0.617328
 41
4.7647488579445172
 42
5.7217850187988599
  0
LINE
  5
56
100
AcDbEntity
  8
0
390
0
  6
Continuous
 62
     7
100
AcDbLine
 10
2.382426
 20
7.116031
 30
0.0
 11
2.427384
 21
6.678522
 31
0.0
  0
LINE
  5
57
100
AcDbEntity
  8
0
390
0
  6
Continuous
 62
     7
100
AcDbLine
 10
2.380234
 20
7.127978
 30
0.0
 11
2.382426
 21
7.116031
 31
0.0
  0
LINE
  5
58
100
AcDbEntity
  8
0
390
0
  6
Continuous
 62
     7
100
AcDbLine
 10
-4.376179
 20
-4.618846
 30
0.0
 11
-4.376179
 21
-6.229503
 31
0.0
  0
LINE
  5
59
100
AcDbEntity
  8
0
390
0
  6
Continuous
 62
     7
100
AcDbLine
 10
-4.376179
 20
-4.618846
 30
0.0
 11
1.141046
 21
-4.618846
 31
0.0
  0
LINE
  5
5A
100
AcDbEntity
  8
0
390
0
  6
Continuous
 62
     7
100
AcDbLine
 10
1.141046
 20
-6.312904
 30
0.0
 11
1.255507
 21
-6.117826
 31
0.0
  0
LINE
  5
5B
100
AcDbEntity
  8
0
390
0
  6
Continuous
 62
     7
100
AcDbLine
 10
-4.376179
 20
-6.229503
 30
0.0
 11
1.141046
 21
-6.312904
 31
0.0
  0
ELLIPSE
  5
5C
100
AcDbEntity
  8
0
390
0
  6
Continuous
 62
     7
100
AcDbEllipse
 10
-4.35
 20
-4.930662
 30
0.0
 11
1.5000000000000013
 21
-0.0000000000000555
 31
0.0
210
0.0
220
0.0
230
1.0
 40
0.866025
 41
3.141592653589814
 42
4.6949356878647741
  0
LINE
  5
5D
100
AcDbEntity
  8
0
390
0
  6
Continuous
 62
     7
100
AcDbLine
 10
-5.85
 20
-4.930662
 30
0.0
 11
-5.85
 21
-4.618846
 31
0.0
  0
LINE
  5
5E
100
AcDbEntity
  8
0
390
0
  6
Continuous
 62
     7
100
AcDbLine
 10
-4.376179
 20
-4.618846
 30
0.0
 11
-5.85
 21
-4.618846
 31
0.0
  0
LINE
  5
5F
100
AcDbEntity
  8
0
390
0
  6
Continuous
 62
     7
100
AcDbLine
 10
-5.85
 20
4.618846
 30
0.0
 11
-5.85
 21
4.930663
 31
0.0
  0
ELLIPSE
  5
60
100
AcDbEntity
  8
0
390
0
  6
Continuous
 62
     7
100
AcDbEllipse
 10
-4.35
 20
4.930663
 30
0.0
 11
-1.5000000000000013
 21
0.0
 31
0.0
210
0.0
220
0.0
230
1.0
 40
0.866025
 41
4.729842272904631
 42
6.2831853071795676
  0
LINE
  5
61
100
AcDbEntity
  8
0
390
0
  6
Continuous
 62
     7
100
AcDbLine
 10
-4.376179
 20
6.229503
 30
0.0
 11
-4.376179
 21
4.618846
 31
0.0
  0
LINE
  5
62
100
AcDbEntity
  8
0
390
0
  6
Continuous
 62
     7
100
AcDbLine
 10
-5.85
 20
4.618846
 30
0.0
 11
-4.376179
 21
4.618846
 31
0.0
  0
LINE
  5
63
100
AcDbEntity
  8
0
390
0
  6
Continuous
 62
     7
100
AcDbLine
 10
-4.376179
 20
6.229503
 30
0.0
 11
1.141046
 21
6.312905
 31
0.0
  0
LINE
  5
64
100
AcDbEntity
  8
0
390
0
  6
Continuous
 62
     7
100
AcDbLine
 10
1.255507
 20
6.117827
 30
0.0
 11
1.141046
 21
6.312905
 31
0.0
  0
LINE
  5
65
100
AcDbEntity
  8
0
390
0
  6
Continuous
 62
     7
100
AcDbLine
 10
-4.376179
 20
4.618846
 30
0.0
 11
1.141046
 21
4.618846
 31
0.0
  0
LINE
  5
66
100
AcDbEntity
  8
0
390
0
  6
Continuous
 62
     7
100
AcDbLine
 10
-4.376179
 20
4.618846
 30
0.0
 11
-4.376179
 21
-4.618846
 31
0.0
  0
LINE
  5
67
100
AcDbEntity
  8
0
390
0
  6
Continuous
 62
     7
100
AcDbLine
 10
-5.85
 20
-4.618846
 30
0.0
 11
-5.85
 21
4.618846
 31
0.0
  0
POLYLINE
  5
68
100
AcDbEntity
  8
0
390
0
  6
Continuous
 62
     7
100
AcDb2dPolyline
 66
     1
 10
0.0
 20
0.0
 30
0.0
 40
0.1
 41
0.1
  0
VERTEX
  5
69
100
AcDbEntity
  8
0
390
0
 62
     7
100
AcDbVertex
100
AcDb2dVertex
 10
2.380234
 20
11.430703
 30
0.0
  0
VERTEX
  5
6A
100
AcDbEntity
  8
0
390
0
 62
     7
100
AcDbVertex
100
AcDb2dVertex
 10
2.326761
 20
11.267436
 30
0.0
  0
VERTEX
  5
6B
100
AcDbEntity
  8
0
390
0
 62
     7
100
AcDbVertex
100
AcDb2dVertex
 10
2.28657
 20
11.09727
 30
0.0
 42
0.068756
  0
VERTEX
  5
6C
100
AcDbEntity
  8
0
390
0
 62
     7
100
AcDbVertex
100
AcDb2dVertex
 10
2.380234
 20
7.127978
 30
0.0
  0
SEQEND
  5
6D
100
AcDbEntity
  8
0
390
0
  0
ELLIPSE
  5
6E
100
AcDbEntity
  8
0
390
0
  6
Continuous
 62
     7
100
AcDbEllipse
 10
3.65
 20
10.640154
 30
0.0
 11
1.5000000000000013
 21
0.0
 31
0.0
210
0.0
220
0.0
230
0.9999999999999999
 40
0.989971
 41
1.6231562043547283
 42
2.5801923652093932
  0
ELLIPSE
  5
6F
100
AcDbEntity
  8
0
390
0
  6
Continuous
 62
     7
100
AcDbEllipse
 10
3.65
 20
-10.640153
 30
0.0
 11
-1.5000000000000013
 21
0.0
 31
0.0
210
0.0
220
0.0
230
0.9999999999999999
 40
0.989971
 41
0.561400288380726
 42
1.5184364492350675
  0
POLYLINE
  5
70
100
AcDbEntity
  8
0
390
0
  6
Continuous
 62
     7
100
AcDb2dPolyline
 66
     1
 10
0.0
 20
0.0
 30
0.0
 40
0.1
 41
0.1
  0
VERTEX
  5
71
100
AcDbEntity
  8
0
390
0
 62
     7
100
AcDbVertex
100
AcDb2dVertex
 10
2.380234
 20
-7.127977
 30
0.0
 42
0.070031
  0
VERTEX
  5
72
100
AcDbEntity
  8
0
390
0
 62
     7
100
AcDbVertex
100
AcDb2dVertex
 10
2.293084
 20
-11.134196
 30
0.0
  0
VERTEX
  5
73
100
AcDbEntity
  8
0
390
0
 62
     7
100
AcDbVertex
100
AcDb2dVertex
 10
2.380234
 20
-11.430703
 30
0.0
  0
SEQEND
  5
74
100
AcDbEntity
  8
0
390
0
  0
ELLIPSE
  5
75
100
AcDbEntity
  8
0
390
0
  6
Continuous
 62
     7
100
AcDbEllipse
 10
1.114867
 20
-7.611744
 30
0.0
 11
1.3529073393698243
 21
-0.6477976003963493
 31
0.0
210
0.0
220
0.0
230
1.0
 40
0.844563
 41
0.9027521391074407
 42
1.9371443213338351
  0
ELLIPSE
  5
76
100
AcDbEntity
  8
0
390
0
  6
Continuous
 62
     7
100
AcDbEllipse
 10
1.114867
 20
7.611745
 30
0.0
 11
-1.3529073393437341
 21
-0.6477976004508057
 31
0.0
210
0.0
220
0.0
230
1.0
 40
0.844563
 41
1.2044483322222657
 42
2.2388405143772645
  0
LINE
  5
77
100
AcDbEntity
  8
0
390
0
  6
Continuous
 62
     7
100
AcDbLine
 10
1.141046
 20
6.312905
 30
0.0
 11
1.136647
 21
6.32211
 31
0.0
  0
ELLIPSE
  5
78
100
AcDbEntity
  8
0
390
0
  6
Continuous
 62
     7
100
AcDbEllipse
 10
1.110468
 20
7.62095
 30
0.0
 11
-1.3538912859767385
 21
-0.6457386357933692
 31
0.0
210
0.0
220
0.0
230
1.0
 40
0.84473
 41
1.205733317073485
 42
2.2428250633443922
  0
LINE
  5
79
100
AcDbEntity
  8
0
390
0
  6
Continuous
 62
     7
100
AcDbLine
 10
1.136647
 20
-6.322109
 30
0.0
 11
1.141046
 21
-6.312904
 31
0.0
  0
ELLIPSE
  5
7A
100
AcDbEntity
  8
0
390
0
  6
Continuous
 62
     7
100
AcDbEllipse
 10
1.110468
 20
-7.620949
 30
0.0
 11
1.3538912859766272
 21
-0.6457386357935913
 31
0.0
210
0.0
220
0.0
230
0.9999999999999999
 40
0.84473
 41
0.8987675902457637
 42
1.9358593365164414
  0
POLYLINE
  5
7B
100
AcDbEntity
  8
0
390
0
  6
Continuous
 62
     7
100
AcDb2dPolyline
 66
     1
 10
0.0
 20
0.0
 30
0.0
 40
0.1
 41
0.1
  0
VERTEX
  5
7C
100
AcDbEntity
  8
0
390
0
 62
     7
100
AcDbVertex
100
AcDb2dVertex
 10
1.136647
 20
6.32211
 30
0.0
 42
-0.147486
  0
VERTEX
  5
7D
100
AcDbEntity
  8
0
390
0
 62
     7
100
AcDbVertex
100
AcDb2dVertex
 10
1.004603
 20
10.592068
 30
0.0
  0
VERTEX
  5
7E
100
AcDbEntity
  8
0
390
0
 62
     7
100
AcDbVertex
100
AcDb2dVertex
 10
1.136647
 20
10.922413
 30
0.0
  0
SEQEND
  5
7F
100
AcDbEntity
  8
0
390
0
  0
ELLIPSE
  5
80
100
AcDbEntity
  8
0
390
0
  6
Continuous
 62
     7
100
AcDbEllipse
 10
1.110468
 20
12.221253
 30
0.0
 11
-1.3574464737252656
 21
0.6382312049491301
 31
0.0
210
0.0
220
0.0
230
0.9999999999999999
 40
0.840709
 41
1.9651598459757884
 42
3.0022515922464019
  0
POLYLINE
  5
81
100
AcDbEntity
  8
0
390
0
  6
Continuous
 62
     7
100
AcDb2dPolyline
 66
     1
 10
0.0
 20
0.0
 30
0.0
 40
0.1
 41
0.1
  0
VERTEX
  5
82
100
AcDbEntity
  8
0
390
0
 62
     7
100
AcDbVertex
100
AcDb2dVertex
 10
1.136647
 20
-10.922412
 30
0.0
 42
-0.147105
  0
VERTEX
  5
83
100
AcDbEntity
  8
0
390
0
 62
     7
100
AcDbVertex
100
AcDb2dVertex
 10
1.004603
 20
-6.648462
 30
0.0
  0
VERTEX
  5
84
100
AcDbEntity
  8
0
390
0
 62
     7
100
AcDbVertex
100
AcDb2dVertex
 10
1.136647
 20
-6.322109
 30
0.0
  0
SEQEND
  5
85
100
AcDbEntity
  8
0
390
0
  0
ELLIPSE
  5
86
100
AcDbEntity
  8
0
390
0
  6
Continuous
 62
     7
100
AcDbEllipse
 10
1.110468
 20
-12.221252
 30
0.0
 11
1.3574464737253766
 21
0.6382312049489358
 31
0.0
210
0.0
220
0.0
230
1.0
 40
0.840709
 41
0.1393410613432201
 42
1.1764328076141266
  0
LINE
  5
87
100
AcDbEntity
  8
0
390
0
  6
Continuous
 62
     7
100
AcDbLine
 10
-4.376179
 20
10.848349
 30
0.0
 11
-4.376179
 21
6.229503
 31
0.0
  0
LINE
  5
88
100
AcDbEntity
  8
0
390
0
  6
Continuous
 62
     7
100
AcDbLine
 10
-4.376179
 20
10.848349
 30
0.0
 11
1.141046
 21
10.931751
 31
0.0
  0
LINE
  5
89
100
AcDbEntity
  8
0
390
0
  6
Continuous
 62
     7
100
AcDbLine
 10
1.136647
 20
10.922413
 30
0.0
 11
1.141046
 21
10.931751
 31
0.0
  0
LINE
  5
8A
100
AcDbEntity
  8
0
390
0
  6
Continuous
 62
     7
100
AcDbLine
 10
1.141046
 20
-10.93175
 30
0.0
 11
1.136647
 21
-10.922412
 31
0.0
  0
LINE
  5
8B
100
AcDbEntity
  8
0
390
0
  6
Continuous
 62
     7
100
AcDbLine
 10
-4.376179
 20
-10.848349
 30
0.0
 11
1.141046
 21
-10.93175
 31
0.0
  0
LINE
  5
8C
100
AcDbEntity
  8
0
390
0
  6
Continuous
 62
     7
100
AcDbLine
 10
-4.376179
 20
-6.229503
 30
0.0
 11
-4.376179
 21
-10.848349
 31
0.0
  0
LINE
  5
8D
100
AcDbEntity
  8
0
390
0
  6
Continuous
 62
     7
100
AcDbLine
 10
-5.85
 20
4.930663
 30
0.0
 11
-5.85
 21
9.549509
 31
0.0
  0
ELLIPSE
  5
8E
100
AcDbEntity
  8
0
390
0
  6
Continuous
 62
     7
100
AcDbEllipse
 10
-4.35
 20
9.549509
 30
0.0
 11
-1.5000000000000013
 21
0.0
 31
0.0
210
0.0
220
0.0
230
1.0
 40
0.866025
 41
4.729842272904631
 42
6.2831853071795676
  0
ELLIPSE
  5
8F
100
AcDbEntity
  8
0
390
0
  6
Continuous
 62
     7
100
AcDbEllipse
 10
-4.35
 20
-9.549509
 30
0.0
 11
1.5000000000000013
 21
-0.0000000000000555
 31
0.0
210
0.0
220
0.0
230
1.0
 40
0.866025
 41
3.1415926535898118
 42
4.6949356878647759
  0
LINE
  5
90
100
AcDbEntity
  8
0
390
0
  6
Continuous
 62
     7
100
AcDbLine
 10
-5.85
 20
-9.549509
 30
0.0
 11
-5.85
 21
-4.930662
 31
0.0
  0
LINE
  5
91
100
AcDbEntity
  8
0
390
0
  6
Continuous
 62
     7
100
AcDbLine
 10
2.382426
 20
11.436682
 30
0.0
 11
2.380234
 21
11.430703
 31
0.0
  0
LINE
  5
92
100
AcDbEntity
  8
0
390
0
  6
Continuous
 62
     7
100
AcDbLine
 10
2.427384
 20
11.600735
 30
0.0
 11
2.382426
 21
11.436682
 31
0.0
  0
ELLIPSE
  5
93
100
AcDbEntity
  8
0
390
0
  6
Continuous
 62
     7
100
AcDbEllipse
 10
3.625431
 20
10.712853
 30
0.0
 11
1.0304103646133211
 21
1.0900708603102105
 31
0.0
210
0.0
220
0.0
230
1.0
 40
0.994044
 41
0.8127780277296651
 42
1.6895755257749954
  0
ELLIPSE
  5
94
100
AcDbEntity
  8
0
390
0
  6
Continuous
 62
     7
100
AcDbEllipse
 10
3.625431
 20
-10.712852
 30
0.0
 11
-1.0304103817716237
 21
1.0900708440909901
 31
0.0
210
0.0
220
0.0
230
1.0
 40
0.994044
 41
1.4520171124708201
 42
2.3288146101907961
  0
LINE
  5
95
100
AcDbEntity
  8
0
390
0
  6
Continuous
 62
     7
100
AcDbLine
 10
2.382426
 20
-11.436681
 30
0.0
 11
2.427384
 21
-11.600734
 31
0.0
  0
LINE
  5
96
100
AcDbEntity
  8
0
390
0
  6
Continuous
 62
     7
100
AcDbLine
 10
2.380234
 20
-11.430703
 30
0.0
 11
2.382426
 21
-11.436681
 31
0.0
  0
ELLIPSE
  5
97
100
AcDbEntity
  8
0
390
0
  6
Continuous
 62
     7
100
AcDbEllipse
 10
1.114867
 20
-12.23059
 30
0.0
 11
1.3564964779508026
 21
0.6402478467805173
 31
0.0
210
0.0
220
0.0
230
1.0
 40
0.840527
 41
0.1407913546153386
 42
1.1751835366179704
  0
ELLIPSE
  5
98
100
AcDbEntity
  8
0
390
0
  6
Continuous
 62
     7
100
AcDbEllipse
 10
1.114867
 20
12.230591
 30
0.0
 11
-1.3564964891189246
 21
0.6402478231185282
 31
0.0
210
0.0
220
0.0
230
0.9999999999999999
 40
0.840527
 41
1.9664091020675016
 42
3.0008012842939209
  0
LINE
  5
99
100
AcDbEntity
  8
0
390
0
  6
Continuous
 62
     7
100
AcDbLine
 10
1.141046
 20
10.931751
 30
0.0
 11
1.255507
 21
11.077349
 31
0.0
  0
ELLIPSE
  5
9A
100
AcDbEntity
  8
0
390
0
  6
Continuous
 62
     7
100
AcDbEllipse
 10
1.229337
 20
12.488618
 30
0.0
 11
-1.4081799486599933
 21
0.5167487128111548
 31
0.0
210
0.0
220
0.0
230
0.9999999999999999
 40
0.932994
 41
1.9182438922955858
 42
2.8361818868513833
  0
LINE
  5
9B
100
AcDbEntity
  8
0
390
0
  6
Continuous
 62
     7
100
AcDbLine
 10
1.255507
 20
-11.077348
 30
0.0
 11
1.141046
 21
-10.93175
 31
0.0
  0
ELLIPSE
  5
9C
100
AcDbEntity
  8
0
390
0
  6
Continuous
 62
     7
100
AcDbEllipse
 10
1.229337
 20
-12.488617
 30
0.0
 11
1.408179948840238
 21
0.5167487123199366
 31
0.0
210
0.0
220
0.0
230
1.0
 40
0.932994
 41
0.3054107668445751
 42
1.2233487616094052
  0
LINE
  5
9D
100
AcDbEntity
  8
0
390
0
  6
Continuous
 62
     7
100
AcDbLine
 10
2.436343
 20
11.719201
 30
0.0
 11
2.427384
 21
11.600735
 31
0.0
  0
LINE
  5
9E
100
AcDbEntity
  8
0
390
0
  6
Continuous
 62
     7
100
AcDbLine
 10
2.427384
 20
-11.600734
 30
0.0
 11
2.436343
 21
-11.7192
 31
0.0
  0
LINE
  5
9F
100
AcDbEntity
  8
0
390
0
  6
Continuous
 62
     7
100
AcDbLine
 10
1.255507
 20
11.077349
 30
0.0
 11
1.322701
 21
11.194558
 31
0.0
  0
LINE
  5
A0
100
AcDbEntity
  8
0
390
0
  6
Continuous
 62
     7
100
AcDbLine
 10
1.322701
 20
-11.194558
 30
0.0
 11
1.255507
 21
-11.077348
 31
0.0
  0
LINE
  5
A1
100
AcDbEntity
  8
0
390
0
  6
Continuous
 62
     7
100
AcDbLine
 10
-4.376148
 20
11.095204
 30
0.0
 11
-4.376179
 21
10.848349
 31
0.0
  0
LINE
  5
A2
100
AcDbEntity
  8
0
390
0
  6
Continuous
 62
     7
100
AcDbLine
 10
-4.376179
 20
-10.848349
 30
0.0
 11
-4.376148
 21
-11.095203
 31
0.0
  0
LINE
  5
A3
100
AcDbEntity
  8
0
390
0
  6
Continuous
 62
     7
100
AcDbLine
 10
-5.85
 20
9.595299
 30
0.0
 11
-5.85
 21
9.594357
 31
0.0
  0
LINE
  5
A4
100
AcDbEntity
  8
0
390
0
  6
Continuous
 62
     7
100
AcDbLine
 10
-5.85
 20
9.549509
 30
0.0
 11
-5.85
 21
9.595299
 31
0.0
  0
LINE
  5
A5
100
AcDbEntity
  8
0
390
0
  6
Continuous
 62
     7
100
AcDbLine
 10
-5.85
 20
-9.595431
 30
0.0
 11
-5.85
 21
-9.594356
 31
0.0
  0
LINE
  5
A6
100
AcDbEntity
  8
0
390
0
  6
Continuous
 62
     7
100
AcDbLine
 10
-5.85
 20
-9.594356
 30
0.0
 11
-5.85
 21
-9.549509
 31
0.0
  0
LINE
  5
A7
100
AcDbEntity
  8
0
390
0
  6
Continuous
 62
     7
100
AcDbLine
 10
5.85
 20
12.365297
 30
0.0
 11
3.497729
 21
12.24202
 31
0.0
  0
LINE
  5
A8
100
AcDbEntity
  8
0
390
0
  6
Continuous
 62
     7
100
AcDbLine
 10
3.497729
 20
-12.242019
 30
0.0
 11
5.85
 21
-12.365297
 31
0.0
  0
ARC
  5
A9
100
AcDbEntity
  8
0
390
0
  6
Continuous
 62
     7
100
AcDbCircle
 10
3.576134
 20
10.744071
 30
0.0
 40
1.5
210
0.0
220
0.0
230
1.0
100
AcDbArc
 50
93.0
 51
139.451868
  0
ARC
  5
AA
100
AcDbEntity
  8
0
390
0
  6
Continuous
 62
     7
100
AcDbCircle
 10
3.576134
 20
10.744071
 30
0.0
 40
1.5
210
0.0
220
0.0
230
1.0
100
AcDbArc
 50
139.451868
 51
140.844808
  0
ARC
  5
AB
100
AcDbEntity
  8
0
390
0
  6
Continuous
 62
     7
100
AcDbCircle
 10
3.576134
 20
-10.74407
 30
0.0
 40
1.5
210
0.0
220
0.0
230
1.0
100
AcDbArc
 50
219.155192
 51
220.548132
  0
ARC
  5
AC
100
AcDbEntity
  8
0
390
0
  6
Continuous
 62
     7
100
AcDbCircle
 10
3.576134
 20
-10.74407
 30
0.0
 40
1.5
210
0.0
220
0.0
230
1.0
100
AcDbArc
 50
220.548132
 51
267.0
  0
ARC
  5
AD
100
AcDbEntity
  8
0
390
0
  6
Continuous
 62
     7
100
AcDbCircle
 10
1.296553
 20
12.69433
 30
0.0
 40
1.5
210
0.0
220
0.0
230
1.0
100
AcDbArc
 50
270.998804
 51
319.451868
  0
ARC
  5
AE
100
AcDbEntity
  8
0
390
0
  6
Continuous
 62
     7
100
AcDbCircle
 10
1.296553
 20
-12.69433
 30
0.0
 40
1.5
210
0.0
220
0.0
230
1.0
100
AcDbArc
 50
40.548132
 51
89.001196
  0
LINE
  5
AF
100
AcDbEntity
  8
0
390
0
  6
Continuous
 62
     7
100
AcDbLine
 10
1.322701
 20
11.194558
 30
0.0
 11
-4.376148
 21
11.095204
 31
0.0
  0
LINE
  5
B0
100
AcDbEntity
  8
0
390
0
  6
Continuous
 62
     7
100
AcDbLine
 10
-4.376148
 20
11.095204
 30
0.0
 11
-4.410408
 21
11.094606
 31
0.0
  0
LINE
  5
B1
100
AcDbEntity
  8
0
390
0
  6
Continuous
 62
     7
100
AcDbLine
 10
-4.410408
 20
-11.094606
 30
0.0
 11
-4.376148
 21
-11.095203
 31
0.0
  0
LINE
  5
B2
100
AcDbEntity
  8
0
390
0
  6
Continuous
 62
     7
100
AcDbLine
 10
-4.376148
 20
-11.095203
 30
0.0
 11
1.322701
 21
-11.194558
 31
0.0
  0
ARC
  5
B3
100
AcDbEntity
  8
0
390
0
  6
Continuous
 62
     7
100
AcDbCircle
 10
-4.35
 20
9.595432
 30
0.0
 40
1.5
210
0.0
220
0.0
230
1.0
100
AcDbArc
 50
90.998804
 51
180.0
  0
ARC
  5
B4
100
AcDbEntity
  8
0
390
0
  6
Continuous
 62
     7
100
AcDbCircle
 10
-4.35
 20
-9.595431
 30
0.0
 40
1.5
210
0.0
220
0.0
230
1.0
100
AcDbArc
 50
180.0
 51
269.001196
  0
CIRCLE
  5
B5
100
AcDbEntity
  8
0
390
0
  6
Continuous
 62
     7
100
AcDbCircle
 10
68.218382
 20
0.0
 30
0.0
 40
12.365297
210
0.0
220
0.0
230
1.0
  0
CIRCLE
  5
B6
100
AcDbEntity
  8
0
390
0
  6
Continuous
 62
     7
100
AcDbCircle
 10
68.218382
 20
0.0
 30
0.0
 40
10.865297
210
0.0
220
0.0
230
1.0
  0
ARC
  5
B7
100
AcDbEntity
  8
0
390
0
  6
Continuous
 62
     7
100
AcDbCircle
 10
68.218382
 20
0.0
 30
0.0
 40
10.75
210
0.0
220
0.0
230
1.0
100
AcDbArc
 50
158.09723
 51
201.90277
  0
ARC
  5
B8
100
AcDbEntity
  8
0
390
0
  6
Continuous
 62
     7
100
AcDbCircle
 10
68.218382
 20
0.0
 30
0.0
 40
10.75
210
0.0
220
0.0
230
1.0
100
AcDbArc
 50
201.90277
 51
204.778102
  0
ARC
  5
B9
100
AcDbEntity
  8
0
390
0
  6
Continuous
 62
     7
100
AcDbCircle
 10
68.218382
 20
0.0
 30
0.0
 40
10.75
210
0.0
220
0.0
230
1.0
100
AcDbArc
 50
204.778102
 51
215.221898
  0
ARC
  5
BA
100
AcDbEntity
  8
0
390
0
  6
Continuous
 62
     7
100
AcDbCircle
 10
68.218382
 20
0.0
 30
0.0
 40
10.75
210
0.0
220
0.0
230
1.0
100
AcDbArc
 50
215.221898
 51
218.09723
  0
ARC
  5
BB
100
AcDbEntity
  8
0
390
0
  6
Continuous
 62
     7
100
AcDbCircle
 10
68.218382
 20
0.0
 30
0.0
 40
10.75
210
0.0
220
0.0
230
1.0
100
AcDbArc
 50
218.09723
 51
261.90277
  0
ARC
  5
BC
100
AcDbEntity
  8
0
390
0
  6
Continuous
 62
     7
100
AcDbCircle
 10
68.218382
 20
0.0
 30
0.0
 40
10.75
210
0.0
220
0.0
230
1.0
100
AcDbArc
 50
261.90277
 51
264.778102
  0
ARC
  5
BD
100
AcDbEntity
  8
0
390
0
  6
Continuous
 62
     7
100
AcDbCircle
 10
68.218382
 20
0.0
 30
0.0
 40
10.75
210
0.0
220
0.0
230
1.0
100
AcDbArc
 50
264.778102
 51
275.221898
  0
ARC
  5
BE
100
AcDbEntity
  8
0
390
0
  6
Continuous
 62
     7
100
AcDbCircle
 10
68.218382
 20
0.0
 30
0.0
 40
10.75
210
0.0
220
0.0
230
1.0
100
AcDbArc
 50
275.221898
 51
278.09723
  0
ARC
  5
BF
100
AcDbEntity
  8
0
390
0
  6
Continuous
 62
     7
100
AcDbCircle
 10
68.218382
 20
0.0
 30
0.0
 40
10.75
210
0.0
220
0.0
230
1.0
100
AcDbArc
 50
278.09723
 51
321.90277
  0
ARC
  5
C0
100
AcDbEntity
  8
0
390
0
  6
Continuous
 62
     7
100
AcDbCircle
 10
68.218382
 20
0.0
 30
0.0
 40
10.75
210
0.0
220
0.0
230
0.9999999999999999
100
AcDbArc
 50
321.90277
 51
324.778102
  0
ARC
  5
C1
100
AcDbEntity
  8
0
390
0
  6
Continuous
 62
     7
100
AcDbCircle
 10
68.218382
 20
0.0
 30
0.0
 40
10.75
210
0.0
220
0.0
230
1.0
100
AcDbArc
 50
324.778102
 51
335.221898
  0
ARC
  5
C2
100
AcDbEntity
  8
0
390
0
  6
Continuous
 62
     7
100
AcDbCircle
 10
68.218382
 20
0.0
 30
0.0
 40
10.75
210
0.0
220
0.0
230
1.0
100
AcDbArc
 50
335.221898
 51
338.09723
  0
ARC
  5
C3
100
AcDbEntity
  8
0
390
0
  6
Continuous
 62
     7
100
AcDbCircle
 10
68.218382
 20
0.0
 30
0.0
 40
10.75
210
0.0
220
0.0
230
1.0
100
AcDbArc
 50
338.09723
 51
21.90277
  0
ARC
  5
C4
100
AcDbEntity
  8
0
390
0
  6
Continuous
 62
     7
100
AcDbCircle
 10
68.218382
 20
0.0
 30
0.0
 40
10.75
210
0.0
220
0.0
230
1.0
100
AcDbArc
 50
21.90277
 51
24.778102
  0
ARC
  5
C5
100
AcDbEntity
  8
0
390
0
  6
Continuous
 62
     7
100
AcDbCircle
 10
68.218382
 20
0.0
 30
0.0
 40
10.75
210
0.0
220
0.0
230
1.0
100
AcDbArc
 50
24.778102
 51
35.221898
  0
ARC
  5
C6
100
AcDbEntity
  8
0
390
0
  6
Continuous
 62
     7
100
AcDbCircle
 10
68.218382
 20
0.0
 30
0.0
 40
10.75
210
0.0
220
0.0
230
1.0
100
AcDbArc
 50
35.221898
 51
38.09723
  0
ARC
  5
C7
100
AcDbEntity
  8
0
390
0
  6
Continuous
 62
     7
100
AcDbCircle
 10
68.218382
 20
0.0
 30
0.0
 40
10.75
210
0.0
220
0.0
230
1.0
100
AcDbArc
 50
38.09723
 51
81.90277
  0
ARC
  5
C8
100
AcDbEntity
  8
0
390
0
  6
Continuous
 62
     7
100
AcDbCircle
 10
68.218382
 20
0.0
 30
0.0
 40
10.75
210
0.0
220
0.0
230
1.0
100
AcDbArc
 50
81.90277
 51
84.778102
  0
ARC
  5
C9
100
AcDbEntity
  8
0
390
0
  6
Continuous
 62
     7
100
AcDbCircle
 10
68.218382
 20
0.0
 30
0.0
 40
10.75
210
0.0
220
0.0
230
1.0
100
AcDbArc
 50
84.778102
 51
95.221898
  0
ARC
  5
CA
100
AcDbEntity
  8
0
390
0
  6
Continuous
 62
     7
100
AcDbCircle
 10
68.218382
 20
0.0
 30
0.0
 40
10.75
210
0.0
220
0.0
230
1.0
100
AcDbArc
 50
95.221898
 51
98.09723
  0
ARC
  5
CB
100
AcDbEntity
  8
0
390
0
  6
Continuous
 62
     7
100
AcDbCircle
 10
68.218382
 20
0.0
 30
0.0
 40
10.75
210
0.0
220
0.0
230
1.0
100
AcDbArc
 50
98.09723
 51
141.90277
  0
ARC
  5
CC
100
AcDbEntity
  8
0
390
0
  6
Continuous
 62
     7
100
AcDbCircle
 10
68.218382
 20
0.0
 30
0.0
 40
10.75
210
0.0
220
0.0
230
1.0
100
AcDbArc
 50
141.90277
 51
144.778102
  0
ARC
  5
CD
100
AcDbEntity
  8
0
390
0
  6
Continuous
 62
     7
100
AcDbCircle
 10
68.218382
 20
0.0
 30
0.0
 40
10.75
210
0.0
220
0.0
230
1.0
100
AcDbArc
 50
144.778102
 51
155.221898
  0
ARC
  5
CE
100
AcDbEntity
  8
0
390
0
  6
Continuous
 62
     7
100
AcDbCircle
 10
68.218382
 20
0.0
 30
0.0
 40
10.75
210
0.0
220
0.0
230
1.0
100
AcDbArc
 50
155.221898
 51
158.09723
  0
POLYLINE
  5
CF
100
AcDbEntity
  8
0
390
0
  6
Continuous
 62
     7
100
AcDb2dPolyline
 66
     1
 10
0.0
 20
0.0
 30
0.0
 40
0.1
 41
0.1
  0
VERTEX
  5
D0
100
AcDbEntity
  8
0
390
0
 62
     7
100
AcDbVertex
100
AcDb2dVertex
 10
59.743782
 20
4.604182
 30
0.0
  0
VERTEX
  5
D1
100
AcDbEntity
  8
0
390
0
 62
     7
100
AcDbVertex
100
AcDb2dVertex
 10
59.744296
 20
4.629822
 30
0.0
  0
VERTEX
  5
D2
100
AcDbEntity
  8
0
390
0
 62
     7
100
AcDbVertex
100
AcDb2dVertex
 10
59.746109
 20
4.655364
 30
0.0
  0
VERTEX
  5
D3
100
AcDbEntity
  8
0
390
0
 62
     7
100
AcDbVertex
100
AcDb2dVertex
 10
59.749228
 20
4.680795
 30
0.0
  0
VERTEX
  5
D4
100
AcDbEntity
  8
0
390
0
 62
     7
100
AcDbVertex
100
AcDb2dVertex
 10
59.753661
 20
4.706099
 30
0.0
  0
VERTEX
  5
D5
100
AcDbEntity
  8
0
390
0
 62
     7
100
AcDbVertex
100
AcDb2dVertex
 10
59.758444
 20
4.727376
 30
0.0
  0
VERTEX
  5
D6
100
AcDbEntity
  8
0
390
0
 62
     7
100
AcDbVertex
100
AcDb2dVertex
 10
59.764205
 20
4.748576
 30
0.0
  0
VERTEX
  5
D7
100
AcDbEntity
  8
0
390
0
 62
     7
100
AcDbVertex
100
AcDb2dVertex
 10
59.770949
 20
4.769639
 30
0.0
  0
VERTEX
  5
D8
100
AcDbEntity
  8
0
390
0
 62
     7
100
AcDbVertex
100
AcDb2dVertex
 10
59.776848
 20
4.785796
 30
0.0
  0
VERTEX
  5
D9
100
AcDbEntity
  8
0
390
0
 62
     7
100
AcDbVertex
100
AcDb2dVertex
 10
59.783353
 20
4.801841
 30
0.0
  0
VERTEX
  5
DA
100
AcDbEntity
  8
0
390
0
 62
     7
100
AcDbVertex
100
AcDb2dVertex
 10
59.790449
 20
4.817714
 30
0.0
  0
VERTEX
  5
DB
100
AcDbEntity
  8
0
390
0
 62
     7
100
AcDbVertex
100
AcDb2dVertex
 10
59.79812
 20
4.83336
 30
0.0
  0
VERTEX
  5
DC
100
AcDbEntity
  8
0
390
0
 62
     7
100
AcDbVertex
100
AcDb2dVertex
 10
59.806117
 20
4.84831
 30
0.0
  0
VERTEX
  5
DD
100
AcDbEntity
  8
0
390
0
 62
     7
100
AcDbVertex
100
AcDb2dVertex
 10
59.814633
 20
4.862983
 30
0.0
  0
VERTEX
  5
DE
100
AcDbEntity
  8
0
390
0
 62
     7
100
AcDbVertex
100
AcDb2dVertex
 10
59.822475
 20
4.875533
 30
0.0
  0
VERTEX
  5
DF
100
AcDbEntity
  8
0
390
0
 62
     7
100
AcDbVertex
100
AcDb2dVertex
 10
59.83069
 20
4.887834
 30
0.0
  0
VERTEX
  5
E0
100
AcDbEntity
  8
0
390
0
 62
     7
100
AcDbVertex
100
AcDb2dVertex
 10
59.839252
 20
4.899858
 30
0.0
  0
VERTEX
  5
E1
100
AcDbEntity
  8
0
390
0
 62
     7
100
AcDbVertex
100
AcDb2dVertex
 10
59.848135
 20
4.911575
 30
0.0
  0
VERTEX
  5
E2
100
AcDbEntity
  8
0
390
0
 62
     7
100
AcDbVertex
100
AcDb2dVertex
 10
59.857313
 20
4.922956
 30
0.0
  0
VERTEX
  5
E3
100
AcDbEntity
  8
0
390
0
 62
     7
100
AcDbVertex
100
AcDb2dVertex
 10
59.869712
 20
4.937294
 30
0.0
  0
VERTEX
  5
E4
100
AcDbEntity
  8
0
390
0
 62
     7
100
AcDbVertex
100
AcDb2dVertex
 10
59.882582
 20
4.951072
 30
0.0
  0
VERTEX
  5
E5
100
AcDbEntity
  8
0
390
0
 62
     7
100
AcDbVertex
100
AcDb2dVertex
 10
59.895887
 20
4.964272
 30
0.0
  0
VERTEX
  5
E6
100
AcDbEntity
  8
0
390
0
 62
     7
100
AcDbVertex
100
AcDb2dVertex
 10
59.909586
 20
4.976876
 30
0.0
  0
VERTEX
  5
E7
100
AcDbEntity
  8
0
390
0
 62
     7
100
AcDbVertex
100
AcDb2dVertex
 10
59.921437
 20
4.987047
 30
0.0
  0
VERTEX
  5
E8
100
AcDbEntity
  8
0
390
0
 62
     7
100
AcDbVertex
100
AcDb2dVertex
 10
59.938679
 20
5.000752
 30
0.0
  0
VERTEX
  5
E9
100
AcDbEntity
  8
0
390
0
 62
     7
100
AcDbVertex
100
AcDb2dVertex
 10
59.956482
 20
5.013668
 30
0.0
  0
VERTEX
  5
EA
100
AcDbEntity
  8
0
390
0
 62
     7
100
AcDbVertex
100
AcDb2dVertex
 10
59.97484
 20
5.025794
 30
0.0
  0
VERTEX
  5
EB
100
AcDbEntity
  8
0
390
0
 62
     7
100
AcDbVertex
100
AcDb2dVertex
 10
59.993744
 20
5.037128
 30
0.0
  0
SEQEND
  5
EC
100
AcDbEntity
  8
0
390
0
  0
ELLIPSE
  5
ED
100
AcDbEntity
  8
0
390
0
  6
Continuous
 62
     7
100
AcDbEllipse
 10
58.24401
 20
4.604182
 30
0.0
 11
-1.4999989783479606
 21
-0.0017507013061191
 31
0.0
210
0.0
220
0.0
230
0.9999999999999999
 40
0.066716
 41
1.7139011024734427
 42
3.1241003843163364
  0
ELLIPSE
  5
EE
100
AcDbEntity
  8
0
390
0
  6
Continuous
 62
     7
100
AcDbEllipse
 10
59.243858
 20
6.335969
 30
0.0
 11
-0.7484833373684607
 21
1.2999125715530968
 31
0.0
210
0.0
220
0.0
230
1.0
 40
0.066716
 41
3.159084922863229
 42
4.5692842047061815
  0
LINE
  5
EF
100
AcDbEntity
  8
0
390
0
  6
Continuous
 62
     7
100
AcDbLine
 10
58.244336
 20
4.010101
 30
0.0
 11
58.244336
 21
-4.0101
 31
0.0
  0
POLYLINE
  5
F0
100
AcDbEntity
  8
0
390
0
  6
Continuous
 62
     7
100
AcDb2dPolyline
 66
     1
 10
0.0
 20
0.0
 30
0.0
 40
0.1
 41
0.1
  0
VERTEX
  5
F1
100
AcDbEntity
  8
0
390
0
 62
     7
100
AcDbVertex
100
AcDb2dVertex
 10
59.993744
 20
-5.037128
 30
0.0
  0
VERTEX
  5
F2
100
AcDbEntity
  8
0
390
0
 62
     7
100
AcDbVertex
100
AcDb2dVertex
 10
59.971796
 20
-5.023863
 30
0.0
  0
VERTEX
  5
F3
100
AcDbEntity
  8
0
390
0
 62
     7
100
AcDbVertex
100
AcDb2dVertex
 10
59.950582
 20
-5.009521
 30
0.0
  0
VERTEX
  5
F4
100
AcDbEntity
  8
0
390
0
 62
     7
100
AcDbVertex
100
AcDb2dVertex
 10
59.930118
 20
-4.994104
 30
0.0
  0
VERTEX
  5
F5
100
AcDbEntity
  8
0
390
0
 62
     7
100
AcDbVertex
100
AcDb2dVertex
 10
59.910421
 20
-4.977613
 30
0.0
  0
VERTEX
  5
F6
100
AcDbEntity
  8
0
390
0
 62
     7
100
AcDbVertex
100
AcDb2dVertex
 10
59.894386
 20
-4.962832
 30
0.0
  0
VERTEX
  5
F7
100
AcDbEntity
  8
0
390
0
 62
     7
100
AcDbVertex
100
AcDb2dVertex
 10
59.878906
 20
-4.947244
 30
0.0
  0
VERTEX
  5
F8
100
AcDbEntity
  8
0
390
0
 62
     7
100
AcDbVertex
100
AcDb2dVertex
 10
59.864038
 20
-4.930871
 30
0.0
  0
VERTEX
  5
F9
100
AcDbEntity
  8
0
390
0
 62
     7
100
AcDbVertex
100
AcDb2dVertex
 10
59.852994
 20
-4.917684
 30
0.0
  0
VERTEX
  5
FA
100
AcDbEntity
  8
0
390
0
 62
     7
100
AcDbVertex
100
AcDb2dVertex
 10
59.842352
 20
-4.904029
 30
0.0
  0
VERTEX
  5
FB
100
AcDbEntity
  8
0
390
0
 62
     7
100
AcDbVertex
100
AcDb2dVertex
 10
59.832152
 20
-4.889947
 30
0.0
  0
VERTEX
  5
FC
100
AcDbEntity
  8
0
390
0
 62
     7
100
AcDbVertex
100
AcDb2dVertex
 10
59.822439
 20
-4.87548
 30
0.0
  0
VERTEX
  5
FD
100
AcDbEntity
  8
0
390
0
 62
     7
100
AcDbVertex
100
AcDb2dVertex
 10
59.81349
 20
-4.861079
 30
0.0
  0
VERTEX
  5
FE
100
AcDbEntity
  8
0
390
0
 62
     7
100
AcDbVertex
100
AcDb2dVertex
 10
59.805041
 20
-4.846368
 30
0.0
  0
VERTEX
  5
FF
100
AcDbEntity
  8
0
390
0
 62
     7
100
AcDbVertex
100
AcDb2dVertex
 10
59.798093
 20
-4.833302
 30
0.0
  0
VERTEX
  5
100
100
AcDbEntity
  8
0
390
0
 62
     7
100
AcDbVertex
100
AcDb2dVertex
 10
59.791548
 20
-4.820036
 30
0.0
  0
VERTEX
  5
101
100
AcDbEntity
  8
0
390
0
 62
     7
100
AcDbVertex
100
AcDb2dVertex
 10
59.785416
 20
-4.80661
 30
0.0
  0
VERTEX
  5
102
100
AcDbEntity
  8
0
390
0
 62
     7
100
AcDbVertex
100
AcDb2dVertex
 10
59.77971
 20
-4.793058
 30
0.0
  0
VERTEX
  5
103
100
AcDbEntity
  8
0
390
0
 62
     7
100
AcDbVertex
100
AcDb2dVertex
 10
59.774442
 20
-4.779419
 30
0.0
  0
VERTEX
  5
104
100
AcDbEntity
  8
0
390
0
 62
     7
100
AcDbVertex
100
AcDb2dVertex
 10
59.768225
 20
-4.761513
 30
0.0
  0
VERTEX
  5
105
100
AcDbEntity
  8
0
390
0
 62
     7
100
AcDbVertex
100
AcDb2dVertex
 10
59.762728
 20
-4.743477
 30
0.0
  0
VERTEX
  5
106
100
AcDbEntity
  8
0
390
0
 62
     7
100
AcDbVertex
100
AcDb2dVertex
 10
59.757949
 20
-4.725356
 30
0.0
  0
VERTEX
  5
107
100
AcDbEntity
  8
0
390
0
 62
     7
100
AcDbVertex
100
AcDb2dVertex
 10
59.753883
 20
-4.70719
 30
0.0
  0
VERTEX
  5
108
100
AcDbEntity
  8
0
390
0
 62
     7
100
AcDbVertex
100
AcDb2dVertex
 10
59.751
 20
-4.691841
 30
0.0
  0
VERTEX
  5
109
100
AcDbEntity
  8
0
390
0
 62
     7
100
AcDbVertex
100
AcDb2dVertex
 10
59.747752
 20
-4.670057
 30
0.0
  0
VERTEX
  5
10A
100
AcDbEntity
  8
0
390
0
 62
     7
100
AcDbVertex
100
AcDb2dVertex
 10
59.745468
 20
-4.648181
 30
0.0
  0
VERTEX
  5
10B
100
AcDbEntity
  8
0
390
0
 62
     7
100
AcDbVertex
100
AcDb2dVertex
 10
59.744146
 20
-4.62622
 30
0.0
  0
VERTEX
  5
10C
100
AcDbEntity
  8
0
390
0
 62
     7
100
AcDbVertex
100
AcDb2dVertex
 10
59.743782
 20
-4.604181
 30
0.0
  0
SEQEND
  5
10D
100
AcDbEntity
  8
0
390
0
  0
ELLIPSE
  5
10E
100
AcDbEntity
  8
0
390
0
  6
Continuous
 62
     7
100
AcDbEllipse
 10
59.243858
 20
-6.335968
 30
0.0
 11
-0.7484833373684607
 21
-1.2999125715530968
 31
0.0
210
0.0
220
0.0
230
1.0
 40
0.066716
 41
1.7139011024733992
 42
3.1241003843163737
  0
ELLIPSE
  5
10F
100
AcDbEntity
  8
0
390
0
  6
Continuous
 62
     7
100
AcDbEllipse
 10
58.24401
 20
-4.604181
 30
0.0
 11
-1.4999989783479606
 21
0.0017507013061191
 31
0.0
210
0.0
220
0.0
230
0.9999999999999999
 40
0.066716
 41
3.1590849228632685
 42
4.5692842047061815
  0
LINE
  5
110
100
AcDbEntity
  8
0
390
0
  6
Continuous
 62
     7
100
AcDbLine
 10
59.744107
 20
-4.0101
 30
0.0
 11
59.744107
 21
4.010101
 31
0.0
  0
LINE
  5
111
100
AcDbEntity
  8
0
390
0
  6
Continuous
 62
     7
100
AcDbLine
 10
58.244336
 20
-4.0101
 30
0.0
 11
59.744107
 21
-4.0101
 31
0.0
  0
LINE
  5
112
100
AcDbEntity
  8
0
390
0
  6
Continuous
 62
     7
100
AcDbLine
 10
58.244336
 20
4.010101
 30
0.0
 11
59.744107
 21
4.010101
 31
0.0
  0
LINE
  5
113
100
AcDbEntity
  8
0
390
0
  6
Continuous
 62
     7
100
AcDbLine
 10
59.744107
 20
4.010101
 30
0.0
 11
59.743782
 21
4.604182
 31
0.0
  0
LINE
  5
114
100
AcDbEntity
  8
0
390
0
  6
Continuous
 62
     7
100
AcDbLine
 10
59.743782
 20
-4.604181
 30
0.0
 11
59.744107
 21
-4.0101
 31
0.0
  0
LINE
  5
115
100
AcDbEntity
  8
0
390
0
  6
Continuous
 62
     7
100
AcDbLine
 10
59.758509
 20
-6.632726
 30
0.0
 11
66.704208
 21
-10.642827
 31
0.0
  0
LINE
  5
116
100
AcDbEntity
  8
0
390
0
  6
Continuous
 62
     7
100
AcDbLine
 10
66.704208
 20
10.642828
 30
0.0
 11
59.758509
 21
6.632727
 31
0.0
  0
LINE
  5
117
100
AcDbEntity
  8
0
390
0
  6
Continuous
 62
     7
100
AcDbLine
 10
59.993744
 20
5.037128
 30
0.0
 11
60.508395
 21
5.333887
 31
0.0
  0
LINE
  5
118
100
AcDbEntity
  8
0
390
0
  6
Continuous
 62
     7
100
AcDbLine
 10
59.758509
 20
6.632727
 30
0.0
 11
60.508395
 21
5.333887
 31
0.0
  0
LINE
  5
119
100
AcDbEntity
  8
0
390
0
  6
Continuous
 62
     7
100
AcDbLine
 10
60.508395
 20
5.333887
 30
0.0
 11
67.454094
 21
9.343988
 31
0.0
  0
LINE
  5
11A
100
AcDbEntity
  8
0
390
0
  6
Continuous
 62
     7
100
AcDbLine
 10
66.704208
 20
10.642828
 30
0.0
 11
67.454094
 21
9.343988
 31
0.0
  0
LINE
  5
11B
100
AcDbEntity
  8
0
390
0
  6
Continuous
 62
     7
100
AcDbLine
 10
67.454094
 20
-9.343987
 30
0.0
 11
60.508395
 21
-5.333886
 31
0.0
  0
LINE
  5
11C
100
AcDbEntity
  8
0
390
0
  6
Continuous
 62
     7
100
AcDbLine
 10
66.704208
 20
-10.642827
 30
0.0
 11
67.454094
 21
-9.343987
 31
0.0
  0
LINE
  5
11D
100
AcDbEntity
  8
0
390
0
  6
Continuous
 62
     7
100
AcDbLine
 10
59.758509
 20
-6.632726
 30
0.0
 11
60.508395
 21
-5.333886
 31
0.0
  0
LINE
  5
11E
100
AcDbEntity
  8
0
390
0
  6
Continuous
 62
     7
100
AcDbLine
 10
60.508395
 20
-5.333886
 30
0.0
 11
59.993744
 21
-5.037128
 31
0.0
  0
LINE
  5
11F
100
AcDbEntity
  8
0
390
0
  6
Continuous
 62
     7
100
AcDbLine
 10
76.678254
 20
6.632727
 30
0.0
 11
69.732555
 21
10.642828
 31
0.0
  0
LINE
  5
120
100
AcDbEntity
  8
0
390
0
  6
Continuous
 62
     7
100
AcDbLine
 10
75.928368
 20
5.333887
 30
0.0
 11
76.678254
 21
6.632727
 31
0.0
  0
LINE
  5
121
100
AcDbEntity
  8
0
390
0
  6
Continuous
 62
     7
100
AcDbLine
 10
68.98267
 20
9.343988
 30
0.0
 11
75.928368
 21
5.333887
 31
0.0
  0
LINE
  5
122
100
AcDbEntity
  8
0
390
0
  6
Continuous
 62
     7
100
AcDbLine
 10
68.98267
 20
9.343988
 30
0.0
 11
69.732555
 21
10.642828
 31
0.0
  0
LINE
  5
123
100
AcDbEntity
  8
0
390
0
  6
Continuous
 62
     7
100
AcDbLine
 10
69.732555
 20
-10.642827
 30
0.0
 11
76.678254
 21
-6.632726
 31
0.0
  0
LINE
  5
124
100
AcDbEntity
  8
0
390
0
  6
Continuous
 62
     7
100
AcDbLine
 10
68.98267
 20
-9.343987
 30
0.0
 11
69.732555
 21
-10.642827
 31
0.0
  0
LINE
  5
125
100
AcDbEntity
  8
0
390
0
  6
Continuous
 62
     7
100
AcDbLine
 10
75.928368
 20
-5.333886
 30
0.0
 11
68.98267
 21
-9.343987
 31
0.0
  0
LINE
  5
126
100
AcDbEntity
  8
0
390
0
  6
Continuous
 62
     7
100
AcDbLine
 10
75.928368
 20
-5.333886
 30
0.0
 11
76.678254
 21
-6.632726
 31
0.0
  0
LINE
  5
127
100
AcDbEntity
  8
0
390
0
  6
Continuous
 62
     7
100
AcDbLine
 10
68.468343
 20
9.64131
 30
0.0
 11
68.98267
 21
9.343988
 31
0.0
  0
ELLIPSE
  5
128
100
AcDbEntity
  8
0
390
0
  6
Continuous
 62
     7
100
AcDbEllipse
 10
69.218229
 20
10.94015
 30
0.0
 11
0.7515156409794999
 21
1.2981618702469777
 31
0.0
210
0.0
220
0.0
230
1.0
 40
0.066716
 41
3.1590849228632152
 42
4.5692842047061335
  0
ELLIPSE
  5
129
100
AcDbEntity
  8
0
390
0
  6
Continuous
 62
     7
100
AcDbEllipse
 10
69.218229
 20
-10.940149
 30
0.0
 11
-0.7515156409795554
 21
1.2981618702469777
 31
0.0
210
0.0
220
0.0
230
1.0
 40
0.066716
 41
4.8554937560631943
 42
6.2656930379060913
  0
LINE
  5
12A
100
AcDbEntity
  8
0
390
0
  6
Continuous
 62
     7
100
AcDbLine
 10
68.98267
 20
-9.343987
 30
0.0
 11
68.468343
 21
-9.641309
 31
0.0
  0
LINE
  5
12B
100
AcDbEntity
  8
0
390
0
  6
Continuous
 62
     7
100
AcDbLine
 10
67.96842
 20
-9.641309
 30
0.0
 11
67.454094
 21
-9.343987
 31
0.0
  0
ELLIPSE
  5
12C
100
AcDbEntity
  8
0
390
0
  6
Continuous
 62
     7
100
AcDbEllipse
 10
67.218534
 20
-10.940149
 30
0.0
 11
0.7515156409795276
 21
1.2981618702470055
 31
0.0
210
0.0
220
0.0
230
1.0
 40
0.066716
 41
0.0174922692734125
 42
1.4276915511163477
  0
POLYLINE
  5
12D
100
AcDbEntity
  8
0
390
0
  6
Continuous
 62
     7
100
AcDb2dPolyline
 66
     1
 10
0.0
 20
0.0
 30
0.0
 40
0.1
 41
0.1
  0
VERTEX
  5
12E
100
AcDbEntity
  8
0
390
0
 62
     7
100
AcDbVertex
100
AcDb2dVertex
 10
68.468343
 20
-9.641309
 30
0.0
  0
VERTEX
  5
12F
100
AcDbEntity
  8
0
390
0
 62
     7
100
AcDbVertex
100
AcDb2dVertex
 10
68.445978
 20
-9.653631
 30
0.0
  0
VERTEX
  5
130
100
AcDbEntity
  8
0
390
0
 62
     7
100
AcDbVertex
100
AcDb2dVertex
 10
68.42308
 20
-9.664777
 30
0.0
  0
VERTEX
  5
131
100
AcDbEntity
  8
0
390
0
 62
     7
100
AcDbVertex
100
AcDb2dVertex
 10
68.399402
 20
-9.674844
 30
0.0
  0
VERTEX
  5
132
100
AcDbEntity
  8
0
390
0
 62
     7
100
AcDbVertex
100
AcDb2dVertex
 10
68.375141
 20
-9.683711
 30
0.0
  0
VERTEX
  5
133
100
AcDbEntity
  8
0
390
0
 62
     7
100
AcDbVertex
100
AcDb2dVertex
 10
68.354323
 20
-9.690208
 30
0.0
  0
VERTEX
  5
134
100
AcDbEntity
  8
0
390
0
 62
     7
100
AcDbVertex
100
AcDb2dVertex
 10
68.333083
 20
-9.69582
 30
0.0
  0
VERTEX
  5
135
100
AcDbEntity
  8
0
390
0
 62
     7
100
AcDbVertex
100
AcDb2dVertex
 10
68.31147
 20
-9.700509
 30
0.0
  0
VERTEX
  5
136
100
AcDbEntity
  8
0
390
0
 62
     7
100
AcDbVertex
100
AcDb2dVertex
 10
68.294527
 20
-9.70348
 30
0.0
  0
VERTEX
  5
137
100
AcDbEntity
  8
0
390
0
 62
     7
100
AcDbVertex
100
AcDb2dVertex
 10
68.27738
 20
-9.705869
 30
0.0
  0
VERTEX
  5
138
100
AcDbEntity
  8
0
390
0
 62
     7
100
AcDbVertex
100
AcDb2dVertex
 10
68.260085
 20
-9.707661
 30
0.0
  0
VERTEX
  5
139
100
AcDbEntity
  8
0
390
0
 62
     7
100
AcDbVertex
100
AcDb2dVertex
 10
68.2427
 20
-9.70884
 30
0.0
  0
VERTEX
  5
13A
100
AcDbEntity
  8
0
390
0
 62
     7
100
AcDbVertex
100
AcDb2dVertex
 10
68.225777
 20
-9.709389
 30
0.0
  0
VERTEX
  5
13B
100
AcDbEntity
  8
0
390
0
 62
     7
100
AcDbVertex
100
AcDb2dVertex
 10
68.208789
 20
-9.709351
 30
0.0
  0
VERTEX
  5
13C
100
AcDbEntity
  8
0
390
0
 62
     7
100
AcDbVertex
100
AcDb2dVertex
 10
68.194
 20
-9.708834
 30
0.0
  0
VERTEX
  5
13D
100
AcDbEntity
  8
0
390
0
 62
     7
100
AcDbVertex
100
AcDb2dVertex
 10
68.179239
 20
-9.70787
 30
0.0
  0
VERTEX
  5
13E
100
AcDbEntity
  8
0
390
0
 62
     7
100
AcDbVertex
100
AcDb2dVertex
 10
68.164545
 20
-9.706467
 30
0.0
  0
VERTEX
  5
13F
100
AcDbEntity
  8
0
390
0
 62
     7
100
AcDbVertex
100
AcDb2dVertex
 10
68.149956
 20
-9.704633
 30
0.0
  0
VERTEX
  5
140
100
AcDbEntity
  8
0
390
0
 62
     7
100
AcDbVertex
100
AcDb2dVertex
 10
68.135511
 20
-9.702375
 30
0.0
  0
VERTEX
  5
141
100
AcDbEntity
  8
0
390
0
 62
     7
100
AcDbVertex
100
AcDb2dVertex
 10
68.116894
 20
-9.698807
 30
0.0
  0
VERTEX
  5
142
100
AcDbEntity
  8
0
390
0
 62
     7
100
AcDbVertex
100
AcDb2dVertex
 10
68.098527
 20
-9.694549
 30
0.0
  0
VERTEX
  5
143
100
AcDbEntity
  8
0
390
0
 62
     7
100
AcDbVertex
100
AcDb2dVertex
 10
68.080444
 20
-9.689628
 30
0.0
  0
VERTEX
  5
144
100
AcDbEntity
  8
0
390
0
 62
     7
100
AcDbVertex
100
AcDb2dVertex
 10
68.062679
 20
-9.684065
 30
0.0
  0
VERTEX
  5
145
100
AcDbEntity
  8
0
390
0
 62
     7
100
AcDbVertex
100
AcDb2dVertex
 10
68.047944
 20
-9.678888
 30
0.0
  0
VERTEX
  5
146
100
AcDbEntity
  8
0
390
0
 62
     7
100
AcDbVertex
100
AcDb2dVertex
 10
68.027517
 20
-9.670833
 30
0.0
  0
VERTEX
  5
147
100
AcDbEntity
  8
0
390
0
 62
     7
100
AcDbVertex
100
AcDb2dVertex
 10
68.007507
 20
-9.661911
 30
0.0
  0
VERTEX
  5
148
100
AcDbEntity
  8
0
390
0
 62
     7
100
AcDbVertex
100
AcDb2dVertex
 10
67.987765
 20
-9.652052
 30
0.0
  0
VERTEX
  5
149
100
AcDbEntity
  8
0
390
0
 62
     7
100
AcDbVertex
100
AcDb2dVertex
 10
67.96842
 20
-9.641309
 30
0.0
  0
SEQEND
  5
14A
100
AcDbEntity
  8
0
390
0
  0
POLYLINE
  5
14B
100
AcDbEntity
  8
0
390
0
  6
Continuous
 62
     7
100
AcDb2dPolyline
 66
     1
 10
0.0
 20
0.0
 30
0.0
 40
0.1
 41
0.1
  0
VERTEX
  5
14C
100
AcDbEntity
  8
0
390
0
 62
     7
100
AcDbVertex
100
AcDb2dVertex
 10
67.96842
 20
9.64131
 30
0.0
  0
VERTEX
  5
14D
100
AcDbEntity
  8
0
390
0
 62
     7
100
AcDbVertex
100
AcDb2dVertex
 10
67.990785
 20
9.653632
 30
0.0
  0
VERTEX
  5
14E
100
AcDbEntity
  8
0
390
0
 62
     7
100
AcDbVertex
100
AcDb2dVertex
 10
68.013683
 20
9.664778
 30
0.0
  0
VERTEX
  5
14F
100
AcDbEntity
  8
0
390
0
 62
     7
100
AcDbVertex
100
AcDb2dVertex
 10
68.037362
 20
9.674845
 30
0.0
  0
VERTEX
  5
150
100
AcDbEntity
  8
0
390
0
 62
     7
100
AcDbVertex
100
AcDb2dVertex
 10
68.061622
 20
9.683712
 30
0.0
  0
VERTEX
  5
151
100
AcDbEntity
  8
0
390
0
 62
     7
100
AcDbVertex
100
AcDb2dVertex
 10
68.08244
 20
9.690208
 30
0.0
  0
VERTEX
  5
152
100
AcDbEntity
  8
0
390
0
 62
     7
100
AcDbVertex
100
AcDb2dVertex
 10
68.10368
 20
9.69582
 30
0.0
  0
VERTEX
  5
153
100
AcDbEntity
  8
0
390
0
 62
     7
100
AcDbVertex
100
AcDb2dVertex
 10
68.125293
 20
9.70051
 30
0.0
  0
VERTEX
  5
154
100
AcDbEntity
  8
0
390
0
 62
     7
100
AcDbVertex
100
AcDb2dVertex
 10
68.142236
 20
9.703481
 30
0.0
  0
VERTEX
  5
155
100
AcDbEntity
  8
0
390
0
 62
     7
100
AcDbVertex
100
AcDb2dVertex
 10
68.159383
 20
9.70587
 30
0.0
  0
VERTEX
  5
156
100
AcDbEntity
  8
0
390
0
 62
     7
100
AcDbVertex
100
AcDb2dVertex
 10
68.176678
 20
9.707661
 30
0.0
  0
VERTEX
  5
157
100
AcDbEntity
  8
0
390
0
 62
     7
100
AcDbVertex
100
AcDb2dVertex
 10
68.194063
 20
9.70884
 30
0.0
  0
VERTEX
  5
158
100
AcDbEntity
  8
0
390
0
 62
     7
100
AcDbVertex
100
AcDb2dVertex
 10
68.210986
 20
9.70939
 30
0.0
  0
VERTEX
  5
159
100
AcDbEntity
  8
0
390
0
 62
     7
100
AcDbVertex
100
AcDb2dVertex
 10
68.227974
 20
9.709351
 30
0.0
  0
VERTEX
  5
15A
100
AcDbEntity
  8
0
390
0
 62
     7
100
AcDbVertex
100
AcDb2dVertex
 10
68.242763
 20
9.708835
 30
0.0
  0
VERTEX
  5
15B
100
AcDbEntity
  8
0
390
0
 62
     7
100
AcDbVertex
100
AcDb2dVertex
 10
68.257524
 20
9.707871
 30
0.0
  0
VERTEX
  5
15C
100
AcDbEntity
  8
0
390
0
 62
     7
100
AcDbVertex
100
AcDb2dVertex
 10
68.272218
 20
9.706468
 30
0.0
  0
VERTEX
  5
15D
100
AcDbEntity
  8
0
390
0
 62
     7
100
AcDbVertex
100
AcDb2dVertex
 10
68.286807
 20
9.704633
 30
0.0
  0
VERTEX
  5
15E
100
AcDbEntity
  8
0
390
0
 62
     7
100
AcDbVertex
100
AcDb2dVertex
 10
68.301252
 20
9.702376
 30
0.0
  0
VERTEX
  5
15F
100
AcDbEntity
  8
0
390
0
 62
     7
100
AcDbVertex
100
AcDb2dVertex
 10
68.319869
 20
9.698807
 30
0.0
  0
VERTEX
  5
160
100
AcDbEntity
  8
0
390
0
 62
     7
100
AcDbVertex
100
AcDb2dVertex
 10
68.338236
 20
9.69455
 30
0.0
  0
VERTEX
  5
161
100
AcDbEntity
  8
0
390
0
 62
     7
100
AcDbVertex
100
AcDb2dVertex
 10
68.35632
 20
9.689628
 30
0.0
  0
VERTEX
  5
162
100
AcDbEntity
  8
0
390
0
 62
     7
100
AcDbVertex
100
AcDb2dVertex
 10
68.374085
 20
9.684066
 30
0.0
  0
VERTEX
  5
163
100
AcDbEntity
  8
0
390
0
 62
     7
100
AcDbVertex
100
AcDb2dVertex
 10
68.388819
 20
9.678888
 30
0.0
  0
VERTEX
  5
164
100
AcDbEntity
  8
0
390
0
 62
     7
100
AcDbVertex
100
AcDb2dVertex
 10
68.409247
 20
9.670833
 30
0.0
  0
VERTEX
  5
165
100
AcDbEntity
  8
0
390
0
 62
     7
100
AcDbVertex
100
AcDb2dVertex
 10
68.429256
 20
9.661911
 30
0.0
  0
VERTEX
  5
166
100
AcDbEntity
  8
0
390
0
 62
     7
100
AcDbVertex
100
AcDb2dVertex
 10
68.448998
 20
9.652053
 30
0.0
  0
VERTEX
  5
167
100
AcDbEntity
  8
0
390
0
 62
     7
100
AcDbVertex
100
AcDb2dVertex
 10
68.468343
 20
9.64131
 30
0.0
  0
SEQEND
  5
168
100
AcDbEntity
  8
0
390
0
  0
ELLIPSE
  5
169
100
AcDbEntity
  8
0
390
0
  6
Continuous
 62
     7
100
AcDbEllipse
 10
67.218534
 20
10.94015
 30
0.0
 11
-0.7515156409794999
 21
1.2981618702469777
 31
0.0
210
0.0
220
0.0
230
1.0
 40
0.066716
 41
1.7139011024734525
 42
3.1241003843163875
  0
LINE
  5
16A
100
AcDbEntity
  8
0
390
0
  6
Continuous
 62
     7
100
AcDbLine
 10
67.454094
 20
9.343988
 30
0.0
 11
67.96842
 21
9.64131
 31
0.0
  0
LINE
  5
16B
100
AcDbEntity
  8
0
390
0
  6
Continuous
 62
     7
100
AcDbLine
 10
76.443019
 20
-5.037128
 30
0.0
 11
75.928368
 21
-5.333886
 31
0.0
  0
ELLIPSE
  5
16C
100
AcDbEntity
  8
0
390
0
  6
Continuous
 62
     7
100
AcDbEllipse
 10
77.192905
 20
-6.335968
 30
0.0
 11
-0.748483337368433
 21
1.2999125715530968
 31
0.0
210
0.0
220
0.0
230
1.0
 40
0.066716
 41
0.0174922692734357
 42
1.4276915511164103
  0
ELLIPSE
  5
16D
100
AcDbEntity
  8
0
390
0
  6
Continuous
 62
     7
100
AcDbEllipse
 10
78.192753
 20
-4.604181
 30
0.0
 11
-1.4999989783479606
 21
-0.0017507013061191
 31
0.0
210
0.0
220
0.0
230
0.9999999999999999
 40
0.066716
 41
4.8554937560631695
 42
6.265693037906038
  0
LINE
  5
16E
100
AcDbEntity
  8
0
390
0
  6
Continuous
 62
     7
100
AcDbLine
 10
76.692656
 20
-4.0101
 30
0.0
 11
76.692981
 21
-4.604181
 31
0.0
  0
LINE
  5
16F
100
AcDbEntity
  8
0
390
0
  6
Continuous
 62
     7
100
AcDbLine
 10
76.692656
 20
-4.0101
 30
0.0
 11
78.192427
 21
-4.0101
 31
0.0
  0
ELLIPSE
  5
170
100
AcDbEntity
  8
0
390
0
  6
Continuous
 62
     7
100
AcDbEllipse
 10
77.192905
 20
6.335969
 30
0.0
 11
-0.748483337368433
 21
-1.2999125715530968
 31
0.0
210
0.0
220
0.0
230
1.0
 40
0.066716
 41
4.8554937560631766
 42
6.2656930379061517
  0
LINE
  5
171
100
AcDbEntity
  8
0
390
0
  6
Continuous
 62
     7
100
AcDbLine
 10
75.928368
 20
5.333887
 30
0.0
 11
76.443019
 21
5.037128
 31
0.0
  0
POLYLINE
  5
172
100
AcDbEntity
  8
0
390
0
  6
Continuous
 62
     7
100
AcDb2dPolyline
 66
     1
 10
0.0
 20
0.0
 30
0.0
 40
0.1
 41
0.1
  0
VERTEX
  5
173
100
AcDbEntity
  8
0
390
0
 62
     7
100
AcDbVertex
100
AcDb2dVertex
 10
76.692981
 20
-4.604181
 30
0.0
  0
VERTEX
  5
174
100
AcDbEntity
  8
0
390
0
 62
     7
100
AcDbVertex
100
AcDb2dVertex
 10
76.692467
 20
-4.629821
 30
0.0
  0
VERTEX
  5
175
100
AcDbEntity
  8
0
390
0
 62
     7
100
AcDbVertex
100
AcDb2dVertex
 10
76.690654
 20
-4.655363
 30
0.0
  0
VERTEX
  5
176
100
AcDbEntity
  8
0
390
0
 62
     7
100
AcDbVertex
100
AcDb2dVertex
 10
76.687535
 20
-4.680794
 30
0.0
  0
VERTEX
  5
177
100
AcDbEntity
  8
0
390
0
 62
     7
100
AcDbVertex
100
AcDb2dVertex
 10
76.683102
 20
-4.706098
 30
0.0
  0
VERTEX
  5
178
100
AcDbEntity
  8
0
390
0
 62
     7
100
AcDbVertex
100
AcDb2dVertex
 10
76.678319
 20
-4.727375
 30
0.0
  0
VERTEX
  5
179
100
AcDbEntity
  8
0
390
0
 62
     7
100
AcDbVertex
100
AcDb2dVertex
 10
76.672559
 20
-4.748576
 30
0.0
  0
VERTEX
  5
17A
100
AcDbEntity
  8
0
390
0
 62
     7
100
AcDbVertex
100
AcDb2dVertex
 10
76.665814
 20
-4.769638
 30
0.0
  0
VERTEX
  5
17B
100
AcDbEntity
  8
0
390
0
 62
     7
100
AcDbVertex
100
AcDb2dVertex
 10
76.659915
 20
-4.785796
 30
0.0
  0
VERTEX
  5
17C
100
AcDbEntity
  8
0
390
0
 62
     7
100
AcDbVertex
100
AcDb2dVertex
 10
76.65341
 20
-4.80184
 30
0.0
  0
VERTEX
  5
17D
100
AcDbEntity
  8
0
390
0
 62
     7
100
AcDbVertex
100
AcDb2dVertex
 10
76.646315
 20
-4.817714
 30
0.0
  0
VERTEX
  5
17E
100
AcDbEntity
  8
0
390
0
 62
     7
100
AcDbVertex
100
AcDb2dVertex
 10
76.638643
 20
-4.833359
 30
0.0
  0
VERTEX
  5
17F
100
AcDbEntity
  8
0
390
0
 62
     7
100
AcDbVertex
100
AcDb2dVertex
 10
76.630646
 20
-4.848309
 30
0.0
  0
VERTEX
  5
180
100
AcDbEntity
  8
0
390
0
 62
     7
100
AcDbVertex
100
AcDb2dVertex
 10
76.62213
 20
-4.862982
 30
0.0
  0
VERTEX
  5
181
100
AcDbEntity
  8
0
390
0
 62
     7
100
AcDbVertex
100
AcDb2dVertex
 10
76.614288
 20
-4.875532
 30
0.0
  0
VERTEX
  5
182
100
AcDbEntity
  8
0
390
0
 62
     7
100
AcDbVertex
100
AcDb2dVertex
 10
76.606073
 20
-4.887833
 30
0.0
  0
VERTEX
  5
183
100
AcDbEntity
  8
0
390
0
 62
     7
100
AcDbVertex
100
AcDb2dVertex
 10
76.597511
 20
-4.899857
 30
0.0
  0
VERTEX
  5
184
100
AcDbEntity
  8
0
390
0
 62
     7
100
AcDbVertex
100
AcDb2dVertex
 10
76.588628
 20
-4.911574
 30
0.0
  0
VERTEX
  5
185
100
AcDbEntity
  8
0
390
0
 62
     7
100
AcDbVertex
100
AcDb2dVertex
 10
76.57945
 20
-4.922956
 30
0.0
  0
VERTEX
  5
186
100
AcDbEntity
  8
0
390
0
 62
     7
100
AcDbVertex
100
AcDb2dVertex
 10
76.567051
 20
-4.937294
 30
0.0
  0
VERTEX
  5
187
100
AcDbEntity
  8
0
390
0
 62
     7
100
AcDbVertex
100
AcDb2dVertex
 10
76.554181
 20
-4.951072
 30
0.0
  0
VERTEX
  5
188
100
AcDbEntity
  8
0
390
0
 62
     7
100
AcDbVertex
100
AcDb2dVertex
 10
76.540876
 20
-4.964271
 30
0.0
  0
VERTEX
  5
189
100
AcDbEntity
  8
0
390
0
 62
     7
100
AcDbVertex
100
AcDb2dVertex
 10
76.527177
 20
-4.976875
 30
0.0
  0
VERTEX
  5
18A
100
AcDbEntity
  8
0
390
0
 62
     7
100
AcDbVertex
100
AcDb2dVertex
 10
76.515326
 20
-4.987047
 30
0.0
  0
VERTEX
  5
18B
100
AcDbEntity
  8
0
390
0
 62
     7
100
AcDbVertex
100
AcDb2dVertex
 10
76.498084
 20
-5.000752
 30
0.0
  0
VERTEX
  5
18C
100
AcDbEntity
  8
0
390
0
 62
     7
100
AcDbVertex
100
AcDb2dVertex
 10
76.480281
 20
-5.013667
 30
0.0
  0
VERTEX
  5
18D
100
AcDbEntity
  8
0
390
0
 62
     7
100
AcDbVertex
100
AcDb2dVertex
 10
76.461924
 20
-5.025793
 30
0.0
  0
VERTEX
  5
18E
100
AcDbEntity
  8
0
390
0
 62
     7
100
AcDbVertex
100
AcDb2dVertex
 10
76.443019
 20
-5.037128
 30
0.0
  0
SEQEND
  5
18F
100
AcDbEntity
  8
0
390
0
  0
ELLIPSE
  5
190
100
AcDbEntity
  8
0
390
0
  6
Continuous
 62
     7
100
AcDbEllipse
 10
78.192753
 20
4.604182
 30
0.0
 11
-1.4999989783479606
 21
0.0017507013061191
 31
0.0
210
0.0
220
0.0
230
0.9999999999999999
 40
0.066716
 41
0.0174922692734756
 42
1.4276915511163508
  0
POLYLINE
  5
191
100
AcDbEntity
  8
0
390
0
  6
Continuous
 62
     7
100
AcDb2dPolyline
 66
     1
 10
0.0
 20
0.0
 30
0.0
 40
0.1
 41
0.1
  0
VERTEX
  5
192
100
AcDbEntity
  8
0
390
0
 62
     7
100
AcDbVertex
100
AcDb2dVertex
 10
76.443019
 20
5.037128
 30
0.0
  0
VERTEX
  5
193
100
AcDbEntity
  8
0
390
0
 62
     7
100
AcDbVertex
100
AcDb2dVertex
 10
76.464967
 20
5.023863
 30
0.0
  0
VERTEX
  5
194
100
AcDbEntity
  8
0
390
0
 62
     7
100
AcDbVertex
100
AcDb2dVertex
 10
76.486181
 20
5.009522
 30
0.0
  0
VERTEX
  5
195
100
AcDbEntity
  8
0
390
0
 62
     7
100
AcDbVertex
100
AcDb2dVertex
 10
76.506645
 20
4.994105
 30
0.0
  0
VERTEX
  5
196
100
AcDbEntity
  8
0
390
0
 62
     7
100
AcDbVertex
100
AcDb2dVertex
 10
76.526342
 20
4.977614
 30
0.0
  0
VERTEX
  5
197
100
AcDbEntity
  8
0
390
0
 62
     7
100
AcDbVertex
100
AcDb2dVertex
 10
76.542377
 20
4.962833
 30
0.0
  0
VERTEX
  5
198
100
AcDbEntity
  8
0
390
0
 62
     7
100
AcDbVertex
100
AcDb2dVertex
 10
76.557857
 20
4.947244
 30
0.0
  0
VERTEX
  5
199
100
AcDbEntity
  8
0
390
0
 62
     7
100
AcDbVertex
100
AcDb2dVertex
 10
76.572725
 20
4.930872
 30
0.0
  0
VERTEX
  5
19A
100
AcDbEntity
  8
0
390
0
 62
     7
100
AcDbVertex
100
AcDb2dVertex
 10
76.583769
 20
4.917685
 30
0.0
  0
VERTEX
  5
19B
100
AcDbEntity
  8
0
390
0
 62
     7
100
AcDbVertex
100
AcDb2dVertex
 10
76.594412
 20
4.904029
 30
0.0
  0
VERTEX
  5
19C
100
AcDbEntity
  8
0
390
0
 62
     7
100
AcDbVertex
100
AcDb2dVertex
 10
76.604611
 20
4.889947
 30
0.0
  0
VERTEX
  5
19D
100
AcDbEntity
  8
0
390
0
 62
     7
100
AcDbVertex
100
AcDb2dVertex
 10
76.614324
 20
4.875481
 30
0.0
  0
VERTEX
  5
19E
100
AcDbEntity
  8
0
390
0
 62
     7
100
AcDbVertex
100
AcDb2dVertex
 10
76.623273
 20
4.86108
 30
0.0
  0
VERTEX
  5
19F
100
AcDbEntity
  8
0
390
0
 62
     7
100
AcDbVertex
100
AcDb2dVertex
 10
76.631722
 20
4.846369
 30
0.0
  0
VERTEX
  5
1A0
100
AcDbEntity
  8
0
390
0
 62
     7
100
AcDbVertex
100
AcDb2dVertex
 10
76.63867
 20
4.833302
 30
0.0
  0
VERTEX
  5
1A1
100
AcDbEntity
  8
0
390
0
 62
     7
100
AcDbVertex
100
AcDb2dVertex
 10
76.645215
 20
4.820037
 30
0.0
  0
VERTEX
  5
1A2
100
AcDbEntity
  8
0
390
0
 62
     7
100
AcDbVertex
100
AcDb2dVertex
 10
76.651347
 20
4.80661
 30
0.0
  0
VERTEX
  5
1A3
100
AcDbEntity
  8
0
390
0
 62
     7
100
AcDbVertex
100
AcDb2dVertex
 10
76.657053
 20
4.793059
 30
0.0
  0
VERTEX
  5
1A4
100
AcDbEntity
  8
0
390
0
 62
     7
100
AcDbVertex
100
AcDb2dVertex
 10
76.662321
 20
4.77942
 30
0.0
  0
VERTEX
  5
1A5
100
AcDbEntity
  8
0
390
0
 62
     7
100
AcDbVertex
100
AcDb2dVertex
 10
76.668538
 20
4.761513
 30
0.0
  0
VERTEX
  5
1A6
100
AcDbEntity
  8
0
390
0
 62
     7
100
AcDbVertex
100
AcDb2dVertex
 10
76.674035
 20
4.743478
 30
0.0
  0
VERTEX
  5
1A7
100
AcDbEntity
  8
0
390
0
 62
     7
100
AcDbVertex
100
AcDb2dVertex
 10
76.678814
 20
4.725357
 30
0.0
  0
VERTEX
  5
1A8
100
AcDbEntity
  8
0
390
0
 62
     7
100
AcDbVertex
100
AcDb2dVertex
 10
76.68288
 20
4.707191
 30
0.0
  0
VERTEX
  5
1A9
100
AcDbEntity
  8
0
390
0
 62
     7
100
AcDbVertex
100
AcDb2dVertex
 10
76.685763
 20
4.691841
 30
0.0
  0
VERTEX
  5
1AA
100
AcDbEntity
  8
0
390
0
 62
     7
100
AcDbVertex
100
AcDb2dVertex
 10
76.689011
 20
4.670057
 30
0.0
  0
VERTEX
  5
1AB
100
AcDbEntity
  8
0
390
0
 62
     7
100
AcDbVertex
100
AcDb2dVertex
 10
76.691295
 20
4.648181
 30
0.0
  0
VERTEX
  5
1AC
100
AcDbEntity
  8
0
390
0
 62
     7
100
AcDbVertex
100
AcDb2dVertex
 10
76.692617
 20
4.62622
 30
0.0
  0
VERTEX
  5
1AD
100
AcDbEntity
  8
0
390
0
 62
     7
100
AcDbVertex
100
AcDb2dVertex
 10
76.692981
 20
4.604182
 30
0.0
  0
SEQEND
  5
1AE
100
AcDbEntity
  8
0
390
0
  0
LINE
  5
1AF
100
AcDbEntity
  8
0
390
0
  6
Continuous
 62
     7
100
AcDbLine
 10
76.692656
 20
4.010101
 30
0.0
 11
78.192427
 21
4.010101
 31
0.0
  0
LINE
  5
1B0
100
AcDbEntity
  8
0
390
0
  6
Continuous
 62
     7
100
AcDbLine
 10
76.692981
 20
4.604182
 30
0.0
 11
76.692656
 21
4.010101
 31
0.0
  0
LINE
  5
1B1
100
AcDbEntity
  8
0
390
0
  6
Continuous
 62
     7
100
AcDbLine
 10
78.192427
 20
-4.0101
 30
0.0
 11
78.192427
 21
4.010101
 31
0.0
  0
LINE
  5
1B2
100
AcDbEntity
  8
0
390
0
  6
Continuous
 62
     7
100
AcDbLine
 10
76.692656
 20
4.010101
 30
0.0
 11
76.692656
 21
-4.0101
 31
0.0
  0
LINE
  5
1B3
100
AcDbEntity
  8
0
390
0
  6
Continuous
 62
     7
100
AcDbLine
 10
59.858022
 20
-4.538224
 30
0.0
 11
59.743782
 21
-4.604181
 31
0.0
  0
ELLIPSE
  5
1B4
100
AcDbEntity
  8
0
390
0
  6
Continuous
 62
     7
100
AcDbEllipse
 10
60.358098
 20
-4.538136
 30
0.0
 11
-0.4331006462970355
 21
-0.2500507747257852
 31
0.0
210
0.0
220
0.0
230
1.0
 40
0.999797
 41
5.7596744625918612
 42
6.8066961517673086
  0
LINE
  5
1B5
100
AcDbEntity
  8
0
390
0
  6
Continuous
 62
     7
100
AcDbLine
 10
59.993744
 20
-5.037128
 30
0.0
 11
60.107984
 21
-4.971171
 31
0.0
  0
LINE
  5
1B6
100
AcDbEntity
  8
0
390
0
  6
Continuous
 62
     7
100
AcDbLine
 10
60.107984
 20
4.971172
 30
0.0
 11
59.993744
 21
5.037128
 31
0.0
  0
ELLIPSE
  5
1B7
100
AcDbEntity
  8
0
390
0
  6
Continuous
 62
     7
100
AcDbEllipse
 10
60.358098
 20
4.538137
 30
0.0
 11
-0.4331006462970355
 21
0.2500507747257852
 31
0.0
210
0.0
220
0.0
230
1.0
 40
0.999797
 41
5.7596744625918541
 42
6.8066961517673086
  0
LINE
  5
1B8
100
AcDbEntity
  8
0
390
0
  6
Continuous
 62
     7
100
AcDbLine
 10
59.743782
 20
4.604182
 30
0.0
 11
59.858022
 21
4.538225
 31
0.0
  0
LINE
  5
1B9
100
AcDbEntity
  8
0
390
0
  6
Continuous
 62
     7
100
AcDbLine
 10
68.468343
 20
9.509396
 30
0.0
 11
68.468343
 21
9.64131
 31
0.0
  0
ELLIPSE
  5
1BA
100
AcDbEntity
  8
0
390
0
  6
Continuous
 62
     7
100
AcDbEllipse
 10
68.218382
 20
9.076274
 30
0.0
 11
0.0
 21
0.5001015494515981
 31
0.0
210
0.0
220
0.0
230
1.0
 40
0.999797
 41
5.7596744625918594
 42
6.8066961517672988
  0
LINE
  5
1BB
100
AcDbEntity
  8
0
390
0
  6
Continuous
 62
     7
100
AcDbLine
 10
67.96842
 20
9.64131
 30
0.0
 11
67.96842
 21
9.509396
 31
0.0
  0
LINE
  5
1BC
100
AcDbEntity
  8
0
390
0
  6
Continuous
 62
     7
100
AcDbLine
 10
67.96842
 20
-9.509396
 30
0.0
 11
67.96842
 21
-9.641309
 31
0.0
  0
ELLIPSE
  5
1BD
100
AcDbEntity
  8
0
390
0
  6
Continuous
 62
     7
100
AcDbEllipse
 10
68.218382
 20
-9.076273
 30
0.0
 11
0.0
 21
-0.5001015494515981
 31
0.0
210
0.0
220
0.0
230
1.0
 40
0.999797
 41
5.759674462591863
 42
6.8066961517673175
  0
LINE
  5
1BE
100
AcDbEntity
  8
0
390
0
  6
Continuous
 62
     7
100
AcDbLine
 10
68.468343
 20
-9.641309
 30
0.0
 11
68.468343
 21
-9.509396
 31
0.0
  0
LINE
  5
1BF
100
AcDbEntity
  8
0
390
0
  6
Continuous
 62
     7
100
AcDbLine
 10
76.328779
 20
-4.971171
 30
0.0
 11
76.443019
 21
-5.037128
 31
0.0
  0
ELLIPSE
  5
1C0
100
AcDbEntity
  8
0
390
0
  6
Continuous
 62
     7
100
AcDbEllipse
 10
76.078665
 20
-4.538136
 30
0.0
 11
0.4331006462970355
 21
-0.2500507747257852
 31
0.0
210
0.0
220
0.0
230
0.9999999999999999
 40
0.999797
 41
5.7596744625918586
 42
6.8066961517673095
  0
LINE
  5
1C1
100
AcDbEntity
  8
0
390
0
  6
Continuous
 62
     7
100
AcDbLine
 10
76.692981
 20
-4.604181
 30
0.0
 11
76.578741
 21
-4.538224
 31
0.0
  0
LINE
  5
1C2
100
AcDbEntity
  8
0
390
0
  6
Continuous
 62
     7
100
AcDbLine
 10
76.578741
 20
4.538225
 30
0.0
 11
76.692981
 21
4.604182
 31
0.0
  0
ELLIPSE
  5
1C3
100
AcDbEntity
  8
0
390
0
  6
Continuous
 62
     7
100
AcDbEllipse
 10
76.078665
 20
4.538137
 30
0.0
 11
0.4331006462970355
 21
0.2500507747257852
 31
0.0
210
0.0
220
0.0
230
1.0
 40
0.999797
 41
5.759674462591863
 42
6.8066961517673175
  0
LINE
  5
1C4
100
AcDbEntity
  8
0
390
0
  6
Continuous
 62
     7
100
AcDbLine
 10
76.443019
 20
5.037128
 30
0.0
 11
76.328779
 21
4.971172
 31
0.0
  0
LINE
  5
1C5
100
AcDbEntity
  8
0
390
0
  6
Continuous
 62
     7
100
AcDbLine
 10
59.858022
 20
-4.538224
 30
0.0
 11
59.858022
 21
4.538225
 31
0.0
  0
LINE
  5
1C6
100
AcDbEntity
  8
0
390
0
  6
Continuous
 62
     7
100
AcDbLine
 10
67.96842
 20
-9.509396
 30
0.0
 11
60.107984
 21
-4.971171
 31
0.0
  0
LINE
  5
1C7
100
AcDbEntity
  8
0
390
0
  6
Continuous
 62
     7
100
AcDbLine
 10
68.468343
 20
9.509396
 30
0.0
 11
76.328779
 21
4.971172
 31
0.0
  0
LINE
  5
1C8
100
AcDbEntity
  8
0
390
0
  6
Continuous
 62
     7
100
AcDbLine
 10
60.107984
 20
4.971172
 30
0.0
 11
67.96842
 21
9.509396
 31
0.0
  0
LINE
  5
1C9
100
AcDbEntity
  8
0
390
0
  6
Continuous
 62
     7
100
AcDbLine
 10
76.328779
 20
-4.971171
 30
0.0
 11
68.468343
 21
-9.509396
 31
0.0
  0
LINE
  5
1CA
100
AcDbEntity
  8
0
390
0
  6
Continuous
 62
     7
100
AcDbLine
 10
76.578741
 20
4.538225
 30
0.0
 11
76.578741
 21
-4.538224
 31
0.0
  0
ARC
  5
1CB
100
AcDbEntity
  8
0
390
0
  6
Continuous
 62
     7
100
AcDbCircle
 10
-60.228418
 20
-4.610044
 30
0.0
 40
1.875091
210
0.0
220
0.0
230
1.0
100
AcDbArc
 50
300.268935
 51
359.731065
  0
LINE
  5
1CC
100
AcDbEntity
  8
0
390
0
  6
Continuous
 62
     7
100
AcDbLine
 10
-59.28326
 20
-6.229503
 30
0.0
 11
-60.033146
 21
-4.930662
 31
0.0
  0
LINE
  5
1CD
100
AcDbEntity
  8
0
390
0
  6
Continuous
 62
     7
100
AcDbLine
 10
-60.033146
 20
-4.930662
 30
0.0
 11
-59.853119
 21
-4.618846
 31
0.0
  0
LINE
  5
1CE
100
AcDbEntity
  8
0
390
0
  6
Continuous
 62
     7
100
AcDbLine
 10
-58.353347
 20
-4.618846
 30
0.0
 11
-59.853119
 21
-4.618846
 31
0.0
  0
LINE
  5
1CF
100
AcDbEntity
  8
0
390
0
  6
Continuous
 62
     7
100
AcDbLine
 10
-59.853119
 20
4.618846
 30
0.0
 11
-60.033146
 21
4.930663
 31
0.0
  0
LINE
  5
1D0
100
AcDbEntity
  8
0
390
0
  6
Continuous
 62
     7
100
AcDbLine
 10
-60.033146
 20
4.930663
 30
0.0
 11
-59.28326
 21
6.229503
 31
0.0
  0
ARC
  5
1D1
100
AcDbEntity
  8
0
390
0
  6
Continuous
 62
     7
100
AcDbCircle
 10
-60.228418
 20
4.610045
 30
0.0
 40
1.875091
210
0.0
220
0.0
230
1.0
100
AcDbArc
 50
0.268935
 51
59.731065
  0
LINE
  5
1D2
100
AcDbEntity
  8
0
390
0
  6
Continuous
 62
     7
100
AcDbLine
 10
-59.853119
 20
4.618846
 30
0.0
 11
-58.353347
 21
4.618846
 31
0.0
  0
ARC
  5
1D3
100
AcDbEntity
  8
0
390
0
  6
Continuous
 62
     7
100
AcDbCircle
 10
-68.21325
 20
-9.220681
 30
0.0
 40
1.874578
210
0.0
220
0.0
230
1.0
100
AcDbArc
 50
240.25997
 51
299.74003
  0
LINE
  5
1D4
100
AcDbEntity
  8
0
390
0
  6
Continuous
 62
     7
100
AcDbLine
 10
-69.143163
 20
-10.848349
 30
0.0
 11
-68.393277
 21
-9.549508
 31
0.0
  0
LINE
  5
1D5
100
AcDbEntity
  8
0
390
0
  6
Continuous
 62
     7
100
AcDbLine
 10
-68.393277
 20
-9.549508
 30
0.0
 11
-68.033222
 21
-9.549509
 31
0.0
  0
LINE
  5
1D6
100
AcDbEntity
  8
0
390
0
  6
Continuous
 62
     7
100
AcDbLine
 10
-67.283336
 20
-10.848349
 30
0.0
 11
-68.033222
 21
-9.549509
 31
0.0
  0
LINE
  5
1D7
100
AcDbEntity
  8
0
390
0
  6
Continuous
 62
     7
100
AcDbLine
 10
-68.033222
 20
9.549509
 30
0.0
 11
-68.393277
 21
9.549509
 31
0.0
  0
LINE
  5
1D8
100
AcDbEntity
  8
0
390
0
  6
Continuous
 62
     7
100
AcDbLine
 10
-68.393277
 20
9.549509
 30
0.0
 11
-69.143163
 21
10.848349
 31
0.0
  0
ARC
  5
1D9
100
AcDbEntity
  8
0
390
0
  6
Continuous
 62
     7
100
AcDbCircle
 10
-68.21325
 20
9.220682
 30
0.0
 40
1.874578
210
0.0
220
0.0
230
1.0
100
AcDbArc
 50
60.25997
 51
119.74003
  0
LINE
  5
1DA
100
AcDbEntity
  8
0
390
0
  6
Continuous
 62
     7
100
AcDbLine
 10
-68.033222
 20
9.549509
 30
0.0
 11
-67.283336
 21
10.848349
 31
0.0
  0
ARC
  5
1DB
100
AcDbEntity
  8
0
390
0
  6
Continuous
 62
     7
100
AcDbCircle
 10
-76.198082
 20
-4.610044
 30
0.0
 40
1.875091
210
0.0
220
0.0
230
1.0
100
AcDbArc
 50
180.268935
 51
239.731065
  0
LINE
  5
1DC
100
AcDbEntity
  8
0
390
0
  6
Continuous
 62
     7
100
AcDbLine
 10
-78.073152
 20
-4.618846
 30
0.0
 11
-76.573381
 21
-4.618846
 31
0.0
  0
LINE
  5
1DD
100
AcDbEntity
  8
0
390
0
  6
Continuous
 62
     7
100
AcDbLine
 10
-76.573381
 20
-4.618846
 30
0.0
 11
-76.393353
 21
-4.930662
 31
0.0
  0
LINE
  5
1DE
100
AcDbEntity
  8
0
390
0
  6
Continuous
 62
     7
100
AcDbLine
 10
-77.143239
 20
-6.229503
 30
0.0
 11
-76.393353
 21
-4.930662
 31
0.0
  0
LINE
  5
1DF
100
AcDbEntity
  8
0
390
0
  6
Continuous
 62
     7
100
AcDbLine
 10
-76.393353
 20
4.930663
 30
0.0
 11
-76.573381
 21
4.618846
 31
0.0
  0
LINE
  5
1E0
100
AcDbEntity
  8
0
390
0
  6
Continuous
 62
     7
100
AcDbLine
 10
-76.573381
 20
4.618846
 30
0.0
 11
-78.073152
 21
4.618846
 31
0.0
  0
ARC
  5
1E1
100
AcDbEntity
  8
0
390
0
  6
Continuous
 62
     7
100
AcDbCircle
 10
-76.198082
 20
4.610045
 30
0.0
 40
1.875091
210
0.0
220
0.0
230
1.0
100
AcDbArc
 50
120.268935
 51
179.731065
  0
LINE
  5
1E2
100
AcDbEntity
  8
0
390
0
  6
Continuous
 62
     7
100
AcDbLine
 10
-76.393353
 20
4.930663
 30
0.0
 11
-77.143239
 21
6.229503
 31
0.0
  0
LINE
  5
1E3
100
AcDbEntity
  8
0
390
0
  6
Continuous
 62
     7
100
AcDbLine
 10
-68.393277
 20
9.549509
 30
0.0
 11
-76.393353
 21
4.930663
 31
0.0
  0
LINE
  5
1E4
100
AcDbEntity
  8
0
390
0
  6
Continuous
 62
     7
100
AcDbLine
 10
-60.033146
 20
4.930663
 30
0.0
 11
-68.033222
 21
9.549509
 31
0.0
  0
LINE
  5
1E5
100
AcDbEntity
  8
0
390
0
  6
Continuous
 62
     7
100
AcDbLine
 10
-59.853119
 20
-4.618846
 30
0.0
 11
-59.853119
 21
4.618846
 31
0.0
  0
LINE
  5
1E6
100
AcDbEntity
  8
0
390
0
  6
Continuous
 62
     7
100
AcDbLine
 10
-68.033222
 20
-9.549509
 30
0.0
 11
-60.033146
 21
-4.930662
 31
0.0
  0
LINE
  5
1E7
100
AcDbEntity
  8
0
390
0
  6
Continuous
 62
     7
100
AcDbLine
 10
-76.393353
 20
-4.930662
 30
0.0
 11
-68.393277
 21
-9.549508
 31
0.0
  0
LINE
  5
1E8
100
AcDbEntity
  8
0
390
0
  6
Continuous
 62
     7
100
AcDbLine
 10
-76.573381
 20
4.618846
 30
0.0
 11
-76.573381
 21
-4.618846
 31
0.0
  0
LINE
  5
1E9
100
AcDbEntity
  8
0
390
0
  6
Continuous
 62
     7
100
AcDbLine
 10
-69.143163
 20
-10.848349
 30
0.0
 11
-77.143239
 21
-6.229503
 31
0.0
  0
LINE
  5
1EA
100
AcDbEntity
  8
0
390
0
  6
Continuous
 62
     7
100
AcDbLine
 10
-59.28326
 20
-6.229503
 30
0.0
 11
-67.283336
 21
-10.848349
 31
0.0
  0
LINE
  5
1EB
100
AcDbEntity
  8
0
390
0
  6
Continuous
 62
     7
100
AcDbLine
 10
-78.073152
 20
-4.618846
 30
0.0
 11
-78.073152
 21
4.618846
 31
0.0
  0
LINE
  5
1EC
100
AcDbEntity
  8
0
390
0
  6
Continuous
 62
     7
100
AcDbLine
 10
-58.353347
 20
4.618846
 30
0.0
 11
-58.353347
 21
-4.618846
 31
0.0
  0
LINE
  5
1ED
100
AcDbEntity
  8
0
390
0
  6
Continuous
 62
     7
100
AcDbLine
 10
-77.143239
 20
6.229503
 30
0.0
 11
-69.143163
 21
10.848349
 31
0.0
  0
LINE
  5
1EE
100
AcDbEntity
  8
0
390
0
  6
Continuous
 62
     7
100
AcDbLine
 10
-67.283336
 20
10.848349
 30
0.0
 11
-59.28326
 21
6.229503
 31
0.0
  0
LINE
  5
1EF
100
AcDbEntity
  8
0
390
0
  6
Continuous
 62
     7
100
AcDbLine
 10
-58.353347
 20
-4.618846
 30
0.0
 11
-58.257044
 21
-4.618846
 31
0.0
  0
LINE
  5
1F0
100
AcDbEntity
  8
0
390
0
  6
Continuous
 62
     7
100
AcDbLine
 10
-58.285611
 20
-4.959522
 30
0.0
 11
-58.257044
 21
-4.618846
 31
0.0
  0
ARC
  5
1F1
100
AcDbEntity
  8
0
390
0
  6
Continuous
 62
     7
100
AcDbCircle
 10
-60.22124
 20
-4.614188
 30
0.0
 40
1.966193
210
0.0
220
0.0
230
1.0
100
AcDbArc
 50
310.115649
 51
349.884351
  0
LINE
  5
1F2
100
AcDbEntity
  8
0
390
0
  6
Continuous
 62
     7
100
AcDbLine
 10
-59.235109
 20
-6.312904
 30
0.0
 11
-58.954358
 21
-6.117826
 31
0.0
  0
LINE
  5
1F3
100
AcDbEntity
  8
0
390
0
  6
Continuous
 62
     7
100
AcDbLine
 10
-59.28326
 20
-6.229503
 30
0.0
 11
-59.235109
 21
-6.312904
 31
0.0
  0
LINE
  5
1F4
100
AcDbEntity
  8
0
390
0
  6
Continuous
 62
     7
100
AcDbLine
 10
-77.143239
 20
-6.229503
 30
0.0
 11
-77.191391
 21
-6.312904
 31
0.0
  0
LINE
  5
1F5
100
AcDbEntity
  8
0
390
0
  6
Continuous
 62
     7
100
AcDbLine
 10
-77.472141
 20
-6.117826
 30
0.0
 11
-77.191391
 21
-6.312904
 31
0.0
  0
ARC
  5
1F6
100
AcDbEntity
  8
0
390
0
  6
Continuous
 62
     7
100
AcDbCircle
 10
-76.205259
 20
-4.614188
 30
0.0
 40
1.966193
210
0.0
220
0.0
230
1.0
100
AcDbArc
 50
190.115649
 51
229.884351
  0
LINE
  5
1F7
100
AcDbEntity
  8
0
390
0
  6
Continuous
 62
     7
100
AcDbLine
 10
-78.169456
 20
-4.618846
 30
0.0
 11
-78.140888
 21
-4.959522
 31
0.0
  0
LINE
  5
1F8
100
AcDbEntity
  8
0
390
0
  6
Continuous
 62
     7
100
AcDbLine
 10
-78.073152
 20
-4.618846
 30
0.0
 11
-78.169456
 21
-4.618846
 31
0.0
  0
LINE
  5
1F9
100
AcDbEntity
  8
0
390
0
  6
Continuous
 62
     7
100
AcDbLine
 10
-78.073152
 20
4.618846
 30
0.0
 11
-78.169456
 21
4.618846
 31
0.0
  0
LINE
  5
1FA
100
AcDbEntity
  8
0
390
0
  6
Continuous
 62
     7
100
AcDbLine
 10
-78.140888
 20
4.959523
 30
0.0
 11
-78.169456
 21
4.618846
 31
0.0
  0
ARC
  5
1FB
100
AcDbEntity
  8
0
390
0
  6
Continuous
 62
     7
100
AcDbCircle
 10
-76.205259
 20
4.614189
 30
0.0
 40
1.966193
210
0.0
220
0.0
230
1.0
100
AcDbArc
 50
130.115649
 51
169.884351
  0
LINE
  5
1FC
100
AcDbEntity
  8
0
390
0
  6
Continuous
 62
     7
100
AcDbLine
 10
-77.191391
 20
6.312905
 30
0.0
 11
-77.472141
 21
6.117827
 31
0.0
  0
LINE
  5
1FD
100
AcDbEntity
  8
0
390
0
  6
Continuous
 62
     7
100
AcDbLine
 10
-77.143239
 20
6.229503
 30
0.0
 11
-77.191391
 21
6.312905
 31
0.0
  0
LINE
  5
1FE
100
AcDbEntity
  8
0
390
0
  6
Continuous
 62
     7
100
AcDbLine
 10
-59.28326
 20
6.229503
 30
0.0
 11
-59.235109
 21
6.312905
 31
0.0
  0
LINE
  5
1FF
100
AcDbEntity
  8
0
390
0
  6
Continuous
 62
     7
100
AcDbLine
 10
-58.954358
 20
6.117827
 30
0.0
 11
-59.235109
 21
6.312905
 31
0.0
  0
ARC
  5
200
100
AcDbEntity
  8
0
390
0
  6
Continuous
 62
     7
100
AcDbCircle
 10
-60.22124
 20
4.614189
 30
0.0
 40
1.966193
210
0.0
220
0.0
230
1.0
100
AcDbArc
 50
10.115649
 51
49.884351
  0
LINE
  5
201
100
AcDbEntity
  8
0
390
0
  6
Continuous
 62
     7
100
AcDbLine
 10
-58.257044
 20
4.618846
 30
0.0
 11
-58.285611
 21
4.959523
 31
0.0
  0
LINE
  5
202
100
AcDbEntity
  8
0
390
0
  6
Continuous
 62
     7
100
AcDbLine
 10
-58.353347
 20
4.618846
 30
0.0
 11
-58.257044
 21
4.618846
 31
0.0
  0
LINE
  5
203
100
AcDbEntity
  8
0
390
0
  6
Continuous
 62
     7
100
AcDbLine
 10
-69.143163
 20
10.848349
 30
0.0
 11
-69.191315
 21
10.931751
 31
0.0
  0
LINE
  5
204
100
AcDbEntity
  8
0
390
0
  6
Continuous
 62
     7
100
AcDbLine
 10
-68.881997
 20
11.077349
 30
0.0
 11
-69.191315
 21
10.931751
 31
0.0
  0
ARC
  5
205
100
AcDbEntity
  8
0
390
0
  6
Continuous
 62
     7
100
AcDbCircle
 10
-68.21325
 20
9.227973
 30
0.0
 40
1.966574
210
0.0
220
0.0
230
1.0
100
AcDbArc
 50
70.119665
 51
109.880335
  0
LINE
  5
206
100
AcDbEntity
  8
0
390
0
  6
Continuous
 62
     7
100
AcDbLine
 10
-67.235185
 20
10.931751
 30
0.0
 11
-67.544503
 21
11.077349
 31
0.0
  0
LINE
  5
207
100
AcDbEntity
  8
0
390
0
  6
Continuous
 62
     7
100
AcDbLine
 10
-67.283336
 20
10.848349
 30
0.0
 11
-67.235185
 21
10.931751
 31
0.0
  0
LINE
  5
208
100
AcDbEntity
  8
0
390
0
  6
Continuous
 62
     7
100
AcDbLine
 10
-67.283336
 20
-10.848349
 30
0.0
 11
-67.235185
 21
-10.93175
 31
0.0
  0
LINE
  5
209
100
AcDbEntity
  8
0
390
0
  6
Continuous
 62
     7
100
AcDbLine
 10
-67.544503
 20
-11.077348
 30
0.0
 11
-67.235185
 21
-10.93175
 31
0.0
  0
ARC
  5
20A
100
AcDbEntity
  8
0
390
0
  6
Continuous
 62
     7
100
AcDbCircle
 10
-68.21325
 20
-9.227972
 30
0.0
 40
1.966574
210
0.0
220
0.0
230
1.0
100
AcDbArc
 50
250.119665
 51
289.880335
  0
LINE
  5
20B
100
AcDbEntity
  8
0
390
0
  6
Continuous
 62
     7
100
AcDbLine
 10
-69.191315
 20
-10.93175
 30
0.0
 11
-68.881997
 21
-11.077348
 31
0.0
  0
LINE
  5
20C
100
AcDbEntity
  8
0
390
0
  6
Continuous
 62
     7
100
AcDbLine
 10
-69.143163
 20
-10.848349
 30
0.0
 11
-69.191315
 21
-10.93175
 31
0.0
  0
LINE
  5
20D
100
AcDbEntity
  8
0
390
0
  6
Continuous
 62
     7
100
AcDbLine
 10
-77.191391
 20
-6.312904
 30
0.0
 11
-77.175293
 21
-6.322109
 31
0.0
  0
LINE
  5
20E
100
AcDbEntity
  8
0
390
0
  6
Continuous
 62
     7
100
AcDbLine
 10
-69.207335
 20
-10.922412
 30
0.0
 11
-69.191315
 21
-10.93175
 31
0.0
  0
LINE
  5
20F
100
AcDbEntity
  8
0
390
0
  6
Continuous
 62
     7
100
AcDbLine
 10
-77.175293
 20
-6.322109
 30
0.0
 11
-69.207335
 21
-10.922412
 31
0.0
  0
LINE
  5
210
100
AcDbEntity
  8
0
390
0
  6
Continuous
 62
     7
100
AcDbLine
 10
-78.169456
 20
4.618846
 30
0.0
 11
-78.169379
 21
4.600303
 31
0.0
  0
LINE
  5
211
100
AcDbEntity
  8
0
390
0
  6
Continuous
 62
     7
100
AcDbLine
 10
-78.169379
 20
-4.600303
 30
0.0
 11
-78.169456
 21
-4.618846
 31
0.0
  0
LINE
  5
212
100
AcDbEntity
  8
0
390
0
  6
Continuous
 62
     7
100
AcDbLine
 10
-78.169379
 20
4.600303
 30
0.0
 11
-78.169379
 21
-4.600303
 31
0.0
  0
LINE
  5
213
100
AcDbEntity
  8
0
390
0
  6
Continuous
 62
     7
100
AcDbLine
 10
-67.235185
 20
-10.93175
 30
0.0
 11
-67.219164
 21
-10.922412
 31
0.0
  0
LINE
  5
214
100
AcDbEntity
  8
0
390
0
  6
Continuous
 62
     7
100
AcDbLine
 10
-59.251206
 20
-6.322109
 30
0.0
 11
-59.235109
 21
-6.312904
 31
0.0
  0
LINE
  5
215
100
AcDbEntity
  8
0
390
0
  6
Continuous
 62
     7
100
AcDbLine
 10
-67.219164
 20
-10.922412
 30
0.0
 11
-59.251206
 21
-6.322109
 31
0.0
  0
LINE
  5
216
100
AcDbEntity
  8
0
390
0
  6
Continuous
 62
     7
100
AcDbLine
 10
-69.191315
 20
10.931751
 30
0.0
 11
-69.207335
 21
10.922413
 31
0.0
  0
LINE
  5
217
100
AcDbEntity
  8
0
390
0
  6
Continuous
 62
     7
100
AcDbLine
 10
-77.175293
 20
6.32211
 30
0.0
 11
-77.191391
 21
6.312905
 31
0.0
  0
LINE
  5
218
100
AcDbEntity
  8
0
390
0
  6
Continuous
 62
     7
100
AcDbLine
 10
-69.207335
 20
10.922413
 30
0.0
 11
-77.175293
 21
6.32211
 31
0.0
  0
LINE
  5
219
100
AcDbEntity
  8
0
390
0
  6
Continuous
 62
     7
100
AcDbLine
 10
-58.257044
 20
-4.618846
 30
0.0
 11
-58.25712
 21
-4.600303
 31
0.0
  0
LINE
  5
21A
100
AcDbEntity
  8
0
390
0
  6
Continuous
 62
     7
100
AcDbLine
 10
-58.25712
 20
4.600303
 30
0.0
 11
-58.257044
 21
4.618846
 31
0.0
  0
LINE
  5
21B
100
AcDbEntity
  8
0
390
0
  6
Continuous
 62
     7
100
AcDbLine
 10
-58.25712
 20
-4.600303
 30
0.0
 11
-58.25712
 21
4.600303
 31
0.0
  0
LINE
  5
21C
100
AcDbEntity
  8
0
390
0
  6
Continuous
 62
     7
100
AcDbLine
 10
-59.235109
 20
6.312905
 30
0.0
 11
-59.251206
 21
6.32211
 31
0.0
  0
LINE
  5
21D
100
AcDbEntity
  8
0
390
0
  6
Continuous
 62
     7
100
AcDbLine
 10
-67.219164
 20
10.922413
 30
0.0
 11
-67.235185
 21
10.931751
 31
0.0
  0
LINE
  5
21E
100
AcDbEntity
  8
0
390
0
  6
Continuous
 62
     7
100
AcDbLine
 10
-59.251206
 20
6.32211
 30
0.0
 11
-67.219164
 21
10.922413
 31
0.0
  0
ARC
  5
21F
100
AcDbEntity
  8
0
390
0
  6
Continuous
 62
     7
100
AcDbCircle
 10
-74.820489
 20
-11.444074
 30
0.0
 40
24.313097
210
0.0
220
0.0
230
0.9999999999999999
100
AcDbArc
 50
49.806592
 51
70.193408
  0
ELLIPSE
  5
220
100
AcDbEntity
  8
0
390
0
  6
Continuous
 62
     7
100
AcDbEllipse
 10
-58.50132
 20
7.62095
 30
0.0
 11
-0.7446249749085698
 21
-1.3021265862973586
 31
0.0
210
0.0
220
0.0
230
1.0
 40
0.230396
 41
5.2281576880488991
 42
6.2652494343198191
  0
ELLIPSE
  5
221
100
AcDbEntity
  8
0
390
0
  6
Continuous
 62
     7
100
AcDbEllipse
 10
-66.469278
 20
12.221253
 30
0.0
 11
-0.7553622152222383
 21
-1.2959274377118968
 31
0.0
210
0.0
220
0.0
230
1.0
 40
0.230396
 41
0.0179358728597731
 42
1.055027619130392
  0
ELLIPSE
  5
222
100
AcDbEntity
  8
0
390
0
  6
Continuous
 62
     7
100
AcDbEllipse
 10
-69.957221
 20
-12.221252
 30
0.0
 11
-0.7553622152222383
 21
-1.2959274377118968
 31
0.0
210
0.0
220
0.0
230
1.0
 40
0.230396
 41
3.1595285264496082
 42
4.1966202727202075
  0
ARC
  5
223
100
AcDbEntity
  8
0
390
0
  6
Continuous
 62
     7
100
AcDbCircle
 10
-61.593121
 20
11.4664
 30
0.0
 40
24.338469
210
0.0
220
0.0
230
1.0
100
AcDbArc
 50
229.817331
 51
250.182669
  0
ELLIPSE
  5
224
100
AcDbEntity
  8
0
390
0
  6
Continuous
 62
     7
100
AcDbEllipse
 10
-77.925179
 20
-7.620949
 30
0.0
 11
-0.7446249749086809
 21
-1.3021265862973308
 31
0.0
210
0.0
220
0.0
230
1.0
 40
0.230396
 41
2.086565034459348
 42
3.1236567807299656
  0
ARC
  5
225
100
AcDbEntity
  8
0
390
0
  6
Continuous
 62
     7
100
AcDbCircle
 10
-61.593121
 20
-11.466399
 30
0.0
 40
24.338469
210
0.0
220
0.0
230
1.0
100
AcDbArc
 50
109.817331
 51
130.182669
  0
ELLIPSE
  5
226
100
AcDbEntity
  8
0
390
0
  6
Continuous
 62
     7
100
AcDbEllipse
 10
-69.957221
 20
12.221253
 30
0.0
 11
0.7553622152222661
 21
-1.2959274377118968
 31
0.0
210
0.0
220
0.0
230
1.0
 40
0.230396
 41
5.228157688049186
 42
6.2652494343198217
  0
ELLIPSE
  5
227
100
AcDbEntity
  8
0
390
0
  6
Continuous
 62
     7
100
AcDbEllipse
 10
-77.925179
 20
7.62095
 30
0.0
 11
0.7446249749086809
 21
-1.302126586297303
 31
0.0
210
0.0
220
0.0
230
0.9999999999999999
 40
0.230396
 41
0.0179358728598336
 42
1.0550276191306123
  0
ELLIPSE
  5
228
100
AcDbEntity
  8
0
390
0
  6
Continuous
 62
     7
100
AcDbEllipse
 10
-58.50132
 20
-7.620949
 30
0.0
 11
0.7446249749086531
 21
-1.302126586297303
 31
0.0
210
0.0
220
0.0
230
1.0
 40
0.230396
 41
3.1595285264496114
 42
4.1966202727202653
  0
ARC
  5
229
100
AcDbEntity
  8
0
390
0
  6
Continuous
 62
     7
100
AcDbCircle
 10
-74.833379
 20
11.4664
 30
0.0
 40
24.338469
210
0.0
220
0.0
230
1.0
100
AcDbArc
 50
289.817331
 51
310.182669
  0
ELLIPSE
  5
22A
100
AcDbEntity
  8
0
390
0
  6
Continuous
 62
     7
100
AcDbEllipse
 10
-66.469278
 20
-12.221252
 30
0.0
 11
0.7553622152222661
 21
-1.2959274377118968
 31
0.0
210
0.0
220
0.0
230
1.0
 40
0.230396
 41
2.0865650344590874
 42
3.1236567807300282
  0
ARC
  5
22B
100
AcDbEntity
  8
0
390
0
  6
Continuous
 62
     7
100
AcDbCircle
 10
-81.453508
 20
0.0
 30
0.0
 40
24.338469
210
0.0
220
0.0
230
1.0
100
AcDbArc
 50
349.817331
 51
10.182669
  0
ELLIPSE
  5
22C
100
AcDbEntity
  8
0
390
0
  6
Continuous
 62
     7
100
AcDbEllipse
 10
-56.757349
 20
-4.600303
 30
0.0
 11
-1.4999871901309052
 21
-0.0061991485855173
 31
0.0
210
0.0
220
0.0
230
0.9999999999999999
 40
0.230396
 41
5.2281576880488432
 42
6.2652494343197871
  0
ELLIPSE
  5
22D
100
AcDbEntity
  8
0
390
0
  6
Continuous
 62
     7
100
AcDbEllipse
 10
-56.757349
 20
4.600303
 30
0.0
 11
-1.4999871901309052
 21
0.0061991485853785
 31
0.0
210
0.0
220
0.0
230
1.0
 40
0.230396
 41
0.0179358728597989
 42
1.0550276191305819
  0
ELLIPSE
  5
22E
100
AcDbEntity
  8
0
390
0
  6
Continuous
 62
     7
100
AcDbEllipse
 10
-79.66915
 20
-4.600303
 30
0.0
 11
-1.4999871901308914
 21
0.0061991485854063
 31
0.0
210
0.0
220
0.0
230
0.9999999999999999
 40
0.230396
 41
3.1595285264495918
 42
4.1966202727203159
  0
ARC
  5
22F
100
AcDbEntity
  8
0
390
0
  6
Continuous
 62
     7
100
AcDbCircle
 10
-54.972992
 20
0.0
 30
0.0
 40
24.338469
210
0.0
220
0.0
230
1.0
100
AcDbArc
 50
169.817331
 51
190.182669
  0
ELLIPSE
  5
230
100
AcDbEntity
  8
0
390
0
  6
Continuous
 62
     7
100
AcDbEllipse
 10
-79.66915
 20
4.600303
 30
0.0
 11
-1.4999871901308914
 21
-0.0061991485854063
 31
0.0
210
0.0
220
0.0
230
0.9999999999999999
 40
0.230396
 41
2.0865650344593552
 42
3.1236567807299949
  0
LINE
  5
231
100
AcDbEntity
  8
0
390
0
  6
Continuous
 62
     7
100
AcDbLine
 10
-66.58209
 20
-11.430703
 30
0.0
 11
-66.599336
 21
-11.436681
 31
0.0
  0
ELLIPSE
  5
232
100
AcDbEntity
  8
0
390
0
  6
Continuous
 62
     7
100
AcDbEllipse
 10
-66.485299
 20
-12.23059
 30
0.0
 11
0.7553830348126789
 21
-1.2959153022930048
 31
0.0
210
0.0
220
0.0
230
1.0
 40
0.231245
 41
2.0892608902489171
 42
3.1236530722515234
  0
LINE
  5
233
100
AcDbEntity
  8
0
390
0
  6
Continuous
 62
     7
100
AcDbLine
 10
-69.84441
 20
11.430703
 30
0.0
 11
-69.827163
 21
11.436682
 31
0.0
  0
ELLIPSE
  5
234
100
AcDbEntity
  8
0
390
0
  6
Continuous
 62
     7
100
AcDbEllipse
 10
-69.9412
 20
12.230591
 30
0.0
 11
0.7553830488043201
 21
-1.2959152941373342
 31
0.0
210
0.0
220
0.0
230
1.0
 40
0.231245
 41
5.230853541432527
 42
6.2652457235882784
  0
LINE
  5
235
100
AcDbEntity
  8
0
390
0
  6
Continuous
 62
     7
100
AcDbLine
 10
-59.12955
 20
7.127978
 30
0.0
 11
-59.11575
 21
7.116031
 31
0.0
  0
ELLIPSE
  5
236
100
AcDbEntity
  8
0
390
0
  6
Continuous
 62
     7
100
AcDbEllipse
 10
-58.485223
 20
7.611745
 30
0.0
 11
-0.7446040414732236
 21
-1.3021385569215449
 31
0.0
210
0.0
220
0.0
230
1.0
 40
0.231245
 41
5.2308535414319124
 42
6.2652457235869292
  0
LINE
  5
237
100
AcDbEntity
  8
0
390
0
  6
Continuous
 62
     7
100
AcDbLine
 10
-77.296949
 20
-7.127977
 30
0.0
 11
-77.31075
 21
-7.11603
 31
0.0
  0
ELLIPSE
  5
238
100
AcDbEntity
  8
0
390
0
  6
Continuous
 62
     7
100
AcDbEllipse
 10
-77.941277
 20
-7.611744
 30
0.0
 11
-0.7446040555251221
 21
-1.3021385488862225
 31
0.0
210
0.0
220
0.0
230
1.0
 40
0.231245
 41
2.0892608902471426
 42
3.1236530722503892
  0
LINE
  5
239
100
AcDbEntity
  8
0
390
0
  6
Continuous
 62
     7
100
AcDbLine
 10
-57.498391
 20
-4.302725
 30
0.0
 11
-57.501836
 21
-4.32065
 31
0.0
  0
ELLIPSE
  5
23A
100
AcDbEntity
  8
0
390
0
  6
Continuous
 62
     7
100
AcDbEllipse
 10
-56.757272
 20
-4.618846
 30
0.0
 11
-1.4999870902778767
 21
-0.0062232627845715
 31
0.0
210
0.0
220
0.0
230
1.0
 40
0.231245
 41
5.2308535414319319
 42
6.2652457235869194
  0
LINE
  5
23B
100
AcDbEntity
  8
0
390
0
  6
Continuous
 62
     7
100
AcDbLine
 10
-78.928109
 20
4.302726
 30
0.0
 11
-78.924663
 21
4.320651
 31
0.0
  0
ELLIPSE
  5
23C
100
AcDbEntity
  8
0
390
0
  6
Continuous
 62
     7
100
AcDbEllipse
 10
-79.669227
 20
4.618847
 30
0.0
 11
-1.4999870903450452
 21
-0.0062232465964929
 31
0.0
210
0.0
220
0.0
230
0.9999999999999999
 40
0.231245
 41
2.0892608902472687
 42
3.1236530722505482
  0
ELLIPSE
  5
23D
100
AcDbEntity
  8
0
390
0
  6
Continuous
 62
     7
100
AcDbEllipse
 10
-58.485223
 20
-7.611744
 30
0.0
 11
0.7446040414742366
 21
-1.302138556920962
 31
0.0
210
0.0
220
0.0
230
1.0
 40
0.231245
 41
3.1595322371819603
 42
4.1939244194083614
  0
LINE
  5
23E
100
AcDbEntity
  8
0
390
0
  6
Continuous
 62
     7
100
AcDbLine
 10
-59.11575
 20
-7.11603
 30
0.0
 11
-59.12955
 21
-7.127977
 31
0.0
  0
ELLIPSE
  5
23F
100
AcDbEntity
  8
0
390
0
  6
Continuous
 62
     7
100
AcDbEllipse
 10
-69.9412
 20
-12.23059
 30
0.0
 11
-0.7553830488036539
 21
-1.2959152941377505
 31
0.0
210
0.0
220
0.0
230
1.0
 40
0.231245
 41
3.1595322371819452
 42
4.1939244194083596
  0
LINE
  5
240
100
AcDbEntity
  8
0
390
0
  6
Continuous
 62
     7
100
AcDbLine
 10
-69.827163
 20
-11.436681
 30
0.0
 11
-69.84441
 21
-11.430703
 31
0.0
  0
LINE
  5
241
100
AcDbEntity
  8
0
390
0
  6
Continuous
 62
     7
100
AcDbLine
 10
-66.599336
 20
11.436682
 30
0.0
 11
-66.58209
 21
11.430703
 31
0.0
  0
ELLIPSE
  5
242
100
AcDbEntity
  8
0
390
0
  6
Continuous
 62
     7
100
AcDbEllipse
 10
-66.485299
 20
12.230591
 30
0.0
 11
-0.7553830488035707
 21
-1.2959152941377783
 31
0.0
210
0.0
220
0.0
230
1.0
 40
0.231245
 41
0.0179395835921198
 42
1.0523317658185734
  0
LINE
  5
243
100
AcDbEntity
  8
0
390
0
  6
Continuous
 62
     7
100
AcDbLine
 10
-77.31075
 20
7.116031
 30
0.0
 11
-77.296949
 21
7.127978
 31
0.0
  0
ELLIPSE
  5
244
100
AcDbEntity
  8
0
390
0
  6
Continuous
 62
     7
100
AcDbEllipse
 10
-77.941277
 20
7.611745
 30
0.0
 11
0.7446040414742505
 21
-1.3021385569209898
 31
0.0
210
0.0
220
0.0
230
0.9999999999999999
 40
0.231245
 41
0.0179395835921436
 42
1.0523317658185405
  0
ELLIPSE
  5
245
100
AcDbEntity
  8
0
390
0
  6
Continuous
 62
     7
100
AcDbEllipse
 10
-79.669227
 20
-4.618846
 30
0.0
 11
-1.4999870902779044
 21
0.0062232627832115
 31
0.0
210
0.0
220
0.0
230
0.9999999999999999
 40
0.231245
 41
3.1595322371819612
 42
4.1939244194082859
  0
LINE
  5
246
100
AcDbEntity
  8
0
390
0
  6
Continuous
 62
     7
100
AcDbLine
 10
-78.924663
 20
-4.32065
 30
0.0
 11
-78.928109
 21
-4.302725
 31
0.0
  0
LINE
  5
247
100
AcDbEntity
  8
0
390
0
  6
Continuous
 62
     7
100
AcDbLine
 10
-57.501836
 20
4.320651
 30
0.0
 11
-57.498391
 21
4.302726
 31
0.0
  0
ELLIPSE
  5
248
100
AcDbEntity
  8
0
390
0
  6
Continuous
 62
     7
100
AcDbEllipse
 10
-56.757272
 20
4.618846
 30
0.0
 11
-1.4999870902778905
 21
0.0062232627832393
 31
0.0
210
0.0
220
0.0
230
1.0
 40
0.231245
 41
0.0179395835921862
 42
1.0523317658185516
  0
ELLIPSE
  5
249
100
AcDbEntity
  8
0
390
0
  6
Continuous
 62
     7
100
AcDbEllipse
 10
-78.440547
 20
-7.263036
 30
0.0
 11
-0.9660532321939808
 21
-1.1474934215791877
 31
0.0
210
0.0
220
0.0
230
1.0
 40
0.123982
 41
2.2060717020849658
 42
3.1240096967097077
  0
ARC
  5
24A
100
AcDbEntity
  8
0
390
0
  6
Continuous
 62
     7
100
AcDbCircle
 10
-74.544141
 20
-3.655142
 30
0.0
 40
4.408648
210
0.0
220
0.0
230
1.0
100
AcDbArc
 50
196.702717
 51
223.297283
  0
ELLIPSE
  5
24B
100
AcDbEntity
  8
0
390
0
  6
Continuous
 62
     7
100
AcDbEllipse
 10
-79.616872
 20
-5.225581
 30
0.0
 11
-1.4767850699604623
 21
-0.2628799291346795
 31
0.0
210
0.0
220
0.0
230
0.9999999999999999
 40
0.123982
 41
3.1591756104705206
 42
4.0771136050258505
  0
ARC
  5
24C
100
AcDbEntity
  8
0
390
0
  6
Continuous
 62
     7
100
AcDbCircle
 10
-68.21325
 20
7.318385
 30
0.0
 40
4.400765
210
0.0
220
0.0
230
1.0
100
AcDbArc
 50
76.678461
 51
103.321539
  0
ELLIPSE
  5
24D
100
AcDbEntity
  8
0
390
0
  6
Continuous
 62
     7
100
AcDbEllipse
 10
-67.036924
 20
12.488618
 30
0.0
 11
-0.5107318381253057
 21
-1.4103733511113825
 31
0.0
210
0.0
220
0.0
230
1.0
 40
0.123982
 41
0.0175829568739156
 42
0.9355209514296783
  0
ELLIPSE
  5
24E
100
AcDbEntity
  8
0
390
0
  6
Continuous
 62
     7
100
AcDbEllipse
 10
-69.389575
 20
12.488618
 30
0.0
 11
0.5107318401062211
 21
-1.4103733503940397
 31
0.0
210
0.0
220
0.0
230
1.0
 40
0.123982
 41
5.3476643554598811
 42
6.2656023500849276
  0
ARC
  5
24F
100
AcDbEntity
  8
0
390
0
  6
Continuous
 62
     7
100
AcDbCircle
 10
-74.544141
 20
3.655142
 30
0.0
 40
4.408648
210
0.0
220
0.0
230
1.0
100
AcDbArc
 50
136.702717
 51
163.297283
  0
ELLIPSE
  5
250
100
AcDbEntity
  8
0
390
0
  6
Continuous
 62
     7
100
AcDbEllipse
 10
-78.440547
 20
7.263037
 30
0.0
 11
0.9660532318193082
 21
-1.1474934218946575
 31
0.0
210
0.0
220
0.0
230
1.0
 40
0.123982
 41
0.0175829568739365
 42
0.9355209514291824
  0
ELLIPSE
  5
251
100
AcDbEntity
  8
0
390
0
  6
Continuous
 62
     7
100
AcDbEllipse
 10
-79.616872
 20
5.225581
 30
0.0
 11
1.4767850703149288
 21
-0.2628799271434945
 31
0.0
210
0.0
220
0.0
230
0.9999999999999999
 40
0.123982
 41
5.3476643554601493
 42
6.2656023500849454
  0
ELLIPSE
  5
252
100
AcDbEntity
  8
0
390
0
  6
Continuous
 62
     7
100
AcDbEllipse
 10
-56.809627
 20
-5.225581
 30
0.0
 11
1.4767850699381191
 21
-0.2628799292601902
 31
0.0
210
0.0
220
0.0
230
1.0
 40
0.123982
 41
2.2060717019450382
 42
3.1240096967093911
  0
ARC
  5
253
100
AcDbEntity
  8
0
390
0
  6
Continuous
 62
     7
100
AcDbCircle
 10
-61.882358
 20
-3.655142
 30
0.0
 40
4.408648
210
0.0
220
0.0
230
1.0
100
AcDbArc
 50
316.702717
 51
343.297283
  0
ELLIPSE
  5
254
100
AcDbEntity
  8
0
390
0
  6
Continuous
 62
     7
100
AcDbEllipse
 10
-57.985953
 20
-7.263036
 30
0.0
 11
0.9660532320606152
 21
-1.1474934216914867
 31
0.0
210
0.0
220
0.0
230
1.0
 40
0.123982
 41
3.1591756104699833
 42
4.0771136048782655
  0
ARC
  5
255
100
AcDbEntity
  8
0
390
0
  6
Continuous
 62
     7
100
AcDbCircle
 10
-61.882358
 20
3.655142
 30
0.0
 40
4.408648
210
0.0
220
0.0
230
1.0
100
AcDbArc
 50
16.702717
 51
43.297283
  0
ELLIPSE
  5
256
100
AcDbEntity
  8
0
390
0
  6
Continuous
 62
     7
100
AcDbEllipse
 10
-56.809627
 20
5.225581
 30
0.0
 11
-1.4767850698639562
 21
-0.2628799296768569
 31
0.0
210
0.0
220
0.0
230
0.9999999999999999
 40
0.123982
 41
0.017582956875129
 42
0.9355209512879938
  0
ELLIPSE
  5
257
100
AcDbEntity
  8
0
390
0
  6
Continuous
 62
     7
100
AcDbEllipse
 10
-57.985953
 20
7.263037
 30
0.0
 11
-0.9660532299535368
 21
-1.1474934234654288
 31
0.0
210
0.0
220
0.0
230
1.0
 40
0.123982
 41
5.3476643553293828
 42
6.2656023500938245
  0
ELLIPSE
  5
258
100
AcDbEntity
  8
0
390
0
  6
Continuous
 62
     7
100
AcDbEllipse
 10
-67.036924
 20
-12.488617
 30
0.0
 11
0.5107318380835613
 21
-1.4103733511265093
 31
0.0
210
0.0
220
0.0
230
0.9999999999999999
 40
0.123982
 41
2.2060717019445359
 42
3.1240096967093249
  0
ARC
  5
259
100
AcDbEntity
  8
0
390
0
  6
Continuous
 62
     7
100
AcDbCircle
 10
-68.21325
 20
-7.318384
 30
0.0
 40
4.400765
210
0.0
220
0.0
230
1.0
100
AcDbArc
 50
256.678461
 51
283.321539
  0
ELLIPSE
  5
25A
100
AcDbEntity
  8
0
390
0
  6
Continuous
 62
     7
100
AcDbEllipse
 10
-69.389575
 20
-12.488617
 30
0.0
 11
-0.5107318378254344
 21
-1.4103733512199901
 31
0.0
210
0.0
220
0.0
230
1.0
 40
0.123982
 41
3.1591756104699584
 42
4.0771136048781038
  0
LINE
  5
25B
100
AcDbEntity
  8
0
390
0
  6
Continuous
 62
     7
100
AcDbLine
 10
-67.199245
 20
11.600735
 30
0.0
 11
-66.599336
 21
11.436682
 31
0.0
  0
LINE
  5
25C
100
AcDbEntity
  8
0
390
0
  6
Continuous
 62
     7
100
AcDbLine
 10
-69.227254
 20
-11.600734
 30
0.0
 11
-69.827163
 21
-11.436681
 31
0.0
  0
LINE
  5
25D
100
AcDbEntity
  8
0
390
0
  6
Continuous
 62
     7
100
AcDbLine
 10
-58.673721
 20
-6.678521
 30
0.0
 11
-59.11575
 21
-7.11603
 31
0.0
  0
LINE
  5
25E
100
AcDbEntity
  8
0
390
0
  6
Continuous
 62
     7
100
AcDbLine
 10
-57.659716
 20
4.922214
 30
0.0
 11
-57.501836
 21
4.320651
 31
0.0
  0
LINE
  5
25F
100
AcDbEntity
  8
0
390
0
  6
Continuous
 62
     7
100
AcDbLine
 10
-77.752778
 20
6.678522
 30
0.0
 11
-77.31075
 21
7.116031
 31
0.0
  0
LINE
  5
260
100
AcDbEntity
  8
0
390
0
  6
Continuous
 62
     7
100
AcDbLine
 10
-78.766783
 20
-4.922213
 30
0.0
 11
-78.924663
 21
-4.32065
 31
0.0
  0
LINE
  5
261
100
AcDbEntity
  8
0
390
0
  6
Continuous
 62
     7
100
AcDbLine
 10
-57.501836
 20
-4.32065
 30
0.0
 11
-57.659716
 21
-4.922213
 31
0.0
  0
LINE
  5
262
100
AcDbEntity
  8
0
390
0
  6
Continuous
 62
     7
100
AcDbLine
 10
-59.11575
 20
7.116031
 30
0.0
 11
-58.673721
 21
6.678522
 31
0.0
  0
LINE
  5
263
100
AcDbEntity
  8
0
390
0
  6
Continuous
 62
     7
100
AcDbLine
 10
-66.599336
 20
-11.436681
 30
0.0
 11
-67.199245
 21
-11.600734
 31
0.0
  0
LINE
  5
264
100
AcDbEntity
  8
0
390
0
  6
Continuous
 62
     7
100
AcDbLine
 10
-78.924663
 20
4.320651
 30
0.0
 11
-78.766783
 21
4.922214
 31
0.0
  0
LINE
  5
265
100
AcDbEntity
  8
0
390
0
  6
Continuous
 62
     7
100
AcDbLine
 10
-69.827163
 20
11.436682
 30
0.0
 11
-69.227254
 21
11.600735
 31
0.0
  0
LINE
  5
266
100
AcDbEntity
  8
0
390
0
  6
Continuous
 62
     7
100
AcDbLine
 10
-77.31075
 20
-7.11603
 30
0.0
 11
-77.752778
 21
-6.678521
 31
0.0
  0
ARC
  5
267
100
AcDbEntity
  8
0
390
0
  6
Continuous
 62
     7
100
AcDbCircle
 10
-68.21325
 20
0.0
 30
0.0
 40
12.245886
210
0.0
220
0.0
230
1.0
100
AcDbArc
 50
38.121272
 51
81.878728
  0
LINE
  5
268
100
AcDbEntity
  8
0
390
0
  6
Continuous
 62
     7
100
AcDbLine
 10
-59.12955
 20
7.127978
 30
0.0
 11
-58.579339
 21
7.559728
 31
0.0
  0
LINE
  5
269
100
AcDbEntity
  8
0
390
0
  6
Continuous
 62
     7
100
AcDbLine
 10
-66.483288
 20
12.123076
 30
0.0
 11
-66.58209
 21
11.430703
 31
0.0
  0
ARC
  5
26A
100
AcDbEntity
  8
0
390
0
  6
Continuous
 62
     7
100
AcDbCircle
 10
-68.21325
 20
0.0
 30
0.0
 40
12.245886
210
0.0
220
0.0
230
1.0
100
AcDbArc
 50
338.121272
 51
21.878728
  0
LINE
  5
26B
100
AcDbEntity
  8
0
390
0
  6
Continuous
 62
     7
100
AcDbLine
 10
-57.498391
 20
-4.302725
 30
0.0
 11
-56.849378
 21
-4.563347
 31
0.0
  0
LINE
  5
26C
100
AcDbEntity
  8
0
390
0
  6
Continuous
 62
     7
100
AcDbLine
 10
-57.498391
 20
4.302726
 30
0.0
 11
-56.849378
 21
4.563348
 31
0.0
  0
ARC
  5
26D
100
AcDbEntity
  8
0
390
0
  6
Continuous
 62
     7
100
AcDbCircle
 10
-68.21325
 20
0.0
 30
0.0
 40
12.245886
210
0.0
220
0.0
230
1.0
100
AcDbArc
 50
98.121272
 51
141.878728
  0
LINE
  5
26E
100
AcDbEntity
  8
0
390
0
  6
Continuous
 62
     7
100
AcDbLine
 10
-69.943211
 20
12.123076
 30
0.0
 11
-69.84441
 21
11.430703
 31
0.0
  0
LINE
  5
26F
100
AcDbEntity
  8
0
390
0
  6
Continuous
 62
     7
100
AcDbLine
 10
-77.84716
 20
7.559728
 30
0.0
 11
-77.296949
 21
7.127978
 31
0.0
  0
ARC
  5
270
100
AcDbEntity
  8
0
390
0
  6
Continuous
 62
     7
100
AcDbCircle
 10
-68.21325
 20
0.0
 30
0.0
 40
12.245886
210
0.0
220
0.0
230
1.0
100
AcDbArc
 50
218.121272
 51
261.878728
  0
LINE
  5
271
100
AcDbEntity
  8
0
390
0
  6
Continuous
 62
     7
100
AcDbLine
 10
-77.84716
 20
-7.559728
 30
0.0
 11
-77.296949
 21
-7.127977
 31
0.0
  0
LINE
  5
272
100
AcDbEntity
  8
0
390
0
  6
Continuous
 62
     7
100
AcDbLine
 10
-69.84441
 20
-11.430703
 30
0.0
 11
-69.943211
 21
-12.123075
 31
0.0
  0
ARC
  5
273
100
AcDbEntity
  8
0
390
0
  6
Continuous
 62
     7
100
AcDbCircle
 10
-68.21325
 20
0.0
 30
0.0
 40
12.245886
210
0.0
220
0.0
230
1.0
100
AcDbArc
 50
158.121272
 51
201.878728
  0
LINE
  5
274
100
AcDbEntity
  8
0
390
0
  6
Continuous
 62
     7
100
AcDbLine
 10
-79.577121
 20
4.563348
 30
0.0
 11
-78.928109
 21
4.302726
 31
0.0
  0
LINE
  5
275
100
AcDbEntity
  8
0
390
0
  6
Continuous
 62
     7
100
AcDbLine
 10
-79.577121
 20
-4.563347
 30
0.0
 11
-78.928109
 21
-4.302725
 31
0.0
  0
ARC
  5
276
100
AcDbEntity
  8
0
390
0
  6
Continuous
 62
     7
100
AcDbCircle
 10
-68.21325
 20
0.0
 30
0.0
 40
12.245886
210
0.0
220
0.0
230
1.0
100
AcDbArc
 50
278.121272
 51
321.878728
  0
LINE
  5
277
100
AcDbEntity
  8
0
390
0
  6
Continuous
 62
     7
100
AcDbLine
 10
-66.58209
 20
-11.430703
 30
0.0
 11
-66.483288
 21
-12.123075
 31
0.0
  0
LINE
  5
278
100
AcDbEntity
  8
0
390
0
  6
Continuous
 62
     7
100
AcDbLine
 10
-59.12955
 20
-7.127977
 30
0.0
 11
-58.579339
 21
-7.559728
 31
0.0
  0
LINE
  5
279
100
AcDbEntity
  8
0
390
0
  6
Continuous
 62
     7
100
AcDbLine
 10
-69.183647
 20
12.206085
 30
0.0
 11
-67.242852
 21
12.206085
 31
0.0
  0
ELLIPSE
  5
27A
100
AcDbEntity
  8
0
390
0
  6
Continuous
 62
     7
100
AcDbEllipse
 10
-67.361566
 20
10.712853
 30
0.0
 11
0.1126497037694796
 21
1.4957640336098199
 31
0.0
210
0.0
220
0.0
230
1.0
 40
0.079199
 41
5.3538627920496271
 42
6.2306602900950265
  0
ELLIPSE
  5
27B
100
AcDbEntity
  8
0
390
0
  6
Continuous
 62
     7
100
AcDbEllipse
 10
-69.064934
 20
10.712853
 30
0.0
 11
-0.1126497107865609
 21
1.495764033081326
 31
0.0
210
0.0
220
0.0
230
0.9999999999999999
 40
0.079199
 41
0.0525250167356532
 42
0.9293225143422439
  0
LINE
  5
27C
100
AcDbEntity
  8
0
390
0
  6
Continuous
 62
     7
100
AcDbLine
 10
-78.298831
 20
-6.943431
 30
0.0
 11
-79.269228
 21
-5.262653
 31
0.0
  0
ELLIPSE
  5
27D
100
AcDbEntity
  8
0
390
0
  6
Continuous
 62
     7
100
AcDbEllipse
 10
-77.916694
 20
-4.618846
 30
0.0
 11
-1.3516945030585814
 21
-0.6503245116102896
 31
0.0
210
0.0
220
0.0
230
0.9999999999999999
 40
0.079199
 41
5.353862792050303
 42
6.2306602900951074
  0
ELLIPSE
  5
27E
100
AcDbEntity
  8
0
390
0
  6
Continuous
 62
     7
100
AcDbEllipse
 10
-77.06501
 20
-6.094006
 30
0.0
 11
-1.2390447953228856
 21
-0.845439527809827
 31
0.0
210
0.0
220
0.0
230
0.9999999999999999
 40
0.079199
 41
0.052525016735871
 42
0.9293225143422124
  0
LINE
  5
27F
100
AcDbEntity
  8
0
390
0
  6
Continuous
 62
     7
100
AcDbLine
 10
-79.269228
 20
5.262654
 30
0.0
 11
-78.298831
 21
6.943432
 31
0.0
  0
ELLIPSE
  5
280
100
AcDbEntity
  8
0
390
0
  6
Continuous
 62
     7
100
AcDbEllipse
 10
-77.06501
 20
6.094007
 30
0.0
 11
-1.2390447992875475
 21
0.8454395219993638
 31
0.0
210
0.0
220
0.0
230
1.0
 40
0.079199
 41
5.3538627920501689
 42
6.2306602900949786
  0
ELLIPSE
  5
281
100
AcDbEntity
  8
0
390
0
  6
Continuous
 62
     7
100
AcDbEllipse
 10
-77.916694
 20
4.618846
 30
0.0
 11
-1.3516945061084473
 21
0.6503245052712492
 31
0.0
210
0.0
220
0.0
230
1.0
 40
0.079199
 41
0.0525250167357335
 42
0.9293225143422106
  0
LINE
  5
282
100
AcDbEntity
  8
0
390
0
  6
Continuous
 62
     7
100
AcDbLine
 10
-67.242852
 20
-12.206085
 30
0.0
 11
-69.183647
 21
-12.206085
 31
0.0
  0
ELLIPSE
  5
283
100
AcDbEntity
  8
0
390
0
  6
Continuous
 62
     7
100
AcDbEllipse
 10
-69.064934
 20
-10.712852
 30
0.0
 11
0.1126497069739441
 21
1.4957640333684852
 31
0.0
210
0.0
220
0.0
230
1.0
 40
0.079199
 41
2.2122701387302106
 42
3.0890676366747769
  0
ELLIPSE
  5
284
100
AcDbEntity
  8
0
390
0
  6
Continuous
 62
     7
100
AcDbEllipse
 10
-67.361566
 20
-10.712852
 30
0.0
 11
-0.1126497075827904
 21
1.4957640333226052
 31
0.0
210
0.0
220
0.0
230
1.0
 40
0.079199
 41
3.1941176704950869
 42
4.070915168215004
  0
LINE
  5
285
100
AcDbEntity
  8
0
390
0
  6
Continuous
 62
     7
100
AcDbLine
 10
-58.127669
 20
6.943432
 30
0.0
 11
-57.157271
 21
5.262654
 31
0.0
  0
ELLIPSE
  5
286
100
AcDbEntity
  8
0
390
0
  6
Continuous
 62
     7
100
AcDbEllipse
 10
-58.509805
 20
4.618846
 30
0.0
 11
-1.3516945044511202
 21
-0.6503245087159382
 31
0.0
210
0.0
220
0.0
230
1.0
 40
0.079199
 41
2.2122701387307706
 42
3.0890676366747218
  0
ELLIPSE
  5
287
100
AcDbEntity
  8
0
390
0
  6
Continuous
 62
     7
100
AcDbEllipse
 10
-59.361489
 20
6.094007
 30
0.0
 11
-1.2390447971332015
 21
-0.8454395251567271
 31
0.0
210
0.0
220
0.0
230
1.0
 40
0.079199
 41
3.1941176704950003
 42
4.0709151682147278
  0
LINE
  5
288
100
AcDbEntity
  8
0
390
0
  6
Continuous
 62
     7
100
AcDbLine
 10
-57.157271
 20
-5.262653
 30
0.0
 11
-58.127669
 21
-6.943431
 31
0.0
  0
ELLIPSE
  5
289
100
AcDbEntity
  8
0
390
0
  6
Continuous
 62
     7
100
AcDbEllipse
 10
-59.361489
 20
-6.094006
 30
0.0
 11
-1.2390447974771761
 21
0.8454395246525193
 31
0.0
210
0.0
220
0.0
230
1.0
 40
0.079199
 41
2.2122701387305681
 42
3.0890676366746996
  0
ELLIPSE
  5
28A
100
AcDbEntity
  8
0
390
0
  6
Continuous
 62
     7
100
AcDbEllipse
 10
-58.509805
 20
-4.618846
 30
0.0
 11
-1.3516945047157003
 21
0.6503245081660447
 31
0.0
210
0.0
220
0.0
230
0.9999999999999999
 40
0.079199
 41
3.1941176704951912
 42
4.0709151682147322
  0
LINE
  5
28B
100
AcDbEntity
  8
0
390
0
  6
Continuous
 62
     7
100
AcDbLine
 10
-57.157271
 20
5.262654
 30
0.0
 11
-56.849378
 21
4.563348
 31
0.0
  0
LINE
  5
28C
100
AcDbEntity
  8
0
390
0
  6
Continuous
 62
     7
100
AcDbLine
 10
-58.127669
 20
-6.943431
 30
0.0
 11
-58.579339
 21
-7.559728
 31
0.0
  0
LINE
  5
28D
100
AcDbEntity
  8
0
390
0
  6
Continuous
 62
     7
100
AcDbLine
 10
-69.183647
 20
-12.206085
 30
0.0
 11
-69.943211
 21
-12.123075
 31
0.0
  0
LINE
  5
28E
100
AcDbEntity
  8
0
390
0
  6
Continuous
 62
     7
100
AcDbLine
 10
-77.84716
 20
-7.559728
 30
0.0
 11
-78.298831
 21
-6.943431
 31
0.0
  0
LINE
  5
28F
100
AcDbEntity
  8
0
390
0
  6
Continuous
 62
     7
100
AcDbLine
 10
-79.577121
 20
4.563348
 30
0.0
 11
-79.269228
 21
5.262654
 31
0.0
  0
LINE
  5
290
100
AcDbEntity
  8
0
390
0
  6
Continuous
 62
     7
100
AcDbLine
 10
-69.943211
 20
12.123076
 30
0.0
 11
-69.183647
 21
12.206085
 31
0.0
  0
LINE
  5
291
100
AcDbEntity
  8
0
390
0
  6
Continuous
 62
     7
100
AcDbLine
 10
-78.298831
 20
6.943432
 30
0.0
 11
-77.84716
 21
7.559728
 31
0.0
  0
LINE
  5
292
100
AcDbEntity
  8
0
390
0
  6
Continuous
 62
     7
100
AcDbLine
 10
-79.269228
 20
-5.262653
 30
0.0
 11
-79.577121
 21
-4.563347
 31
0.0
  0
LINE
  5
293
100
AcDbEntity
  8
0
390
0
  6
Continuous
 62
     7
100
AcDbLine
 10
-67.242852
 20
12.206085
 30
0.0
 11
-66.483288
 21
12.123076
 31
0.0
  0
LINE
  5
294
100
AcDbEntity
  8
0
390
0
  6
Continuous
 62
     7
100
AcDbLine
 10
-56.849378
 20
-4.563347
 30
0.0
 11
-57.157271
 21
-5.262653
 31
0.0
  0
LINE
  5
295
100
AcDbEntity
  8
0
390
0
  6
Continuous
 62
     7
100
AcDbLine
 10
-58.579339
 20
7.559728
 30
0.0
 11
-58.127669
 21
6.943432
 31
0.0
  0
LINE
  5
296
100
AcDbEntity
  8
0
390
0
  6
Continuous
 62
     7
100
AcDbLine
 10
-66.483288
 20
-12.123075
 30
0.0
 11
-67.242852
 21
-12.206085
 31
0.0
  0
CIRCLE
  5
297
100
AcDbEntity
  8
0
390
0
  6
Continuous
 62
     7
100
AcDbCircle
 10
-68.21325
 20
0.0
 30
0.0
 40
12.365297
210
0.0
220
0.0
230
1.0
  0
POINT
  5
298
100
AcDbEntity
  8
0
390
0
 62
     7
100
AcDbPoint
 10
0.0
 20
0.0
 30
0.0
  0
ENDSEC
  0
SECTION
  2
OBJECTS
  0
DICTIONARY
  5
19
100
AcDbDictionary
280
     0
281
     1
  3
ACAD_GROUP
350
1A
  3
ACAD_MLINESTYLE
350
1B
  3
ACAD_LAYOUT
350
1E
  3
ACAD_PLOTSETTINGS
350
22
  3
ACAD_PLOTSTYLENAME
350
1F
  3
ACAD_WIPEOUT_VARS
350
23
  0
DICTIONARY
  5
1A
102
{ACAD_REACTORS
330
19
102
}
100
AcDbDictionary
280
     0
281
     1
  0
DICTIONARY
  5
1B
102
{ACAD_REACTORS
330
19
102
}
100
AcDbDictionary
280
     0
281
     1
  3
Standard
350
1C
  0
MLINESTYLE
  5
1C
102
{ACAD_REACTORS
330
1B
102
}
100
AcDbMlineStyle
  2
Standard
 70
     0
  3

 62
     0
 51
90.0
 52
90.0
 71
     2
 49
0.5
 62
   256
  6
ByLayer
 49
-0.5
 62
   256
  6
ByLayer
  0
ACDBDICTIONARYWDFLT
  5
1F
102
{ACAD_REACTORS
330
19
102
}
100
AcDbDictionary
281
     1
  3
Normal
350
1D
100
AcDbDictionaryWithDefault
340
1D
  0
ACDBPLACEHOLDER
  5
1D
102
{ACAD_REACTORS
330
1F
102
}
  0
LAYOUT
  5
20
102
{ACAD_REACTORS
330
1E
102
}
100
AcDbPlotSettings
  1

  2

  4

  6

 40
0.0
 41
0.0
 42
0.0
 43
0.0
 44
0.0
 45
0.0
 46
0.0
 47
0.0
 48
0.0
 49
0.0
140
0.0
141
0.0
142
1.0
143
1.0
 70
  1024
 72
     0
 73
     0
 74
     0
  7

 75
     0
147
1.0
148
0.0
149
0.0
100
AcDbLayout
  1
Model
 70
     0
 71
     1
 10
0.0
 20
0.0
 11
0.0
 21
0.0
 12
0.0
 22
0.0
 32
0.0
 14
0.0
 24
0.0
 34
0.0
 15
0.0
 25
0.0
 35
0.0
146
0.0
 13
0.0
 23
0.0
 33
0.0
 16
0.0
 26
0.0
 36
0.0
 17
0.0
 27
0.0
 37
0.0
 76
     0
330
A
331
0
345
0
346
0
  0
LAYOUT
  5
21
102
{ACAD_REACTORS
330
1E
102
}
100
AcDbPlotSettings
  1

  2

  4

  6

 40
0.0
 41
0.0
 42
0.0
 43
0.0
 44
0.0
 45
0.0
 46
0.0
 47
0.0
 48
0.0
 49
0.0
140
0.0
141
0.0
142
1.0
143
1.0
 70
     0
 72
     0
 73
     0
 74
     0
  7

 75
     0
147
1.0
148
0.0
149
0.0
100
AcDbLayout
  1
Layout1
 70
     0
 71
     2
 10
0.0
 20
0.0
 11
0.0
 21
0.0
 12
0.0
 22
0.0
 32
0.0
 14
0.0
 24
0.0
 34
0.0
 15
0.0
 25
0.0
 35
0.0
146
0.0
 13
0.0
 23
0.0
 33
0.0
 16
0.0
 26
0.0
 36
0.0
 17
0.0
 27
0.0
 37
0.0
 76
     0
330
B
331
0
345
0
346
0
  0
DICTIONARY
  5
1E
102
{ACAD_REACTORS
330
19
102
}
100
AcDbDictionary
280
     0
281
     1
  3
Layout1
350
21
  3
Model
350
20
  0
DICTIONARY
  5
22
102
{ACAD_REACTORS
330
19
102
}
100
AcDbDictionary
280
     0
281
     1
  0
WIPEOUTVARIABLES
  5
23
100
AcDbWipeoutVariables
 70
     1
  0
ENDSEC
  0
EOF
