  0
SECTION
  2
HEADER
  9
$ACADVER
  1
AC1015
  9
$ACADMAINTVER
 70
     6
  9
$DWGCODEPAGE
  3
DOS932
  9
$INSBASE
 10
0.0
 20
0.0
 30
0.0
  9
$EXTMIN
 10
-174.00383
 20
-45.0
 30
0.0
  9
$EXTMAX
 10
463.230363
 20
374.590447
 30
9.906
  9
$LIMMIN
 10
-174.00383
 20
-45.0
  9
$LIMMAX
 10
463.230363
 20
374.590447
  9
$ORTHOMODE
 70
     0
  9
$REGENMODE
 70
     1
  9
$FILLMODE
 70
     1
  9
$QTEXTMODE
 70
     0
  9
$MIRRTEXT
 70
     1
  9
$LTSCALE
 40
10.0
  9
$ATTMODE
 70
     1
  9
$TEXTSIZE
 40
0.2
  9
$TRACEWID
 40
0.05
  9
$TEXTSTYLE
  7
Standard
  9
$CLAYER
  8
0
  9
$CELTYPE
  6
Continuous
  9
$CECOLOR
 62
   256
  9
$CELTSCALE
 40
1.0
  9
$DISPSILH
 70
     0
  9
$DIMSCALE
 40
1.0
  9
$DIMASZ
 40
1.40208
  9
$DIMEXO
 40
1.40208
  9
$DIMDLI
 40
0.38
  9
$DIMRND
 40
0.0
  9
$DIMDLE
 40
0.0
  9
$DIMEXE
 40
1.05156
  9
$DIMTP
 40
0.0
  9
$DIMTM
 40
0.0
  9
$DIMTXT
 40
3.5052
  9
$DIMCEN
 40
0.09
  9
$DIMTSZ
 40
0.0
  9
$DIMTOL
 70
     0
  9
$DIMLIM
 70
     0
  9
$DIMTIH
 70
     0
  9
$DIMTOH
 70
     0
  9
$DIMSE1
 70
     0
  9
$DIMSE2
 70
     0
  9
$DIMTAD
 70
     1
  9
$DIMZIN
 70
     0
  9
$DIMBLK
  1

  9
$DIMASO
 70
     1
  9
$DIMSHO
 70
     1
  9
$DIMPOST
  1

  9
$DIMAPOST
  1

  9
$DIMALT
 70
     0
  9
$DIMALTD
 70
     2
  9
$DIMALTF
 40
25.4
  9
$DIMLFAC
 40
1.0
  9
$DIMTOFL
 70
     0
  9
$DIMTVP
 40
0.0
  9
$DIMTIX
 70
     0
  9
$DIMSOXD
 70
     0
  9
$DIMSAH
 70
     0
  9
$DIMBLK1
  1

  9
$DIMBLK2
  1

  9
$DIMSTYLE
  2
Standard
  9
$DIMCLRD
 70
     7
  9
$DIMCLRE
 70
     7
  9
$DIMCLRT
 70
     7
  9
$DIMTFAC
 40
0.5
  9
$DIMGAP
 40
1.7526
  9
$DIMJUST
 70
     0
  9
$DIMSD1
 70
     0
  9
$DIMSD2
 70
     0
  9
$DIMTOLJ
 70
     1
  9
$DIMTZIN
 70
     0
  9
$DIMALTZ
 70
     0
  9
$DIMALTTZ
 70
     0
  9
$DIMUPT
 70
     0
  9
$DIMDEC
 70
     2
  9
$DIMTDEC
 70
     4
  9
$DIMALTU
 70
     2
  9
$DIMALTTD
 70
     2
  9
$DIMTXSTY
  7
Standard
  9
$DIMAUNIT
 70
     0
  9
$DIMADEC
 70
     0
  9
$DIMALTRND
 40
0.0
  9
$DIMAZIN
 70
     0
  9
$DIMDSEP
 70
     0
  9
$DIMATFIT
 70
     3
  9
$DIMFRAC
 70
     0
  9
$DIMLDRBLK
  1

  9
$DIMLUNIT
 70
     2
  9
$DIMLWD
 70
     0
  9
$DIMLWE
 70
     0
  9
$DIMTMOVE
 70
     0
  9
$LUNITS
 70
     2
  9
$LUPREC
 70
     4
  9
$SKETCHINC
 40
0.1
  9
$FILLETRAD
 40
0.0
  9
$AUNITS
 70
     0
  9
$AUPREC
 70
     0
  9
$MENU
  1
acad
  9
$ELEVATION
 40
0.0
  9
$PELEVATION
 40
0.0
  9
$THICKNESS
 40
0.0
  9
$LIMCHECK
 70
     0
  9
$CHAMFERA
 40
0.0
  9
$CHAMFERB
 40
0.0
  9
$CHAMFERC
 40
0.0
  9
$CHAMFERD
 40
0.0
  9
$SKPOLY
 70
     0
  9
$TDCREATE
 40
2459786.662951389
  9
$TDUCREATE
 40
0.000000000
  9
$TDUPDATE
 40
2459786.287870370
  9
$TDUUPDATE
 40
0.000000000
  9
$TDINDWG
 40
0.0000000000
  9
$TDUSRTIMER
 40
0.0000000000
  9
$USRTIMER
 70
     1
  9
$ANGBASE
 50
0.0
  9
$ANGDIR
 70
     0
  9
$PDMODE
 70
     0
  9
$PDSIZE
 40
0.0
  9
$PLINEWID
 40
0.0
  9
$SPLFRAME
 70
     0
  9
$SPLINETYPE
 70
     6
  9
$SPLINESEGS
 70
     8
  9
$HANDSEED
  5
296
  9
$SURFTAB1
 70
     6
  9
$SURFTAB2
 70
     6
  9
$SURFTYPE
 70
     6
  9
$SURFU
 70
     6
  9
$SURFV
 70
     6
  9
$UCSBASE
  2

  9
$UCSNAME
  2

  9
$UCSORG
 10
0.0
 20
0.0
 30
0.0
  9
$UCSXDIR
 10
1.0
 20
0.0
 30
0.0
  9
$UCSYDIR
 10
0.0
 20
1.0
 30
0.0
  9
$UCSORTHOREF
  2

  9
$UCSORTHOVIEW
 70
     0
  9
$UCSORGTOP
 10
0.0
 20
0.0
 30
0.0
  9
$UCSORGBOTTOM
 10
0.0
 20
0.0
 30
0.0
  9
$UCSORGLEFT
 10
0.0
 20
0.0
 30
0.0
  9
$UCSORGRIGHT
 10
0.0
 20
0.0
 30
0.0
  9
$UCSORGFRONT
 10
0.0
 20
0.0
 30
0.0
  9
$UCSORGBACK
 10
0.0
 20
0.0
 30
0.0
  9
$PUCSBASE
  2

  9
$PUCSNAME
  2

  9
$PUCSORG
 10
0.0
 20
0.0
 30
0.0
  9
$PUCSXDIR
 10
1.0
 20
0.0
 30
0.0
  9
$PUCSYDIR
 10
0.0
 20
1.0
 30
0.0
  9
$PUCSORTHOREF
  2

  9
$PUCSORTHOVIEW
 70
     0
  9
$PUCSORGTOP
 10
0.0
 20
0.0
 30
0.0
  9
$PUCSORGBOTTOM
 10
0.0
 20
0.0
 30
0.0
  9
$PUCSORGLEFT
 10
0.0
 20
0.0
 30
0.0
  9
$PUCSORGRIGHT
 10
0.0
 20
0.0
 30
0.0
  9
$PUCSORGFRONT
 10
0.0
 20
0.0
 30
0.0
  9
$PUCSORGBACK
 10
0.0
 20
0.0
 30
0.0
  9
$USERI1
 70
     0
  9
$USERI2
 70
     0
  9
$USERI3
 70
     0
  9
$USERI4
 70
     0
  9
$USERI5
 70
     0
  9
$USERR1
 40
0.0
  9
$USERR2
 40
0.0
  9
$USERR3
 40
0.0
  9
$USERR4
 40
0.0
  9
$USERR5
 40
0.0
  9
$WORLDVIEW
 70
     1
  9
$SHADEDGE
 70
     3
  9
$SHADEDIF
 70
    70
  9
$TILEMODE
 70
     1
  9
$MAXACTVP
 70
    16
  9
$PINSBASE
 10
0.0
 20
0.0
 30
0.0
  9
$PLIMCHECK
 70
     0
  9
$PEXTMIN
 10
1.000000E+20
 20
1.000000E+20
 30
1.000000E+20
  9
$PEXTMAX
 10
-1.000000E+20
 20
-1.000000E+20
 30
-1.000000E+20
  9
$PLIMMIN
 10
0.0
 20
0.0
  9
$PLIMMAX
 10
12.0
 20
9.0
  9
$UNITMODE
 70
     0
  9
$VISRETAIN
 70
     0
  9
$PLINEGEN
 70
     1
  9
$PSLTSCALE
 70
     0
  9
$TREEDEPTH
 70
  3020
  9
$CMLSTYLE
  2
Standard
  9
$CMLJUST
 70
     0
  9
$CMLSCALE
 40
1.0
  9
$PROXYGRAPHICS
 70
     0
  9
$MEASUREMENT
 70
     0
  9
$CELWEIGHT
370
     0
  9
$ENDCAPS
280
     0
  9
$JOINSTYLE
280
     0
  9
$LWDISPLAY
290
     0
  9
$INSUNITS
 70
     0
  9
$HYPERLINKBASE
  1

  9
$STYLESHEET
  1

  9
$XEDIT
290
     1
  9
$CEPSNTYPE
380
     0
  9
$PSTYLEMODE
290
     1
  9
$FINGERPRINTGUID
  2

  9
$VERSIONGUID
  2

  9
$EXTNAMES
290
     1
  9
$PSVPSCALE
 40
0.0
  0
ENDSEC
  0
SECTION
  2
CLASSES
  0
CLASS
  1
LWPOLYLINE
  2
AcDbPolyline
  3
AutoCAD 2000
 90
        0
280
     0
281
     1
  0
CLASS
  1
IMAGE
  2
AcDbRasterImage
  3
ISM
 90
      127
280
     0
281
     1
  0
CLASS
  1
OLE2FRAME
  2
AcDbOle2Frame
  3
AutoCAD 2000
 90
        0
280
     0
281
     1
  0
CLASS
  1
HATCH
  2
AcDbHatch
  3
AutoCAD 2000
 90
        0
280
     0
281
     1
  0
CLASS
  1
DICTIONARYVAR
  2
AcDbDictionaryVar
  3
AutoCAD 2000
 90
        0
280
     0
281
     0
  0
CLASS
  1
RASTERVARIABLES
  2
AcDbRasterVariables
  3
ISM
 90
        0
280
     0
281
     0
  0
CLASS
  1
IMAGEDEF
  2
AcDbRasterImageDef
  3
ISM
 90
        0
280
     0
281
     0
  0
CLASS
  1
IMAGEDEF_REACTOR
  2
AcDbRasterImageDefReactor
  3
ISM
 90
        1
280
     0
281
     0
  0
CLASS
  1
IDBUFFER
  2
AcDbIdBuffer
  3
AutoCAD 2000
 90
        0
280
     0
281
     0
  0
CLASS
  1
SPATIAL_FILTER
  2
AcDbSpatialFilter
  3
AutoCAD 2000
 90
        0
280
     0
281
     0
  0
CLASS
  1
XRECORD
  2
AcDbXrecord
  3
AutoCAD 2000
 90
        0
280
     0
281
     0
  0
CLASS
  1
SORTENTSTABLE
  2
AcDbSortentsTable
  3
AutoCAD 2000
 90
        0
280
     0
281
     0
  0
CLASS
  1
LAYER_INDEX
  2
AcDbLayerIndex
  3
AutoCAD 2000
 90
        0
280
     0
281
     0
  0
CLASS
  1
SPATIAL_INDEX
  2
AcDbSpatialIndex
  3
AutoCAD 2000
 90
        0
280
     0
281
     0
  0
CLASS
  1
OBJECT_PTR
  2
CAseDLPNTableRecord
  3
"ASE-LPNTableRecord"
 90
        1
280
     0
281
     0
  0
CLASS
  1
LAYOUT
  2
AcDbLayout
  3
AutoCAD 2000
 90
        0
280
     0
281
     0
  0
CLASS
  1
PLOTSETTINGS
  2
AcDbPlotSettings
  3
AutoCAD 2000
 90
        0
280
     0
281
     0
  0
CLASS
  1
ACDBDICTIONARYWDFLT
  2
AcDbDictionaryWithDefault
  3
AutoCAD 2000
 90
        0
280
     0
281
     0
  0
CLASS
  1
ACDBPLACEHOLDER
  2
AcDbPlaceHolder
  3
AutoCAD 2000
 90
        0
280
     0
281
     0
  0
CLASS
  1
VBA_PROJECT
  2
AcDbVbaProject
  3
acadvba
 90
        0
280
     0
281
     0
  0
CLASS
  1
WIPEOUT
  2
AcDbWipeout
  3
WipeOut|AutoCAD Express Tool|expresstools@autodesk.com
 90
      127
280
     0
281
     1
  0
CLASS
  1
WIPEOUTVARIABLES
  2
AcDbWipeoutVariables
  3
WipeOut|AutoCAD Express Tool|expresstools@autodesk.com
 90
        0
280
     0
281
     0
  0
CLASS
  1
RTEXT
  2
RText
  3
RText|AutoCAD Express Tool|expresstools@autodesk.com
 90
        0
280
     0
281
     1
  0
CLASS
  1
ARCALIGNEDTEXT
  2
AcDbArcAlignedText
  3
ATEXT|AutoCAD Express Tool|expresstools@autodesk.com
 90
        0
280
     0
281
     1
  0
ENDSEC
  0
SECTION
  2
TABLES
  0
TABLE
  2
VPORT
  5
7
100
AcDbSymbolTable
 70
     1
  0
VPORT
  5
15
100
AcDbSymbolTableRecord
100
AcDbViewportTableRecord
  2
*ACTIVE
 70
     0
 10
0.0
 20
0.0
 11
1.0
 21
1.0
 12
6.591288
 22
4.579184
 13
0.0
 23
0.0
 14
1.0
 24
1.0
 15
0.0
 25
0.0
 16
0.0
 26
0.0
 36
1.0
 17
0.0
 27
0.0
 37
0.0
 40
9.158369
 41
0.688564
 42
50.0
 43
0.0
 44
0.0
 50
0.0
 51
0.0
 71
     0
 72
   100
 73
     1
 74
     1
 75
     0
 76
     0
 77
     0
 78
     0
281
     0
 65
     0
110
0.0
120
0.0
130
0.0
111
1.0
121
0.0
131
0.0
112
0.0
122
1.0
132
0.0
345
0
346
0
 79
     0
146
0.0
  0
ENDTAB
  0
TABLE
  2
LTYPE
  5
4
100
AcDbSymbolTable
 70
     3
  0
LTYPE
  5
11
100
AcDbSymbolTableRecord
100
AcDbLinetypeTableRecord
  2
ByBlock
 70
    64
  3

 72
    65
 73
     0
 40
0.0
  0
LTYPE
  5
12
100
AcDbSymbolTableRecord
100
AcDbLinetypeTableRecord
  2
ByLayer
 70
    64
  3

 72
    65
 73
     0
 40
0.0
  0
LTYPE
  5
13
100
AcDbSymbolTableRecord
100
AcDbLinetypeTableRecord
  2
Continuous
 70
    64
  3
Solid line
 72
    65
 73
     0
 40
0.0
  0
ENDTAB
  0
TABLE
  2
LAYER
  5
2
100
AcDbSymbolTable
 70
     1
  0
LAYER
  5
14
100
AcDbSymbolTableRecord
100
AcDbLayerTableRecord
  2
0
 70
     0
 62
     7
  6
Continuous
290
     1
370
    -3
390
1D
  0
ENDTAB
  0
TABLE
  2
STYLE
  5
3
100
AcDbSymbolTable
 70
     1
  0
STYLE
  5
17
100
AcDbSymbolTableRecord
100
AcDbTextStyleTableRecord
  2
Standard
 70
     0
 40
0.0
 41
1.0
 50
0.0
 71
     0
 42
0.0
  3
FG教科書体NT-M
  4

1001
ACAD
1000
FG教科書体NT-M
1071
        0
  0
ENDTAB
  0
TABLE
  2
VIEW
  5
5
100
AcDbSymbolTable
 70
     0
  0
ENDTAB
  0
TABLE
  2
UCS
  5
6
100
AcDbSymbolTable
 70
     0
  0
ENDTAB
  0
TABLE
  2
APPID
  5
8
100
AcDbSymbolTable
 70
     2
  0
APPID
  5
16
100
AcDbSymbolTableRecord
100
AcDbRegAppTableRecord
  2
ACAD
 70
     0
  0
APPID
  5
26
100
AcDbSymbolTableRecord
100
AcDbRegAppTableRecord
  2
TOPsolid_Design
 70
     0
  0
ENDTAB
  0
TABLE
  2
DIMSTYLE
  5
9
100
AcDbSymbolTable
 70
     1
100
AcDbDimStyleTable
 71
     0
  0
DIMSTYLE
105
18
100
AcDbSymbolTableRecord
100
AcDbDimStyleTableRecord
  2
Standard
 70
     0
  3

  4

 40
1.0
 41
1.40208
 42
1.40208
 43
0.38
 44
1.05156
 45
0.0
 46
0.0
 47
0.0
 48
0.0
 71
     0
 72
     0
 73
     0
 74
     0
 75
     0
 76
     0
 77
     1
 78
     0
 79
     0
140
3.5052
141
0.09
142
0.0
143
25.4
144
1.0
145
0.0
146
0.5
147
1.7526
148
0.0
170
     0
171
     2
172
     0
173
     0
174
     0
175
     0
176
     7
177
     7
178
     7
179
     0
271
     2
272
     4
273
     2
274
     2
275
     0
276
     0
277
     2
278
    46
279
     0
280
     0
281
     0
282
     0
283
     1
284
     0
285
     0
286
     0
288
     0
289
     3
340
17
341
0
342
0
343
0
344
0
371
    -2
372
    -2
  0
ENDTAB
  0
TABLE
  2
BLOCK_RECORD
  5
1
100
AcDbSymbolTable
 70
     0
  0
BLOCK_RECORD
  5
A
100
AcDbSymbolTableRecord
100
AcDbBlockTableRecord
  2
*MODEL_SPACE
340
20
  0
BLOCK_RECORD
  5
B
100
AcDbSymbolTableRecord
100
AcDbBlockTableRecord
  2
*PAPER_SPACE
340
21
  0
ENDTAB
  0
ENDSEC
  0
SECTION
  2
BLOCKS
  0
BLOCK
  5
D
100
AcDbEntity
  8
0
390
0
100
AcDbBlockBegin
  2
*MODEL_SPACE
 70
     0
 10
0.0
 20
0.0
 30
0.0
  3
*MODEL_SPACE
  1

  0
ENDBLK
  5
E
100
AcDbEntity
  8
0
390
0
100
AcDbBlockEnd
  0
BLOCK
  5
F
100
AcDbEntity
 67
     1
  8
0
390
0
100
AcDbBlockBegin
  2
*PAPER_SPACE
 70
     0
 10
0.0
 20
0.0
 30
0.0
  3
*PAPER_SPACE
  1

  0
ENDBLK
  5
10
100
AcDbEntity
 67
     1
  8
0
390
0
100
AcDbBlockEnd
  0
ENDSEC
  0
SECTION
  2
ENTITIES
  0
LINE
  5
27
100
AcDbEntity
  8
0
390
0
  6
Continuous
 62
     7
100
AcDbLine
 10
-12.631895
 20
-43.141401
 30
0.0
 11
-11.249921
 21
-43.145627
 31
0.0
  0
LINE
  5
28
100
AcDbEntity
  8
0
390
0
  6
Continuous
 62
     7
100
AcDbLine
 10
-13.843149
 20
7.49375
 30
0.0
 11
-13.635604
 21
12.49625
 31
0.0
  0
LINE
  5
29
100
AcDbEntity
  8
0
390
0
  6
Continuous
 62
     7
100
AcDbLine
 10
-13.635604
 20
12.49625
 30
0.0
 11
-13.366398
 21
22.490271
 31
0.0
  0
LINE
  5
2A
100
AcDbEntity
  8
0
390
0
  6
Continuous
 62
     7
100
AcDbLine
 10
-11.249921
 20
43.145627
 30
0.0
 11
-12.631895
 21
43.141402
 31
0.0
  0
POLYLINE
  5
2B
100
AcDbEntity
  8
0
390
0
  6
Continuous
 62
     7
100
AcDb2dPolyline
 66
     1
 10
0.0
 20
0.0
 30
0.0
 40
0.1
 41
0.1
  0
VERTEX
  5
2C
100
AcDbEntity
  8
0
390
0
 62
     7
100
AcDbVertex
100
AcDb2dVertex
 10
-11.249921
 20
40.637161
 30
0.0
 42
0.032863
  0
VERTEX
  5
2D
100
AcDbEntity
  8
0
390
0
 62
     7
100
AcDbVertex
100
AcDb2dVertex
 10
-11.209645
 20
43.052493
 30
0.0
  0
VERTEX
  5
2E
100
AcDbEntity
  8
0
390
0
 62
     7
100
AcDbVertex
100
AcDb2dVertex
 10
-11.249921
 20
43.145627
 30
0.0
  0
SEQEND
  5
2F
100
AcDbEntity
  8
0
390
0
  0
ARC
  5
30
100
AcDbEntity
  8
0
390
0
  6
Continuous
 62
     7
100
AcDbCircle
 10
585.434742
 20
0.0
 30
0.0
 40
598.066856
210
0.0
220
0.0
230
1.0
100
AcDbArc
 50
176.103892
 51
183.896108
  0
POLYLINE
  5
31
100
AcDbEntity
  8
0
390
0
  6
Continuous
 62
     7
100
AcDb2dPolyline
 66
     1
 10
0.0
 20
0.0
 30
0.0
 40
0.1
 41
0.1
  0
VERTEX
  5
32
100
AcDbEntity
  8
0
390
0
 62
     7
100
AcDbVertex
100
AcDb2dVertex
 10
-11.249921
 20
-43.145627
 30
0.0
  0
VERTEX
  5
33
100
AcDbEntity
  8
0
390
0
 62
     7
100
AcDbVertex
100
AcDb2dVertex
 10
-11.207852
 20
-43.041954
 30
0.0
 42
0.033002
  0
VERTEX
  5
34
100
AcDbEntity
  8
0
390
0
 62
     7
100
AcDbVertex
100
AcDb2dVertex
 10
-11.249921
 20
-40.63716
 30
0.0
  0
SEQEND
  5
35
100
AcDbEntity
  8
0
390
0
  0
ARC
  5
36
100
AcDbEntity
  8
0
390
0
  6
Continuous
 62
     7
100
AcDbCircle
 10
585.35728
 20
0.0
 30
0.0
 40
595.994885
210
0.0
220
0.0
230
1.0
100
AcDbArc
 50
176.103543
 51
183.896457
  0
LINE
  5
37
100
AcDbEntity
  8
0
390
0
  6
Continuous
 62
     7
100
AcDbLine
 10
-9.259952
 20
-40.5
 30
0.0
 11
-11.249921
 21
-40.63716
 31
0.0
  0
LINE
  5
38
100
AcDbEntity
  8
0
390
0
  6
Continuous
 62
     7
100
AcDbLine
 10
-11.249921
 20
40.637161
 30
0.0
 11
-9.259952
 21
40.5
 31
0.0
  0
LINE
  5
39
100
AcDbEntity
  8
0
390
0
  6
Continuous
 62
     7
100
AcDbLine
 10
-7.991766
 20
-40.5
 30
0.0
 11
-7.991766
 21
40.5
 31
0.0
  0
LINE
  5
3A
100
AcDbEntity
  8
0
390
0
  6
Continuous
 62
     7
100
AcDbLine
 10
-7.991766
 20
-40.5
 30
0.0
 11
-9.259952
 21
-40.5
 31
0.0
  0
LINE
  5
3B
100
AcDbEntity
  8
0
390
0
  6
Continuous
 62
     7
100
AcDbLine
 10
-7.991766
 20
40.5
 30
0.0
 11
-9.259952
 21
40.5
 31
0.0
  0
ELLIPSE
  5
3C
100
AcDbEntity
  8
0
390
0
  6
Continuous
 62
     7
100
AcDbEllipse
 10
-9.259952
 20
43.0
 30
0.0
 11
0.0
 21
-2.0000000000000018
 31
0.0
210
0.0
220
0.0
230
1.0
 40
0.997633
 41
3.1415926535898162
 42
4.6395108666741187
  0
POLYLINE
  5
3D
100
AcDbEntity
  8
0
390
0
  6
Continuous
 62
     7
100
AcDb2dPolyline
 66
     1
 10
0.0
 20
0.0
 30
0.0
 40
0.1
 41
0.1
  0
VERTEX
  5
3E
100
AcDbEntity
  8
0
390
0
 62
     7
100
AcDbVertex
100
AcDb2dVertex
 10
-9.259952
 20
45.0
 30
0.0
  0
VERTEX
  5
3F
100
AcDbEntity
  8
0
390
0
 62
     7
100
AcDbVertex
100
AcDb2dVertex
 10
-9.225763
 20
44.885968
 30
0.0
 42
-0.022697
  0
VERTEX
  5
40
100
AcDbEntity
  8
0
390
0
 62
     7
100
AcDbVertex
100
AcDb2dVertex
 10
-9.259952
 20
40.5
 30
0.0
  0
SEQEND
  5
41
100
AcDbEntity
  8
0
390
0
  0
LINE
  5
42
100
AcDbEntity
  8
0
390
0
  6
Continuous
 62
     7
100
AcDbLine
 10
-7.991766
 20
-45.0
 30
0.0
 11
-9.259952
 21
-45.0
 31
0.0
  0
POLYLINE
  5
43
100
AcDbEntity
  8
0
390
0
  6
Continuous
 62
     7
100
AcDb2dPolyline
 66
     1
 10
0.0
 20
0.0
 30
0.0
 40
0.1
 41
0.1
  0
VERTEX
  5
44
100
AcDbEntity
  8
0
390
0
 62
     7
100
AcDbVertex
100
AcDb2dVertex
 10
-9.259952
 20
-40.5
 30
0.0
 42
-0.023082
  0
VERTEX
  5
45
100
AcDbEntity
  8
0
390
0
 62
     7
100
AcDbVertex
100
AcDb2dVertex
 10
-9.233188
 20
-44.934652
 30
0.0
  0
VERTEX
  5
46
100
AcDbEntity
  8
0
390
0
 62
     7
100
AcDbVertex
100
AcDb2dVertex
 10
-9.259952
 20
-45.0
 30
0.0
  0
SEQEND
  5
47
100
AcDbEntity
  8
0
390
0
  0
LINE
  5
48
100
AcDbEntity
  8
0
390
0
  6
Continuous
 62
     7
100
AcDbLine
 10
-7.991766
 20
-45.0
 30
0.0
 11
-7.991766
 21
-40.5
 31
0.0
  0
LINE
  5
49
100
AcDbEntity
  8
0
390
0
  6
Continuous
 62
     7
100
AcDbLine
 10
-7.991766
 20
45.0
 30
0.0
 11
-9.259952
 21
45.0
 31
0.0
  0
LINE
  5
4A
100
AcDbEntity
  8
0
390
0
  6
Continuous
 62
     7
100
AcDbLine
 10
-7.991766
 20
40.5
 30
0.0
 11
-7.991766
 21
45.0
 31
0.0
  0
ELLIPSE
  5
4B
100
AcDbEntity
  8
0
390
0
  6
Continuous
 62
     7
100
AcDbEllipse
 10
-9.259952
 20
-43.0
 30
0.0
 11
-0.0000000000002776
 21
-2.0000000000000018
 31
0.0
210
0.0
220
0.0
230
1.0
 40
0.997633
 41
4.7852670940953903
 42
6.2831853071797887
  0
LINE
  5
4C
100
AcDbEntity
  8
0
390
0
  6
Continuous
 62
     7
100
AcDbLine
 10
-3.311618
 20
19.0
 30
0.0
 11
-3.991766
 21
19.0
 31
0.0
  0
LINE
  5
4D
100
AcDbEntity
  8
0
390
0
  6
Continuous
 62
     7
100
AcDbLine
 10
-3.991766
 20
19.0
 30
0.0
 11
-3.991766
 21
21.0
 31
0.0
  0
LINE
  5
4E
100
AcDbEntity
  8
0
390
0
  6
Continuous
 62
     7
100
AcDbLine
 10
-3.991766
 20
21.0
 30
0.0
 11
-2.583678
 21
21.0
 31
0.0
  0
ELLIPSE
  5
4F
100
AcDbEntity
  8
0
390
0
  6
Continuous
 62
     7
100
AcDbEllipse
 10
-2.583678
 20
19.0
 30
0.0
 11
0.0
 21
-2.0000000000000018
 31
0.0
210
0.0
220
0.0
230
1.0
 40
0.36397
 41
3.1415926535897931
 42
4.7123889803846968
  0
LINE
  5
50
100
AcDbEntity
  8
0
390
0
  6
Continuous
 62
     7
100
AcDbLine
 10
-2.583678
 20
-21.0
 30
0.0
 11
-3.991766
 21
-21.0
 31
0.0
  0
LINE
  5
51
100
AcDbEntity
  8
0
390
0
  6
Continuous
 62
     7
100
AcDbLine
 10
-3.991766
 20
-21.0
 30
0.0
 11
-3.991766
 21
-19.0
 31
0.0
  0
LINE
  5
52
100
AcDbEntity
  8
0
390
0
  6
Continuous
 62
     7
100
AcDbLine
 10
-3.991766
 20
-19.0
 30
0.0
 11
-3.311618
 21
-19.0
 31
0.0
  0
ELLIPSE
  5
53
100
AcDbEntity
  8
0
390
0
  6
Continuous
 62
     7
100
AcDbEllipse
 10
-2.583678
 20
-19.0
 30
0.0
 11
0.0
 21
2.0000000000000018
 31
0.0
210
0.0
220
0.0
230
1.0
 40
0.36397
 41
1.5707963267948966
 42
3.1415926535897931
  0
LINE
  5
54
100
AcDbEntity
  8
0
390
0
  6
Continuous
 62
     7
100
AcDbLine
 10
-3.311618
 20
-19.0
 30
0.0
 11
-3.311618
 21
19.0
 31
0.0
  0
LINE
  5
55
100
AcDbEntity
  8
0
390
0
  6
Continuous
 62
     7
100
AcDbLine
 10
-3.991766
 20
-19.0
 30
0.0
 11
-3.991766
 21
19.0
 31
0.0
  0
LINE
  5
56
100
AcDbEntity
  8
0
390
0
  6
Continuous
 62
     7
100
AcDbLine
 10
-1.491766
 20
21.0
 30
0.0
 11
-2.583678
 21
21.0
 31
0.0
  0
LINE
  5
57
100
AcDbEntity
  8
0
390
0
  6
Continuous
 62
     7
100
AcDbLine
 10
-1.491766
 20
-21.0
 30
0.0
 11
-1.491766
 21
21.0
 31
0.0
  0
LINE
  5
58
100
AcDbEntity
  8
0
390
0
  6
Continuous
 62
     7
100
AcDbLine
 10
-1.491766
 20
-21.0
 30
0.0
 11
-2.583678
 21
-21.0
 31
0.0
  0
ELLIPSE
  5
59
100
AcDbEntity
  8
0
390
0
  6
Continuous
 62
     7
100
AcDbEllipse
 10
6.416322
 20
19.0
 30
0.0
 11
0.0
 21
-2.0000000000000018
 31
0.0
210
0.0
220
0.0
230
1.0
 40
0.36397
 41
3.1415926535897931
 42
4.7123889803846968
  0
LINE
  5
5A
100
AcDbEntity
  8
0
390
0
  6
Continuous
 62
     7
100
AcDbLine
 10
7.508234
 20
21.0
 30
0.0
 11
6.416322
 21
21.0
 31
0.0
  0
LINE
  5
5B
100
AcDbEntity
  8
0
390
0
  6
Continuous
 62
     7
100
AcDbLine
 10
7.508234
 20
-21.0
 30
0.0
 11
7.508234
 21
21.0
 31
0.0
  0
LINE
  5
5C
100
AcDbEntity
  8
0
390
0
  6
Continuous
 62
     7
100
AcDbLine
 10
7.508234
 20
-21.0
 30
0.0
 11
6.416322
 21
-21.0
 31
0.0
  0
ELLIPSE
  5
5D
100
AcDbEntity
  8
0
390
0
  6
Continuous
 62
     7
100
AcDbEllipse
 10
6.416322
 20
-19.0
 30
0.0
 11
0.0
 21
2.0000000000000018
 31
0.0
210
0.0
220
0.0
230
1.0
 40
0.36397
 41
1.5707963267948966
 42
3.1415926535897931
  0
LINE
  5
5E
100
AcDbEntity
  8
0
390
0
  6
Continuous
 62
     7
100
AcDbLine
 10
5.688382
 20
-19.0
 30
0.0
 11
5.688382
 21
19.0
 31
0.0
  0
LINE
  5
5F
100
AcDbEntity
  8
0
390
0
  6
Continuous
 62
     7
100
AcDbLine
 10
1.916322
 20
-21.0
 30
0.0
 11
0.508234
 21
-21.0
 31
0.0
  0
LINE
  5
60
100
AcDbEntity
  8
0
390
0
  6
Continuous
 62
     7
100
AcDbLine
 10
0.508234
 20
-21.0
 30
0.0
 11
0.508234
 21
-19.0
 31
0.0
  0
LINE
  5
61
100
AcDbEntity
  8
0
390
0
  6
Continuous
 62
     7
100
AcDbLine
 10
0.508234
 20
-19.0
 30
0.0
 11
1.188382
 21
-19.0
 31
0.0
  0
ELLIPSE
  5
62
100
AcDbEntity
  8
0
390
0
  6
Continuous
 62
     7
100
AcDbEllipse
 10
1.916322
 20
-19.0
 30
0.0
 11
0.0
 21
2.0000000000000018
 31
0.0
210
0.0
220
0.0
230
1.0
 40
0.36397
 41
1.5707963267948966
 42
3.1415926535897931
  0
LINE
  5
63
100
AcDbEntity
  8
0
390
0
  6
Continuous
 62
     7
100
AcDbLine
 10
5.688382
 20
19.0
 30
0.0
 11
5.008234
 21
19.0
 31
0.0
  0
LINE
  5
64
100
AcDbEntity
  8
0
390
0
  6
Continuous
 62
     7
100
AcDbLine
 10
5.008234
 20
-19.0
 30
0.0
 11
5.688382
 21
-19.0
 31
0.0
  0
LINE
  5
65
100
AcDbEntity
  8
0
390
0
  6
Continuous
 62
     7
100
AcDbLine
 10
5.008234
 20
-19.0
 30
0.0
 11
5.008234
 21
19.0
 31
0.0
  0
LINE
  5
66
100
AcDbEntity
  8
0
390
0
  6
Continuous
 62
     7
100
AcDbLine
 10
0.508234
 20
-19.0
 30
0.0
 11
0.508234
 21
19.0
 31
0.0
  0
LINE
  5
67
100
AcDbEntity
  8
0
390
0
  6
Continuous
 62
     7
100
AcDbLine
 10
1.188382
 20
19.0
 30
0.0
 11
0.508234
 21
19.0
 31
0.0
  0
LINE
  5
68
100
AcDbEntity
  8
0
390
0
  6
Continuous
 62
     7
100
AcDbLine
 10
1.188382
 20
-19.0
 30
0.0
 11
1.188382
 21
19.0
 31
0.0
  0
LINE
  5
69
100
AcDbEntity
  8
0
390
0
  6
Continuous
 62
     7
100
AcDbLine
 10
3.008234
 20
-21.0
 30
0.0
 11
3.008234
 21
21.0
 31
0.0
  0
LINE
  5
6A
100
AcDbEntity
  8
0
390
0
  6
Continuous
 62
     7
100
AcDbLine
 10
3.008234
 20
-21.0
 30
0.0
 11
1.916322
 21
-21.0
 31
0.0
  0
ELLIPSE
  5
6B
100
AcDbEntity
  8
0
390
0
  6
Continuous
 62
     7
100
AcDbEllipse
 10
1.916322
 20
19.0
 30
0.0
 11
0.0
 21
-2.0000000000000018
 31
0.0
210
0.0
220
0.0
230
1.0
 40
0.36397
 41
3.1415926535897931
 42
4.7123889803846968
  0
LINE
  5
6C
100
AcDbEntity
  8
0
390
0
  6
Continuous
 62
     7
100
AcDbLine
 10
3.008234
 20
21.0
 30
0.0
 11
1.916322
 21
21.0
 31
0.0
  0
LINE
  5
6D
100
AcDbEntity
  8
0
390
0
  6
Continuous
 62
     7
100
AcDbLine
 10
5.008234
 20
21.0
 30
0.0
 11
6.416322
 21
21.0
 31
0.0
  0
LINE
  5
6E
100
AcDbEntity
  8
0
390
0
  6
Continuous
 62
     7
100
AcDbLine
 10
5.008234
 20
19.0
 30
0.0
 11
5.008234
 21
21.0
 31
0.0
  0
LINE
  5
6F
100
AcDbEntity
  8
0
390
0
  6
Continuous
 62
     7
100
AcDbLine
 10
0.508234
 20
21.0
 30
0.0
 11
1.916322
 21
21.0
 31
0.0
  0
LINE
  5
70
100
AcDbEntity
  8
0
390
0
  6
Continuous
 62
     7
100
AcDbLine
 10
0.508234
 20
19.0
 30
0.0
 11
0.508234
 21
21.0
 31
0.0
  0
LINE
  5
71
100
AcDbEntity
  8
0
390
0
  6
Continuous
 62
     7
100
AcDbLine
 10
6.416322
 20
-21.0
 30
0.0
 11
5.008234
 21
-21.0
 31
0.0
  0
LINE
  5
72
100
AcDbEntity
  8
0
390
0
  6
Continuous
 62
     7
100
AcDbLine
 10
5.008234
 20
-21.0
 30
0.0
 11
5.008234
 21
-19.0
 31
0.0
  0
LINE
  5
73
100
AcDbEntity
  8
0
390
0
  6
Continuous
 62
     7
100
AcDbLine
 10
10.850821
 20
-21.0
 30
0.0
 11
9.508234
 21
-21.0
 31
0.0
  0
LINE
  5
74
100
AcDbEntity
  8
0
390
0
  6
Continuous
 62
     7
100
AcDbLine
 10
9.508234
 20
-21.0
 30
0.0
 11
9.508234
 21
-19.0
 31
0.0
  0
LINE
  5
75
100
AcDbEntity
  8
0
390
0
  6
Continuous
 62
     7
100
AcDbLine
 10
9.508234
 20
-19.0
 30
0.0
 11
10.200983
 21
-19.0
 31
0.0
  0
ELLIPSE
  5
76
100
AcDbEntity
  8
0
390
0
  6
Continuous
 62
     7
100
AcDbEllipse
 10
10.850821
 20
-19.0
 30
0.0
 11
0.0
 21
2.0000000000000018
 31
0.0
210
0.0
220
0.0
230
1.0
 40
0.32492
 41
1.5707963267948966
 42
3.1415926535897931
  0
LINE
  5
77
100
AcDbEntity
  8
0
390
0
  6
Continuous
 62
     7
100
AcDbLine
 10
10.200983
 20
19.0
 30
0.0
 11
9.508234
 21
19.0
 31
0.0
  0
LINE
  5
78
100
AcDbEntity
  8
0
390
0
  6
Continuous
 62
     7
100
AcDbLine
 10
9.508234
 20
19.0
 30
0.0
 11
9.508234
 21
21.0
 31
0.0
  0
LINE
  5
79
100
AcDbEntity
  8
0
390
0
  6
Continuous
 62
     7
100
AcDbLine
 10
9.508234
 20
21.0
 30
0.0
 11
10.850821
 21
21.0
 31
0.0
  0
ELLIPSE
  5
7A
100
AcDbEntity
  8
0
390
0
  6
Continuous
 62
     7
100
AcDbEllipse
 10
10.850821
 20
19.0
 30
0.0
 11
0.0
 21
-2.0000000000000018
 31
0.0
210
0.0
220
0.0
230
1.0
 40
0.32492
 41
3.1415926535897931
 42
4.7123889803846968
  0
LINE
  5
7B
100
AcDbEntity
  8
0
390
0
  6
Continuous
 62
     7
100
AcDbLine
 10
9.508234
 20
-19.0
 30
0.0
 11
9.508234
 21
19.0
 31
0.0
  0
LINE
  5
7C
100
AcDbEntity
  8
0
390
0
  6
Continuous
 62
     7
100
AcDbLine
 10
10.200983
 20
-19.0
 30
0.0
 11
10.200983
 21
19.0
 31
0.0
  0
LINE
  5
7D
100
AcDbEntity
  8
0
390
0
  6
Continuous
 62
     7
100
AcDbLine
 10
11.208233
 20
-21.0
 30
0.0
 11
11.208233
 21
21.0
 31
0.0
  0
LINE
  5
7E
100
AcDbEntity
  8
0
390
0
  6
Continuous
 62
     7
100
AcDbLine
 10
11.208233
 20
-21.0
 30
0.0
 11
10.850821
 21
-21.0
 31
0.0
  0
LINE
  5
7F
100
AcDbEntity
  8
0
390
0
  6
Continuous
 62
     7
100
AcDbLine
 10
11.208233
 20
21.0
 30
0.0
 11
10.850821
 21
21.0
 31
0.0
  0
LINE
  5
80
100
AcDbEntity
  8
0
390
0
  6
Continuous
 62
     7
100
AcDbLine
 10
-10.636901
 20
45.0
 30
0.0
 11
-9.259952
 21
45.0
 31
0.0
  0
LINE
  5
81
100
AcDbEntity
  8
0
390
0
  6
Continuous
 62
     7
100
AcDbLine
 10
-9.259952
 20
-45.0
 30
0.0
 11
-10.636901
 21
-45.0
 31
0.0
  0
LINE
  5
82
100
AcDbEntity
  8
0
390
0
  6
Continuous
 62
     7
100
AcDbLine
 10
7.508234
 20
-21.0
 30
0.0
 11
9.508234
 21
-21.0
 31
0.0
  0
LINE
  5
83
100
AcDbEntity
  8
0
390
0
  6
Continuous
 62
     7
100
AcDbLine
 10
7.508234
 20
21.0
 30
0.0
 11
9.508234
 21
21.0
 31
0.0
  0
LINE
  5
84
100
AcDbEntity
  8
0
390
0
  6
Continuous
 62
     7
100
AcDbLine
 10
14.008234
 20
-21.0
 30
0.0
 11
14.008234
 21
21.0
 31
0.0
  0
LINE
  5
85
100
AcDbEntity
  8
0
390
0
  6
Continuous
 62
     7
100
AcDbLine
 10
11.208233
 20
-21.0
 30
0.0
 11
14.008234
 21
-21.0
 31
0.0
  0
LINE
  5
86
100
AcDbEntity
  8
0
390
0
  6
Continuous
 62
     7
100
AcDbLine
 10
11.208233
 20
21.0
 30
0.0
 11
14.008234
 21
21.0
 31
0.0
  0
LINE
  5
87
100
AcDbEntity
  8
0
390
0
  6
Continuous
 62
     7
100
AcDbLine
 10
-1.491766
 20
-21.0
 30
0.0
 11
0.508234
 21
-21.0
 31
0.0
  0
LINE
  5
88
100
AcDbEntity
  8
0
390
0
  6
Continuous
 62
     7
100
AcDbLine
 10
-1.491766
 20
21.0
 30
0.0
 11
0.508234
 21
21.0
 31
0.0
  0
LINE
  5
89
100
AcDbEntity
  8
0
390
0
  6
Continuous
 62
     7
100
AcDbLine
 10
-7.991766
 20
-21.0
 30
0.0
 11
-3.991766
 21
-21.0
 31
0.0
  0
LINE
  5
8A
100
AcDbEntity
  8
0
390
0
  6
Continuous
 62
     7
100
AcDbLine
 10
-7.991766
 20
21.0
 30
0.0
 11
-3.991766
 21
21.0
 31
0.0
  0
LINE
  5
8B
100
AcDbEntity
  8
0
390
0
  6
Continuous
 62
     7
100
AcDbLine
 10
3.008234
 20
-21.0
 30
0.0
 11
5.008234
 21
-21.0
 31
0.0
  0
LINE
  5
8C
100
AcDbEntity
  8
0
390
0
  6
Continuous
 62
     7
100
AcDbLine
 10
3.008234
 20
21.0
 30
0.0
 11
5.008234
 21
21.0
 31
0.0
  0
LINE
  5
8D
100
AcDbEntity
  8
0
390
0
  6
Continuous
 62
     7
100
AcDbLine
 10
-7.991766
 20
-35.097916
 30
0.0
 11
14.008234
 21
-35.097916
 31
0.0
  0
LINE
  5
8E
100
AcDbEntity
  8
0
390
0
  6
Continuous
 62
     7
100
AcDbLine
 10
14.008234
 20
-35.097916
 30
0.0
 11
14.008234
 21
-21.0
 31
0.0
  0
LINE
  5
8F
100
AcDbEntity
  8
0
390
0
  6
Continuous
 62
     7
100
AcDbLine
 10
-7.991766
 20
35.097916
 30
0.0
 11
14.008234
 21
35.097916
 31
0.0
  0
LINE
  5
90
100
AcDbEntity
  8
0
390
0
  6
Continuous
 62
     7
100
AcDbLine
 10
14.008234
 20
21.0
 30
0.0
 11
14.008234
 21
35.097916
 31
0.0
  0
LINE
  5
91
100
AcDbEntity
  8
0
390
0
  6
Continuous
 62
     7
100
AcDbLine
 10
14.008234
 20
-38.7
 30
0.0
 11
11.208233
 21
-38.7
 31
0.0
  0
LINE
  5
92
100
AcDbEntity
  8
0
390
0
  6
Continuous
 62
     7
100
AcDbLine
 10
9.508234
 20
-38.24166
 30
0.0
 11
11.208233
 21
-38.24166
 31
0.0
  0
LINE
  5
93
100
AcDbEntity
  8
0
390
0
  6
Continuous
 62
     7
100
AcDbLine
 10
9.508234
 20
-38.7
 30
0.0
 11
7.508234
 21
-38.7
 31
0.0
  0
LINE
  5
94
100
AcDbEntity
  8
0
390
0
  6
Continuous
 62
     7
100
AcDbLine
 10
5.008234
 20
-38.24166
 30
0.0
 11
7.508234
 21
-38.24166
 31
0.0
  0
LINE
  5
95
100
AcDbEntity
  8
0
390
0
  6
Continuous
 62
     7
100
AcDbLine
 10
5.008234
 20
-38.7
 30
0.0
 11
3.008234
 21
-38.7
 31
0.0
  0
LINE
  5
96
100
AcDbEntity
  8
0
390
0
  6
Continuous
 62
     7
100
AcDbLine
 10
0.508234
 20
-38.24166
 30
0.0
 11
3.008234
 21
-38.24166
 31
0.0
  0
LINE
  5
97
100
AcDbEntity
  8
0
390
0
  6
Continuous
 62
     7
100
AcDbLine
 10
0.508234
 20
-38.7
 30
0.0
 11
-1.491766
 21
-38.7
 31
0.0
  0
LINE
  5
98
100
AcDbEntity
  8
0
390
0
  6
Continuous
 62
     7
100
AcDbLine
 10
-3.991766
 20
-38.24166
 30
0.0
 11
-1.491766
 21
-38.24166
 31
0.0
  0
LINE
  5
99
100
AcDbEntity
  8
0
390
0
  6
Continuous
 62
     7
100
AcDbLine
 10
-3.991766
 20
-38.7
 30
0.0
 11
-7.991766
 21
-38.7
 31
0.0
  0
LINE
  5
9A
100
AcDbEntity
  8
0
390
0
  6
Continuous
 62
     7
100
AcDbLine
 10
14.008234
 20
-38.7
 30
0.0
 11
14.008234
 21
-35.097916
 31
0.0
  0
LINE
  5
9B
100
AcDbEntity
  8
0
390
0
  6
Continuous
 62
     7
100
AcDbLine
 10
-3.991766
 20
38.7
 30
0.0
 11
-7.991766
 21
38.7
 31
0.0
  0
LINE
  5
9C
100
AcDbEntity
  8
0
390
0
  6
Continuous
 62
     7
100
AcDbLine
 10
-3.991766
 20
38.241661
 30
0.0
 11
-1.491766
 21
38.241661
 31
0.0
  0
LINE
  5
9D
100
AcDbEntity
  8
0
390
0
  6
Continuous
 62
     7
100
AcDbLine
 10
0.508234
 20
38.7
 30
0.0
 11
-1.491766
 21
38.7
 31
0.0
  0
LINE
  5
9E
100
AcDbEntity
  8
0
390
0
  6
Continuous
 62
     7
100
AcDbLine
 10
0.508234
 20
38.241661
 30
0.0
 11
3.008234
 21
38.241661
 31
0.0
  0
LINE
  5
9F
100
AcDbEntity
  8
0
390
0
  6
Continuous
 62
     7
100
AcDbLine
 10
5.008234
 20
38.7
 30
0.0
 11
3.008234
 21
38.7
 31
0.0
  0
LINE
  5
A0
100
AcDbEntity
  8
0
390
0
  6
Continuous
 62
     7
100
AcDbLine
 10
5.008234
 20
38.241661
 30
0.0
 11
7.508234
 21
38.241661
 31
0.0
  0
LINE
  5
A1
100
AcDbEntity
  8
0
390
0
  6
Continuous
 62
     7
100
AcDbLine
 10
9.508234
 20
38.7
 30
0.0
 11
7.508234
 21
38.7
 31
0.0
  0
LINE
  5
A2
100
AcDbEntity
  8
0
390
0
  6
Continuous
 62
     7
100
AcDbLine
 10
9.508234
 20
38.241661
 30
0.0
 11
11.208233
 21
38.241661
 31
0.0
  0
LINE
  5
A3
100
AcDbEntity
  8
0
390
0
  6
Continuous
 62
     7
100
AcDbLine
 10
14.008234
 20
38.7
 30
0.0
 11
11.208233
 21
38.7
 31
0.0
  0
LINE
  5
A4
100
AcDbEntity
  8
0
390
0
  6
Continuous
 62
     7
100
AcDbLine
 10
14.008234
 20
35.097916
 30
0.0
 11
14.008234
 21
38.7
 31
0.0
  0
LINE
  5
A5
100
AcDbEntity
  8
0
390
0
  6
Continuous
 62
     7
100
AcDbLine
 10
10.850821
 20
39.8
 30
0.0
 11
9.508234
 21
39.8
 31
0.0
  0
LINE
  5
A6
100
AcDbEntity
  8
0
390
0
  6
Continuous
 62
     7
100
AcDbLine
 10
9.508234
 20
41.8
 30
0.0
 11
10.200983
 21
41.8
 31
0.0
  0
LINE
  5
A7
100
AcDbEntity
  8
0
390
0
  6
Continuous
 62
     7
100
AcDbLine
 10
10.200983
 20
41.8
 30
0.0
 11
10.850821
 21
39.8
 31
0.0
  0
LINE
  5
A8
100
AcDbEntity
  8
0
390
0
  6
Continuous
 62
     7
100
AcDbLine
 10
9.508234
 20
39.8
 30
0.0
 11
9.508234
 21
41.8
 31
0.0
  0
LINE
  5
A9
100
AcDbEntity
  8
0
390
0
  6
Continuous
 62
     7
100
AcDbLine
 10
1.916322
 20
41.7
 30
0.0
 11
0.508234
 21
41.7
 31
0.0
  0
LINE
  5
AA
100
AcDbEntity
  8
0
390
0
  6
Continuous
 62
     7
100
AcDbLine
 10
3.008234
 20
38.241661
 30
0.0
 11
3.008234
 21
38.7
 31
0.0
  0
LINE
  5
AB
100
AcDbEntity
  8
0
390
0
  6
Continuous
 62
     7
100
AcDbLine
 10
0.508234
 20
41.7
 30
0.0
 11
0.508234
 21
38.241661
 31
0.0
  0
LINE
  5
AC
100
AcDbEntity
  8
0
390
0
  6
Continuous
 62
     7
100
AcDbLine
 10
3.008234
 20
38.7
 30
0.0
 11
1.916322
 21
41.7
 31
0.0
  0
LINE
  5
AD
100
AcDbEntity
  8
0
390
0
  6
Continuous
 62
     7
100
AcDbLine
 10
0.508234
 20
43.7
 30
0.0
 11
1.188382
 21
43.7
 31
0.0
  0
LINE
  5
AE
100
AcDbEntity
  8
0
390
0
  6
Continuous
 62
     7
100
AcDbLine
 10
0.508234
 20
41.7
 30
0.0
 11
0.508234
 21
43.7
 31
0.0
  0
LINE
  5
AF
100
AcDbEntity
  8
0
390
0
  6
Continuous
 62
     7
100
AcDbLine
 10
1.188382
 20
43.7
 30
0.0
 11
1.916322
 21
41.7
 31
0.0
  0
LINE
  5
B0
100
AcDbEntity
  8
0
390
0
  6
Continuous
 62
     7
100
AcDbLine
 10
6.416322
 20
41.7
 30
0.0
 11
5.008234
 21
41.7
 31
0.0
  0
LINE
  5
B1
100
AcDbEntity
  8
0
390
0
  6
Continuous
 62
     7
100
AcDbLine
 10
5.008234
 20
41.7
 30
0.0
 11
5.008234
 21
38.241661
 31
0.0
  0
LINE
  5
B2
100
AcDbEntity
  8
0
390
0
  6
Continuous
 62
     7
100
AcDbLine
 10
7.508234
 20
38.241661
 30
0.0
 11
7.508234
 21
38.7
 31
0.0
  0
LINE
  5
B3
100
AcDbEntity
  8
0
390
0
  6
Continuous
 62
     7
100
AcDbLine
 10
7.508234
 20
38.7
 30
0.0
 11
6.416322
 21
41.7
 31
0.0
  0
LINE
  5
B4
100
AcDbEntity
  8
0
390
0
  6
Continuous
 62
     7
100
AcDbLine
 10
11.208233
 20
38.241661
 30
0.0
 11
11.208233
 21
38.7
 31
0.0
  0
LINE
  5
B5
100
AcDbEntity
  8
0
390
0
  6
Continuous
 62
     7
100
AcDbLine
 10
11.208233
 20
38.7
 30
0.0
 11
10.850821
 21
39.8
 31
0.0
  0
LINE
  5
B6
100
AcDbEntity
  8
0
390
0
  6
Continuous
 62
     7
100
AcDbLine
 10
9.508234
 20
39.8
 30
0.0
 11
9.508234
 21
38.241661
 31
0.0
  0
LINE
  5
B7
100
AcDbEntity
  8
0
390
0
  6
Continuous
 62
     7
100
AcDbLine
 10
-2.583678
 20
41.7
 30
0.0
 11
-3.991766
 21
41.7
 31
0.0
  0
LINE
  5
B8
100
AcDbEntity
  8
0
390
0
  6
Continuous
 62
     7
100
AcDbLine
 10
-3.991766
 20
43.7
 30
0.0
 11
-3.311618
 21
43.7
 31
0.0
  0
LINE
  5
B9
100
AcDbEntity
  8
0
390
0
  6
Continuous
 62
     7
100
AcDbLine
 10
-3.311618
 20
43.7
 30
0.0
 11
-2.583678
 21
41.7
 31
0.0
  0
LINE
  5
BA
100
AcDbEntity
  8
0
390
0
  6
Continuous
 62
     7
100
AcDbLine
 10
-3.991766
 20
41.7
 30
0.0
 11
-3.991766
 21
43.7
 31
0.0
  0
LINE
  5
BB
100
AcDbEntity
  8
0
390
0
  6
Continuous
 62
     7
100
AcDbLine
 10
5.008234
 20
41.7
 30
0.0
 11
5.008234
 21
43.7
 31
0.0
  0
LINE
  5
BC
100
AcDbEntity
  8
0
390
0
  6
Continuous
 62
     7
100
AcDbLine
 10
5.008234
 20
43.7
 30
0.0
 11
5.688382
 21
43.7
 31
0.0
  0
LINE
  5
BD
100
AcDbEntity
  8
0
390
0
  6
Continuous
 62
     7
100
AcDbLine
 10
5.688382
 20
43.7
 30
0.0
 11
6.416322
 21
41.7
 31
0.0
  0
LINE
  5
BE
100
AcDbEntity
  8
0
390
0
  6
Continuous
 62
     7
100
AcDbLine
 10
-1.491766
 20
38.7
 30
0.0
 11
-2.583678
 21
41.7
 31
0.0
  0
LINE
  5
BF
100
AcDbEntity
  8
0
390
0
  6
Continuous
 62
     7
100
AcDbLine
 10
-3.991766
 20
41.7
 30
0.0
 11
-3.991766
 21
38.241661
 31
0.0
  0
LINE
  5
C0
100
AcDbEntity
  8
0
390
0
  6
Continuous
 62
     7
100
AcDbLine
 10
-1.491766
 20
38.241661
 30
0.0
 11
-1.491766
 21
38.7
 31
0.0
  0
LINE
  5
C1
100
AcDbEntity
  8
0
390
0
  6
Continuous
 62
     7
100
AcDbLine
 10
10.200983
 20
-41.8
 30
0.0
 11
9.508234
 21
-41.8
 31
0.0
  0
LINE
  5
C2
100
AcDbEntity
  8
0
390
0
  6
Continuous
 62
     7
100
AcDbLine
 10
9.508234
 20
-41.8
 30
0.0
 11
9.508234
 21
-39.8
 31
0.0
  0
LINE
  5
C3
100
AcDbEntity
  8
0
390
0
  6
Continuous
 62
     7
100
AcDbLine
 10
9.508234
 20
-39.8
 30
0.0
 11
10.850821
 21
-39.8
 31
0.0
  0
LINE
  5
C4
100
AcDbEntity
  8
0
390
0
  6
Continuous
 62
     7
100
AcDbLine
 10
10.850821
 20
-39.8
 30
0.0
 11
10.200983
 21
-41.8
 31
0.0
  0
LINE
  5
C5
100
AcDbEntity
  8
0
390
0
  6
Continuous
 62
     7
100
AcDbLine
 10
11.208233
 20
-38.24166
 30
0.0
 11
11.208233
 21
-38.7
 31
0.0
  0
LINE
  5
C6
100
AcDbEntity
  8
0
390
0
  6
Continuous
 62
     7
100
AcDbLine
 10
9.508234
 20
-39.8
 30
0.0
 11
9.508234
 21
-38.24166
 31
0.0
  0
LINE
  5
C7
100
AcDbEntity
  8
0
390
0
  6
Continuous
 62
     7
100
AcDbLine
 10
11.208233
 20
-38.7
 30
0.0
 11
10.850821
 21
-39.8
 31
0.0
  0
LINE
  5
C8
100
AcDbEntity
  8
0
390
0
  6
Continuous
 62
     7
100
AcDbLine
 10
5.688382
 20
-43.7
 30
0.0
 11
5.008234
 21
-43.7
 31
0.0
  0
LINE
  5
C9
100
AcDbEntity
  8
0
390
0
  6
Continuous
 62
     7
100
AcDbLine
 10
5.008234
 20
-41.7
 30
0.0
 11
6.416322
 21
-41.7
 31
0.0
  0
LINE
  5
CA
100
AcDbEntity
  8
0
390
0
  6
Continuous
 62
     7
100
AcDbLine
 10
6.416322
 20
-41.7
 30
0.0
 11
5.688382
 21
-43.7
 31
0.0
  0
LINE
  5
CB
100
AcDbEntity
  8
0
390
0
  6
Continuous
 62
     7
100
AcDbLine
 10
5.008234
 20
-43.7
 30
0.0
 11
5.008234
 21
-41.7
 31
0.0
  0
LINE
  5
CC
100
AcDbEntity
  8
0
390
0
  6
Continuous
 62
     7
100
AcDbLine
 10
-1.491766
 20
-38.24166
 30
0.0
 11
-1.491766
 21
-38.7
 31
0.0
  0
LINE
  5
CD
100
AcDbEntity
  8
0
390
0
  6
Continuous
 62
     7
100
AcDbLine
 10
-1.491766
 20
-38.7
 30
0.0
 11
-2.583678
 21
-41.7
 31
0.0
  0
LINE
  5
CE
100
AcDbEntity
  8
0
390
0
  6
Continuous
 62
     7
100
AcDbLine
 10
-3.991766
 20
-41.7
 30
0.0
 11
-2.583678
 21
-41.7
 31
0.0
  0
LINE
  5
CF
100
AcDbEntity
  8
0
390
0
  6
Continuous
 62
     7
100
AcDbLine
 10
-3.991766
 20
-41.7
 30
0.0
 11
-3.991766
 21
-38.24166
 31
0.0
  0
LINE
  5
D0
100
AcDbEntity
  8
0
390
0
  6
Continuous
 62
     7
100
AcDbLine
 10
3.008234
 20
-38.24166
 30
0.0
 11
3.008234
 21
-38.7
 31
0.0
  0
LINE
  5
D1
100
AcDbEntity
  8
0
390
0
  6
Continuous
 62
     7
100
AcDbLine
 10
3.008234
 20
-38.7
 30
0.0
 11
1.916322
 21
-41.7
 31
0.0
  0
LINE
  5
D2
100
AcDbEntity
  8
0
390
0
  6
Continuous
 62
     7
100
AcDbLine
 10
0.508234
 20
-41.7
 30
0.0
 11
1.916322
 21
-41.7
 31
0.0
  0
LINE
  5
D3
100
AcDbEntity
  8
0
390
0
  6
Continuous
 62
     7
100
AcDbLine
 10
0.508234
 20
-41.7
 30
0.0
 11
0.508234
 21
-38.24166
 31
0.0
  0
LINE
  5
D4
100
AcDbEntity
  8
0
390
0
  6
Continuous
 62
     7
100
AcDbLine
 10
7.508234
 20
-38.7
 30
0.0
 11
6.416322
 21
-41.7
 31
0.0
  0
LINE
  5
D5
100
AcDbEntity
  8
0
390
0
  6
Continuous
 62
     7
100
AcDbLine
 10
7.508234
 20
-38.24166
 30
0.0
 11
7.508234
 21
-38.7
 31
0.0
  0
LINE
  5
D6
100
AcDbEntity
  8
0
390
0
  6
Continuous
 62
     7
100
AcDbLine
 10
5.008234
 20
-41.7
 30
0.0
 11
5.008234
 21
-38.24166
 31
0.0
  0
LINE
  5
D7
100
AcDbEntity
  8
0
390
0
  6
Continuous
 62
     7
100
AcDbLine
 10
1.188382
 20
-43.7
 30
0.0
 11
0.508234
 21
-43.7
 31
0.0
  0
LINE
  5
D8
100
AcDbEntity
  8
0
390
0
  6
Continuous
 62
     7
100
AcDbLine
 10
1.916322
 20
-41.7
 30
0.0
 11
1.188382
 21
-43.7
 31
0.0
  0
LINE
  5
D9
100
AcDbEntity
  8
0
390
0
  6
Continuous
 62
     7
100
AcDbLine
 10
0.508234
 20
-43.7
 30
0.0
 11
0.508234
 21
-41.7
 31
0.0
  0
LINE
  5
DA
100
AcDbEntity
  8
0
390
0
  6
Continuous
 62
     7
100
AcDbLine
 10
-3.311618
 20
-43.7
 30
0.0
 11
-3.991766
 21
-43.7
 31
0.0
  0
LINE
  5
DB
100
AcDbEntity
  8
0
390
0
  6
Continuous
 62
     7
100
AcDbLine
 10
-2.583678
 20
-41.7
 30
0.0
 11
-3.311618
 21
-43.7
 31
0.0
  0
LINE
  5
DC
100
AcDbEntity
  8
0
390
0
  6
Continuous
 62
     7
100
AcDbLine
 10
-3.991766
 20
-43.7
 30
0.0
 11
-3.991766
 21
-41.7
 31
0.0
  0
LINE
  5
DD
100
AcDbEntity
  8
0
390
0
  6
Continuous
 62
     7
100
AcDbLine
 10
-14.005087
 20
-21.957045
 30
0.0
 11
-14.136495
 21
-20.25637
 31
0.0
  0
POLYLINE
  5
DE
100
AcDbEntity
  8
0
390
0
  6
Continuous
 62
     7
100
AcDb2dPolyline
 66
     1
 10
0.0
 20
0.0
 30
0.0
 40
0.1
 41
0.1
  0
VERTEX
  5
DF
100
AcDbEntity
  8
0
390
0
 62
     7
100
AcDbVertex
100
AcDb2dVertex
 10
-14.319641
 20
-7.638863
 30
0.0
  0
VERTEX
  5
E0
100
AcDbEntity
  8
0
390
0
 62
     7
100
AcDbVertex
100
AcDb2dVertex
 10
-14.29432
 20
-7.755528
 30
0.0
 42
-0.00972
  0
VERTEX
  5
E1
100
AcDbEntity
  8
0
390
0
 62
     7
100
AcDbVertex
100
AcDb2dVertex
 10
-13.985054
 20
-21.852285
 30
0.0
  0
VERTEX
  5
E2
100
AcDbEntity
  8
0
390
0
 62
     7
100
AcDbVertex
100
AcDb2dVertex
 10
-14.003453
 20
-21.95641
 30
0.0
  0
VERTEX
  5
E3
100
AcDbEntity
  8
0
390
0
 62
     7
100
AcDbVertex
100
AcDb2dVertex
 10
-14.005087
 20
-21.957045
 30
0.0
  0
SEQEND
  5
E4
100
AcDbEntity
  8
0
390
0
  0
POLYLINE
  5
E5
100
AcDbEntity
  8
0
390
0
  6
Continuous
 62
     7
100
AcDb2dPolyline
 66
     1
 10
0.0
 20
0.0
 30
0.0
 40
0.1
 41
0.1
  0
VERTEX
  5
E6
100
AcDbEntity
  8
0
390
0
 62
     7
100
AcDbVertex
100
AcDb2dVertex
 10
-13.819471
 20
-7.638863
 30
0.0
  0
VERTEX
  5
E7
100
AcDbEntity
  8
0
390
0
 62
     7
100
AcDbVertex
100
AcDb2dVertex
 10
-13.79467
 20
-7.750769
 30
0.0
 42
-0.010061
  0
VERTEX
  5
E8
100
AcDbEntity
  8
0
390
0
 62
     7
100
AcDbVertex
100
AcDb2dVertex
 10
-13.488274
 20
-21.89223
 30
0.0
  0
VERTEX
  5
E9
100
AcDbEntity
  8
0
390
0
 62
     7
100
AcDbVertex
100
AcDb2dVertex
 10
-13.504629
 20
-21.957045
 30
0.0
  0
SEQEND
  5
EA
100
AcDbEntity
  8
0
390
0
  0
LINE
  5
EB
100
AcDbEntity
  8
0
390
0
  6
Continuous
 62
     7
100
AcDbLine
 10
-14.136495
 20
-20.25637
 30
0.0
 11
-14.156556
 21
-19.801398
 31
0.0
  0
LINE
  5
EC
100
AcDbEntity
  8
0
390
0
  6
Continuous
 62
     7
100
AcDbLine
 10
-14.156556
 20
-19.801398
 30
0.0
 11
-14.366818
 21
-9.775805
 31
0.0
  0
LINE
  5
ED
100
AcDbEntity
  8
0
390
0
  6
Continuous
 62
     7
100
AcDbLine
 10
-14.366818
 20
-9.775805
 30
0.0
 11
-14.319641
 21
-7.638863
 31
0.0
  0
LINE
  5
EE
100
AcDbEntity
  8
0
390
0
  6
Continuous
 62
     7
100
AcDbLine
 10
-14.176295
 20
-17.934318
 30
0.0
 11
-14.075177
 21
-19.795398
 31
0.0
  0
LINE
  5
EF
100
AcDbEntity
  8
0
390
0
  6
Continuous
 62
     7
100
AcDbLine
 10
-14.436377
 20
7.49375
 30
0.0
 11
-14.3433
 21
7.49375
 31
0.0
  0
LINE
  5
F0
100
AcDbEntity
  8
0
390
0
  6
Continuous
 62
     7
100
AcDbLine
 10
-14.399995
 20
9.674528
 30
0.0
 11
-14.436377
 21
7.49375
 31
0.0
  0
LINE
  5
F1
100
AcDbEntity
  8
0
390
0
  6
Continuous
 62
     7
100
AcDbLine
 10
-14.363752
 20
9.674528
 30
0.0
 11
-14.399995
 21
9.674528
 31
0.0
  0
LINE
  5
F2
100
AcDbEntity
  8
0
390
0
  6
Continuous
 62
     7
100
AcDbLine
 10
-14.237212
 20
13.009528
 30
0.0
 11
-14.363752
 21
9.674528
 31
0.0
  0
LINE
  5
F3
100
AcDbEntity
  8
0
390
0
  6
Continuous
 62
     7
100
AcDbLine
 10
-13.983574
 20
22.490271
 30
0.0
 11
-14.237212
 21
13.009528
 31
0.0
  0
LINE
  5
F4
100
AcDbEntity
  8
0
390
0
  6
Continuous
 62
     7
100
AcDbLine
 10
-14.135942
 20
12.49625
 30
0.0
 11
-13.866982
 21
22.490271
 31
0.0
  0
LINE
  5
F5
100
AcDbEntity
  8
0
390
0
  6
Continuous
 62
     7
100
AcDbLine
 10
-14.3433
 20
7.49375
 30
0.0
 11
-14.135942
 21
12.49625
 31
0.0
  0
LINE
  5
F6
100
AcDbEntity
  8
0
390
0
  6
Continuous
 62
     7
100
AcDbLine
 10
-14.135942
 20
12.49625
 30
0.0
 11
-13.635604
 21
12.49625
 31
0.0
  0
LINE
  5
F7
100
AcDbEntity
  8
0
390
0
  6
Continuous
 62
     7
100
AcDbLine
 10
-13.866982
 20
22.490271
 30
0.0
 11
-13.366398
 21
22.490271
 31
0.0
  0
LINE
  5
F8
100
AcDbEntity
  8
0
390
0
  6
Continuous
 62
     7
100
AcDbLine
 10
-14.3433
 20
7.49375
 30
0.0
 11
-13.843149
 21
7.49375
 31
0.0
  0
LINE
  5
F9
100
AcDbEntity
  8
0
390
0
  6
Continuous
 62
     7
100
AcDbLine
 10
-14.294998
 20
-9.776169
 30
0.0
 11
-14.176295
 21
-17.934318
 31
0.0
  0
LINE
  5
FA
100
AcDbEntity
  8
0
390
0
  6
Continuous
 62
     7
100
AcDbLine
 10
-14.072957
 20
-19.797513
 30
0.0
 11
-14.294998
 21
-9.776169
 31
0.0
  0
LINE
  5
FB
100
AcDbEntity
  8
0
390
0
  6
Continuous
 62
     7
100
AcDbLine
 10
-14.467233
 20
7.49375
 30
0.0
 11
-14.43639
 21
9.679163
 31
0.0
  0
LINE
  5
FC
100
AcDbEntity
  8
0
390
0
  6
Continuous
 62
     7
100
AcDbLine
 10
-14.43639
 20
9.679163
 30
0.0
 11
-14.057338
 21
22.490271
 31
0.0
  0
LINE
  5
FD
100
AcDbEntity
  8
0
390
0
  6
Continuous
 62
     7
100
AcDbLine
 10
-14.057338
 20
22.490271
 30
0.0
 11
-14.033585
 21
22.490271
 31
0.0
  0
LINE
  5
FE
100
AcDbEntity
  8
0
390
0
  6
Continuous
 62
     7
100
AcDbLine
 10
-14.431994
 20
12.016666
 30
0.0
 11
-14.279534
 21
19.930691
 31
0.0
  0
LINE
  5
FF
100
AcDbEntity
  8
0
390
0
  6
Continuous
 62
     7
100
AcDbLine
 10
-14.128645
 20
22.490271
 30
0.0
 11
-14.431994
 21
12.016666
 31
0.0
  0
LINE
  5
100
100
AcDbEntity
  8
0
390
0
  6
Continuous
 62
     7
100
AcDbLine
 10
-14.400291
 20
15.134057
 30
0.0
 11
-14.476814
 21
9.670416
 31
0.0
  0
LINE
  5
101
100
AcDbEntity
  8
0
390
0
  6
Continuous
 62
     7
100
AcDbLine
 10
-14.476814
 20
9.670416
 30
0.0
 11
-14.492198
 21
7.49375
 31
0.0
  0
LINE
  5
102
100
AcDbEntity
  8
0
390
0
  6
Continuous
 62
     7
100
AcDbLine
 10
-14.330948
 20
-17.453348
 30
0.0
 11
-14.333911
 21
-16.297954
 31
0.0
  0
LINE
  5
103
100
AcDbEntity
  8
0
390
0
  6
Continuous
 62
     7
100
AcDbLine
 10
-14.481703
 20
-7.672188
 30
0.0
 11
-14.395404
 21
-15.278979
 31
0.0
  0
LINE
  5
104
100
AcDbEntity
  8
0
390
0
  6
Continuous
 62
     7
100
AcDbLine
 10
-14.395404
 20
-15.278979
 30
0.0
 11
-14.372198
 21
-16.287768
 31
0.0
  0
LINE
  5
105
100
AcDbEntity
  8
0
390
0
  6
Continuous
 62
     7
100
AcDbLine
 10
-14.372199
 20
-16.287726
 30
0.0
 11
-14.331835
 21
-17.452614
 31
0.0
  0
LINE
  5
106
100
AcDbEntity
  8
0
390
0
  6
Continuous
 62
     7
100
AcDbLine
 10
-14.199004
 20
-21.957045
 30
0.0
 11
-14.216723
 21
-20.305038
 31
0.0
  0
LINE
  5
107
100
AcDbEntity
  8
0
390
0
  6
Continuous
 62
     7
100
AcDbLine
 10
-14.216723
 20
-20.305038
 30
0.0
 11
-14.218803
 21
-20.204956
 31
0.0
  0
LINE
  5
108
100
AcDbEntity
  8
0
390
0
  6
Continuous
 62
     7
100
AcDbLine
 10
-14.218803
 20
-20.204956
 30
0.0
 11
-14.429886
 21
-9.763664
 31
0.0
  0
LINE
  5
109
100
AcDbEntity
  8
0
390
0
  6
Continuous
 62
     7
100
AcDbLine
 10
-14.429886
 20
-9.763664
 30
0.0
 11
-14.481538
 21
-7.672089
 31
0.0
  0
LINE
  5
10A
100
AcDbEntity
  8
0
390
0
  6
Continuous
 62
     7
100
AcDbLine
 10
-14.244092
 20
-21.066969
 30
0.0
 11
-14.200649
 21
-21.953682
 31
0.0
  0
LINE
  5
10B
100
AcDbEntity
  8
0
390
0
  6
Continuous
 62
     7
100
AcDbLine
 10
-14.325799
 20
-18.343409
 30
0.0
 11
-14.244092
 21
-21.066969
 31
0.0
  0
LINE
  5
10C
100
AcDbEntity
  8
0
390
0
  6
Continuous
 62
     7
100
AcDbLine
 10
-14.317092
 20
-18.343409
 30
0.0
 11
-14.325799
 21
-18.343409
 31
0.0
  0
LINE
  5
10D
100
AcDbEntity
  8
0
390
0
  6
Continuous
 62
     7
100
AcDbLine
 10
-14.333911
 20
-16.297954
 30
0.0
 11
-14.261537
 21
-19.945644
 31
0.0
  0
LINE
  5
10E
100
AcDbEntity
  8
0
390
0
  6
Continuous
 62
     7
100
AcDbLine
 10
-14.404415
 20
-14.373542
 30
0.0
 11
-14.375927
 21
-15.27897
 31
0.0
  0
LINE
  5
10F
100
AcDbEntity
  8
0
390
0
  6
Continuous
 62
     7
100
AcDbLine
 10
-14.261537
 20
-19.945644
 30
0.0
 11
-14.317092
 21
-18.343409
 31
0.0
  0
LINE
  5
110
100
AcDbEntity
  8
0
390
0
  6
Continuous
 62
     7
100
AcDbLine
 10
-14.46147
 20
-9.887242
 30
0.0
 11
-14.404415
 21
-14.373542
 31
0.0
  0
LINE
  5
111
100
AcDbEntity
  8
0
390
0
  6
Continuous
 62
     7
100
AcDbLine
 10
-14.375927
 20
-15.27897
 30
0.0
 11
-14.46147
 21
-9.887242
 31
0.0
  0
LINE
  5
112
100
AcDbEntity
  8
0
390
0
  6
Continuous
 62
     7
100
AcDbLine
 10
-14.279534
 20
19.930691
 30
0.0
 11
-14.202779
 21
19.930691
 31
0.0
  0
LINE
  5
113
100
AcDbEntity
  8
0
390
0
  6
Continuous
 62
     7
100
AcDbLine
 10
-14.188229
 20
22.490271
 30
0.0
 11
-14.178654
 21
22.490271
 31
0.0
  0
LINE
  5
114
100
AcDbEntity
  8
0
390
0
  6
Continuous
 62
     7
100
AcDbLine
 10
-14.498205
 20
7.49375
 30
0.0
 11
-14.481533
 21
9.674616
 31
0.0
  0
LINE
  5
115
100
AcDbEntity
  8
0
390
0
  6
Continuous
 62
     7
100
AcDbLine
 10
-14.481533
 20
9.674616
 30
0.0
 11
-14.476242
 21
10.190678
 31
0.0
  0
LINE
  5
116
100
AcDbEntity
  8
0
390
0
  6
Continuous
 62
     7
100
AcDbLine
 10
-14.476242
 20
10.190678
 30
0.0
 11
-14.475077
 21
10.297774
 31
0.0
  0
LINE
  5
117
100
AcDbEntity
  8
0
390
0
  6
Continuous
 62
     7
100
AcDbLine
 10
-14.475077
 20
10.297774
 30
0.0
 11
-14.406942
 21
14.708315
 31
0.0
  0
LINE
  5
118
100
AcDbEntity
  8
0
390
0
  6
Continuous
 62
     7
100
AcDbLine
 10
-14.274163
 20
19.931076
 30
0.0
 11
-14.188229
 21
22.490271
 31
0.0
  0
LINE
  5
119
100
AcDbEntity
  8
0
390
0
  6
Continuous
 62
     7
100
AcDbLine
 10
-14.477605
 20
-7.570682
 30
0.0
 11
-13.998245
 21
-7.570682
 31
0.0
  0
LINE
  5
11A
100
AcDbEntity
  8
0
390
0
  6
Continuous
 62
     7
100
AcDbLine
 10
-14.175491
 20
-22.434318
 30
0.0
 11
-13.707741
 21
-22.434318
 31
0.0
  0
LINE
  5
11B
100
AcDbEntity
  8
0
390
0
  6
Continuous
 62
     7
100
AcDbLine
 10
-14.175491
 20
-22.434318
 30
0.0
 11
-14.191205
 21
-21.957141
 31
0.0
  0
LINE
  5
11C
100
AcDbEntity
  8
0
390
0
  6
Continuous
 62
     7
100
AcDbLine
 10
-14.296994
 20
-18.343724
 30
0.0
 11
-14.31949
 21
-17.453612
 31
0.0
  0
LINE
  5
11D
100
AcDbEntity
  8
0
390
0
  6
Continuous
 62
     7
100
AcDbLine
 10
-14.476791
 20
-7.672193
 30
0.0
 11
-14.477605
 21
-7.570682
 31
0.0
  0
ARC
  5
11E
100
AcDbEntity
  8
0
390
0
  6
Continuous
 62
     7
100
AcDbCircle
 10
535.991766
 20
4.255967
 30
0.0
 40
550.0
210
0.0
220
0.0
230
1.0
100
AcDbArc
 50
179.662705
 51
180.0
  0
ARC
  5
11F
100
AcDbEntity
  8
0
390
0
  6
Continuous
 62
     7
100
AcDbCircle
 10
535.991766
 20
4.255967
 30
0.0
 40
550.0
210
0.0
220
0.0
230
1.0
100
AcDbArc
 50
175.945452
 51
178.100109
  0
ARC
  5
120
100
AcDbEntity
  8
0
390
0
  6
Continuous
 62
     7
100
AcDbCircle
 10
535.991767
 20
-4.255966
 30
0.0
 40
550.0
210
0.0
220
0.0
230
1.0
100
AcDbArc
 50
180.0
 51
180.355884
  0
ARC
  5
121
100
AcDbEntity
  8
0
390
0
  6
Continuous
 62
     7
100
AcDbCircle
 10
535.991767
 20
-4.255966
 30
0.0
 40
550.0
210
0.0
220
0.0
230
1.0
100
AcDbArc
 50
181.844313
 51
184.054512
  0
LINE
  5
122
100
AcDbEntity
  8
0
390
0
  6
Continuous
 62
     7
100
AcDbLine
 10
-14.008234
 20
4.255967
 30
0.0
 11
-14.008234
 21
-4.255966
 31
0.0
  0
ARC
  5
123
100
AcDbEntity
  8
0
390
0
  6
Continuous
 62
     7
100
AcDbCircle
 10
-10.636901
 20
43.0
 30
0.0
 40
2.0
210
0.0
220
0.0
230
1.0
100
AcDbArc
 50
90.0
 51
175.945761
  0
ARC
  5
124
100
AcDbEntity
  8
0
390
0
  6
Continuous
 62
     7
100
AcDbCircle
 10
-10.636901
 20
-43.0
 30
0.0
 40
2.0
210
0.0
220
0.0
230
1.0
100
AcDbArc
 50
184.054239
 51
270.0
  0
LINE
  5
125
100
AcDbEntity
  8
0
390
0
  6
Continuous
 62
     7
100
AcDbLine
 10
-14.005115
 20
-21.957045
 30
0.0
 11
-13.504648
 21
-21.957045
 31
0.0
  0
LINE
  5
126
100
AcDbEntity
  8
0
390
0
  6
Continuous
 62
     7
100
AcDbLine
 10
-13.819455
 20
-7.638863
 30
0.0
 11
-14.319621
 21
-7.638863
 31
0.0
  0
LINE
  5
127
100
AcDbEntity
  8
0
390
0
  6
Continuous
 62
     7
100
AcDbLine
 10
-14.330956
 20
-17.453348
 30
0.0
 11
-14.308698
 21
-17.453348
 31
0.0
  0
LINE
  5
128
100
AcDbEntity
  8
0
390
0
  6
Continuous
 62
     7
100
AcDbLine
 10
-14.320041
 20
-7.672188
 30
0.0
 11
-14.481696
 21
-7.672188
 31
0.0
  0
LINE
  5
129
100
AcDbEntity
  8
0
390
0
  6
Continuous
 62
     7
100
AcDbLine
 10
-14.199026
 20
-21.957045
 30
0.0
 11
-14.007244
 21
-21.957045
 31
0.0
  0
LINE
  5
12A
100
AcDbEntity
  8
0
390
0
  6
Continuous
 62
     7
100
AcDbLine
 10
167.210389
 20
21.0
 30
0.0
 11
167.710389
 21
21.0
 31
0.0
  0
LINE
  5
12B
100
AcDbEntity
  8
0
390
0
  6
Continuous
 62
     7
100
AcDbLine
 10
167.710389
 20
21.0
 30
0.0
 11
167.710389
 21
-21.0
 31
0.0
  0
LINE
  5
12C
100
AcDbEntity
  8
0
390
0
  6
Continuous
 62
     7
100
AcDbLine
 10
167.710389
 20
-21.0
 30
0.0
 11
167.210389
 21
-21.0
 31
0.0
  0
LINE
  5
12D
100
AcDbEntity
  8
0
390
0
  6
Continuous
 62
     7
100
AcDbLine
 10
167.210389
 20
-21.0
 30
0.0
 11
167.210389
 21
-35.097916
 31
0.0
  0
ARC
  5
12E
100
AcDbEntity
  8
0
390
0
  6
Continuous
 62
     7
100
AcDbCircle
 10
161.710389
 20
-32.7
 30
0.0
 40
6.0
210
0.0
220
0.0
230
1.0
100
AcDbArc
 50
270.0
 51
336.443536
  0
LINE
  5
12F
100
AcDbEntity
  8
0
390
0
  6
Continuous
 62
     7
100
AcDbLine
 10
161.710389
 20
-38.7
 30
0.0
 11
96.31039
 21
-38.7
 31
0.0
  0
ARC
  5
130
100
AcDbEntity
  8
0
390
0
  6
Continuous
 62
     7
100
AcDbCircle
 10
96.310389
 20
-32.7
 30
0.0
 40
6.0
210
0.0
220
0.0
230
1.0
100
AcDbArc
 50
203.556464
 51
270.0
  0
LINE
  5
131
100
AcDbEntity
  8
0
390
0
  6
Continuous
 62
     7
100
AcDbLine
 10
90.81039
 20
-35.097916
 30
0.0
 11
90.81039
 21
-21.0
 31
0.0
  0
LINE
  5
132
100
AcDbEntity
  8
0
390
0
  6
Continuous
 62
     7
100
AcDbLine
 10
90.81039
 20
-21.0
 30
0.0
 11
90.31039
 21
-21.0
 31
0.0
  0
LINE
  5
133
100
AcDbEntity
  8
0
390
0
  6
Continuous
 62
     7
100
AcDbLine
 10
90.31039
 20
-21.0
 30
0.0
 11
90.31039
 21
21.0
 31
0.0
  0
LINE
  5
134
100
AcDbEntity
  8
0
390
0
  6
Continuous
 62
     7
100
AcDbLine
 10
90.31039
 20
21.0
 30
0.0
 11
90.81039
 21
21.0
 31
0.0
  0
LINE
  5
135
100
AcDbEntity
  8
0
390
0
  6
Continuous
 62
     7
100
AcDbLine
 10
90.81039
 20
21.0
 30
0.0
 11
90.81039
 21
35.097916
 31
0.0
  0
ARC
  5
136
100
AcDbEntity
  8
0
390
0
  6
Continuous
 62
     7
100
AcDbCircle
 10
96.31039
 20
32.7
 30
0.0
 40
6.0
210
0.0
220
0.0
230
1.0
100
AcDbArc
 50
90.0
 51
156.443536
  0
LINE
  5
137
100
AcDbEntity
  8
0
390
0
  6
Continuous
 62
     7
100
AcDbLine
 10
96.31039
 20
38.7
 30
0.0
 11
161.710389
 21
38.7
 31
0.0
  0
ARC
  5
138
100
AcDbEntity
  8
0
390
0
  6
Continuous
 62
     7
100
AcDbCircle
 10
161.710389
 20
32.7
 30
0.0
 40
6.0
210
0.0
220
0.0
230
1.0
100
AcDbArc
 50
23.556464
 51
90.0
  0
LINE
  5
139
100
AcDbEntity
  8
0
390
0
  6
Continuous
 62
     7
100
AcDbLine
 10
167.210389
 20
35.097916
 30
0.0
 11
167.210389
 21
21.0
 31
0.0
  0
ARC
  5
13A
100
AcDbEntity
  8
0
390
0
  6
Continuous
 62
     7
100
AcDbCircle
 10
161.710389
 20
32.7
 30
0.0
 40
3.0
210
0.0
220
0.0
230
1.0
100
AcDbArc
 50
0.0
 51
90.0
  0
LINE
  5
13B
100
AcDbEntity
  8
0
390
0
  6
Continuous
 62
     7
100
AcDbLine
 10
96.31039
 20
35.7
 30
0.0
 11
161.710389
 21
35.7
 31
0.0
  0
ARC
  5
13C
100
AcDbEntity
  8
0
390
0
  6
Continuous
 62
     7
100
AcDbCircle
 10
96.31039
 20
32.7
 30
0.0
 40
3.0
210
0.0
220
0.0
230
1.0
100
AcDbArc
 50
90.0
 51
180.0
  0
LINE
  5
13D
100
AcDbEntity
  8
0
390
0
  6
Continuous
 62
     7
100
AcDbLine
 10
93.31039
 20
-32.7
 30
0.0
 11
93.31039
 21
32.7
 31
0.0
  0
ARC
  5
13E
100
AcDbEntity
  8
0
390
0
  6
Continuous
 62
     7
100
AcDbCircle
 10
96.31039
 20
-32.7
 30
0.0
 40
3.0
210
0.0
220
0.0
230
1.0
100
AcDbArc
 50
180.0
 51
270.0
  0
LINE
  5
13F
100
AcDbEntity
  8
0
390
0
  6
Continuous
 62
     7
100
AcDbLine
 10
161.710389
 20
-35.7
 30
0.0
 11
96.31039
 21
-35.7
 31
0.0
  0
ARC
  5
140
100
AcDbEntity
  8
0
390
0
  6
Continuous
 62
     7
100
AcDbCircle
 10
161.710389
 20
-32.7
 30
0.0
 40
3.0
210
0.0
220
0.0
230
1.0
100
AcDbArc
 50
270.0
 51
360.0
  0
LINE
  5
141
100
AcDbEntity
  8
0
390
0
  6
Continuous
 62
     7
100
AcDbLine
 10
164.710389
 20
32.7
 30
0.0
 11
164.710389
 21
-32.7
 31
0.0
  0
ARC
  5
142
100
AcDbEntity
  8
0
390
0
  6
Continuous
 62
     7
100
AcDbCircle
 10
89.210389
 20
-19.0
 30
0.0
 40
2.0
210
0.0
220
0.0
230
1.0
100
AcDbArc
 50
180.0
 51
270.0
  0
LINE
  5
143
100
AcDbEntity
  8
0
390
0
  6
Continuous
 62
     7
100
AcDbLine
 10
87.210389
 20
-19.0
 30
0.0
 11
87.210389
 21
19.0
 31
0.0
  0
ARC
  5
144
100
AcDbEntity
  8
0
390
0
  6
Continuous
 62
     7
100
AcDbCircle
 10
89.210389
 20
19.0
 30
0.0
 40
2.0
210
0.0
220
0.0
230
1.0
100
AcDbArc
 50
90.0
 51
180.0
  0
LINE
  5
145
100
AcDbEntity
  8
0
390
0
  6
Continuous
 62
     7
100
AcDbLine
 10
90.31039
 20
21.0
 30
0.0
 11
89.210389
 21
21.0
 31
0.0
  0
LINE
  5
146
100
AcDbEntity
  8
0
390
0
  6
Continuous
 62
     7
100
AcDbLine
 10
90.31039
 20
-21.0
 30
0.0
 11
89.210389
 21
-21.0
 31
0.0
  0
ARC
  5
147
100
AcDbEntity
  8
0
390
0
  6
Continuous
 62
     7
100
AcDbCircle
 10
162.01039
 20
39.8
 30
0.0
 40
2.0
210
0.0
220
0.0
230
1.0
100
AcDbArc
 50
0.0
 51
90.0
  0
LINE
  5
148
100
AcDbEntity
  8
0
390
0
  6
Continuous
 62
     7
100
AcDbLine
 10
164.01039
 20
38.7
 30
0.0
 11
164.01039
 21
39.8
 31
0.0
  0
LINE
  5
149
100
AcDbEntity
  8
0
390
0
  6
Continuous
 62
     7
100
AcDbLine
 10
164.01039
 20
38.7
 30
0.0
 11
161.710389
 21
38.7
 31
0.0
  0
LINE
  5
14A
100
AcDbEntity
  8
0
390
0
  6
Continuous
 62
     7
100
AcDbLine
 10
96.31039
 20
38.7
 30
0.0
 11
94.01039
 21
38.7
 31
0.0
  0
LINE
  5
14B
100
AcDbEntity
  8
0
390
0
  6
Continuous
 62
     7
100
AcDbLine
 10
94.01039
 20
38.7
 30
0.0
 11
94.01039
 21
39.8
 31
0.0
  0
ARC
  5
14C
100
AcDbEntity
  8
0
390
0
  6
Continuous
 62
     7
100
AcDbCircle
 10
96.01039
 20
39.8
 30
0.0
 40
2.0
210
0.0
220
0.0
230
1.0
100
AcDbArc
 50
90.0
 51
180.0
  0
LINE
  5
14D
100
AcDbEntity
  8
0
390
0
  6
Continuous
 62
     7
100
AcDbLine
 10
162.01039
 20
41.8
 30
0.0
 11
96.01039
 21
41.8
 31
0.0
  0
LINE
  5
14E
100
AcDbEntity
  8
0
390
0
  6
Continuous
 62
     7
100
AcDbLine
 10
94.01039
 20
38.241661
 30
0.0
 11
94.01039
 21
38.7
 31
0.0
  0
ARC
  5
14F
100
AcDbEntity
  8
0
390
0
  6
Continuous
 62
     7
100
AcDbCircle
 10
168.81039
 20
19.0
 30
0.0
 40
2.0
210
0.0
220
0.0
230
1.0
100
AcDbArc
 50
0.0
 51
90.0
  0
LINE
  5
150
100
AcDbEntity
  8
0
390
0
  6
Continuous
 62
     7
100
AcDbLine
 10
170.81039
 20
19.0
 30
0.0
 11
170.81039
 21
-19.0
 31
0.0
  0
ARC
  5
151
100
AcDbEntity
  8
0
390
0
  6
Continuous
 62
     7
100
AcDbCircle
 10
168.81039
 20
-19.0
 30
0.0
 40
2.0
210
0.0
220
0.0
230
1.0
100
AcDbArc
 50
270.0
 51
360.0
  0
LINE
  5
152
100
AcDbEntity
  8
0
390
0
  6
Continuous
 62
     7
100
AcDbLine
 10
167.710389
 20
21.0
 30
0.0
 11
168.81039
 21
21.0
 31
0.0
  0
LINE
  5
153
100
AcDbEntity
  8
0
390
0
  6
Continuous
 62
     7
100
AcDbLine
 10
167.710389
 20
-21.0
 30
0.0
 11
168.81039
 21
-21.0
 31
0.0
  0
ARC
  5
154
100
AcDbEntity
  8
0
390
0
  6
Continuous
 62
     7
100
AcDbCircle
 10
96.01039
 20
-39.8
 30
0.0
 40
2.0
210
0.0
220
0.0
230
1.0
100
AcDbArc
 50
180.0
 51
270.0
  0
LINE
  5
155
100
AcDbEntity
  8
0
390
0
  6
Continuous
 62
     7
100
AcDbLine
 10
94.01039
 20
-38.7
 30
0.0
 11
94.01039
 21
-39.8
 31
0.0
  0
LINE
  5
156
100
AcDbEntity
  8
0
390
0
  6
Continuous
 62
     7
100
AcDbLine
 10
94.01039
 20
-38.7
 30
0.0
 11
96.31039
 21
-38.7
 31
0.0
  0
LINE
  5
157
100
AcDbEntity
  8
0
390
0
  6
Continuous
 62
     7
100
AcDbLine
 10
161.710389
 20
-38.7
 30
0.0
 11
164.01039
 21
-38.7
 31
0.0
  0
LINE
  5
158
100
AcDbEntity
  8
0
390
0
  6
Continuous
 62
     7
100
AcDbLine
 10
164.01039
 20
-38.7
 30
0.0
 11
164.01039
 21
-39.8
 31
0.0
  0
ARC
  5
159
100
AcDbEntity
  8
0
390
0
  6
Continuous
 62
     7
100
AcDbCircle
 10
162.01039
 20
-39.8
 30
0.0
 40
2.0
210
0.0
220
0.0
230
1.0
100
AcDbArc
 50
270.0
 51
360.0
  0
LINE
  5
15A
100
AcDbEntity
  8
0
390
0
  6
Continuous
 62
     7
100
AcDbLine
 10
96.01039
 20
-41.8
 30
0.0
 11
162.01039
 21
-41.8
 31
0.0
  0
LINE
  5
15B
100
AcDbEntity
  8
0
390
0
  6
Continuous
 62
     7
100
AcDbLine
 10
94.01039
 20
-38.24166
 30
0.0
 11
94.01039
 21
-38.7
 31
0.0
  0
LINE
  5
15C
100
AcDbEntity
  8
0
390
0
  6
Continuous
 62
     7
100
AcDbLine
 10
164.01039
 20
38.241661
 30
0.0
 11
164.01039
 21
38.7
 31
0.0
  0
LINE
  5
15D
100
AcDbEntity
  8
0
390
0
  6
Continuous
 62
     7
100
AcDbLine
 10
164.01039
 20
-38.24166
 30
0.0
 11
164.01039
 21
-38.7
 31
0.0
  0
LINE
  5
15E
100
AcDbEntity
  8
0
390
0
  6
Continuous
 62
     7
100
AcDbLine
 10
94.32696
 20
32.7
 30
0.0
 11
93.31039
 21
32.7
 31
0.0
  0
LINE
  5
15F
100
AcDbEntity
  8
0
390
0
  6
Continuous
 62
     7
100
AcDbLine
 10
94.32696
 20
-32.7
 30
0.0
 11
94.32696
 21
32.7
 31
0.0
  0
LINE
  5
160
100
AcDbEntity
  8
0
390
0
  6
Continuous
 62
     7
100
AcDbLine
 10
94.32696
 20
-32.7
 30
0.0
 11
93.31039
 21
-32.7
 31
0.0
  0
LINE
  5
161
100
AcDbEntity
  8
0
390
0
  6
Continuous
 62
     7
100
AcDbLine
 10
96.31039
 20
34.68343
 30
0.0
 11
96.31039
 21
35.7
 31
0.0
  0
ARC
  5
162
100
AcDbEntity
  8
0
390
0
  6
Continuous
 62
     7
100
AcDbCircle
 10
96.30759
 20
32.702799
 30
0.0
 40
1.980632
210
0.0
220
0.0
230
1.0
100
AcDbArc
 50
89.919028
 51
180.080972
  0
ARC
  5
163
100
AcDbEntity
  8
0
390
0
  6
Continuous
 62
     7
100
AcDbCircle
 10
96.30759
 20
-32.702799
 30
0.0
 40
1.980632
210
0.0
220
0.0
230
1.0
100
AcDbArc
 50
179.919028
 51
270.080972
  0
LINE
  5
164
100
AcDbEntity
  8
0
390
0
  6
Continuous
 62
     7
100
AcDbLine
 10
96.31039
 20
-34.683429
 30
0.0
 11
96.31039
 21
-35.7
 31
0.0
  0
LINE
  5
165
100
AcDbEntity
  8
0
390
0
  6
Continuous
 62
     7
100
AcDbLine
 10
161.710389
 20
-34.683429
 30
0.0
 11
96.31039
 21
-34.683429
 31
0.0
  0
LINE
  5
166
100
AcDbEntity
  8
0
390
0
  6
Continuous
 62
     7
100
AcDbLine
 10
161.710389
 20
-34.683429
 30
0.0
 11
161.710389
 21
-35.7
 31
0.0
  0
LINE
  5
167
100
AcDbEntity
  8
0
390
0
  6
Continuous
 62
     7
100
AcDbLine
 10
161.710389
 20
34.68343
 30
0.0
 11
161.710389
 21
35.7
 31
0.0
  0
LINE
  5
168
100
AcDbEntity
  8
0
390
0
  6
Continuous
 62
     7
100
AcDbLine
 10
96.31039
 20
34.68343
 30
0.0
 11
161.710389
 21
34.68343
 31
0.0
  0
ARC
  5
169
100
AcDbEntity
  8
0
390
0
  6
Continuous
 62
     7
100
AcDbCircle
 10
161.713189
 20
-32.702799
 30
0.0
 40
1.980632
210
0.0
220
0.0
230
1.0
100
AcDbArc
 50
269.919028
 51
0.080972
  0
LINE
  5
16A
100
AcDbEntity
  8
0
390
0
  6
Continuous
 62
     7
100
AcDbLine
 10
163.69382
 20
-32.7
 30
0.0
 11
164.710389
 21
-32.7
 31
0.0
  0
LINE
  5
16B
100
AcDbEntity
  8
0
390
0
  6
Continuous
 62
     7
100
AcDbLine
 10
163.69382
 20
32.7
 30
0.0
 11
163.69382
 21
-32.7
 31
0.0
  0
LINE
  5
16C
100
AcDbEntity
  8
0
390
0
  6
Continuous
 62
     7
100
AcDbLine
 10
163.69382
 20
32.7
 30
0.0
 11
164.710389
 21
32.7
 31
0.0
  0
ARC
  5
16D
100
AcDbEntity
  8
0
390
0
  6
Continuous
 62
     7
100
AcDbCircle
 10
161.713189
 20
32.702799
 30
0.0
 40
1.980632
210
0.0
220
0.0
230
1.0
100
AcDbArc
 50
359.919028
 51
90.080972
  0
ARC
  5
16E
100
AcDbEntity
  8
0
390
0
  6
Continuous
 62
     7
100
AcDbCircle
 10
162.01039
 20
41.7
 30
0.0
 40
2.0
210
0.0
220
0.0
230
1.0
100
AcDbArc
 50
0.0
 51
90.0
  0
LINE
  5
16F
100
AcDbEntity
  8
0
390
0
  6
Continuous
 62
     7
100
AcDbLine
 10
164.01039
 20
39.8
 30
0.0
 11
164.01039
 21
41.7
 31
0.0
  0
ARC
  5
170
100
AcDbEntity
  8
0
390
0
  6
Continuous
 62
     7
100
AcDbCircle
 10
96.01039
 20
41.7
 30
0.0
 40
2.0
210
0.0
220
0.0
230
1.0
100
AcDbArc
 50
90.0
 51
180.0
  0
LINE
  5
171
100
AcDbEntity
  8
0
390
0
  6
Continuous
 62
     7
100
AcDbLine
 10
162.01039
 20
43.7
 30
0.0
 11
96.01039
 21
43.7
 31
0.0
  0
LINE
  5
172
100
AcDbEntity
  8
0
390
0
  6
Continuous
 62
     7
100
AcDbLine
 10
94.01039
 20
39.8
 30
0.0
 11
94.01039
 21
41.7
 31
0.0
  0
ARC
  5
173
100
AcDbEntity
  8
0
390
0
  6
Continuous
 62
     7
100
AcDbCircle
 10
87.31039
 20
19.0
 30
0.0
 40
2.0
210
0.0
220
0.0
230
1.0
100
AcDbArc
 50
90.0
 51
180.0
  0
ARC
  5
174
100
AcDbEntity
  8
0
390
0
  6
Continuous
 62
     7
100
AcDbCircle
 10
87.31039
 20
-19.0
 30
0.0
 40
2.0
210
0.0
220
0.0
230
1.0
100
AcDbArc
 50
180.0
 51
270.0
  0
LINE
  5
175
100
AcDbEntity
  8
0
390
0
  6
Continuous
 62
     7
100
AcDbLine
 10
85.31039
 20
-19.0
 30
0.0
 11
85.31039
 21
19.0
 31
0.0
  0
LINE
  5
176
100
AcDbEntity
  8
0
390
0
  6
Continuous
 62
     7
100
AcDbLine
 10
89.210389
 20
21.0
 30
0.0
 11
87.31039
 21
21.0
 31
0.0
  0
LINE
  5
177
100
AcDbEntity
  8
0
390
0
  6
Continuous
 62
     7
100
AcDbLine
 10
89.210389
 20
-21.0
 30
0.0
 11
87.31039
 21
-21.0
 31
0.0
  0
ARC
  5
178
100
AcDbEntity
  8
0
390
0
  6
Continuous
 62
     7
100
AcDbCircle
 10
96.010389
 20
-41.7
 30
0.0
 40
2.0
210
0.0
220
0.0
230
1.0
100
AcDbArc
 50
180.0
 51
270.0
  0
LINE
  5
179
100
AcDbEntity
  8
0
390
0
  6
Continuous
 62
     7
100
AcDbLine
 10
94.01039
 20
-39.8
 30
0.0
 11
94.01039
 21
-41.7
 31
0.0
  0
ARC
  5
17A
100
AcDbEntity
  8
0
390
0
  6
Continuous
 62
     7
100
AcDbCircle
 10
162.010389
 20
-41.7
 30
0.0
 40
2.0
210
0.0
220
0.0
230
1.0
100
AcDbArc
 50
270.0
 51
360.0
  0
LINE
  5
17B
100
AcDbEntity
  8
0
390
0
  6
Continuous
 62
     7
100
AcDbLine
 10
96.01039
 20
-43.7
 30
0.0
 11
162.01039
 21
-43.7
 31
0.0
  0
LINE
  5
17C
100
AcDbEntity
  8
0
390
0
  6
Continuous
 62
     7
100
AcDbLine
 10
164.01039
 20
-39.8
 30
0.0
 11
164.01039
 21
-41.7
 31
0.0
  0
ARC
  5
17D
100
AcDbEntity
  8
0
390
0
  6
Continuous
 62
     7
100
AcDbCircle
 10
170.710389
 20
-19.0
 30
0.0
 40
2.0
210
0.0
220
0.0
230
1.0
100
AcDbArc
 50
270.0
 51
360.0
  0
ARC
  5
17E
100
AcDbEntity
  8
0
390
0
  6
Continuous
 62
     7
100
AcDbCircle
 10
170.710389
 20
19.0
 30
0.0
 40
2.0
210
0.0
220
0.0
230
1.0
100
AcDbArc
 50
0.0
 51
90.0
  0
LINE
  5
17F
100
AcDbEntity
  8
0
390
0
  6
Continuous
 62
     7
100
AcDbLine
 10
172.71039
 20
19.0
 30
0.0
 11
172.71039
 21
-19.0
 31
0.0
  0
LINE
  5
180
100
AcDbEntity
  8
0
390
0
  6
Continuous
 62
     7
100
AcDbLine
 10
168.81039
 20
21.0
 30
0.0
 11
170.710389
 21
21.0
 31
0.0
  0
LINE
  5
181
100
AcDbEntity
  8
0
390
0
  6
Continuous
 62
     7
100
AcDbLine
 10
168.81039
 20
-21.0
 30
0.0
 11
170.710389
 21
-21.0
 31
0.0
  0
LINE
  5
182
100
AcDbEntity
  8
0
390
0
  6
Continuous
 62
     7
100
AcDbLine
 10
161.76485
 20
33.740901
 30
0.0
 11
96.25593
 21
33.740901
 31
0.0
  0
ELLIPSE
  5
183
100
AcDbEntity
  8
0
390
0
  6
Continuous
 62
     7
100
AcDbEllipse
 10
96.31039
 20
33.6848
 30
0.0
 11
0.002871385546388
 21
0.9999958775639972
 31
0.0
210
0.0
220
0.0
230
1.0
 40
0.054707
 41
0.0524384793802713
 42
1.5148228529024279
  0
ELLIPSE
  5
184
100
AcDbEntity
  8
0
390
0
  6
Continuous
 62
     7
100
AcDbEllipse
 10
161.710389
 20
33.6848
 30
0.0
 11
-0.002871385546388
 21
0.9999958775640527
 31
0.0
210
0.0
220
0.0
230
1.0
 40
0.054707
 41
4.7683624542771588
 42
6.2307468277992601
  0
ELLIPSE
  5
185
100
AcDbEntity
  8
0
390
0
  6
Continuous
 62
     7
100
AcDbEllipse
 10
96.31039
 20
-33.6848
 30
0.0
 11
-0.002871385546388
 21
0.9999958775639972
 31
0.0
210
0.0
220
0.0
230
1.0
 40
0.054707
 41
1.6267698006874214
 42
3.0891541742095243
  0
LINE
  5
186
100
AcDbEntity
  8
0
390
0
  6
Continuous
 62
     7
100
AcDbLine
 10
96.255929
 20
-33.740901
 30
0.0
 11
161.76485
 21
-33.740901
 31
0.0
  0
ELLIPSE
  5
187
100
AcDbEntity
  8
0
390
0
  6
Continuous
 62
     7
100
AcDbEllipse
 10
161.710389
 20
-33.6848
 30
0.0
 11
0.002871385546388
 21
0.9999958775640527
 31
0.0
210
0.0
220
0.0
230
1.0
 40
0.054707
 41
3.1940311329699518
 42
4.6564155064922188
  0
LINE
  5
188
100
AcDbEntity
  8
0
390
0
  6
Continuous
 62
     7
100
AcDbLine
 10
95.26949
 20
32.754461
 30
0.0
 11
95.26949
 21
-32.754461
 31
0.0
  0
ELLIPSE
  5
189
100
AcDbEntity
  8
0
390
0
  6
Continuous
 62
     7
100
AcDbEllipse
 10
95.32559
 20
-32.7
 30
0.0
 11
-0.9999958775639972
 21
0.002871385546388
 31
0.0
210
0.0
220
0.0
230
0.9999999999999999
 40
0.054707
 41
0.0524384793802713
 42
1.5148228529024279
  0
ELLIPSE
  5
18A
100
AcDbEntity
  8
0
390
0
  6
Continuous
 62
     7
100
AcDbEllipse
 10
95.32559
 20
32.7
 30
0.0
 11
-0.9999958775640527
 21
-0.002871385546388
 31
0.0
210
0.0
220
0.0
230
0.9999999999999999
 40
0.054707
 41
4.7683624542771552
 42
6.2307468277983187
  0
ELLIPSE
  5
18B
100
AcDbEntity
  8
0
390
0
  6
Continuous
 62
     7
100
AcDbEllipse
 10
162.69519
 20
-32.7
 30
0.0
 11
-0.9999958775640527
 21
-0.002871385546388
 31
0.0
210
0.0
220
0.0
230
1.0
 40
0.054707
 41
1.6267698006873634
 42
3.0891541742095199
  0
LINE
  5
18C
100
AcDbEntity
  8
0
390
0
  6
Continuous
 62
     7
100
AcDbLine
 10
162.751291
 20
-32.754461
 30
0.0
 11
162.751291
 21
32.754461
 31
0.0
  0
ELLIPSE
  5
18D
100
AcDbEntity
  8
0
390
0
  6
Continuous
 62
     7
100
AcDbEllipse
 10
162.69519
 20
32.7
 30
0.0
 11
-0.9999958775640527
 21
0.002871385546388
 31
0.0
210
0.0
220
0.0
230
1.0
 40
0.054707
 41
3.1940311329700668
 42
4.6564155064922241
  0
ARC
  5
18E
100
AcDbEntity
  8
0
390
0
  6
Continuous
 62
     7
100
AcDbCircle
 10
88.510389
 20
-40.5
 30
0.0
 40
4.5
210
0.0
220
0.0
230
1.0
100
AcDbArc
 50
180.0
 51
270.0
  0
ARC
  5
18F
100
AcDbEntity
  8
0
390
0
  6
Continuous
 62
     7
100
AcDbCircle
 10
88.510389
 20
40.5
 30
0.0
 40
4.5
210
0.0
220
0.0
230
1.0
100
AcDbArc
 50
90.0
 51
180.0
  0
ARC
  5
190
100
AcDbEntity
  8
0
390
0
  6
Continuous
 62
     7
100
AcDbCircle
 10
169.51039
 20
40.5
 30
0.0
 40
4.5
210
0.0
220
0.0
230
1.0
100
AcDbArc
 50
0.0
 51
90.0
  0
ARC
  5
191
100
AcDbEntity
  8
0
390
0
  6
Continuous
 62
     7
100
AcDbCircle
 10
169.51039
 20
-40.5
 30
0.0
 40
4.5
210
0.0
220
0.0
230
1.0
100
AcDbArc
 50
270.0
 51
360.0
  0
LINE
  5
192
100
AcDbEntity
  8
0
390
0
  6
Continuous
 62
     7
100
AcDbLine
 10
174.01039
 20
40.5
 30
0.0
 11
174.01039
 21
-40.5
 31
0.0
  0
LINE
  5
193
100
AcDbEntity
  8
0
390
0
  6
Continuous
 62
     7
100
AcDbLine
 10
84.010389
 20
-40.5
 30
0.0
 11
84.010389
 21
40.5
 31
0.0
  0
LINE
  5
194
100
AcDbEntity
  8
0
390
0
  6
Continuous
 62
     7
100
AcDbLine
 10
88.510389
 20
45.0
 30
0.0
 11
169.51039
 21
45.0
 31
0.0
  0
LINE
  5
195
100
AcDbEntity
  8
0
390
0
  6
Continuous
 62
     7
100
AcDbLine
 10
169.51039
 20
-45.0
 30
0.0
 11
88.51039
 21
-45.0
 31
0.0
  0
POLYLINE
  5
196
100
AcDbEntity
  8
0
390
0
  6
Continuous
 62
     7
100
AcDb2dPolyline
 66
     1
 10
0.0
 20
0.0
 30
0.0
 40
0.1
 41
0.1
  0
VERTEX
  5
197
100
AcDbEntity
  8
0
390
0
 62
     7
100
AcDbVertex
100
AcDb2dVertex
 10
96.255929
 20
33.740901
 30
0.0
  0
VERTEX
  5
198
100
AcDbEntity
  8
0
390
0
 62
     7
100
AcDbVertex
100
AcDb2dVertex
 10
96.210815
 20
33.739991
 30
0.0
  0
VERTEX
  5
199
100
AcDbEntity
  8
0
390
0
 62
     7
100
AcDbVertex
100
AcDb2dVertex
 10
96.165712
 20
33.737003
 30
0.0
  0
VERTEX
  5
19A
100
AcDbEntity
  8
0
390
0
 62
     7
100
AcDbVertex
100
AcDb2dVertex
 10
96.120763
 20
33.731954
 30
0.0
  0
VERTEX
  5
19B
100
AcDbEntity
  8
0
390
0
 62
     7
100
AcDbVertex
100
AcDb2dVertex
 10
96.076111
 20
33.724857
 30
0.0
  0
VERTEX
  5
19C
100
AcDbEntity
  8
0
390
0
 62
     7
100
AcDbVertex
100
AcDb2dVertex
 10
96.031896
 20
33.715729
 30
0.0
  0
VERTEX
  5
19D
100
AcDbEntity
  8
0
390
0
 62
     7
100
AcDbVertex
100
AcDb2dVertex
 10
95.99242
 20
33.705753
 30
0.0
  0
VERTEX
  5
19E
100
AcDbEntity
  8
0
390
0
 62
     7
100
AcDbVertex
100
AcDb2dVertex
 10
95.953352
 20
33.69414
 30
0.0
  0
VERTEX
  5
19F
100
AcDbEntity
  8
0
390
0
 62
     7
100
AcDbVertex
100
AcDb2dVertex
 10
95.914794
 20
33.680923
 30
0.0
  0
VERTEX
  5
1A0
100
AcDbEntity
  8
0
390
0
 62
     7
100
AcDbVertex
100
AcDb2dVertex
 10
95.876845
 20
33.666132
 30
0.0
  0
VERTEX
  5
1A1
100
AcDbEntity
  8
0
390
0
 62
     7
100
AcDbVertex
100
AcDb2dVertex
 10
95.838472
 20
33.649278
 30
0.0
  0
VERTEX
  5
1A2
100
AcDbEntity
  8
0
390
0
 62
     7
100
AcDbVertex
100
AcDb2dVertex
 10
95.800812
 20
33.630786
 30
0.0
  0
VERTEX
  5
1A3
100
AcDbEntity
  8
0
390
0
 62
     7
100
AcDbVertex
100
AcDb2dVertex
 10
95.76397
 20
33.610708
 30
0.0
  0
VERTEX
  5
1A4
100
AcDbEntity
  8
0
390
0
 62
     7
100
AcDbVertex
100
AcDb2dVertex
 10
95.728049
 20
33.589096
 30
0.0
  0
VERTEX
  5
1A5
100
AcDbEntity
  8
0
390
0
 62
     7
100
AcDbVertex
100
AcDb2dVertex
 10
95.694031
 20
33.566623
 30
0.0
  0
VERTEX
  5
1A6
100
AcDbEntity
  8
0
390
0
 62
     7
100
AcDbVertex
100
AcDb2dVertex
 10
95.660944
 20
33.542737
 30
0.0
  0
VERTEX
  5
1A7
100
AcDbEntity
  8
0
390
0
 62
     7
100
AcDbVertex
100
AcDb2dVertex
 10
95.628873
 20
33.517502
 30
0.0
  0
VERTEX
  5
1A8
100
AcDbEntity
  8
0
390
0
 62
     7
100
AcDbVertex
100
AcDb2dVertex
 10
95.597902
 20
33.490982
 30
0.0
  0
VERTEX
  5
1A9
100
AcDbEntity
  8
0
390
0
 62
     7
100
AcDbVertex
100
AcDb2dVertex
 10
95.567208
 20
33.462368
 30
0.0
  0
VERTEX
  5
1AA
100
AcDbEntity
  8
0
390
0
 62
     7
100
AcDbVertex
100
AcDb2dVertex
 10
95.537737
 20
33.432444
 30
0.0
  0
VERTEX
  5
1AB
100
AcDbEntity
  8
0
390
0
 62
     7
100
AcDbVertex
100
AcDb2dVertex
 10
95.509566
 20
33.401292
 30
0.0
  0
VERTEX
  5
1AC
100
AcDbEntity
  8
0
390
0
 62
     7
100
AcDbVertex
100
AcDb2dVertex
 10
95.482775
 20
33.368998
 30
0.0
  0
VERTEX
  5
1AD
100
AcDbEntity
  8
0
390
0
 62
     7
100
AcDbVertex
100
AcDb2dVertex
 10
95.458048
 20
33.336489
 30
0.0
  0
VERTEX
  5
1AE
100
AcDbEntity
  8
0
390
0
 62
     7
100
AcDbVertex
100
AcDb2dVertex
 10
95.434674
 20
33.302954
 30
0.0
  0
VERTEX
  5
1AF
100
AcDbEntity
  8
0
390
0
 62
     7
100
AcDbVertex
100
AcDb2dVertex
 10
95.412709
 20
33.26848
 30
0.0
  0
VERTEX
  5
1B0
100
AcDbEntity
  8
0
390
0
 62
     7
100
AcDbVertex
100
AcDb2dVertex
 10
95.392213
 20
33.233157
 30
0.0
  0
VERTEX
  5
1B1
100
AcDbEntity
  8
0
390
0
 62
     7
100
AcDbVertex
100
AcDb2dVertex
 10
95.372678
 20
33.195947
 30
0.0
  0
VERTEX
  5
1B2
100
AcDbEntity
  8
0
390
0
 62
     7
100
AcDbVertex
100
AcDb2dVertex
 10
95.354735
 20
33.157905
 30
0.0
  0
VERTEX
  5
1B3
100
AcDbEntity
  8
0
390
0
 62
     7
100
AcDbVertex
100
AcDb2dVertex
 10
95.338431
 20
33.119135
 30
0.0
  0
VERTEX
  5
1B4
100
AcDbEntity
  8
0
390
0
 62
     7
100
AcDbVertex
100
AcDb2dVertex
 10
95.323812
 20
33.079745
 30
0.0
  0
VERTEX
  5
1B5
100
AcDbEntity
  8
0
390
0
 62
     7
100
AcDbVertex
100
AcDb2dVertex
 10
95.311239
 20
33.040908
 30
0.0
  0
VERTEX
  5
1B6
100
AcDbEntity
  8
0
390
0
 62
     7
100
AcDbVertex
100
AcDb2dVertex
 10
95.300282
 20
33.001552
 30
0.0
  0
VERTEX
  5
1B7
100
AcDbEntity
  8
0
390
0
 62
     7
100
AcDbVertex
100
AcDb2dVertex
 10
95.290961
 20
32.961781
 30
0.0
  0
VERTEX
  5
1B8
100
AcDbEntity
  8
0
390
0
 62
     7
100
AcDbVertex
100
AcDb2dVertex
 10
95.283308
 20
32.921697
 30
0.0
  0
VERTEX
  5
1B9
100
AcDbEntity
  8
0
390
0
 62
     7
100
AcDbVertex
100
AcDb2dVertex
 10
95.277182
 20
32.880158
 30
0.0
  0
VERTEX
  5
1BA
100
AcDbEntity
  8
0
390
0
 62
     7
100
AcDbVertex
100
AcDb2dVertex
 10
95.272831
 20
32.838363
 30
0.0
  0
VERTEX
  5
1BB
100
AcDbEntity
  8
0
390
0
 62
     7
100
AcDbVertex
100
AcDb2dVertex
 10
95.270264
 20
32.796426
 30
0.0
  0
VERTEX
  5
1BC
100
AcDbEntity
  8
0
390
0
 62
     7
100
AcDbVertex
100
AcDb2dVertex
 10
95.26949
 20
32.754461
 30
0.0
  0
SEQEND
  5
1BD
100
AcDbEntity
  8
0
390
0
  0
POLYLINE
  5
1BE
100
AcDbEntity
  8
0
390
0
  6
Continuous
 62
     7
100
AcDb2dPolyline
 66
     1
 10
0.0
 20
0.0
 30
0.0
 40
0.1
 41
0.1
  0
VERTEX
  5
1BF
100
AcDbEntity
  8
0
390
0
 62
     7
100
AcDbVertex
100
AcDb2dVertex
 10
95.26949
 20
-32.754461
 30
0.0
  0
VERTEX
  5
1C0
100
AcDbEntity
  8
0
390
0
 62
     7
100
AcDbVertex
100
AcDb2dVertex
 10
95.270399
 20
-32.799575
 30
0.0
  0
VERTEX
  5
1C1
100
AcDbEntity
  8
0
390
0
 62
     7
100
AcDbVertex
100
AcDb2dVertex
 10
95.273387
 20
-32.844678
 30
0.0
  0
VERTEX
  5
1C2
100
AcDbEntity
  8
0
390
0
 62
     7
100
AcDbVertex
100
AcDb2dVertex
 10
95.278436
 20
-32.889626
 30
0.0
  0
VERTEX
  5
1C3
100
AcDbEntity
  8
0
390
0
 62
     7
100
AcDbVertex
100
AcDb2dVertex
 10
95.285534
 20
-32.934279
 30
0.0
  0
VERTEX
  5
1C4
100
AcDbEntity
  8
0
390
0
 62
     7
100
AcDbVertex
100
AcDb2dVertex
 10
95.294661
 20
-32.978494
 30
0.0
  0
VERTEX
  5
1C5
100
AcDbEntity
  8
0
390
0
 62
     7
100
AcDbVertex
100
AcDb2dVertex
 10
95.304637
 20
-33.01797
 30
0.0
  0
VERTEX
  5
1C6
100
AcDbEntity
  8
0
390
0
 62
     7
100
AcDbVertex
100
AcDb2dVertex
 10
95.316249
 20
-33.057037
 30
0.0
  0
VERTEX
  5
1C7
100
AcDbEntity
  8
0
390
0
 62
     7
100
AcDbVertex
100
AcDb2dVertex
 10
95.329467
 20
-33.095595
 30
0.0
  0
VERTEX
  5
1C8
100
AcDbEntity
  8
0
390
0
 62
     7
100
AcDbVertex
100
AcDb2dVertex
 10
95.344258
 20
-33.133544
 30
0.0
  0
VERTEX
  5
1C9
100
AcDbEntity
  8
0
390
0
 62
     7
100
AcDbVertex
100
AcDb2dVertex
 10
95.361113
 20
-33.171918
 30
0.0
  0
VERTEX
  5
1CA
100
AcDbEntity
  8
0
390
0
 62
     7
100
AcDbVertex
100
AcDb2dVertex
 10
95.379604
 20
-33.209577
 30
0.0
  0
VERTEX
  5
1CB
100
AcDbEntity
  8
0
390
0
 62
     7
100
AcDbVertex
100
AcDb2dVertex
 10
95.399683
 20
-33.246419
 30
0.0
  0
VERTEX
  5
1CC
100
AcDbEntity
  8
0
390
0
 62
     7
100
AcDbVertex
100
AcDb2dVertex
 10
95.421293
 20
-33.282341
 30
0.0
  0
VERTEX
  5
1CD
100
AcDbEntity
  8
0
390
0
 62
     7
100
AcDbVertex
100
AcDb2dVertex
 10
95.443767
 20
-33.316358
 30
0.0
  0
VERTEX
  5
1CE
100
AcDbEntity
  8
0
390
0
 62
     7
100
AcDbVertex
100
AcDb2dVertex
 10
95.467654
 20
-33.349445
 30
0.0
  0
VERTEX
  5
1CF
100
AcDbEntity
  8
0
390
0
 62
     7
100
AcDbVertex
100
AcDb2dVertex
 10
95.492888
 20
-33.381517
 30
0.0
  0
VERTEX
  5
1D0
100
AcDbEntity
  8
0
390
0
 62
     7
100
AcDbVertex
100
AcDb2dVertex
 10
95.519408
 20
-33.412489
 30
0.0
  0
VERTEX
  5
1D1
100
AcDbEntity
  8
0
390
0
 62
     7
100
AcDbVertex
100
AcDb2dVertex
 10
95.548022
 20
-33.443181
 30
0.0
  0
VERTEX
  5
1D2
100
AcDbEntity
  8
0
390
0
 62
     7
100
AcDbVertex
100
AcDb2dVertex
 10
95.577946
 20
-33.472653
 30
0.0
  0
VERTEX
  5
1D3
100
AcDbEntity
  8
0
390
0
 62
     7
100
AcDbVertex
100
AcDb2dVertex
 10
95.609098
 20
-33.500823
 30
0.0
  0
VERTEX
  5
1D4
100
AcDbEntity
  8
0
390
0
 62
     7
100
AcDbVertex
100
AcDb2dVertex
 10
95.641392
 20
-33.527615
 30
0.0
  0
VERTEX
  5
1D5
100
AcDbEntity
  8
0
390
0
 62
     7
100
AcDbVertex
100
AcDb2dVertex
 10
95.673901
 20
-33.552341
 30
0.0
  0
VERTEX
  5
1D6
100
AcDbEntity
  8
0
390
0
 62
     7
100
AcDbVertex
100
AcDb2dVertex
 10
95.707437
 20
-33.575716
 30
0.0
  0
VERTEX
  5
1D7
100
AcDbEntity
  8
0
390
0
 62
     7
100
AcDbVertex
100
AcDb2dVertex
 10
95.741909
 20
-33.59768
 30
0.0
  0
VERTEX
  5
1D8
100
AcDbEntity
  8
0
390
0
 62
     7
100
AcDbVertex
100
AcDb2dVertex
 10
95.777233
 20
-33.618176
 30
0.0
  0
VERTEX
  5
1D9
100
AcDbEntity
  8
0
390
0
 62
     7
100
AcDbVertex
100
AcDb2dVertex
 10
95.814443
 20
-33.637711
 30
0.0
  0
VERTEX
  5
1DA
100
AcDbEntity
  8
0
390
0
 62
     7
100
AcDbVertex
100
AcDb2dVertex
 10
95.852485
 20
-33.655654
 30
0.0
  0
VERTEX
  5
1DB
100
AcDbEntity
  8
0
390
0
 62
     7
100
AcDbVertex
100
AcDb2dVertex
 10
95.891254
 20
-33.671959
 30
0.0
  0
VERTEX
  5
1DC
100
AcDbEntity
  8
0
390
0
 62
     7
100
AcDbVertex
100
AcDb2dVertex
 10
95.930646
 20
-33.686577
 30
0.0
  0
VERTEX
  5
1DD
100
AcDbEntity
  8
0
390
0
 62
     7
100
AcDbVertex
100
AcDb2dVertex
 10
95.969483
 20
-33.69915
 30
0.0
  0
VERTEX
  5
1DE
100
AcDbEntity
  8
0
390
0
 62
     7
100
AcDbVertex
100
AcDb2dVertex
 10
96.008837
 20
-33.710109
 30
0.0
  0
VERTEX
  5
1DF
100
AcDbEntity
  8
0
390
0
 62
     7
100
AcDbVertex
100
AcDb2dVertex
 10
96.048609
 20
-33.719428
 30
0.0
  0
VERTEX
  5
1E0
100
AcDbEntity
  8
0
390
0
 62
     7
100
AcDbVertex
100
AcDb2dVertex
 10
96.088694
 20
-33.727082
 30
0.0
  0
VERTEX
  5
1E1
100
AcDbEntity
  8
0
390
0
 62
     7
100
AcDbVertex
100
AcDb2dVertex
 10
96.130231
 20
-33.733207
 30
0.0
  0
VERTEX
  5
1E2
100
AcDbEntity
  8
0
390
0
 62
     7
100
AcDbVertex
100
AcDb2dVertex
 10
96.172027
 20
-33.737558
 30
0.0
  0
VERTEX
  5
1E3
100
AcDbEntity
  8
0
390
0
 62
     7
100
AcDbVertex
100
AcDb2dVertex
 10
96.213965
 20
-33.740126
 30
0.0
  0
VERTEX
  5
1E4
100
AcDbEntity
  8
0
390
0
 62
     7
100
AcDbVertex
100
AcDb2dVertex
 10
96.255929
 20
-33.740901
 30
0.0
  0
SEQEND
  5
1E5
100
AcDbEntity
  8
0
390
0
  0
POLYLINE
  5
1E6
100
AcDbEntity
  8
0
390
0
  6
Continuous
 62
     7
100
AcDb2dPolyline
 66
     1
 10
0.0
 20
0.0
 30
0.0
 40
0.1
 41
0.1
  0
VERTEX
  5
1E7
100
AcDbEntity
  8
0
390
0
 62
     7
100
AcDbVertex
100
AcDb2dVertex
 10
161.76485
 20
-33.740901
 30
0.0
  0
VERTEX
  5
1E8
100
AcDbEntity
  8
0
390
0
 62
     7
100
AcDbVertex
100
AcDb2dVertex
 10
161.809966
 20
-33.73999
 30
0.0
  0
VERTEX
  5
1E9
100
AcDbEntity
  8
0
390
0
 62
     7
100
AcDbVertex
100
AcDb2dVertex
 10
161.855068
 20
-33.737003
 30
0.0
  0
VERTEX
  5
1EA
100
AcDbEntity
  8
0
390
0
 62
     7
100
AcDbVertex
100
AcDb2dVertex
 10
161.900016
 20
-33.731953
 30
0.0
  0
VERTEX
  5
1EB
100
AcDbEntity
  8
0
390
0
 62
     7
100
AcDbVertex
100
AcDb2dVertex
 10
161.944669
 20
-33.724857
 30
0.0
  0
VERTEX
  5
1EC
100
AcDbEntity
  8
0
390
0
 62
     7
100
AcDbVertex
100
AcDb2dVertex
 10
161.988884
 20
-33.715728
 30
0.0
  0
VERTEX
  5
1ED
100
AcDbEntity
  8
0
390
0
 62
     7
100
AcDbVertex
100
AcDb2dVertex
 10
162.028359
 20
-33.705752
 30
0.0
  0
VERTEX
  5
1EE
100
AcDbEntity
  8
0
390
0
 62
     7
100
AcDbVertex
100
AcDb2dVertex
 10
162.067427
 20
-33.69414
 30
0.0
  0
VERTEX
  5
1EF
100
AcDbEntity
  8
0
390
0
 62
     7
100
AcDbVertex
100
AcDb2dVertex
 10
162.105986
 20
-33.680923
 30
0.0
  0
VERTEX
  5
1F0
100
AcDbEntity
  8
0
390
0
 62
     7
100
AcDbVertex
100
AcDb2dVertex
 10
162.143934
 20
-33.666132
 30
0.0
  0
VERTEX
  5
1F1
100
AcDbEntity
  8
0
390
0
 62
     7
100
AcDbVertex
100
AcDb2dVertex
 10
162.182309
 20
-33.649277
 30
0.0
  0
VERTEX
  5
1F2
100
AcDbEntity
  8
0
390
0
 62
     7
100
AcDbVertex
100
AcDb2dVertex
 10
162.219968
 20
-33.630785
 30
0.0
  0
VERTEX
  5
1F3
100
AcDbEntity
  8
0
390
0
 62
     7
100
AcDbVertex
100
AcDb2dVertex
 10
162.256809
 20
-33.610707
 30
0.0
  0
VERTEX
  5
1F4
100
AcDbEntity
  8
0
390
0
 62
     7
100
AcDbVertex
100
AcDb2dVertex
 10
162.29273
 20
-33.589096
 30
0.0
  0
VERTEX
  5
1F5
100
AcDbEntity
  8
0
390
0
 62
     7
100
AcDbVertex
100
AcDb2dVertex
 10
162.326749
 20
-33.566622
 30
0.0
  0
VERTEX
  5
1F6
100
AcDbEntity
  8
0
390
0
 62
     7
100
AcDbVertex
100
AcDb2dVertex
 10
162.359836
 20
-33.542736
 30
0.0
  0
VERTEX
  5
1F7
100
AcDbEntity
  8
0
390
0
 62
     7
100
AcDbVertex
100
AcDb2dVertex
 10
162.391907
 20
-33.517501
 30
0.0
  0
VERTEX
  5
1F8
100
AcDbEntity
  8
0
390
0
 62
     7
100
AcDbVertex
100
AcDb2dVertex
 10
162.422879
 20
-33.490981
 30
0.0
  0
VERTEX
  5
1F9
100
AcDbEntity
  8
0
390
0
 62
     7
100
AcDbVertex
100
AcDb2dVertex
 10
162.453572
 20
-33.462368
 30
0.0
  0
VERTEX
  5
1FA
100
AcDbEntity
  8
0
390
0
 62
     7
100
AcDbVertex
100
AcDb2dVertex
 10
162.483043
 20
-33.432443
 30
0.0
  0
VERTEX
  5
1FB
100
AcDbEntity
  8
0
390
0
 62
     7
100
AcDbVertex
100
AcDb2dVertex
 10
162.511213
 20
-33.401292
 30
0.0
  0
VERTEX
  5
1FC
100
AcDbEntity
  8
0
390
0
 62
     7
100
AcDbVertex
100
AcDb2dVertex
 10
162.538005
 20
-33.368998
 30
0.0
  0
VERTEX
  5
1FD
100
AcDbEntity
  8
0
390
0
 62
     7
100
AcDbVertex
100
AcDb2dVertex
 10
162.562732
 20
-33.336489
 30
0.0
  0
VERTEX
  5
1FE
100
AcDbEntity
  8
0
390
0
 62
     7
100
AcDbVertex
100
AcDb2dVertex
 10
162.586107
 20
-33.302953
 30
0.0
  0
VERTEX
  5
1FF
100
AcDbEntity
  8
0
390
0
 62
     7
100
AcDbVertex
100
AcDb2dVertex
 10
162.60807
 20
-33.26848
 30
0.0
  0
VERTEX
  5
200
100
AcDbEntity
  8
0
390
0
 62
     7
100
AcDbVertex
100
AcDb2dVertex
 10
162.628566
 20
-33.233157
 30
0.0
  0
VERTEX
  5
201
100
AcDbEntity
  8
0
390
0
 62
     7
100
AcDbVertex
100
AcDb2dVertex
 10
162.648101
 20
-33.195947
 30
0.0
  0
VERTEX
  5
202
100
AcDbEntity
  8
0
390
0
 62
     7
100
AcDbVertex
100
AcDb2dVertex
 10
162.666045
 20
-33.157904
 30
0.0
  0
VERTEX
  5
203
100
AcDbEntity
  8
0
390
0
 62
     7
100
AcDbVertex
100
AcDb2dVertex
 10
162.682349
 20
-33.119135
 30
0.0
  0
VERTEX
  5
204
100
AcDbEntity
  8
0
390
0
 62
     7
100
AcDbVertex
100
AcDb2dVertex
 10
162.696968
 20
-33.079745
 30
0.0
  0
VERTEX
  5
205
100
AcDbEntity
  8
0
390
0
 62
     7
100
AcDbVertex
100
AcDb2dVertex
 10
162.70954
 20
-33.040907
 30
0.0
  0
VERTEX
  5
206
100
AcDbEntity
  8
0
390
0
 62
     7
100
AcDbVertex
100
AcDb2dVertex
 10
162.720498
 20
-33.001552
 30
0.0
  0
VERTEX
  5
207
100
AcDbEntity
  8
0
390
0
 62
     7
100
AcDbVertex
100
AcDb2dVertex
 10
162.729818
 20
-32.961781
 30
0.0
  0
VERTEX
  5
208
100
AcDbEntity
  8
0
390
0
 62
     7
100
AcDbVertex
100
AcDb2dVertex
 10
162.737472
 20
-32.921696
 30
0.0
  0
VERTEX
  5
209
100
AcDbEntity
  8
0
390
0
 62
     7
100
AcDbVertex
100
AcDb2dVertex
 10
162.743597
 20
-32.880158
 30
0.0
  0
VERTEX
  5
20A
100
AcDbEntity
  8
0
390
0
 62
     7
100
AcDbVertex
100
AcDb2dVertex
 10
162.747949
 20
-32.838363
 30
0.0
  0
VERTEX
  5
20B
100
AcDbEntity
  8
0
390
0
 62
     7
100
AcDbVertex
100
AcDb2dVertex
 10
162.750515
 20
-32.796425
 30
0.0
  0
VERTEX
  5
20C
100
AcDbEntity
  8
0
390
0
 62
     7
100
AcDbVertex
100
AcDb2dVertex
 10
162.751291
 20
-32.754461
 30
0.0
  0
SEQEND
  5
20D
100
AcDbEntity
  8
0
390
0
  0
POLYLINE
  5
20E
100
AcDbEntity
  8
0
390
0
  6
Continuous
 62
     7
100
AcDb2dPolyline
 66
     1
 10
0.0
 20
0.0
 30
0.0
 40
0.1
 41
0.1
  0
VERTEX
  5
20F
100
AcDbEntity
  8
0
390
0
 62
     7
100
AcDbVertex
100
AcDb2dVertex
 10
162.751291
 20
32.754461
 30
0.0
  0
VERTEX
  5
210
100
AcDbEntity
  8
0
390
0
 62
     7
100
AcDbVertex
100
AcDb2dVertex
 10
162.750381
 20
32.799575
 30
0.0
  0
VERTEX
  5
211
100
AcDbEntity
  8
0
390
0
 62
     7
100
AcDbVertex
100
AcDb2dVertex
 10
162.747393
 20
32.844678
 30
0.0
  0
VERTEX
  5
212
100
AcDbEntity
  8
0
390
0
 62
     7
100
AcDbVertex
100
AcDb2dVertex
 10
162.742344
 20
32.889626
 30
0.0
  0
VERTEX
  5
213
100
AcDbEntity
  8
0
390
0
 62
     7
100
AcDbVertex
100
AcDb2dVertex
 10
162.735246
 20
32.934279
 30
0.0
  0
VERTEX
  5
214
100
AcDbEntity
  8
0
390
0
 62
     7
100
AcDbVertex
100
AcDb2dVertex
 10
162.726119
 20
32.978494
 30
0.0
  0
VERTEX
  5
215
100
AcDbEntity
  8
0
390
0
 62
     7
100
AcDbVertex
100
AcDb2dVertex
 10
162.716143
 20
33.01797
 30
0.0
  0
VERTEX
  5
216
100
AcDbEntity
  8
0
390
0
 62
     7
100
AcDbVertex
100
AcDb2dVertex
 10
162.704531
 20
33.057037
 30
0.0
  0
VERTEX
  5
217
100
AcDbEntity
  8
0
390
0
 62
     7
100
AcDbVertex
100
AcDb2dVertex
 10
162.691313
 20
33.095595
 30
0.0
  0
VERTEX
  5
218
100
AcDbEntity
  8
0
390
0
 62
     7
100
AcDbVertex
100
AcDb2dVertex
 10
162.676522
 20
33.133544
 30
0.0
  0
VERTEX
  5
219
100
AcDbEntity
  8
0
390
0
 62
     7
100
AcDbVertex
100
AcDb2dVertex
 10
162.659667
 20
33.171919
 30
0.0
  0
VERTEX
  5
21A
100
AcDbEntity
  8
0
390
0
 62
     7
100
AcDbVertex
100
AcDb2dVertex
 10
162.641176
 20
33.209578
 30
0.0
  0
VERTEX
  5
21B
100
AcDbEntity
  8
0
390
0
 62
     7
100
AcDbVertex
100
AcDb2dVertex
 10
162.621097
 20
33.246419
 30
0.0
  0
VERTEX
  5
21C
100
AcDbEntity
  8
0
390
0
 62
     7
100
AcDbVertex
100
AcDb2dVertex
 10
162.599485
 20
33.282341
 30
0.0
  0
VERTEX
  5
21D
100
AcDbEntity
  8
0
390
0
 62
     7
100
AcDbVertex
100
AcDb2dVertex
 10
162.577013
 20
33.316359
 30
0.0
  0
VERTEX
  5
21E
100
AcDbEntity
  8
0
390
0
 62
     7
100
AcDbVertex
100
AcDb2dVertex
 10
162.553126
 20
33.349445
 30
0.0
  0
VERTEX
  5
21F
100
AcDbEntity
  8
0
390
0
 62
     7
100
AcDbVertex
100
AcDb2dVertex
 10
162.527892
 20
33.381517
 30
0.0
  0
VERTEX
  5
220
100
AcDbEntity
  8
0
390
0
 62
     7
100
AcDbVertex
100
AcDb2dVertex
 10
162.501372
 20
33.412489
 30
0.0
  0
VERTEX
  5
221
100
AcDbEntity
  8
0
390
0
 62
     7
100
AcDbVertex
100
AcDb2dVertex
 10
162.472758
 20
33.443182
 30
0.0
  0
VERTEX
  5
222
100
AcDbEntity
  8
0
390
0
 62
     7
100
AcDbVertex
100
AcDb2dVertex
 10
162.442834
 20
33.472653
 30
0.0
  0
VERTEX
  5
223
100
AcDbEntity
  8
0
390
0
 62
     7
100
AcDbVertex
100
AcDb2dVertex
 10
162.411683
 20
33.500824
 30
0.0
  0
VERTEX
  5
224
100
AcDbEntity
  8
0
390
0
 62
     7
100
AcDbVertex
100
AcDb2dVertex
 10
162.379387
 20
33.527615
 30
0.0
  0
VERTEX
  5
225
100
AcDbEntity
  8
0
390
0
 62
     7
100
AcDbVertex
100
AcDb2dVertex
 10
162.346879
 20
33.552341
 30
0.0
  0
VERTEX
  5
226
100
AcDbEntity
  8
0
390
0
 62
     7
100
AcDbVertex
100
AcDb2dVertex
 10
162.313344
 20
33.575716
 30
0.0
  0
VERTEX
  5
227
100
AcDbEntity
  8
0
390
0
 62
     7
100
AcDbVertex
100
AcDb2dVertex
 10
162.27887
 20
33.597681
 30
0.0
  0
VERTEX
  5
228
100
AcDbEntity
  8
0
390
0
 62
     7
100
AcDbVertex
100
AcDb2dVertex
 10
162.243547
 20
33.618176
 30
0.0
  0
VERTEX
  5
229
100
AcDbEntity
  8
0
390
0
 62
     7
100
AcDbVertex
100
AcDb2dVertex
 10
162.206338
 20
33.637712
 30
0.0
  0
VERTEX
  5
22A
100
AcDbEntity
  8
0
390
0
 62
     7
100
AcDbVertex
100
AcDb2dVertex
 10
162.168294
 20
33.655655
 30
0.0
  0
VERTEX
  5
22B
100
AcDbEntity
  8
0
390
0
 62
     7
100
AcDbVertex
100
AcDb2dVertex
 10
162.129525
 20
33.671959
 30
0.0
  0
VERTEX
  5
22C
100
AcDbEntity
  8
0
390
0
 62
     7
100
AcDbVertex
100
AcDb2dVertex
 10
162.090135
 20
33.686578
 30
0.0
  0
VERTEX
  5
22D
100
AcDbEntity
  8
0
390
0
 62
     7
100
AcDbVertex
100
AcDb2dVertex
 10
162.051298
 20
33.69915
 30
0.0
  0
VERTEX
  5
22E
100
AcDbEntity
  8
0
390
0
 62
     7
100
AcDbVertex
100
AcDb2dVertex
 10
162.011942
 20
33.710109
 30
0.0
  0
VERTEX
  5
22F
100
AcDbEntity
  8
0
390
0
 62
     7
100
AcDbVertex
100
AcDb2dVertex
 10
161.972171
 20
33.719428
 30
0.0
  0
VERTEX
  5
230
100
AcDbEntity
  8
0
390
0
 62
     7
100
AcDbVertex
100
AcDb2dVertex
 10
161.932087
 20
33.727082
 30
0.0
  0
VERTEX
  5
231
100
AcDbEntity
  8
0
390
0
 62
     7
100
AcDbVertex
100
AcDb2dVertex
 10
161.890548
 20
33.733208
 30
0.0
  0
VERTEX
  5
232
100
AcDbEntity
  8
0
390
0
 62
     7
100
AcDbVertex
100
AcDb2dVertex
 10
161.848753
 20
33.737559
 30
0.0
  0
VERTEX
  5
233
100
AcDbEntity
  8
0
390
0
 62
     7
100
AcDbVertex
100
AcDb2dVertex
 10
161.806816
 20
33.740126
 30
0.0
  0
VERTEX
  5
234
100
AcDbEntity
  8
0
390
0
 62
     7
100
AcDbVertex
100
AcDb2dVertex
 10
161.76485
 20
33.740901
 30
0.0
  0
SEQEND
  5
235
100
AcDbEntity
  8
0
390
0
  0
LINE
  5
236
100
AcDbEntity
  8
0
390
0
  6
Continuous
 62
     7
100
AcDbLine
 10
-174.00383
 20
-40.5
 30
0.0
 11
-174.00383
 21
40.5
 31
0.0
  0
ELLIPSE
  5
237
100
AcDbEntity
  8
0
390
0
  6
Continuous
 62
     7
100
AcDbEllipse
 10
-172.00383
 20
40.5
 30
0.0
 11
2.0000000000000018
 21
0.0
 31
0.0
210
0.0
220
0.0
230
1.0
 40
0.068763
 41
1.6436744405054877
 42
3.1415926535897931
  0
LINE
  5
238
100
AcDbEntity
  8
0
390
0
  6
Continuous
 62
     7
100
AcDbLine
 10
-172.149457
 20
40.637161
 30
0.0
 11
-172.149457
 21
-40.63716
 31
0.0
  0
ELLIPSE
  5
239
100
AcDbEntity
  8
0
390
0
  6
Continuous
 62
     7
100
AcDbEllipse
 10
-172.00383
 20
-40.5
 30
0.0
 11
-2.0000000000000018
 21
0.0
 31
0.0
210
0.0
220
0.0
230
1.0
 40
0.068763
 41
6.2831853071793917
 42
7.7811035202639225
  0
LINE
  5
23A
100
AcDbEntity
  8
0
390
0
  6
Continuous
 62
     7
100
AcDbLine
 10
-88.36667
 20
43.145627
 30
0.0
 11
-169.640991
 21
43.145627
 31
0.0
  0
ARC
  5
23B
100
AcDbEntity
  8
0
390
0
  6
Continuous
 62
     7
100
AcDbCircle
 10
-88.366258
 20
40.637572
 30
0.0
 40
2.508055
210
0.0
220
0.0
230
1.0
100
AcDbArc
 50
359.990601
 51
90.009399
  0
LINE
  5
23C
100
AcDbEntity
  8
0
390
0
  6
Continuous
 62
     7
100
AcDbLine
 10
-85.858203
 20
-40.63716
 30
0.0
 11
-85.858203
 21
40.637161
 31
0.0
  0
ARC
  5
23D
100
AcDbEntity
  8
0
390
0
  6
Continuous
 62
     7
100
AcDbCircle
 10
-88.366258
 20
-40.637572
 30
0.0
 40
2.508055
210
0.0
220
0.0
230
1.0
100
AcDbArc
 50
269.990601
 51
0.009399
  0
LINE
  5
23E
100
AcDbEntity
  8
0
390
0
  6
Continuous
 62
     7
100
AcDbLine
 10
-169.640991
 20
-43.145627
 30
0.0
 11
-88.36667
 21
-43.145627
 31
0.0
  0
ARC
  5
23F
100
AcDbEntity
  8
0
390
0
  6
Continuous
 62
     7
100
AcDbCircle
 10
-169.641402
 20
-40.637572
 30
0.0
 40
2.508055
210
0.0
220
0.0
230
1.0
100
AcDbArc
 50
179.990601
 51
270.009399
  0
ARC
  5
240
100
AcDbEntity
  8
0
390
0
  6
Continuous
 62
     7
100
AcDbCircle
 10
-169.641402
 20
40.637572
 30
0.0
 40
2.508055
210
0.0
220
0.0
230
1.0
100
AcDbArc
 50
89.990601
 51
180.009399
  0
LINE
  5
241
100
AcDbEntity
  8
0
390
0
  6
Continuous
 62
     7
100
AcDbLine
 10
-84.00383
 20
40.5
 30
0.0
 11
-84.00383
 21
-40.5
 31
0.0
  0
ELLIPSE
  5
242
100
AcDbEntity
  8
0
390
0
  6
Continuous
 62
     7
100
AcDbEllipse
 10
-86.00383
 20
-40.5
 30
0.0
 11
2.0000000000000018
 21
0.0
 31
0.0
210
0.0
220
0.0
230
1.0
 40
0.068763
 41
4.7852670940952509
 42
6.2831853071795587
  0
ELLIPSE
  5
243
100
AcDbEntity
  8
0
390
0
  6
Continuous
 62
     7
100
AcDbEllipse
 10
-86.00383
 20
40.5
 30
0.0
 11
-2.0000000000000018
 21
0.0000000000000555
 31
0.0
210
0.0
220
0.0
230
1.0
 40
0.068763
 41
3.1415926535900156
 42
4.6395108666741285
  0
LINE
  5
244
100
AcDbEntity
  8
0
390
0
  6
Continuous
 62
     7
100
AcDbLine
 10
-88.50383
 20
-45.0
 30
0.0
 11
-169.50383
 21
-45.0
 31
0.0
  0
ELLIPSE
  5
245
100
AcDbEntity
  8
0
390
0
  6
Continuous
 62
     7
100
AcDbEllipse
 10
-169.50383
 20
-43.0
 30
0.0
 11
0.0
 21
-2.0000000000000018
 31
0.0
210
0.0
220
0.0
230
1.0
 40
0.068763
 41
4.785267094095266
 42
6.2831853071795587
  0
ELLIPSE
  5
246
100
AcDbEntity
  8
0
390
0
  6
Continuous
 62
     7
100
AcDbEllipse
 10
-88.50383
 20
-43.0
 30
0.0
 11
-0.0000000000000278
 21
-2.0000000000000018
 31
0.0
210
0.0
220
0.0
230
1.0
 40
0.068763
 41
6.28318530717931
 42
7.7811035202639198
  0
ELLIPSE
  5
247
100
AcDbEntity
  8
0
390
0
  6
Continuous
 62
     7
100
AcDbEllipse
 10
-169.50383
 20
43.0
 30
0.0
 11
0.0
 21
-2.0000000000000018
 31
0.0
210
0.0
220
0.0
230
1.0
 40
0.068763
 41
3.1415926535895986
 42
4.639510866674101
  0
LINE
  5
248
100
AcDbEntity
  8
0
390
0
  6
Continuous
 62
     7
100
AcDbLine
 10
-169.50383
 20
45.0
 30
0.0
 11
-88.50383
 21
45.0
 31
0.0
  0
ELLIPSE
  5
249
100
AcDbEntity
  8
0
390
0
  6
Continuous
 62
     7
100
AcDbEllipse
 10
-88.50383
 20
43.0
 30
0.0
 11
0.0
 21
-2.0000000000000018
 31
0.0
210
0.0
220
0.0
230
1.0
 40
0.068763
 41
1.6436744405054573
 42
3.1415926535897931
  0
POLYLINE
  5
24A
100
AcDbEntity
  8
0
390
0
  6
Continuous
 62
     7
100
AcDb2dPolyline
 66
     1
 10
0.0
 20
0.0
 30
0.0
 70
     1
 40
0.1
 41
0.1
  0
VERTEX
  5
24B
100
AcDbEntity
  8
0
390
0
 62
     7
100
AcDbVertex
100
AcDb2dVertex
 10
-114.019647
 20
-17.934318
 30
0.0
 42
0.503108
  0
VERTEX
  5
24C
100
AcDbEntity
  8
0
390
0
 62
     7
100
AcDbVertex
100
AcDb2dVertex
 10
-111.196275
 20
-19.612649
 30
0.0
 42
0.239102
  0
VERTEX
  5
24D
100
AcDbEntity
  8
0
390
0
 62
     7
100
AcDbVertex
100
AcDb2dVertex
 10
-109.719663
 20
-16.742014
 30
0.0
 42
0.204945
  0
VERTEX
  5
24E
100
AcDbEntity
  8
0
390
0
 62
     7
100
AcDbVertex
100
AcDb2dVertex
 10
-110.703588
 20
-10.394861
 30
0.0
 42
0.622386
  0
VERTEX
  5
24F
100
AcDbEntity
  8
0
390
0
 62
     7
100
AcDbVertex
100
AcDb2dVertex
 10
-113.926079
 20
-11.316334
 30
0.0
 42
0.164295
  0
SEQEND
  5
250
100
AcDbEntity
  8
0
390
0
  0
POLYLINE
  5
251
100
AcDbEntity
  8
0
390
0
  6
Continuous
 62
     7
100
AcDb2dPolyline
 66
     1
 10
0.0
 20
0.0
 30
0.0
 70
     1
 40
0.1
 41
0.1
  0
VERTEX
  5
252
100
AcDbEntity
  8
0
390
0
 62
     7
100
AcDbVertex
100
AcDb2dVertex
 10
-115.251981
 20
-20.25637
 30
0.0
 42
-0.309219
  0
VERTEX
  5
253
100
AcDbEntity
  8
0
390
0
 62
     7
100
AcDbVertex
100
AcDb2dVertex
 10
-114.625522
 20
-8.750779
 30
0.0
 42
-0.573309
  0
VERTEX
  5
254
100
AcDbEntity
  8
0
390
0
 62
     7
100
AcDbVertex
100
AcDb2dVertex
 10
-108.166388
 20
-10.515489
 30
0.0
 42
-0.279188
  0
VERTEX
  5
255
100
AcDbEntity
  8
0
390
0
 62
     7
100
AcDbVertex
100
AcDb2dVertex
 10
-109.51284
 20
-20.961773
 30
0.0
 42
-0.457862
  0
SEQEND
  5
256
100
AcDbEntity
  8
0
390
0
  0
POLYLINE
  5
257
100
AcDbEntity
  8
0
390
0
  6
Continuous
 62
     7
100
AcDb2dPolyline
 66
     1
 10
0.0
 20
0.0
 30
0.0
 40
0.1
 41
0.1
  0
VERTEX
  5
258
100
AcDbEntity
  8
0
390
0
 62
     7
100
AcDbVertex
100
AcDb2dVertex
 10
-125.812064
 20
-21.066969
 30
0.0
 42
0.585368
  0
VERTEX
  5
259
100
AcDbEntity
  8
0
390
0
 62
     7
100
AcDbVertex
100
AcDb2dVertex
 10
-119.28514
 20
-18.521879
 30
0.0
 42
0.144282
  0
VERTEX
  5
25A
100
AcDbEntity
  8
0
390
0
 62
     7
100
AcDbVertex
100
AcDb2dVertex
 10
-119.593591
 20
-9.810283
 30
0.0
 42
0.778776
  0
VERTEX
  5
25B
100
AcDbEntity
  8
0
390
0
 62
     7
100
AcDbVertex
100
AcDb2dVertex
 10
-127.502377
 20
-12.00883
 30
0.0
 42
0.334783
  0
VERTEX
  5
25C
100
AcDbEntity
  8
0
390
0
 62
     7
100
AcDbVertex
100
AcDb2dVertex
 10
-125.267178
 20
-17.148378
 30
0.0
 42
0.333199
  0
VERTEX
  5
25D
100
AcDbEntity
  8
0
390
0
 62
     7
100
AcDbVertex
100
AcDb2dVertex
 10
-121.110556
 20
-16.297954
 30
0.0
  0
SEQEND
  5
25E
100
AcDbEntity
  8
0
390
0
  0
ARC
  5
25F
100
AcDbEntity
  8
0
390
0
  6
Continuous
 62
     7
100
AcDbCircle
 10
-123.120059
 20
-17.908994
 30
0.0
 40
4.149662
210
0.0
220
0.0
230
1.0
100
AcDbArc
 50
186.009128
 51
229.554183
  0
LINE
  5
260
100
AcDbEntity
  8
0
390
0
  6
Continuous
 62
     7
100
AcDbLine
 10
-125.065102
 20
-18.343409
 30
0.0
 11
-127.24692
 21
-18.343409
 31
0.0
  0
POLYLINE
  5
261
100
AcDbEntity
  8
0
390
0
  6
Continuous
 62
     7
100
AcDb2dPolyline
 66
     1
 10
0.0
 20
0.0
 30
0.0
 40
0.1
 41
0.1
  0
VERTEX
  5
262
100
AcDbEntity
  8
0
390
0
 62
     7
100
AcDbVertex
100
AcDb2dVertex
 10
-121.110556
 20
-16.297954
 30
0.0
 42
-0.241143
  0
VERTEX
  5
263
100
AcDbEntity
  8
0
390
0
 62
     7
100
AcDbVertex
100
AcDb2dVertex
 10
-122.61643
 20
-19.776645
 30
0.0
 42
-0.518622
  0
VERTEX
  5
264
100
AcDbEntity
  8
0
390
0
 62
     7
100
AcDbVertex
100
AcDb2dVertex
 10
-125.065101
 20
-18.343409
 30
0.0
  0
SEQEND
  5
265
100
AcDbEntity
  8
0
390
0
  0
POLYLINE
  5
266
100
AcDbEntity
  8
0
390
0
  6
Continuous
 62
     7
100
AcDb2dPolyline
 66
     1
 10
0.0
 20
0.0
 30
0.0
 70
     1
 40
0.1
 41
0.1
  0
VERTEX
  5
267
100
AcDbEntity
  8
0
390
0
 62
     7
100
AcDbVertex
100
AcDb2dVertex
 10
-124.904223
 20
-14.373542
 30
0.0
 42
0.757926
  0
VERTEX
  5
268
100
AcDbEntity
  8
0
390
0
 62
     7
100
AcDbVertex
100
AcDb2dVertex
 10
-121.148848
 20
-13.108123
 30
0.0
 42
0.482092
  0
VERTEX
  5
269
100
AcDbEntity
  8
0
390
0
 62
     7
100
AcDbVertex
100
AcDb2dVertex
 10
-123.225206
 20
-9.887268
 30
0.0
 42
0.512648
  0
VERTEX
  5
26A
100
AcDbEntity
  8
0
390
0
 62
     7
100
AcDbVertex
100
AcDb2dVertex
 10
-125.337641
 20
-13.218752
 30
0.0
 42
0.095843
  0
SEQEND
  5
26B
100
AcDbEntity
  8
0
390
0
  0
LINE
  5
26C
100
AcDbEntity
  8
0
390
0
  6
Continuous
 62
     7
100
AcDbLine
 10
-127.870848
 20
7.49375
 30
0.0
 11
-133.930485
 21
22.490271
 31
0.0
  0
LINE
  5
26D
100
AcDbEntity
  8
0
390
0
  6
Continuous
 62
     7
100
AcDbLine
 10
-131.746051
 20
7.49375
 30
0.0
 11
-127.870848
 21
7.49375
 31
0.0
  0
LINE
  5
26E
100
AcDbEntity
  8
0
390
0
  6
Continuous
 62
     7
100
AcDbLine
 10
-137.805686
 20
22.490271
 30
0.0
 11
-131.746051
 21
7.49375
 31
0.0
  0
LINE
  5
26F
100
AcDbEntity
  8
0
390
0
  6
Continuous
 62
     7
100
AcDbLine
 10
-133.930485
 20
22.490271
 30
0.0
 11
-137.805686
 21
22.490271
 31
0.0
  0
LINE
  5
270
100
AcDbEntity
  8
0
390
0
  6
Continuous
 62
     7
100
AcDbLine
 10
-134.534498
 20
7.49375
 30
0.0
 11
-140.594135
 21
22.490271
 31
0.0
  0
LINE
  5
271
100
AcDbEntity
  8
0
390
0
  6
Continuous
 62
     7
100
AcDbLine
 10
-138.409425
 20
7.49375
 30
0.0
 11
-134.534498
 21
7.49375
 31
0.0
  0
LINE
  5
272
100
AcDbEntity
  8
0
390
0
  6
Continuous
 62
     7
100
AcDbLine
 10
-140.594135
 20
22.490271
 30
0.0
 11
-144.468209
 21
22.490271
 31
0.0
  0
LINE
  5
273
100
AcDbEntity
  8
0
390
0
  6
Continuous
 62
     7
100
AcDbLine
 10
-144.468209
 20
22.490271
 30
0.0
 11
-138.409425
 21
7.49375
 31
0.0
  0
LINE
  5
274
100
AcDbEntity
  8
0
390
0
  6
Continuous
 62
     7
100
AcDbLine
 10
-118.19765
 20
7.49375
 30
0.0
 11
-112.934715
 21
7.49375
 31
0.0
  0
LINE
  5
275
100
AcDbEntity
  8
0
390
0
  6
Continuous
 62
     7
100
AcDbLine
 10
-117.31656
 20
9.674528
 30
0.0
 11
-118.19765
 21
7.49375
 31
0.0
  0
LINE
  5
276
100
AcDbEntity
  8
0
390
0
  6
Continuous
 62
     7
100
AcDbLine
 10
-115.186417
 20
9.674528
 30
0.0
 11
-117.31656
 21
9.674528
 31
0.0
  0
ARC
  5
277
100
AcDbEntity
  8
0
390
0
  6
Continuous
 62
     7
100
AcDbCircle
 10
-115.186465
 20
13.009576
 30
0.0
 40
3.335048
210
0.0
220
0.0
230
1.0
100
AcDbArc
 50
270.000826
 51
359.999174
  0
LINE
  5
278
100
AcDbEntity
  8
0
390
0
  6
Continuous
 62
     7
100
AcDbLine
 10
-111.851417
 20
22.490271
 30
0.0
 11
-111.851417
 21
13.009528
 31
0.0
  0
LINE
  5
279
100
AcDbEntity
  8
0
390
0
  6
Continuous
 62
     7
100
AcDbLine
 10
-107.932215
 20
22.490271
 30
0.0
 11
-111.851417
 21
22.490271
 31
0.0
  0
LINE
  5
27A
100
AcDbEntity
  8
0
390
0
  6
Continuous
 62
     7
100
AcDbLine
 10
-107.932215
 20
12.49625
 30
0.0
 11
-107.932215
 21
22.490271
 31
0.0
  0
ARC
  5
27B
100
AcDbEntity
  8
0
390
0
  6
Continuous
 62
     7
100
AcDbCircle
 10
-112.934787
 20
12.496322
 30
0.0
 40
5.002572
210
0.0
220
0.0
230
1.0
100
AcDbArc
 50
270.000826
 51
359.999174
  0
LINE
  5
27C
100
AcDbEntity
  8
0
390
0
  6
Continuous
 62
     7
100
AcDbLine
 10
-126.232297
 20
19.930691
 30
0.0
 11
-128.169924
 21
15.134057
 31
0.0
  0
LINE
  5
27D
100
AcDbEntity
  8
0
390
0
  6
Continuous
 62
     7
100
AcDbLine
 10
-123.034676
 20
12.016666
 30
0.0
 11
-126.232297
 21
19.930691
 31
0.0
  0
LINE
  5
27E
100
AcDbEntity
  8
0
390
0
  6
Continuous
 62
     7
100
AcDbLine
 10
-118.802568
 20
22.490271
 30
0.0
 11
-123.034676
 21
12.016666
 31
0.0
  0
LINE
  5
27F
100
AcDbEntity
  8
0
390
0
  6
Continuous
 62
     7
100
AcDbLine
 10
-114.927314
 20
22.490271
 30
0.0
 11
-118.802568
 21
22.490271
 31
0.0
  0
LINE
  5
280
100
AcDbEntity
  8
0
390
0
  6
Continuous
 62
     7
100
AcDbLine
 10
-120.985999
 20
7.49375
 30
0.0
 11
-114.927314
 21
22.490271
 31
0.0
  0
LINE
  5
281
100
AcDbEntity
  8
0
390
0
  6
Continuous
 62
     7
100
AcDbLine
 10
-125.082501
 20
7.49375
 30
0.0
 11
-120.985999
 21
7.49375
 31
0.0
  0
LINE
  5
282
100
AcDbEntity
  8
0
390
0
  6
Continuous
 62
     7
100
AcDbLine
 10
-128.169924
 20
15.134057
 30
0.0
 11
-125.0825
 21
7.49375
 31
0.0
  0
LINE
  5
283
100
AcDbEntity
  8
0
390
0
  6
Continuous
 62
     7
100
AcDbLine
 10
-150.565102
 20
-22.434318
 30
0.0
 11
-135.633284
 21
-22.434318
 31
0.0
  0
LINE
  5
284
100
AcDbEntity
  8
0
390
0
  6
Continuous
 62
     7
100
AcDbLine
 10
-150.565102
 20
-7.570682
 30
0.0
 11
-150.565102
 21
-22.434318
 31
0.0
  0
LINE
  5
285
100
AcDbEntity
  8
0
390
0
  6
Continuous
 62
     7
100
AcDbLine
 10
-135.633284
 20
-22.434318
 30
0.0
 11
-135.633284
 21
-7.570682
 31
0.0
  0
LINE
  5
286
100
AcDbEntity
  8
0
390
0
  6
Continuous
 62
     7
100
AcDbLine
 10
-148.519647
 20
-20.388863
 30
0.0
 11
-148.519647
 21
-9.547954
 31
0.0
  0
LINE
  5
287
100
AcDbEntity
  8
0
390
0
  6
Continuous
 62
     7
100
AcDbLine
 10
-137.678738
 20
-20.388863
 30
0.0
 11
-148.519647
 21
-20.388863
 31
0.0
  0
LINE
  5
288
100
AcDbEntity
  8
0
390
0
  6
Continuous
 62
     7
100
AcDbLine
 10
-137.678738
 20
-9.547954
 30
0.0
 11
-137.678738
 21
-20.388863
 31
0.0
  0
LINE
  5
289
100
AcDbEntity
  8
0
390
0
  6
Continuous
 62
     7
100
AcDbLine
 10
-148.519647
 20
-9.547954
 30
0.0
 11
-137.678738
 21
-9.547954
 31
0.0
  0
LINE
  5
28A
100
AcDbEntity
  8
0
390
0
  6
Continuous
 62
     7
100
AcDbLine
 10
-135.633284
 20
-7.570682
 30
0.0
 11
-150.565102
 21
-7.570682
 31
0.0
  0
LINE
  5
28B
100
AcDbEntity
  8
0
390
0
  6
Continuous
 62
     7
100
AcDbLine
 10
-146.321645
 20
7.49375
 30
0.0
 11
-144.921232
 21
10.957374
 31
0.0
  0
LINE
  5
28C
100
AcDbEntity
  8
0
390
0
  6
Continuous
 62
     7
100
AcDbLine
 10
-150.19572
 20
7.49375
 30
0.0
 11
-146.321645
 21
7.49375
 31
0.0
  0
LINE
  5
28D
100
AcDbEntity
  8
0
390
0
  6
Continuous
 62
     7
100
AcDbLine
 10
-145.653436
 20
18.737746
 30
0.0
 11
-150.19572
 21
7.49375
 31
0.0
  0
LINE
  5
28E
100
AcDbEntity
  8
0
390
0
  6
Continuous
 62
     7
100
AcDbLine
 10
-142.511415
 20
10.957374
 30
0.0
 11
-145.653436
 21
18.737746
 31
0.0
  0
LINE
  5
28F
100
AcDbEntity
  8
0
390
0
  6
Continuous
 62
     7
100
AcDbLine
 10
-144.921232
 20
10.957374
 30
0.0
 11
-142.511415
 21
10.957374
 31
0.0
  0
ARC
  5
290
100
AcDbEntity
  8
0
390
0
  6
Continuous
 62
     7
100
AcDbCircle
 10
-169.503826
 20
40.499996
 30
0.0
 40
4.500004
210
0.0
220
0.0
230
1.0
100
AcDbArc
 50
90.000057
 51
179.999943
  0
ARC
  5
291
100
AcDbEntity
  8
0
390
0
  6
Continuous
 62
     7
100
AcDbCircle
 10
-88.50383
 20
-40.5
 30
0.0
 40
4.5
210
0.0
220
0.0
230
1.0
100
AcDbArc
 50
270.0
 51
360.0
  0
ARC
  5
292
100
AcDbEntity
  8
0
390
0
  6
Continuous
 62
     7
100
AcDbCircle
 10
-169.503826
 20
-40.499995
 30
0.0
 40
4.500004
210
0.0
220
0.0
230
1.0
100
AcDbArc
 50
180.000057
 51
269.999943
  0
ARC
  5
293
100
AcDbEntity
  8
0
390
0
  6
Continuous
 62
     7
100
AcDbCircle
 10
-88.503834
 20
40.499996
 30
0.0
 40
4.500004
210
0.0
220
0.0
230
1.0
100
AcDbArc
 50
0.000057
 51
89.999943
  0
POINT
  5
294
100
AcDbEntity
  8
0
390
0
 62
     7
100
AcDbPoint
 10
0.0
 20
0.0
 30
0.0
  0
POINT
  5
295
100
AcDbEntity
  8
0
390
0
 62
     7
100
AcDbPoint
 10
0.0
 20
0.0
 30
0.0
  0
ENDSEC
  0
SECTION
  2
OBJECTS
  0
DICTIONARY
  5
19
100
AcDbDictionary
280
     0
281
     1
  3
ACAD_GROUP
350
1A
  3
ACAD_MLINESTYLE
350
1B
  3
ACAD_LAYOUT
350
1E
  3
ACAD_PLOTSETTINGS
350
22
  3
ACAD_PLOTSTYLENAME
350
1F
  3
ACAD_WIPEOUT_VARS
350
23
  0
DICTIONARY
  5
1A
102
{ACAD_REACTORS
330
19
102
}
100
AcDbDictionary
280
     0
281
     1
  0
DICTIONARY
  5
1B
102
{ACAD_REACTORS
330
19
102
}
100
AcDbDictionary
280
     0
281
     1
  3
Standard
350
1C
  0
MLINESTYLE
  5
1C
102
{ACAD_REACTORS
330
1B
102
}
100
AcDbMlineStyle
  2
Standard
 70
     0
  3

 62
     0
 51
90.0
 52
90.0
 71
     2
 49
0.5
 62
   256
  6
ByLayer
 49
-0.5
 62
   256
  6
ByLayer
  0
ACDBDICTIONARYWDFLT
  5
1F
102
{ACAD_REACTORS
330
19
102
}
100
AcDbDictionary
281
     1
  3
Normal
350
1D
100
AcDbDictionaryWithDefault
340
1D
  0
ACDBPLACEHOLDER
  5
1D
102
{ACAD_REACTORS
330
1F
102
}
  0
LAYOUT
  5
20
102
{ACAD_REACTORS
330
1E
102
}
100
AcDbPlotSettings
  1

  2

  4

  6

 40
0.0
 41
0.0
 42
0.0
 43
0.0
 44
0.0
 45
0.0
 46
0.0
 47
0.0
 48
0.0
 49
0.0
140
0.0
141
0.0
142
1.0
143
1.0
 70
  1024
 72
     0
 73
     0
 74
     0
  7

 75
     0
147
1.0
148
0.0
149
0.0
100
AcDbLayout
  1
Model
 70
     0
 71
     1
 10
0.0
 20
0.0
 11
0.0
 21
0.0
 12
0.0
 22
0.0
 32
0.0
 14
0.0
 24
0.0
 34
0.0
 15
0.0
 25
0.0
 35
0.0
146
0.0
 13
0.0
 23
0.0
 33
0.0
 16
0.0
 26
0.0
 36
0.0
 17
0.0
 27
0.0
 37
0.0
 76
     0
330
A
331
0
345
0
346
0
  0
LAYOUT
  5
21
102
{ACAD_REACTORS
330
1E
102
}
100
AcDbPlotSettings
  1

  2

  4

  6

 40
0.0
 41
0.0
 42
0.0
 43
0.0
 44
0.0
 45
0.0
 46
0.0
 47
0.0
 48
0.0
 49
0.0
140
0.0
141
0.0
142
1.0
143
1.0
 70
     0
 72
     0
 73
     0
 74
     0
  7

 75
     0
147
1.0
148
0.0
149
0.0
100
AcDbLayout
  1
Layout1
 70
     0
 71
     2
 10
0.0
 20
0.0
 11
0.0
 21
0.0
 12
0.0
 22
0.0
 32
0.0
 14
0.0
 24
0.0
 34
0.0
 15
0.0
 25
0.0
 35
0.0
146
0.0
 13
0.0
 23
0.0
 33
0.0
 16
0.0
 26
0.0
 36
0.0
 17
0.0
 27
0.0
 37
0.0
 76
     0
330
B
331
0
345
0
346
0
  0
DICTIONARY
  5
1E
102
{ACAD_REACTORS
330
19
102
}
100
AcDbDictionary
280
     0
281
     1
  3
Layout1
350
21
  3
Model
350
20
  0
DICTIONARY
  5
22
102
{ACAD_REACTORS
330
19
102
}
100
AcDbDictionary
280
     0
281
     1
  0
WIPEOUTVARIABLES
  5
23
100
AcDbWipeoutVariables
 70
     1
  0
ENDSEC
  0
EOF
