  0
SECTION
  2
HEADER
  9
$ACADVER
  1
AC1015
  9
$ACADMAINTVER
 70
     6
  9
$DWGCODEPAGE
  3
DOS932
  9
$INSBASE
 10
0.0
 20
0.0
 30
0.0
  9
$EXTMIN
 10
-108.501824
 20
-22.475975
 30
0.0
  9
$EXTMAX
 10
313.119031
 20
266.975688
 30
9.906
  9
$LIMMIN
 10
-108.501824
 20
-22.475975
  9
$LIMMAX
 10
313.119031
 20
266.975688
  9
$ORTHOMODE
 70
     0
  9
$REGENMODE
 70
     1
  9
$FILLMODE
 70
     1
  9
$QTEXTMODE
 70
     0
  9
$MIRRTEXT
 70
     1
  9
$LTSCALE
 40
10.0
  9
$ATTMODE
 70
     1
  9
$TEXTSIZE
 40
0.2
  9
$TRACEWID
 40
0.05
  9
$TEXTSTYLE
  7
Standard
  9
$CLAYER
  8
0
  9
$CELTYPE
  6
Continuous
  9
$CECOLOR
 62
   256
  9
$CELTSCALE
 40
1.0
  9
$DISPSILH
 70
     0
  9
$DIMSCALE
 40
1.0
  9
$DIMASZ
 40
1.40208
  9
$DIMEXO
 40
1.40208
  9
$DIMDLI
 40
0.38
  9
$DIMRND
 40
0.0
  9
$DIMDLE
 40
0.0
  9
$DIMEXE
 40
1.05156
  9
$DIMTP
 40
0.0
  9
$DIMTM
 40
0.0
  9
$DIMTXT
 40
3.5052
  9
$DIMCEN
 40
0.09
  9
$DIMTSZ
 40
0.0
  9
$DIMTOL
 70
     0
  9
$DIMLIM
 70
     0
  9
$DIMTIH
 70
     0
  9
$DIMTOH
 70
     0
  9
$DIMSE1
 70
     0
  9
$DIMSE2
 70
     0
  9
$DIMTAD
 70
     1
  9
$DIMZIN
 70
     0
  9
$DIMBLK
  1

  9
$DIMASO
 70
     1
  9
$DIMSHO
 70
     1
  9
$DIMPOST
  1

  9
$DIMAPOST
  1

  9
$DIMALT
 70
     0
  9
$DIMALTD
 70
     2
  9
$DIMALTF
 40
25.4
  9
$DIMLFAC
 40
1.0
  9
$DIMTOFL
 70
     0
  9
$DIMTVP
 40
0.0
  9
$DIMTIX
 70
     0
  9
$DIMSOXD
 70
     0
  9
$DIMSAH
 70
     0
  9
$DIMBLK1
  1

  9
$DIMBLK2
  1

  9
$DIMSTYLE
  2
Standard
  9
$DIMCLRD
 70
     7
  9
$DIMCLRE
 70
     7
  9
$DIMCLRT
 70
     7
  9
$DIMTFAC
 40
0.5
  9
$DIMGAP
 40
1.7526
  9
$DIMJUST
 70
     0
  9
$DIMSD1
 70
     0
  9
$DIMSD2
 70
     0
  9
$DIMTOLJ
 70
     1
  9
$DIMTZIN
 70
     0
  9
$DIMALTZ
 70
     0
  9
$DIMALTTZ
 70
     0
  9
$DIMUPT
 70
     0
  9
$DIMDEC
 70
     2
  9
$DIMTDEC
 70
     4
  9
$DIMALTU
 70
     2
  9
$DIMALTTD
 70
     2
  9
$DIMTXSTY
  7
Standard
  9
$DIMAUNIT
 70
     0
  9
$DIMADEC
 70
     0
  9
$DIMALTRND
 40
0.0
  9
$DIMAZIN
 70
     0
  9
$DIMDSEP
 70
     0
  9
$DIMATFIT
 70
     3
  9
$DIMFRAC
 70
     0
  9
$DIMLDRBLK
  1

  9
$DIMLUNIT
 70
     2
  9
$DIMLWD
 70
     0
  9
$DIMLWE
 70
     0
  9
$DIMTMOVE
 70
     0
  9
$LUNITS
 70
     2
  9
$LUPREC
 70
     4
  9
$SKETCHINC
 40
0.1
  9
$FILLETRAD
 40
0.0
  9
$AUNITS
 70
     0
  9
$AUPREC
 70
     0
  9
$MENU
  1
acad
  9
$ELEVATION
 40
0.0
  9
$PELEVATION
 40
0.0
  9
$THICKNESS
 40
0.0
  9
$LIMCHECK
 70
     0
  9
$CHAMFERA
 40
0.0
  9
$CHAMFERB
 40
0.0
  9
$CHAMFERC
 40
0.0
  9
$CHAMFERD
 40
0.0
  9
$SKPOLY
 70
     0
  9
$TDCREATE
 40
2459786.621250000
  9
$TDUCREATE
 40
0.000000000
  9
$TDUPDATE
 40
2459786.246168981
  9
$TDUUPDATE
 40
0.000000000
  9
$TDINDWG
 40
0.0000000000
  9
$TDUSRTIMER
 40
0.0000000000
  9
$USRTIMER
 70
     1
  9
$ANGBASE
 50
0.0
  9
$ANGDIR
 70
     0
  9
$PDMODE
 70
     0
  9
$PDSIZE
 40
0.0
  9
$PLINEWID
 40
0.0
  9
$SPLFRAME
 70
     0
  9
$SPLINETYPE
 70
     6
  9
$SPLINESEGS
 70
     8
  9
$HANDSEED
  5
322
  9
$SURFTAB1
 70
     6
  9
$SURFTAB2
 70
     6
  9
$SURFTYPE
 70
     6
  9
$SURFU
 70
     6
  9
$SURFV
 70
     6
  9
$UCSBASE
  2

  9
$UCSNAME
  2

  9
$UCSORG
 10
0.0
 20
0.0
 30
0.0
  9
$UCSXDIR
 10
1.0
 20
0.0
 30
0.0
  9
$UCSYDIR
 10
0.0
 20
1.0
 30
0.0
  9
$UCSORTHOREF
  2

  9
$UCSORTHOVIEW
 70
     0
  9
$UCSORGTOP
 10
0.0
 20
0.0
 30
0.0
  9
$UCSORGBOTTOM
 10
0.0
 20
0.0
 30
0.0
  9
$UCSORGLEFT
 10
0.0
 20
0.0
 30
0.0
  9
$UCSORGRIGHT
 10
0.0
 20
0.0
 30
0.0
  9
$UCSORGFRONT
 10
0.0
 20
0.0
 30
0.0
  9
$UCSORGBACK
 10
0.0
 20
0.0
 30
0.0
  9
$PUCSBASE
  2

  9
$PUCSNAME
  2

  9
$PUCSORG
 10
0.0
 20
0.0
 30
0.0
  9
$PUCSXDIR
 10
1.0
 20
0.0
 30
0.0
  9
$PUCSYDIR
 10
0.0
 20
1.0
 30
0.0
  9
$PUCSORTHOREF
  2

  9
$PUCSORTHOVIEW
 70
     0
  9
$PUCSORGTOP
 10
0.0
 20
0.0
 30
0.0
  9
$PUCSORGBOTTOM
 10
0.0
 20
0.0
 30
0.0
  9
$PUCSORGLEFT
 10
0.0
 20
0.0
 30
0.0
  9
$PUCSORGRIGHT
 10
0.0
 20
0.0
 30
0.0
  9
$PUCSORGFRONT
 10
0.0
 20
0.0
 30
0.0
  9
$PUCSORGBACK
 10
0.0
 20
0.0
 30
0.0
  9
$USERI1
 70
     0
  9
$USERI2
 70
     0
  9
$USERI3
 70
     0
  9
$USERI4
 70
     0
  9
$USERI5
 70
     0
  9
$USERR1
 40
0.0
  9
$USERR2
 40
0.0
  9
$USERR3
 40
0.0
  9
$USERR4
 40
0.0
  9
$USERR5
 40
0.0
  9
$WORLDVIEW
 70
     1
  9
$SHADEDGE
 70
     3
  9
$SHADEDIF
 70
    70
  9
$TILEMODE
 70
     1
  9
$MAXACTVP
 70
    16
  9
$PINSBASE
 10
0.0
 20
0.0
 30
0.0
  9
$PLIMCHECK
 70
     0
  9
$PEXTMIN
 10
1.000000E+20
 20
1.000000E+20
 30
1.000000E+20
  9
$PEXTMAX
 10
-1.000000E+20
 20
-1.000000E+20
 30
-1.000000E+20
  9
$PLIMMIN
 10
0.0
 20
0.0
  9
$PLIMMAX
 10
12.0
 20
9.0
  9
$UNITMODE
 70
     0
  9
$VISRETAIN
 70
     0
  9
$PLINEGEN
 70
     1
  9
$PSLTSCALE
 70
     0
  9
$TREEDEPTH
 70
  3020
  9
$CMLSTYLE
  2
Standard
  9
$CMLJUST
 70
     0
  9
$CMLSCALE
 40
1.0
  9
$PROXYGRAPHICS
 70
     0
  9
$MEASUREMENT
 70
     0
  9
$CELWEIGHT
370
     0
  9
$ENDCAPS
280
     0
  9
$JOINSTYLE
280
     0
  9
$LWDISPLAY
290
     0
  9
$INSUNITS
 70
     0
  9
$HYPERLINKBASE
  1

  9
$STYLESHEET
  1

  9
$XEDIT
290
     1
  9
$CEPSNTYPE
380
     0
  9
$PSTYLEMODE
290
     1
  9
$FINGERPRINTGUID
  2

  9
$VERSIONGUID
  2

  9
$EXTNAMES
290
     1
  9
$PSVPSCALE
 40
0.0
  0
ENDSEC
  0
SECTION
  2
CLASSES
  0
CLASS
  1
LWPOLYLINE
  2
AcDbPolyline
  3
AutoCAD 2000
 90
        0
280
     0
281
     1
  0
CLASS
  1
IMAGE
  2
AcDbRasterImage
  3
ISM
 90
      127
280
     0
281
     1
  0
CLASS
  1
OLE2FRAME
  2
AcDbOle2Frame
  3
AutoCAD 2000
 90
        0
280
     0
281
     1
  0
CLASS
  1
HATCH
  2
AcDbHatch
  3
AutoCAD 2000
 90
        0
280
     0
281
     1
  0
CLASS
  1
DICTIONARYVAR
  2
AcDbDictionaryVar
  3
AutoCAD 2000
 90
        0
280
     0
281
     0
  0
CLASS
  1
RASTERVARIABLES
  2
AcDbRasterVariables
  3
ISM
 90
        0
280
     0
281
     0
  0
CLASS
  1
IMAGEDEF
  2
AcDbRasterImageDef
  3
ISM
 90
        0
280
     0
281
     0
  0
CLASS
  1
IMAGEDEF_REACTOR
  2
AcDbRasterImageDefReactor
  3
ISM
 90
        1
280
     0
281
     0
  0
CLASS
  1
IDBUFFER
  2
AcDbIdBuffer
  3
AutoCAD 2000
 90
        0
280
     0
281
     0
  0
CLASS
  1
SPATIAL_FILTER
  2
AcDbSpatialFilter
  3
AutoCAD 2000
 90
        0
280
     0
281
     0
  0
CLASS
  1
XRECORD
  2
AcDbXrecord
  3
AutoCAD 2000
 90
        0
280
     0
281
     0
  0
CLASS
  1
SORTENTSTABLE
  2
AcDbSortentsTable
  3
AutoCAD 2000
 90
        0
280
     0
281
     0
  0
CLASS
  1
LAYER_INDEX
  2
AcDbLayerIndex
  3
AutoCAD 2000
 90
        0
280
     0
281
     0
  0
CLASS
  1
SPATIAL_INDEX
  2
AcDbSpatialIndex
  3
AutoCAD 2000
 90
        0
280
     0
281
     0
  0
CLASS
  1
OBJECT_PTR
  2
CAseDLPNTableRecord
  3
"ASE-LPNTableRecord"
 90
        1
280
     0
281
     0
  0
CLASS
  1
LAYOUT
  2
AcDbLayout
  3
AutoCAD 2000
 90
        0
280
     0
281
     0
  0
CLASS
  1
PLOTSETTINGS
  2
AcDbPlotSettings
  3
AutoCAD 2000
 90
        0
280
     0
281
     0
  0
CLASS
  1
ACDBDICTIONARYWDFLT
  2
AcDbDictionaryWithDefault
  3
AutoCAD 2000
 90
        0
280
     0
281
     0
  0
CLASS
  1
ACDBPLACEHOLDER
  2
AcDbPlaceHolder
  3
AutoCAD 2000
 90
        0
280
     0
281
     0
  0
CLASS
  1
VBA_PROJECT
  2
AcDbVbaProject
  3
acadvba
 90
        0
280
     0
281
     0
  0
CLASS
  1
WIPEOUT
  2
AcDbWipeout
  3
WipeOut|AutoCAD Express Tool|expresstools@autodesk.com
 90
      127
280
     0
281
     1
  0
CLASS
  1
WIPEOUTVARIABLES
  2
AcDbWipeoutVariables
  3
WipeOut|AutoCAD Express Tool|expresstools@autodesk.com
 90
        0
280
     0
281
     0
  0
CLASS
  1
RTEXT
  2
RText
  3
RText|AutoCAD Express Tool|expresstools@autodesk.com
 90
        0
280
     0
281
     1
  0
CLASS
  1
ARCALIGNEDTEXT
  2
AcDbArcAlignedText
  3
ATEXT|AutoCAD Express Tool|expresstools@autodesk.com
 90
        0
280
     0
281
     1
  0
ENDSEC
  0
SECTION
  2
TABLES
  0
TABLE
  2
VPORT
  5
7
100
AcDbSymbolTable
 70
     1
  0
VPORT
  5
15
100
AcDbSymbolTableRecord
100
AcDbViewportTableRecord
  2
*ACTIVE
 70
     0
 10
0.0
 20
0.0
 11
1.0
 21
1.0
 12
6.591288
 22
4.579184
 13
0.0
 23
0.0
 14
1.0
 24
1.0
 15
0.0
 25
0.0
 16
0.0
 26
0.0
 36
1.0
 17
0.0
 27
0.0
 37
0.0
 40
9.158369
 41
0.688564
 42
50.0
 43
0.0
 44
0.0
 50
0.0
 51
0.0
 71
     0
 72
   100
 73
     1
 74
     1
 75
     0
 76
     0
 77
     0
 78
     0
281
     0
 65
     0
110
0.0
120
0.0
130
0.0
111
1.0
121
0.0
131
0.0
112
0.0
122
1.0
132
0.0
345
0
346
0
 79
     0
146
0.0
  0
ENDTAB
  0
TABLE
  2
LTYPE
  5
4
100
AcDbSymbolTable
 70
     3
  0
LTYPE
  5
11
100
AcDbSymbolTableRecord
100
AcDbLinetypeTableRecord
  2
ByBlock
 70
    64
  3

 72
    65
 73
     0
 40
0.0
  0
LTYPE
  5
12
100
AcDbSymbolTableRecord
100
AcDbLinetypeTableRecord
  2
ByLayer
 70
    64
  3

 72
    65
 73
     0
 40
0.0
  0
LTYPE
  5
13
100
AcDbSymbolTableRecord
100
AcDbLinetypeTableRecord
  2
Continuous
 70
    64
  3
Solid line
 72
    65
 73
     0
 40
0.0
  0
ENDTAB
  0
TABLE
  2
LAYER
  5
2
100
AcDbSymbolTable
 70
     1
  0
LAYER
  5
14
100
AcDbSymbolTableRecord
100
AcDbLayerTableRecord
  2
0
 70
     0
 62
     7
  6
Continuous
290
     1
370
    -3
390
1D
  0
ENDTAB
  0
TABLE
  2
STYLE
  5
3
100
AcDbSymbolTable
 70
     1
  0
STYLE
  5
17
100
AcDbSymbolTableRecord
100
AcDbTextStyleTableRecord
  2
Standard
 70
     0
 40
0.0
 41
1.0
 50
0.0
 71
     0
 42
0.0
  3
FG教科書体NT-M
  4

1001
ACAD
1000
FG教科書体NT-M
1071
        0
  0
ENDTAB
  0
TABLE
  2
VIEW
  5
5
100
AcDbSymbolTable
 70
     0
  0
ENDTAB
  0
TABLE
  2
UCS
  5
6
100
AcDbSymbolTable
 70
     0
  0
ENDTAB
  0
TABLE
  2
APPID
  5
8
100
AcDbSymbolTable
 70
     2
  0
APPID
  5
16
100
AcDbSymbolTableRecord
100
AcDbRegAppTableRecord
  2
ACAD
 70
     0
  0
APPID
  5
26
100
AcDbSymbolTableRecord
100
AcDbRegAppTableRecord
  2
TOPsolid_Design
 70
     0
  0
ENDTAB
  0
TABLE
  2
DIMSTYLE
  5
9
100
AcDbSymbolTable
 70
     1
100
AcDbDimStyleTable
 71
     0
  0
DIMSTYLE
105
18
100
AcDbSymbolTableRecord
100
AcDbDimStyleTableRecord
  2
Standard
 70
     0
  3

  4

 40
1.0
 41
1.40208
 42
1.40208
 43
0.38
 44
1.05156
 45
0.0
 46
0.0
 47
0.0
 48
0.0
 71
     0
 72
     0
 73
     0
 74
     0
 75
     0
 76
     0
 77
     1
 78
     0
 79
     0
140
3.5052
141
0.09
142
0.0
143
25.4
144
1.0
145
0.0
146
0.5
147
1.7526
148
0.0
170
     0
171
     2
172
     0
173
     0
174
     0
175
     0
176
     7
177
     7
178
     7
179
     0
271
     2
272
     4
273
     2
274
     2
275
     0
276
     0
277
     2
278
    46
279
     0
280
     0
281
     0
282
     0
283
     1
284
     0
285
     0
286
     0
288
     0
289
     3
340
17
341
0
342
0
343
0
344
0
371
    -2
372
    -2
  0
ENDTAB
  0
TABLE
  2
BLOCK_RECORD
  5
1
100
AcDbSymbolTable
 70
     0
  0
BLOCK_RECORD
  5
A
100
AcDbSymbolTableRecord
100
AcDbBlockTableRecord
  2
*MODEL_SPACE
340
20
  0
BLOCK_RECORD
  5
B
100
AcDbSymbolTableRecord
100
AcDbBlockTableRecord
  2
*PAPER_SPACE
340
21
  0
ENDTAB
  0
ENDSEC
  0
SECTION
  2
BLOCKS
  0
BLOCK
  5
D
100
AcDbEntity
  8
0
390
0
100
AcDbBlockBegin
  2
*MODEL_SPACE
 70
     0
 10
0.0
 20
0.0
 30
0.0
  3
*MODEL_SPACE
  1

  0
ENDBLK
  5
E
100
AcDbEntity
  8
0
390
0
100
AcDbBlockEnd
  0
BLOCK
  5
F
100
AcDbEntity
 67
     1
  8
0
390
0
100
AcDbBlockBegin
  2
*PAPER_SPACE
 70
     0
 10
0.0
 20
0.0
 30
0.0
  3
*PAPER_SPACE
  1

  0
ENDBLK
  5
10
100
AcDbEntity
 67
     1
  8
0
390
0
100
AcDbBlockEnd
  0
ENDSEC
  0
SECTION
  2
ENTITIES
  0
ARC
  5
27
100
AcDbEntity
  8
0
390
0
  6
Continuous
 62
     7
100
AcDbCircle
 10
386.20548
 20
0.024025
 30
0.0
 40
397.275903
210
0.0
220
0.0
230
1.0
100
AcDbArc
 50
177.186548
 51
182.813452
  0
LINE
  5
28
100
AcDbEntity
  8
0
390
0
  6
Continuous
 62
     7
100
AcDbLine
 10
-10.591563
 20
-19.475975
 30
0.0
 11
-12.586303
 21
-19.575877
 31
0.0
  0
ARC
  5
29
100
AcDbEntity
  8
0
390
0
  6
Continuous
 62
     7
100
AcDbCircle
 10
385.530091
 20
0.024025
 30
0.0
 40
398.598569
210
0.0
220
0.0
230
1.0
100
AcDbArc
 50
177.181513
 51
182.818487
  0
LINE
  5
2A
100
AcDbEntity
  8
0
390
0
  6
Continuous
 62
     7
100
AcDbLine
 10
-12.586303
 20
19.623928
 30
0.0
 11
-10.591563
 21
19.524025
 31
0.0
  0
LINE
  5
2B
100
AcDbEntity
  8
0
390
0
  6
Continuous
 62
     7
100
AcDbLine
 10
-10.591563
 20
-19.475975
 30
0.0
 11
-10.591563
 21
-22.475975
 31
0.0
  0
ELLIPSE
  5
2C
100
AcDbEntity
  8
0
390
0
  6
Continuous
 62
     7
100
AcDbEllipse
 10
-10.591563
 20
-20.475975
 30
0.0
 11
-0.0000000000002776
 21
-2.0000000000000018
 31
0.0
210
0.0
220
0.0
230
1.0
 40
0.998748
 41
4.7649259426781407
 42
6.2831853071797594
  0
LINE
  5
2D
100
AcDbEntity
  8
0
390
0
  6
Continuous
 62
     7
100
AcDbLine
 10
-12.586303
 20
-20.581
 30
0.0
 11
-12.586303
 21
-19.575877
 31
0.0
  0
LINE
  5
2E
100
AcDbEntity
  8
0
390
0
  6
Continuous
 62
     7
100
AcDbLine
 10
-12.586303
 20
19.623928
 30
0.0
 11
-12.586303
 21
20.629051
 31
0.0
  0
ELLIPSE
  5
2F
100
AcDbEntity
  8
0
390
0
  6
Continuous
 62
     7
100
AcDbEllipse
 10
-10.591563
 20
20.524025
 30
0.0
 11
0.0
 21
-2.0000000000000018
 31
0.0
210
0.0
220
0.0
230
1.0
 40
0.998748
 41
3.1415926535897776
 42
4.6598520180913781
  0
LINE
  5
30
100
AcDbEntity
  8
0
390
0
  6
Continuous
 62
     7
100
AcDbLine
 10
-10.591563
 20
22.524025
 30
0.0
 11
-10.591563
 21
19.524025
 31
0.0
  0
LINE
  5
31
100
AcDbEntity
  8
0
390
0
  6
Continuous
 62
     7
100
AcDbLine
 10
-8.493261
 20
-19.475975
 30
0.0
 11
-8.493261
 21
19.524025
 31
0.0
  0
LINE
  5
32
100
AcDbEntity
  8
0
390
0
  6
Continuous
 62
     7
100
AcDbLine
 10
-8.493261
 20
-19.475975
 30
0.0
 11
-10.591563
 21
-19.475975
 31
0.0
  0
LINE
  5
33
100
AcDbEntity
  8
0
390
0
  6
Continuous
 62
     7
100
AcDbLine
 10
-8.493261
 20
19.524025
 30
0.0
 11
-10.591563
 21
19.524025
 31
0.0
  0
LINE
  5
34
100
AcDbEntity
  8
0
390
0
  6
Continuous
 62
     7
100
AcDbLine
 10
-8.493261
 20
19.524025
 30
0.0
 11
-8.493261
 21
22.524025
 31
0.0
  0
LINE
  5
35
100
AcDbEntity
  8
0
390
0
  6
Continuous
 62
     7
100
AcDbLine
 10
-8.493261
 20
22.524025
 30
0.0
 11
-10.591563
 21
22.524025
 31
0.0
  0
LINE
  5
36
100
AcDbEntity
  8
0
390
0
  6
Continuous
 62
     7
100
AcDbLine
 10
-8.493261
 20
-22.475975
 30
0.0
 11
-8.493261
 21
-19.475975
 31
0.0
  0
LINE
  5
37
100
AcDbEntity
  8
0
390
0
  6
Continuous
 62
     7
100
AcDbLine
 10
-8.493261
 20
-22.475975
 30
0.0
 11
-10.591563
 21
-22.475975
 31
0.0
  0
LINE
  5
38
100
AcDbEntity
  8
0
390
0
  6
Continuous
 62
     7
100
AcDbLine
 10
-13.067534
 20
-20.576138
 30
0.0
 11
-12.586303
 21
-20.581
 31
0.0
  0
LINE
  5
39
100
AcDbEntity
  8
0
390
0
  6
Continuous
 62
     7
100
AcDbLine
 10
-13.389898
 20
-6.127603
 30
0.0
 11
-13.40086
 21
-4.706748
 31
0.0
  0
LINE
  5
3A
100
AcDbEntity
  8
0
390
0
  6
Continuous
 62
     7
100
AcDbLine
 10
-13.316728
 20
-4.706748
 30
0.0
 11
-13.330482
 21
-3.161293
 31
0.0
  0
LINE
  5
3B
100
AcDbEntity
  8
0
390
0
  6
Continuous
 62
     7
100
AcDbLine
 10
-12.586303
 20
20.629051
 30
0.0
 11
-13.067534
 21
20.624188
 31
0.0
  0
LINE
  5
3C
100
AcDbEntity
  8
0
390
0
  6
Continuous
 62
     7
100
AcDbLine
 10
-13.414051
 20
3.015524
 30
0.0
 11
-13.289119
 21
6.352191
 31
0.0
  0
LINE
  5
3D
100
AcDbEntity
  8
0
390
0
  6
Continuous
 62
     7
100
AcDbLine
 10
-13.289119
 20
6.352191
 30
0.0
 11
-13.137703
 21
13.018203
 31
0.0
  0
LINE
  5
3E
100
AcDbEntity
  8
0
390
0
  6
Continuous
 62
     7
100
AcDbLine
 10
0.006739
 20
-11.475975
 30
0.0
 11
0.486608
 21
-11.475975
 31
0.0
  0
LINE
  5
3F
100
AcDbEntity
  8
0
390
0
  6
Continuous
 62
     7
100
AcDbLine
 10
0.006739
 20
-11.475975
 30
0.0
 11
0.006739
 21
11.524025
 31
0.0
  0
LINE
  5
40
100
AcDbEntity
  8
0
390
0
  6
Continuous
 62
     7
100
AcDbLine
 10
0.486608
 20
11.524025
 30
0.0
 11
0.006739
 21
11.524025
 31
0.0
  0
LINE
  5
41
100
AcDbEntity
  8
0
390
0
  6
Continuous
 62
     7
100
AcDbLine
 10
0.486608
 20
-11.475975
 30
0.0
 11
0.486608
 21
11.524025
 31
0.0
  0
LINE
  5
42
100
AcDbEntity
  8
0
390
0
  6
Continuous
 62
     7
100
AcDbLine
 10
0.006739
 20
11.524025
 30
0.0
 11
0.006739
 21
13.524025
 31
0.0
  0
LINE
  5
43
100
AcDbEntity
  8
0
390
0
  6
Continuous
 62
     7
100
AcDbLine
 10
0.006739
 20
13.524025
 30
0.0
 11
1.294661
 21
13.524025
 31
0.0
  0
ELLIPSE
  5
44
100
AcDbEntity
  8
0
390
0
  6
Continuous
 62
     7
100
AcDbEllipse
 10
1.294661
 20
11.524025
 30
0.0
 11
0.0
 21
2.0000000000000018
 31
0.0
210
0.0
220
0.0
230
1.0
 40
0.404026
 41
0.0
 42
1.5707963267949008
  0
LINE
  5
45
100
AcDbEntity
  8
0
390
0
  6
Continuous
 62
     7
100
AcDbLine
 10
2.506739
 20
11.224025
 30
0.0
 11
2.506739
 21
13.524025
 31
0.0
  0
LINE
  5
46
100
AcDbEntity
  8
0
390
0
  6
Continuous
 62
     7
100
AcDbLine
 10
2.506739
 20
11.224025
 30
0.0
 11
2.506739
 21
-11.175975
 31
0.0
  0
LINE
  5
47
100
AcDbEntity
  8
0
390
0
  6
Continuous
 62
     7
100
AcDbLine
 10
2.506739
 20
-13.475975
 30
0.0
 11
2.506739
 21
-11.175975
 31
0.0
  0
LINE
  5
48
100
AcDbEntity
  8
0
390
0
  6
Continuous
 62
     7
100
AcDbLine
 10
2.506739
 20
-13.475975
 30
0.0
 11
1.294661
 21
-13.475975
 31
0.0
  0
ELLIPSE
  5
49
100
AcDbEntity
  8
0
390
0
  6
Continuous
 62
     7
100
AcDbEllipse
 10
1.294661
 20
-11.475975
 30
0.0
 11
0.0
 21
-2.0000000000000018
 31
0.0
210
0.0
220
0.0
230
1.0
 40
0.404026
 41
4.7123889803846897
 42
6.2831853071795862
  0
LINE
  5
4A
100
AcDbEntity
  8
0
390
0
  6
Continuous
 62
     7
100
AcDbLine
 10
2.506739
 20
13.524025
 30
0.0
 11
1.294661
 21
13.524025
 31
0.0
  0
ELLIPSE
  5
4B
100
AcDbEntity
  8
0
390
0
  6
Continuous
 62
     7
100
AcDbEllipse
 10
5.794661
 20
11.524025
 30
0.0
 11
0.0
 21
2.0000000000000018
 31
0.0
210
0.0
220
0.0
230
1.0
 40
0.404026
 41
0.0
 42
1.5707963267949008
  0
LINE
  5
4C
100
AcDbEntity
  8
0
390
0
  6
Continuous
 62
     7
100
AcDbLine
 10
7.006739
 20
13.524025
 30
0.0
 11
5.794661
 21
13.524025
 31
0.0
  0
LINE
  5
4D
100
AcDbEntity
  8
0
390
0
  6
Continuous
 62
     7
100
AcDbLine
 10
7.006739
 20
11.224025
 30
0.0
 11
7.006739
 21
13.524025
 31
0.0
  0
LINE
  5
4E
100
AcDbEntity
  8
0
390
0
  6
Continuous
 62
     7
100
AcDbLine
 10
7.006739
 20
11.224025
 30
0.0
 11
7.006739
 21
-11.175975
 31
0.0
  0
LINE
  5
4F
100
AcDbEntity
  8
0
390
0
  6
Continuous
 62
     7
100
AcDbLine
 10
7.006739
 20
-13.475975
 30
0.0
 11
7.006739
 21
-11.175975
 31
0.0
  0
LINE
  5
50
100
AcDbEntity
  8
0
390
0
  6
Continuous
 62
     7
100
AcDbLine
 10
7.006739
 20
-13.475975
 30
0.0
 11
5.794661
 21
-13.475975
 31
0.0
  0
ELLIPSE
  5
51
100
AcDbEntity
  8
0
390
0
  6
Continuous
 62
     7
100
AcDbEllipse
 10
5.794661
 20
-11.475975
 30
0.0
 11
0.0
 21
-2.0000000000000018
 31
0.0
210
0.0
220
0.0
230
1.0
 40
0.404026
 41
4.7123889803846897
 42
6.2831853071795845
  0
LINE
  5
52
100
AcDbEntity
  8
0
390
0
  6
Continuous
 62
     7
100
AcDbLine
 10
4.986608
 20
-11.475975
 30
0.0
 11
4.986608
 21
11.524025
 31
0.0
  0
LINE
  5
53
100
AcDbEntity
  8
0
390
0
  6
Continuous
 62
     7
100
AcDbLine
 10
4.986608
 20
11.524025
 30
0.0
 11
4.506739
 21
11.524025
 31
0.0
  0
LINE
  5
54
100
AcDbEntity
  8
0
390
0
  6
Continuous
 62
     7
100
AcDbLine
 10
4.506739
 20
-11.475975
 30
0.0
 11
4.986608
 21
-11.475975
 31
0.0
  0
LINE
  5
55
100
AcDbEntity
  8
0
390
0
  6
Continuous
 62
     7
100
AcDbLine
 10
4.506739
 20
-11.475975
 30
0.0
 11
4.506739
 21
11.524025
 31
0.0
  0
LINE
  5
56
100
AcDbEntity
  8
0
390
0
  6
Continuous
 62
     7
100
AcDbLine
 10
1.294661
 20
-13.475975
 30
0.0
 11
0.006739
 21
-13.475975
 31
0.0
  0
LINE
  5
57
100
AcDbEntity
  8
0
390
0
  6
Continuous
 62
     7
100
AcDbLine
 10
0.006739
 20
-13.475975
 30
0.0
 11
0.006739
 21
-11.475975
 31
0.0
  0
LINE
  5
58
100
AcDbEntity
  8
0
390
0
  6
Continuous
 62
     7
100
AcDbLine
 10
4.506739
 20
13.524025
 30
0.0
 11
5.794661
 21
13.524025
 31
0.0
  0
LINE
  5
59
100
AcDbEntity
  8
0
390
0
  6
Continuous
 62
     7
100
AcDbLine
 10
4.506739
 20
11.524025
 30
0.0
 11
4.506739
 21
13.524025
 31
0.0
  0
LINE
  5
5A
100
AcDbEntity
  8
0
390
0
  6
Continuous
 62
     7
100
AcDbLine
 10
5.794661
 20
-13.475975
 30
0.0
 11
4.506739
 21
-13.475975
 31
0.0
  0
LINE
  5
5B
100
AcDbEntity
  8
0
390
0
  6
Continuous
 62
     7
100
AcDbLine
 10
4.506739
 20
-13.475975
 30
0.0
 11
4.506739
 21
-11.475975
 31
0.0
  0
ELLIPSE
  5
5C
100
AcDbEntity
  8
0
390
0
  6
Continuous
 62
     7
100
AcDbEllipse
 10
-3.205339
 20
11.524025
 30
0.0
 11
0.0
 21
2.0000000000000018
 31
0.0
210
0.0
220
0.0
230
1.0
 40
0.404026
 41
0.0
 42
1.5707963267949008
  0
LINE
  5
5D
100
AcDbEntity
  8
0
390
0
  6
Continuous
 62
     7
100
AcDbLine
 10
-1.993261
 20
13.524025
 30
0.0
 11
-3.205339
 21
13.524025
 31
0.0
  0
LINE
  5
5E
100
AcDbEntity
  8
0
390
0
  6
Continuous
 62
     7
100
AcDbLine
 10
-1.993261
 20
11.224025
 30
0.0
 11
-1.993261
 21
13.524025
 31
0.0
  0
LINE
  5
5F
100
AcDbEntity
  8
0
390
0
  6
Continuous
 62
     7
100
AcDbLine
 10
-1.993261
 20
11.224025
 30
0.0
 11
-1.993261
 21
-11.175975
 31
0.0
  0
LINE
  5
60
100
AcDbEntity
  8
0
390
0
  6
Continuous
 62
     7
100
AcDbLine
 10
-1.993261
 20
-13.475975
 30
0.0
 11
-1.993261
 21
-11.175975
 31
0.0
  0
LINE
  5
61
100
AcDbEntity
  8
0
390
0
  6
Continuous
 62
     7
100
AcDbLine
 10
-1.993261
 20
-13.475975
 30
0.0
 11
-3.205339
 21
-13.475975
 31
0.0
  0
ELLIPSE
  5
62
100
AcDbEntity
  8
0
390
0
  6
Continuous
 62
     7
100
AcDbEllipse
 10
-3.205339
 20
-11.475975
 30
0.0
 11
0.0
 21
-2.0000000000000018
 31
0.0
210
0.0
220
0.0
230
1.0
 40
0.404026
 41
4.7123889803846897
 42
6.2831853071795862
  0
LINE
  5
63
100
AcDbEntity
  8
0
390
0
  6
Continuous
 62
     7
100
AcDbLine
 10
-4.013392
 20
-11.475975
 30
0.0
 11
-4.013392
 21
11.524025
 31
0.0
  0
LINE
  5
64
100
AcDbEntity
  8
0
390
0
  6
Continuous
 62
     7
100
AcDbLine
 10
-3.205339
 20
-13.475975
 30
0.0
 11
-4.493261
 21
-13.475975
 31
0.0
  0
LINE
  5
65
100
AcDbEntity
  8
0
390
0
  6
Continuous
 62
     7
100
AcDbLine
 10
-4.493261
 20
-11.475975
 30
0.0
 11
-4.013392
 21
-11.475975
 31
0.0
  0
LINE
  5
66
100
AcDbEntity
  8
0
390
0
  6
Continuous
 62
     7
100
AcDbLine
 10
-4.493261
 20
-13.475975
 30
0.0
 11
-4.493261
 21
-11.475975
 31
0.0
  0
LINE
  5
67
100
AcDbEntity
  8
0
390
0
  6
Continuous
 62
     7
100
AcDbLine
 10
-4.013392
 20
11.524025
 30
0.0
 11
-4.493261
 21
11.524025
 31
0.0
  0
LINE
  5
68
100
AcDbEntity
  8
0
390
0
  6
Continuous
 62
     7
100
AcDbLine
 10
-4.493261
 20
13.524025
 30
0.0
 11
-3.205339
 21
13.524025
 31
0.0
  0
LINE
  5
69
100
AcDbEntity
  8
0
390
0
  6
Continuous
 62
     7
100
AcDbLine
 10
-4.493261
 20
11.524025
 30
0.0
 11
-4.493261
 21
13.524025
 31
0.0
  0
LINE
  5
6A
100
AcDbEntity
  8
0
390
0
  6
Continuous
 62
     7
100
AcDbLine
 10
-4.493261
 20
-11.475975
 30
0.0
 11
-4.493261
 21
11.524025
 31
0.0
  0
LINE
  5
6B
100
AcDbEntity
  8
0
390
0
  6
Continuous
 62
     7
100
AcDbLine
 10
-11.070043
 20
22.524025
 30
0.0
 11
-10.591563
 21
22.524025
 31
0.0
  0
LINE
  5
6C
100
AcDbEntity
  8
0
390
0
  6
Continuous
 62
     7
100
AcDbLine
 10
-10.591563
 20
-22.475975
 30
0.0
 11
-11.070043
 21
-22.475975
 31
0.0
  0
LINE
  5
6D
100
AcDbEntity
  8
0
390
0
  6
Continuous
 62
     7
100
AcDbLine
 10
10.262311
 20
-13.475975
 30
0.0
 11
9.006739
 21
-13.475975
 31
0.0
  0
LINE
  5
6E
100
AcDbEntity
  8
0
390
0
  6
Continuous
 62
     7
100
AcDbLine
 10
9.006739
 20
-11.475975
 30
0.0
 11
9.454258
 21
-11.475975
 31
0.0
  0
ELLIPSE
  5
6F
100
AcDbEntity
  8
0
390
0
  6
Continuous
 62
     7
100
AcDbEllipse
 10
10.262311
 20
-11.475975
 30
0.0
 11
0.0
 21
-2.0000000000000018
 31
0.0
210
0.0
220
0.0
230
1.0
 40
0.404026
 41
4.7123889803846897
 42
6.2831853071795862
  0
LINE
  5
70
100
AcDbEntity
  8
0
390
0
  6
Continuous
 62
     7
100
AcDbLine
 10
9.006739
 20
-13.475975
 30
0.0
 11
9.006739
 21
-11.475975
 31
0.0
  0
LINE
  5
71
100
AcDbEntity
  8
0
390
0
  6
Continuous
 62
     7
100
AcDbLine
 10
10.706739
 20
11.224025
 30
0.0
 11
10.706739
 21
13.524025
 31
0.0
  0
LINE
  5
72
100
AcDbEntity
  8
0
390
0
  6
Continuous
 62
     7
100
AcDbLine
 10
10.706739
 20
11.224025
 30
0.0
 11
10.706739
 21
-11.175975
 31
0.0
  0
LINE
  5
73
100
AcDbEntity
  8
0
390
0
  6
Continuous
 62
     7
100
AcDbLine
 10
10.706739
 20
-13.475975
 30
0.0
 11
10.706739
 21
-11.175975
 31
0.0
  0
LINE
  5
74
100
AcDbEntity
  8
0
390
0
  6
Continuous
 62
     7
100
AcDbLine
 10
10.706739
 20
-13.475975
 30
0.0
 11
10.262311
 21
-13.475975
 31
0.0
  0
LINE
  5
75
100
AcDbEntity
  8
0
390
0
  6
Continuous
 62
     7
100
AcDbLine
 10
9.454258
 20
-11.475975
 30
0.0
 11
9.454258
 21
11.524025
 31
0.0
  0
ELLIPSE
  5
76
100
AcDbEntity
  8
0
390
0
  6
Continuous
 62
     7
100
AcDbEllipse
 10
10.262311
 20
11.524025
 30
0.0
 11
0.0
 21
2.0000000000000018
 31
0.0
210
0.0
220
0.0
230
1.0
 40
0.404026
 41
0.0
 42
1.5707963267949008
  0
LINE
  5
77
100
AcDbEntity
  8
0
390
0
  6
Continuous
 62
     7
100
AcDbLine
 10
10.706739
 20
13.524025
 30
0.0
 11
10.262311
 21
13.524025
 31
0.0
  0
LINE
  5
78
100
AcDbEntity
  8
0
390
0
  6
Continuous
 62
     7
100
AcDbLine
 10
9.454258
 20
11.524025
 30
0.0
 11
9.006739
 21
11.524025
 31
0.0
  0
LINE
  5
79
100
AcDbEntity
  8
0
390
0
  6
Continuous
 62
     7
100
AcDbLine
 10
9.006739
 20
13.524025
 30
0.0
 11
10.262311
 21
13.524025
 31
0.0
  0
LINE
  5
7A
100
AcDbEntity
  8
0
390
0
  6
Continuous
 62
     7
100
AcDbLine
 10
9.006739
 20
11.524025
 30
0.0
 11
9.006739
 21
13.524025
 31
0.0
  0
LINE
  5
7B
100
AcDbEntity
  8
0
390
0
  6
Continuous
 62
     7
100
AcDbLine
 10
9.006739
 20
-11.475975
 30
0.0
 11
9.006739
 21
11.524025
 31
0.0
  0
LINE
  5
7C
100
AcDbEntity
  8
0
390
0
  6
Continuous
 62
     7
100
AcDbLine
 10
4.506739
 20
11.224025
 30
0.0
 11
2.506739
 21
11.224025
 31
0.0
  0
LINE
  5
7D
100
AcDbEntity
  8
0
390
0
  6
Continuous
 62
     7
100
AcDbLine
 10
4.506739
 20
-11.175975
 30
0.0
 11
2.506739
 21
-11.175975
 31
0.0
  0
LINE
  5
7E
100
AcDbEntity
  8
0
390
0
  6
Continuous
 62
     7
100
AcDbLine
 10
0.006739
 20
11.224025
 30
0.0
 11
-1.993261
 21
11.224025
 31
0.0
  0
LINE
  5
7F
100
AcDbEntity
  8
0
390
0
  6
Continuous
 62
     7
100
AcDbLine
 10
-4.493261
 20
11.224025
 30
0.0
 11
-8.493261
 21
11.224025
 31
0.0
  0
LINE
  5
80
100
AcDbEntity
  8
0
390
0
  6
Continuous
 62
     7
100
AcDbLine
 10
-4.493261
 20
16.224025
 30
0.0
 11
-8.493261
 21
16.224025
 31
0.0
  0
LINE
  5
81
100
AcDbEntity
  8
0
390
0
  6
Continuous
 62
     7
100
AcDbLine
 10
-4.493261
 20
15.66362
 30
0.0
 11
-1.993261
 21
15.66362
 31
0.0
  0
LINE
  5
82
100
AcDbEntity
  8
0
390
0
  6
Continuous
 62
     7
100
AcDbLine
 10
0.006739
 20
16.224025
 30
0.0
 11
-1.993261
 21
16.224025
 31
0.0
  0
LINE
  5
83
100
AcDbEntity
  8
0
390
0
  6
Continuous
 62
     7
100
AcDbLine
 10
0.006739
 20
15.66362
 30
0.0
 11
2.506739
 21
15.66362
 31
0.0
  0
LINE
  5
84
100
AcDbEntity
  8
0
390
0
  6
Continuous
 62
     7
100
AcDbLine
 10
4.506739
 20
16.224025
 30
0.0
 11
2.506739
 21
16.224025
 31
0.0
  0
LINE
  5
85
100
AcDbEntity
  8
0
390
0
  6
Continuous
 62
     7
100
AcDbLine
 10
4.506739
 20
15.66362
 30
0.0
 11
7.006739
 21
15.66362
 31
0.0
  0
LINE
  5
86
100
AcDbEntity
  8
0
390
0
  6
Continuous
 62
     7
100
AcDbLine
 10
9.006739
 20
16.224025
 30
0.0
 11
7.006739
 21
16.224025
 31
0.0
  0
LINE
  5
87
100
AcDbEntity
  8
0
390
0
  6
Continuous
 62
     7
100
AcDbLine
 10
9.006739
 20
15.66362
 30
0.0
 11
10.706739
 21
15.66362
 31
0.0
  0
LINE
  5
88
100
AcDbEntity
  8
0
390
0
  6
Continuous
 62
     7
100
AcDbLine
 10
13.506739
 20
16.224025
 30
0.0
 11
10.706739
 21
16.224025
 31
0.0
  0
LINE
  5
89
100
AcDbEntity
  8
0
390
0
  6
Continuous
 62
     7
100
AcDbLine
 10
13.506739
 20
11.224025
 30
0.0
 11
13.506739
 21
16.224025
 31
0.0
  0
LINE
  5
8A
100
AcDbEntity
  8
0
390
0
  6
Continuous
 62
     7
100
AcDbLine
 10
13.506739
 20
11.224025
 30
0.0
 11
10.706739
 21
11.224025
 31
0.0
  0
LINE
  5
8B
100
AcDbEntity
  8
0
390
0
  6
Continuous
 62
     7
100
AcDbLine
 10
9.006739
 20
11.224025
 30
0.0
 11
7.006739
 21
11.224025
 31
0.0
  0
LINE
  5
8C
100
AcDbEntity
  8
0
390
0
  6
Continuous
 62
     7
100
AcDbLine
 10
13.506739
 20
-11.175975
 30
0.0
 11
10.706739
 21
-11.175975
 31
0.0
  0
LINE
  5
8D
100
AcDbEntity
  8
0
390
0
  6
Continuous
 62
     7
100
AcDbLine
 10
13.506739
 20
-16.175975
 30
0.0
 11
13.506739
 21
-11.175975
 31
0.0
  0
LINE
  5
8E
100
AcDbEntity
  8
0
390
0
  6
Continuous
 62
     7
100
AcDbLine
 10
13.506739
 20
-16.175975
 30
0.0
 11
10.706739
 21
-16.175975
 31
0.0
  0
LINE
  5
8F
100
AcDbEntity
  8
0
390
0
  6
Continuous
 62
     7
100
AcDbLine
 10
9.006739
 20
-15.615569
 30
0.0
 11
10.706739
 21
-15.615569
 31
0.0
  0
LINE
  5
90
100
AcDbEntity
  8
0
390
0
  6
Continuous
 62
     7
100
AcDbLine
 10
9.006739
 20
-16.175975
 30
0.0
 11
7.006739
 21
-16.175975
 31
0.0
  0
LINE
  5
91
100
AcDbEntity
  8
0
390
0
  6
Continuous
 62
     7
100
AcDbLine
 10
4.506739
 20
-15.615569
 30
0.0
 11
7.006739
 21
-15.615569
 31
0.0
  0
LINE
  5
92
100
AcDbEntity
  8
0
390
0
  6
Continuous
 62
     7
100
AcDbLine
 10
4.506739
 20
-16.175975
 30
0.0
 11
2.506739
 21
-16.175975
 31
0.0
  0
LINE
  5
93
100
AcDbEntity
  8
0
390
0
  6
Continuous
 62
     7
100
AcDbLine
 10
0.006739
 20
-15.615569
 30
0.0
 11
2.506739
 21
-15.615569
 31
0.0
  0
LINE
  5
94
100
AcDbEntity
  8
0
390
0
  6
Continuous
 62
     7
100
AcDbLine
 10
0.006739
 20
-16.175975
 30
0.0
 11
-1.993261
 21
-16.175975
 31
0.0
  0
LINE
  5
95
100
AcDbEntity
  8
0
390
0
  6
Continuous
 62
     7
100
AcDbLine
 10
-4.493261
 20
-15.615569
 30
0.0
 11
-1.993261
 21
-15.615569
 31
0.0
  0
LINE
  5
96
100
AcDbEntity
  8
0
390
0
  6
Continuous
 62
     7
100
AcDbLine
 10
-4.493261
 20
-16.175975
 30
0.0
 11
-8.493261
 21
-16.175975
 31
0.0
  0
LINE
  5
97
100
AcDbEntity
  8
0
390
0
  6
Continuous
 62
     7
100
AcDbLine
 10
-4.493261
 20
-11.175975
 30
0.0
 11
-8.493261
 21
-11.175975
 31
0.0
  0
LINE
  5
98
100
AcDbEntity
  8
0
390
0
  6
Continuous
 62
     7
100
AcDbLine
 10
0.006739
 20
-11.175975
 30
0.0
 11
-1.993261
 21
-11.175975
 31
0.0
  0
LINE
  5
99
100
AcDbEntity
  8
0
390
0
  6
Continuous
 62
     7
100
AcDbLine
 10
9.006739
 20
-11.175975
 30
0.0
 11
7.006739
 21
-11.175975
 31
0.0
  0
LINE
  5
9A
100
AcDbEntity
  8
0
390
0
  6
Continuous
 62
     7
100
AcDbLine
 10
13.506739
 20
-11.175975
 30
0.0
 11
13.506739
 21
11.224025
 31
0.0
  0
LINE
  5
9B
100
AcDbEntity
  8
0
390
0
  6
Continuous
 62
     7
100
AcDbLine
 10
-13.891393
 20
-8.161293
 30
0.0
 11
-13.862303
 21
-8.161293
 31
0.0
  0
LINE
  5
9C
100
AcDbEntity
  8
0
390
0
  6
Continuous
 62
     7
100
AcDbLine
 10
-13.936195
 20
-3.161293
 30
0.0
 11
-13.928212
 21
-4.706787
 31
0.0
  0
LINE
  5
9D
100
AcDbEntity
  8
0
390
0
  6
Continuous
 62
     7
100
AcDbLine
 10
-13.928212
 20
-4.706787
 30
0.0
 11
-13.916336
 21
-6.128893
 31
0.0
  0
LINE
  5
9E
100
AcDbEntity
  8
0
390
0
  6
Continuous
 62
     7
100
AcDbLine
 10
-13.916336
 20
-6.128893
 30
0.0
 11
-13.899293
 21
-7.596797
 31
0.0
  0
LINE
  5
9F
100
AcDbEntity
  8
0
390
0
  6
Continuous
 62
     7
100
AcDbLine
 10
-13.899293
 20
-7.596797
 30
0.0
 11
-13.891393
 21
-8.161293
 31
0.0
  0
LINE
  5
A0
100
AcDbEntity
  8
0
390
0
  6
Continuous
 62
     7
100
AcDbLine
 10
-13.830733
 20
-3.161293
 30
0.0
 11
-13.936195
 21
-3.161293
 31
0.0
  0
LINE
  5
A1
100
AcDbEntity
  8
0
390
0
  6
Continuous
 62
     7
100
AcDbLine
 10
-13.816999
 20
-4.706748
 30
0.0
 11
-13.830733
 21
-3.161293
 31
0.0
  0
LINE
  5
A2
100
AcDbEntity
  8
0
390
0
  6
Continuous
 62
     7
100
AcDbLine
 10
-13.901011
 20
-4.706748
 30
0.0
 11
-13.816999
 21
-4.706748
 31
0.0
  0
LINE
  5
A3
100
AcDbEntity
  8
0
390
0
  6
Continuous
 62
     7
100
AcDbLine
 10
-13.885718
 20
-6.570384
 30
0.0
 11
-13.901011
 21
-4.706748
 31
0.0
  0
LINE
  5
A4
100
AcDbEntity
  8
0
390
0
  6
Continuous
 62
     7
100
AcDbLine
 10
-13.804623
 20
-11.674204
 30
0.0
 11
-13.72843
 21
-12.629819
 31
0.0
  0
LINE
  5
A5
100
AcDbEntity
  8
0
390
0
  6
Continuous
 62
     7
100
AcDbLine
 10
-13.865846
 20
-9.706748
 30
0.0
 11
-13.825997
 21
-11.134746
 31
0.0
  0
LINE
  5
A6
100
AcDbEntity
  8
0
390
0
  6
Continuous
 62
     7
100
AcDbLine
 10
-13.825997
 20
-11.134746
 30
0.0
 11
-13.804623
 21
-11.674204
 31
0.0
  0
LINE
  5
A7
100
AcDbEntity
  8
0
390
0
  6
Continuous
 62
     7
100
AcDbLine
 10
-13.838858
 20
-9.706748
 30
0.0
 11
-13.865846
 21
-9.706748
 31
0.0
  0
LINE
  5
A8
100
AcDbEntity
  8
0
390
0
  6
Continuous
 62
     7
100
AcDbLine
 10
-13.862303
 20
-8.161293
 30
0.0
 11
-13.84482
 21
-7.595636
 31
0.0
  0
ARC
  5
A9
100
AcDbEntity
  8
0
390
0
  6
Continuous
 62
     7
100
AcDbCircle
 10
-93.747124
 20
-10.992378
 30
0.0
 40
80.53574
210
0.0
220
0.0
230
0.9999999999999999
100
AcDbArc
 50
358.83499
 51
3.463074
  0
LINE
  5
AA
100
AcDbEntity
  8
0
390
0
  6
Continuous
 62
     7
100
AcDbLine
 10
-13.858659
 20
-6.127596
 30
0.0
 11
-13.885718
 21
-6.570384
 31
0.0
  0
ARC
  5
AB
100
AcDbEntity
  8
0
390
0
  6
Continuous
 62
     7
100
AcDbCircle
 10
-94.362499
 20
-10.992378
 30
0.0
 40
80.650693
210
0.0
220
0.0
230
1.0
100
AcDbArc
 50
358.836651
 51
3.458132
  0
LINE
  5
AC
100
AcDbEntity
  8
0
390
0
  6
Continuous
 62
     7
100
AcDbLine
 10
-13.63823
 20
13.018203
 30
0.0
 11
-13.137703
 21
13.018203
 31
0.0
  0
LINE
  5
AD
100
AcDbEntity
  8
0
390
0
  6
Continuous
 62
     7
100
AcDbLine
 10
-13.78943
 20
6.352191
 30
0.0
 11
-13.289119
 21
6.352191
 31
0.0
  0
LINE
  5
AE
100
AcDbEntity
  8
0
390
0
  6
Continuous
 62
     7
100
AcDbLine
 10
-13.78943
 20
6.352191
 30
0.0
 11
-13.63823
 21
13.018203
 31
0.0
  0
LINE
  5
AF
100
AcDbEntity
  8
0
390
0
  6
Continuous
 62
     7
100
AcDbLine
 10
-13.974814
 20
3.015524
 30
0.0
 11
-13.914183
 21
3.015524
 31
0.0
  0
LINE
  5
B0
100
AcDbEntity
  8
0
390
0
  6
Continuous
 62
     7
100
AcDbLine
 10
-13.957061
 20
4.470103
 30
0.0
 11
-13.974814
 21
3.015524
 31
0.0
  0
LINE
  5
B1
100
AcDbEntity
  8
0
390
0
  6
Continuous
 62
     7
100
AcDbLine
 10
-13.933612
 20
4.470103
 30
0.0
 11
-13.957061
 21
4.470103
 31
0.0
  0
LINE
  5
B2
100
AcDbEntity
  8
0
390
0
  6
Continuous
 62
     7
100
AcDbLine
 10
-13.85916
 20
6.694548
 30
0.0
 11
-13.933612
 21
4.470103
 31
0.0
  0
LINE
  5
B3
100
AcDbEntity
  8
0
390
0
  6
Continuous
 62
     7
100
AcDbLine
 10
-13.717345
 20
13.018203
 30
0.0
 11
-13.85916
 21
6.694548
 31
0.0
  0
LINE
  5
B4
100
AcDbEntity
  8
0
390
0
  6
Continuous
 62
     7
100
AcDbLine
 10
-13.914183
 20
3.015524
 30
0.0
 11
-13.78943
 21
6.352191
 31
0.0
  0
LINE
  5
B5
100
AcDbEntity
  8
0
390
0
  6
Continuous
 62
     7
100
AcDbLine
 10
-13.914183
 20
3.015524
 30
0.0
 11
-13.414051
 21
3.015524
 31
0.0
  0
LINE
  5
B6
100
AcDbEntity
  8
0
390
0
  6
Continuous
 62
     7
100
AcDbLine
 10
-13.816999
 20
-4.706748
 30
0.0
 11
-13.316728
 21
-4.706748
 31
0.0
  0
LINE
  5
B7
100
AcDbEntity
  8
0
390
0
  6
Continuous
 62
     7
100
AcDbLine
 10
-13.830733
 20
-3.161293
 30
0.0
 11
-13.330482
 21
-3.161293
 31
0.0
  0
LINE
  5
B8
100
AcDbEntity
  8
0
390
0
  6
Continuous
 62
     7
100
AcDbLine
 10
-4.013392
 20
-21.175975
 30
0.0
 11
-4.493261
 21
-21.175975
 31
0.0
  0
LINE
  5
B9
100
AcDbEntity
  8
0
390
0
  6
Continuous
 62
     7
100
AcDbLine
 10
-4.493261
 20
-21.175975
 30
0.0
 11
-4.493261
 21
-19.175975
 31
0.0
  0
LINE
  5
BA
100
AcDbEntity
  8
0
390
0
  6
Continuous
 62
     7
100
AcDbLine
 10
-4.493261
 20
-19.175975
 30
0.0
 11
-3.205339
 21
-19.175975
 31
0.0
  0
LINE
  5
BB
100
AcDbEntity
  8
0
390
0
  6
Continuous
 62
     7
100
AcDbLine
 10
-3.205339
 20
-19.175975
 30
0.0
 11
-4.013392
 21
-21.175975
 31
0.0
  0
LINE
  5
BC
100
AcDbEntity
  8
0
390
0
  6
Continuous
 62
     7
100
AcDbLine
 10
-3.205339
 20
19.224025
 30
0.0
 11
-4.493261
 21
19.224025
 31
0.0
  0
LINE
  5
BD
100
AcDbEntity
  8
0
390
0
  6
Continuous
 62
     7
100
AcDbLine
 10
-4.493261
 20
21.224025
 30
0.0
 11
-4.013392
 21
21.224025
 31
0.0
  0
LINE
  5
BE
100
AcDbEntity
  8
0
390
0
  6
Continuous
 62
     7
100
AcDbLine
 10
-4.013392
 20
21.224025
 30
0.0
 11
-3.205339
 21
19.224025
 31
0.0
  0
LINE
  5
BF
100
AcDbEntity
  8
0
390
0
  6
Continuous
 62
     7
100
AcDbLine
 10
-4.493261
 20
19.224025
 30
0.0
 11
-4.493261
 21
21.224025
 31
0.0
  0
LINE
  5
C0
100
AcDbEntity
  8
0
390
0
  6
Continuous
 62
     7
100
AcDbLine
 10
9.454258
 20
-19.275975
 30
0.0
 11
9.006739
 21
-19.275975
 31
0.0
  0
LINE
  5
C1
100
AcDbEntity
  8
0
390
0
  6
Continuous
 62
     7
100
AcDbLine
 10
9.006739
 20
-17.275975
 30
0.0
 11
10.262311
 21
-17.275975
 31
0.0
  0
LINE
  5
C2
100
AcDbEntity
  8
0
390
0
  6
Continuous
 62
     7
100
AcDbLine
 10
9.006739
 20
-19.275975
 30
0.0
 11
9.006739
 21
-17.275975
 31
0.0
  0
LINE
  5
C3
100
AcDbEntity
  8
0
390
0
  6
Continuous
 62
     7
100
AcDbLine
 10
10.262311
 20
-17.275975
 30
0.0
 11
9.454258
 21
-19.275975
 31
0.0
  0
LINE
  5
C4
100
AcDbEntity
  8
0
390
0
  6
Continuous
 62
     7
100
AcDbLine
 10
4.986608
 20
-21.175975
 30
0.0
 11
4.506739
 21
-21.175975
 31
0.0
  0
LINE
  5
C5
100
AcDbEntity
  8
0
390
0
  6
Continuous
 62
     7
100
AcDbLine
 10
4.506739
 20
-21.175975
 30
0.0
 11
4.506739
 21
-19.175975
 31
0.0
  0
LINE
  5
C6
100
AcDbEntity
  8
0
390
0
  6
Continuous
 62
     7
100
AcDbLine
 10
4.506739
 20
-19.175975
 30
0.0
 11
5.794661
 21
-19.175975
 31
0.0
  0
LINE
  5
C7
100
AcDbEntity
  8
0
390
0
  6
Continuous
 62
     7
100
AcDbLine
 10
5.794661
 20
-19.175975
 30
0.0
 11
4.986608
 21
-21.175975
 31
0.0
  0
LINE
  5
C8
100
AcDbEntity
  8
0
390
0
  6
Continuous
 62
     7
100
AcDbLine
 10
-1.993261
 20
16.224025
 30
0.0
 11
-3.205339
 21
19.224025
 31
0.0
  0
LINE
  5
C9
100
AcDbEntity
  8
0
390
0
  6
Continuous
 62
     7
100
AcDbLine
 10
-1.993261
 20
15.66362
 30
0.0
 11
-1.993261
 21
16.224025
 31
0.0
  0
LINE
  5
CA
100
AcDbEntity
  8
0
390
0
  6
Continuous
 62
     7
100
AcDbLine
 10
-4.493261
 20
19.224025
 30
0.0
 11
-4.493261
 21
15.66362
 31
0.0
  0
LINE
  5
CB
100
AcDbEntity
  8
0
390
0
  6
Continuous
 62
     7
100
AcDbLine
 10
5.794661
 20
19.224025
 30
0.0
 11
4.506739
 21
19.224025
 31
0.0
  0
LINE
  5
CC
100
AcDbEntity
  8
0
390
0
  6
Continuous
 62
     7
100
AcDbLine
 10
4.506739
 20
19.224025
 30
0.0
 11
4.506739
 21
21.224025
 31
0.0
  0
LINE
  5
CD
100
AcDbEntity
  8
0
390
0
  6
Continuous
 62
     7
100
AcDbLine
 10
4.506739
 20
21.224025
 30
0.0
 11
4.986608
 21
21.224025
 31
0.0
  0
LINE
  5
CE
100
AcDbEntity
  8
0
390
0
  6
Continuous
 62
     7
100
AcDbLine
 10
4.986608
 20
21.224025
 30
0.0
 11
5.794661
 21
19.224025
 31
0.0
  0
LINE
  5
CF
100
AcDbEntity
  8
0
390
0
  6
Continuous
 62
     7
100
AcDbLine
 10
1.294661
 20
19.224025
 30
0.0
 11
0.006739
 21
19.224025
 31
0.0
  0
LINE
  5
D0
100
AcDbEntity
  8
0
390
0
  6
Continuous
 62
     7
100
AcDbLine
 10
0.006739
 20
19.224025
 30
0.0
 11
0.006739
 21
21.224025
 31
0.0
  0
LINE
  5
D1
100
AcDbEntity
  8
0
390
0
  6
Continuous
 62
     7
100
AcDbLine
 10
0.006739
 20
21.224025
 30
0.0
 11
0.486608
 21
21.224025
 31
0.0
  0
LINE
  5
D2
100
AcDbEntity
  8
0
390
0
  6
Continuous
 62
     7
100
AcDbLine
 10
0.486608
 20
21.224025
 30
0.0
 11
1.294661
 21
19.224025
 31
0.0
  0
LINE
  5
D3
100
AcDbEntity
  8
0
390
0
  6
Continuous
 62
     7
100
AcDbLine
 10
2.506739
 20
16.224025
 30
0.0
 11
1.294661
 21
19.224025
 31
0.0
  0
LINE
  5
D4
100
AcDbEntity
  8
0
390
0
  6
Continuous
 62
     7
100
AcDbLine
 10
0.006739
 20
19.224025
 30
0.0
 11
0.006739
 21
15.66362
 31
0.0
  0
LINE
  5
D5
100
AcDbEntity
  8
0
390
0
  6
Continuous
 62
     7
100
AcDbLine
 10
2.506739
 20
15.66362
 30
0.0
 11
2.506739
 21
16.224025
 31
0.0
  0
LINE
  5
D6
100
AcDbEntity
  8
0
390
0
  6
Continuous
 62
     7
100
AcDbLine
 10
7.006739
 20
-15.615569
 30
0.0
 11
7.006739
 21
-16.175975
 31
0.0
  0
LINE
  5
D7
100
AcDbEntity
  8
0
390
0
  6
Continuous
 62
     7
100
AcDbLine
 10
4.506739
 20
-19.175975
 30
0.0
 11
4.506739
 21
-15.615569
 31
0.0
  0
LINE
  5
D8
100
AcDbEntity
  8
0
390
0
  6
Continuous
 62
     7
100
AcDbLine
 10
7.006739
 20
-16.175975
 30
0.0
 11
5.794661
 21
-19.175975
 31
0.0
  0
LINE
  5
D9
100
AcDbEntity
  8
0
390
0
  6
Continuous
 62
     7
100
AcDbLine
 10
-1.993261
 20
-15.615569
 30
0.0
 11
-1.993261
 21
-16.175975
 31
0.0
  0
LINE
  5
DA
100
AcDbEntity
  8
0
390
0
  6
Continuous
 62
     7
100
AcDbLine
 10
-4.493261
 20
-19.175975
 30
0.0
 11
-4.493261
 21
-15.615569
 31
0.0
  0
LINE
  5
DB
100
AcDbEntity
  8
0
390
0
  6
Continuous
 62
     7
100
AcDbLine
 10
-1.993261
 20
-16.175975
 30
0.0
 11
-3.205339
 21
-19.175975
 31
0.0
  0
LINE
  5
DC
100
AcDbEntity
  8
0
390
0
  6
Continuous
 62
     7
100
AcDbLine
 10
0.486608
 20
-21.175975
 30
0.0
 11
0.006739
 21
-21.175975
 31
0.0
  0
LINE
  5
DD
100
AcDbEntity
  8
0
390
0
  6
Continuous
 62
     7
100
AcDbLine
 10
0.006739
 20
-19.175975
 30
0.0
 11
1.294661
 21
-19.175975
 31
0.0
  0
LINE
  5
DE
100
AcDbEntity
  8
0
390
0
  6
Continuous
 62
     7
100
AcDbLine
 10
0.006739
 20
-21.175975
 30
0.0
 11
0.006739
 21
-19.175975
 31
0.0
  0
LINE
  5
DF
100
AcDbEntity
  8
0
390
0
  6
Continuous
 62
     7
100
AcDbLine
 10
1.294661
 20
-19.175975
 30
0.0
 11
0.486608
 21
-21.175975
 31
0.0
  0
LINE
  5
E0
100
AcDbEntity
  8
0
390
0
  6
Continuous
 62
     7
100
AcDbLine
 10
7.006739
 20
16.224025
 30
0.0
 11
5.794661
 21
19.224025
 31
0.0
  0
LINE
  5
E1
100
AcDbEntity
  8
0
390
0
  6
Continuous
 62
     7
100
AcDbLine
 10
7.006739
 20
15.66362
 30
0.0
 11
7.006739
 21
16.224025
 31
0.0
  0
LINE
  5
E2
100
AcDbEntity
  8
0
390
0
  6
Continuous
 62
     7
100
AcDbLine
 10
4.506739
 20
19.224025
 30
0.0
 11
4.506739
 21
15.66362
 31
0.0
  0
LINE
  5
E3
100
AcDbEntity
  8
0
390
0
  6
Continuous
 62
     7
100
AcDbLine
 10
10.262311
 20
17.324025
 30
0.0
 11
9.006739
 21
17.324025
 31
0.0
  0
LINE
  5
E4
100
AcDbEntity
  8
0
390
0
  6
Continuous
 62
     7
100
AcDbLine
 10
10.706739
 20
16.224025
 30
0.0
 11
10.262311
 21
17.324025
 31
0.0
  0
LINE
  5
E5
100
AcDbEntity
  8
0
390
0
  6
Continuous
 62
     7
100
AcDbLine
 10
10.706739
 20
15.66362
 30
0.0
 11
10.706739
 21
16.224025
 31
0.0
  0
LINE
  5
E6
100
AcDbEntity
  8
0
390
0
  6
Continuous
 62
     7
100
AcDbLine
 10
9.006739
 20
17.324025
 30
0.0
 11
9.006739
 21
15.66362
 31
0.0
  0
LINE
  5
E7
100
AcDbEntity
  8
0
390
0
  6
Continuous
 62
     7
100
AcDbLine
 10
10.706739
 20
-15.615569
 30
0.0
 11
10.706739
 21
-16.175975
 31
0.0
  0
LINE
  5
E8
100
AcDbEntity
  8
0
390
0
  6
Continuous
 62
     7
100
AcDbLine
 10
9.006739
 20
-17.275975
 30
0.0
 11
9.006739
 21
-15.615569
 31
0.0
  0
LINE
  5
E9
100
AcDbEntity
  8
0
390
0
  6
Continuous
 62
     7
100
AcDbLine
 10
10.706739
 20
-16.175975
 30
0.0
 11
10.262311
 21
-17.275975
 31
0.0
  0
LINE
  5
EA
100
AcDbEntity
  8
0
390
0
  6
Continuous
 62
     7
100
AcDbLine
 10
2.506739
 20
-15.615569
 30
0.0
 11
2.506739
 21
-16.175975
 31
0.0
  0
LINE
  5
EB
100
AcDbEntity
  8
0
390
0
  6
Continuous
 62
     7
100
AcDbLine
 10
0.006739
 20
-19.175975
 30
0.0
 11
0.006739
 21
-15.615569
 31
0.0
  0
LINE
  5
EC
100
AcDbEntity
  8
0
390
0
  6
Continuous
 62
     7
100
AcDbLine
 10
2.506739
 20
-16.175975
 30
0.0
 11
1.294661
 21
-19.175975
 31
0.0
  0
LINE
  5
ED
100
AcDbEntity
  8
0
390
0
  6
Continuous
 62
     7
100
AcDbLine
 10
9.006739
 20
19.324025
 30
0.0
 11
9.454258
 21
19.324025
 31
0.0
  0
LINE
  5
EE
100
AcDbEntity
  8
0
390
0
  6
Continuous
 62
     7
100
AcDbLine
 10
9.454258
 20
19.324025
 30
0.0
 11
10.262311
 21
17.324025
 31
0.0
  0
LINE
  5
EF
100
AcDbEntity
  8
0
390
0
  6
Continuous
 62
     7
100
AcDbLine
 10
9.006739
 20
17.324025
 30
0.0
 11
9.006739
 21
19.324025
 31
0.0
  0
LINE
  5
F0
100
AcDbEntity
  8
0
390
0
  6
Continuous
 62
     7
100
AcDbLine
 10
-13.770754
 20
-11.132868
 30
0.0
 11
-13.838858
 21
-9.706748
 31
0.0
  0
LINE
  5
F1
100
AcDbEntity
  8
0
390
0
  6
Continuous
 62
     7
100
AcDbLine
 10
-13.84482
 20
-7.595636
 30
0.0
 11
-13.770754
 21
-11.132868
 31
0.0
  0
LINE
  5
F2
100
AcDbEntity
  8
0
390
0
  6
Continuous
 62
     7
100
AcDbLine
 10
-13.838858
 20
-9.706748
 30
0.0
 11
-13.765767
 21
-9.706748
 31
0.0
  0
LINE
  5
F3
100
AcDbEntity
  8
0
390
0
  6
Continuous
 62
     7
100
AcDbLine
 10
-13.862303
 20
-8.161293
 30
0.0
 11
-13.806966
 21
-8.161293
 31
0.0
  0
LINE
  5
F4
100
AcDbEntity
  8
0
390
0
  6
Continuous
 62
     7
100
AcDbLine
 10
-13.993429
 20
3.015524
 30
0.0
 11
-13.97983
 21
4.470194
 31
0.0
  0
LINE
  5
F5
100
AcDbEntity
  8
0
390
0
  6
Continuous
 62
     7
100
AcDbLine
 10
-13.97983
 20
4.470194
 30
0.0
 11
-13.947833
 21
6.642462
 31
0.0
  0
LINE
  5
F6
100
AcDbEntity
  8
0
390
0
  6
Continuous
 62
     7
100
AcDbLine
 10
-13.947833
 20
6.642462
 30
0.0
 11
-13.767104
 21
13.018203
 31
0.0
  0
LINE
  5
F7
100
AcDbEntity
  8
0
390
0
  6
Continuous
 62
     7
100
AcDbLine
 10
-13.918018
 20
-9.024929
 30
0.0
 11
-13.933105
 21
-8.16133
 31
0.0
  0
LINE
  5
F8
100
AcDbEntity
  8
0
390
0
  6
Continuous
 62
     7
100
AcDbLine
 10
-13.933105
 20
-8.16133
 30
0.0
 11
-13.942173
 21
-7.581084
 31
0.0
  0
LINE
  5
F9
100
AcDbEntity
  8
0
390
0
  6
Continuous
 62
     7
100
AcDbLine
 10
-13.942173
 20
-7.581084
 30
0.0
 11
-13.95646
 21
-6.530902
 31
0.0
  0
LINE
  5
FA
100
AcDbEntity
  8
0
390
0
  6
Continuous
 62
     7
100
AcDbLine
 10
-13.95646
 20
-6.530902
 30
0.0
 11
-13.975085
 21
-4.706766
 31
0.0
  0
LINE
  5
FB
100
AcDbEntity
  8
0
390
0
  6
Continuous
 62
     7
100
AcDbLine
 10
-13.975085
 20
-4.706766
 30
0.0
 11
-13.985261
 21
-3.161293
 31
0.0
  0
LINE
  5
FC
100
AcDbEntity
  8
0
390
0
  6
Continuous
 62
     7
100
AcDbLine
 10
-13.903473
 20
-9.024929
 30
0.0
 11
-13.918018
 21
-9.024929
 31
0.0
  0
LINE
  5
FD
100
AcDbEntity
  8
0
390
0
  6
Continuous
 62
     7
100
AcDbLine
 10
-13.873137
 20
-10.479475
 30
0.0
 11
-13.889932
 21
-9.707038
 31
0.0
  0
LINE
  5
FE
100
AcDbEntity
  8
0
390
0
  6
Continuous
 62
     7
100
AcDbLine
 10
-13.889932
 20
-9.707038
 30
0.0
 11
-13.903473
 21
-9.024929
 31
0.0
  0
LINE
  5
FF
100
AcDbEntity
  8
0
390
0
  6
Continuous
 62
     7
100
AcDbLine
 10
-13.836709
 20
-12.524929
 30
0.0
 11
-13.888208
 21
-10.479475
 31
0.0
  0
LINE
  5
100
100
AcDbEntity
  8
0
390
0
  6
Continuous
 62
     7
100
AcDbLine
 10
-13.904974
 20
-10.479475
 30
0.0
 11
-13.889548
 21
-11.15304
 31
0.0
  0
LINE
  5
101
100
AcDbEntity
  8
0
390
0
  6
Continuous
 62
     7
100
AcDbLine
 10
-13.954337
 20
-9.025735
 30
0.0
 11
-13.942007
 21
-9.706752
 31
0.0
  0
LINE
  5
102
100
AcDbEntity
  8
0
390
0
  6
Continuous
 62
     7
100
AcDbLine
 10
-13.942007
 20
-9.706752
 30
0.0
 11
-13.926422
 21
-10.479475
 31
0.0
  0
LINE
  5
103
100
AcDbEntity
  8
0
390
0
  6
Continuous
 62
     7
100
AcDbLine
 10
-13.903473
 20
-9.024929
 30
0.0
 11
-13.780025
 21
-9.024929
 31
0.0
  0
LINE
  5
104
100
AcDbEntity
  8
0
390
0
  6
Continuous
 62
     7
100
AcDbLine
 10
-13.836709
 20
-12.524929
 30
0.0
 11
-13.75025
 21
-12.524929
 31
0.0
  0
LINE
  5
105
100
AcDbEntity
  8
0
390
0
  6
Continuous
 62
     7
100
AcDbLine
 10
-13.906895
 20
11.310963
 30
0.0
 11
-13.855808
 21
11.310963
 31
0.0
  0
LINE
  5
106
100
AcDbEntity
  8
0
390
0
  6
Continuous
 62
     7
100
AcDbLine
 10
-13.903393
 20
11.311302
 30
0.0
 11
-13.85442
 21
13.018203
 31
0.0
  0
LINE
  5
107
100
AcDbEntity
  8
0
390
0
  6
Continuous
 62
     7
100
AcDbLine
 10
-13.999961
 20
-3.024929
 30
0.0
 11
-13.506739
 21
-3.024929
 31
0.0
  0
LINE
  5
108
100
AcDbEntity
  8
0
390
0
  6
Continuous
 62
     7
100
AcDbLine
 10
-13.847215
 20
-12.93402
 30
0.0
 11
-13.36708
 21
-12.93402
 31
0.0
  0
LINE
  5
109
100
AcDbEntity
  8
0
390
0
  6
Continuous
 62
     7
100
AcDbLine
 10
-13.847215
 20
-12.93402
 30
0.0
 11
-13.858704
 21
-12.525
 31
0.0
  0
LINE
  5
10A
100
AcDbEntity
  8
0
390
0
  6
Continuous
 62
     7
100
AcDbLine
 10
-13.879827
 20
-11.725104
 30
0.0
 11
-13.909186
 21
-10.479658
 31
0.0
  0
LINE
  5
10B
100
AcDbEntity
  8
0
390
0
  6
Continuous
 62
     7
100
AcDbLine
 10
-13.997866
 20
-3.539004
 30
0.0
 11
-13.999452
 21
-3.161296
 31
0.0
  0
LINE
  5
10C
100
AcDbEntity
  8
0
390
0
  6
Continuous
 62
     7
100
AcDbLine
 10
-13.999452
 20
-3.161296
 30
0.0
 11
-13.999961
 21
-3.024929
 31
0.0
  0
ARC
  5
10D
100
AcDbEntity
  8
0
390
0
  6
Continuous
 62
     7
100
AcDbCircle
 10
336.493261
 20
3.095617
 30
0.0
 40
350.0
210
0.0
220
0.0
230
1.0
100
AcDbArc
 50
177.129206
 51
178.375433
  0
ARC
  5
10E
100
AcDbEntity
  8
0
390
0
  6
Continuous
 62
     7
100
AcDbCircle
 10
336.493261
 20
-3.047567
 30
0.0
 40
350.0
210
0.0
220
0.0
230
1.0
100
AcDbArc
 50
180.0
 51
180.018617
  0
ARC
  5
10F
100
AcDbEntity
  8
0
390
0
  6
Continuous
 62
     7
100
AcDbCircle
 10
336.493261
 20
-3.047567
 30
0.0
 40
350.0
210
0.0
220
0.0
230
1.0
100
AcDbArc
 50
181.568832
 51
182.870792
  0
LINE
  5
110
100
AcDbEntity
  8
0
390
0
  6
Continuous
 62
     7
100
AcDbLine
 10
-13.506739
 20
2.999516
 30
0.0
 11
-13.506739
 21
3.01645
 31
0.0
  0
LINE
  5
111
100
AcDbEntity
  8
0
390
0
  6
Continuous
 62
     7
100
AcDbLine
 10
-13.506739
 20
2.999516
 30
0.0
 11
-13.506739
 21
-3.047567
 31
0.0
  0
ARC
  5
112
100
AcDbEntity
  8
0
390
0
  6
Continuous
 62
     7
100
AcDbCircle
 10
-11.070043
 20
20.524025
 30
0.0
 40
2.0
210
0.0
220
0.0
230
1.0
100
AcDbArc
 50
90.0
 51
177.129333
  0
ARC
  5
113
100
AcDbEntity
  8
0
390
0
  6
Continuous
 62
     7
100
AcDbCircle
 10
-11.070043
 20
-20.475975
 30
0.0
 40
2.0
210
0.0
220
0.0
230
1.0
100
AcDbArc
 50
182.870667
 51
270.0
  0
LINE
  5
114
100
AcDbEntity
  8
0
390
0
  6
Continuous
 62
     7
100
AcDbLine
 10
-13.358437
 20
-6.127596
 30
0.0
 11
-13.858649
 21
-6.127596
 31
0.0
  0
LINE
  5
115
100
AcDbEntity
  8
0
390
0
  6
Continuous
 62
     7
100
AcDbLine
 10
-13.728469
 20
-12.629819
 30
0.0
 11
-13.228071
 21
-12.629819
 31
0.0
  0
LINE
  5
116
100
AcDbEntity
  8
0
390
0
  6
Continuous
 62
     7
100
AcDbLine
 10
-14.006739
 20
3.015524
 30
0.0
 11
-14.006739
 21
2.999516
 31
0.0
  0
LINE
  5
117
100
AcDbEntity
  8
0
390
0
  6
Continuous
 62
     7
100
AcDbLine
 10
97.203034
 20
-16.175975
 30
0.0
 11
74.803034
 21
-16.175975
 31
0.0
  0
ARC
  5
118
100
AcDbEntity
  8
0
390
0
  6
Continuous
 62
     7
100
AcDbCircle
 10
74.803034
 20
-11.175975
 30
0.0
 40
5.0
210
0.0
220
0.0
230
1.0
100
AcDbArc
 50
180.0
 51
270.0
  0
LINE
  5
119
100
AcDbEntity
  8
0
390
0
  6
Continuous
 62
     7
100
AcDbLine
 10
69.803034
 20
-11.175975
 30
0.0
 11
69.803034
 21
11.224025
 31
0.0
  0
ARC
  5
11A
100
AcDbEntity
  8
0
390
0
  6
Continuous
 62
     7
100
AcDbCircle
 10
74.803034
 20
11.224025
 30
0.0
 40
5.0
210
0.0
220
0.0
230
1.0
100
AcDbArc
 50
90.0
 51
180.0
  0
LINE
  5
11B
100
AcDbEntity
  8
0
390
0
  6
Continuous
 62
     7
100
AcDbLine
 10
74.803034
 20
16.224025
 30
0.0
 11
97.203034
 21
16.224025
 31
0.0
  0
ARC
  5
11C
100
AcDbEntity
  8
0
390
0
  6
Continuous
 62
     7
100
AcDbCircle
 10
97.203034
 20
11.224025
 30
0.0
 40
5.0
210
0.0
220
0.0
230
1.0
100
AcDbArc
 50
0.0
 51
90.0
  0
LINE
  5
11D
100
AcDbEntity
  8
0
390
0
  6
Continuous
 62
     7
100
AcDbLine
 10
102.203034
 20
11.224025
 30
0.0
 11
102.203034
 21
-11.175975
 31
0.0
  0
ARC
  5
11E
100
AcDbEntity
  8
0
390
0
  6
Continuous
 62
     7
100
AcDbCircle
 10
97.203034
 20
-11.175975
 30
0.0
 40
5.0
210
0.0
220
0.0
230
1.0
100
AcDbArc
 50
270.0
 51
360.0
  0
ARC
  5
11F
100
AcDbEntity
  8
0
390
0
  6
Continuous
 62
     7
100
AcDbCircle
 10
97.203034
 20
11.224025
 30
0.0
 40
2.5
210
0.0
220
0.0
230
1.0
100
AcDbArc
 50
0.0
 51
90.0
  0
LINE
  5
120
100
AcDbEntity
  8
0
390
0
  6
Continuous
 62
     7
100
AcDbLine
 10
74.803034
 20
13.724025
 30
0.0
 11
97.203034
 21
13.724025
 31
0.0
  0
ARC
  5
121
100
AcDbEntity
  8
0
390
0
  6
Continuous
 62
     7
100
AcDbCircle
 10
74.803034
 20
11.224025
 30
0.0
 40
2.5
210
0.0
220
0.0
230
1.0
100
AcDbArc
 50
90.0
 51
180.0
  0
LINE
  5
122
100
AcDbEntity
  8
0
390
0
  6
Continuous
 62
     7
100
AcDbLine
 10
72.303034
 20
-11.175975
 30
0.0
 11
72.303034
 21
11.224025
 31
0.0
  0
ARC
  5
123
100
AcDbEntity
  8
0
390
0
  6
Continuous
 62
     7
100
AcDbCircle
 10
74.803034
 20
-11.175975
 30
0.0
 40
2.5
210
0.0
220
0.0
230
1.0
100
AcDbArc
 50
180.0
 51
270.0
  0
LINE
  5
124
100
AcDbEntity
  8
0
390
0
  6
Continuous
 62
     7
100
AcDbLine
 10
97.203034
 20
-13.675975
 30
0.0
 11
74.803034
 21
-13.675975
 31
0.0
  0
ARC
  5
125
100
AcDbEntity
  8
0
390
0
  6
Continuous
 62
     7
100
AcDbCircle
 10
97.203034
 20
-11.175975
 30
0.0
 40
2.5
210
0.0
220
0.0
230
1.0
100
AcDbArc
 50
270.0
 51
360.0
  0
LINE
  5
126
100
AcDbEntity
  8
0
390
0
  6
Continuous
 62
     7
100
AcDbLine
 10
99.703034
 20
11.224025
 30
0.0
 11
99.703034
 21
-11.175975
 31
0.0
  0
LINE
  5
127
100
AcDbEntity
  8
0
390
0
  6
Continuous
 62
     7
100
AcDbLine
 10
74.803034
 20
-16.175975
 30
0.0
 11
72.503034
 21
-16.175975
 31
0.0
  0
LINE
  5
128
100
AcDbEntity
  8
0
390
0
  6
Continuous
 62
     7
100
AcDbLine
 10
99.503034
 20
-16.175975
 30
0.0
 11
97.203034
 21
-16.175975
 31
0.0
  0
LINE
  5
129
100
AcDbEntity
  8
0
390
0
  6
Continuous
 62
     7
100
AcDbLine
 10
99.503034
 20
-16.175975
 30
0.0
 11
99.503034
 21
-17.275975
 31
0.0
  0
ARC
  5
12A
100
AcDbEntity
  8
0
390
0
  6
Continuous
 62
     7
100
AcDbCircle
 10
97.503034
 20
-17.275975
 30
0.0
 40
2.0
210
0.0
220
0.0
230
1.0
100
AcDbArc
 50
270.0
 51
360.0
  0
LINE
  5
12B
100
AcDbEntity
  8
0
390
0
  6
Continuous
 62
     7
100
AcDbLine
 10
97.503034
 20
-19.275975
 30
0.0
 11
74.503034
 21
-19.275975
 31
0.0
  0
ARC
  5
12C
100
AcDbEntity
  8
0
390
0
  6
Continuous
 62
     7
100
AcDbCircle
 10
74.503034
 20
-17.275975
 30
0.0
 40
2.0
210
0.0
220
0.0
230
1.0
100
AcDbArc
 50
180.0
 51
270.0
  0
LINE
  5
12D
100
AcDbEntity
  8
0
390
0
  6
Continuous
 62
     7
100
AcDbLine
 10
72.503034
 20
-16.175975
 30
0.0
 11
72.503034
 21
-17.275975
 31
0.0
  0
LINE
  5
12E
100
AcDbEntity
  8
0
390
0
  6
Continuous
 62
     7
100
AcDbLine
 10
72.503034
 20
-15.615569
 30
0.0
 11
72.503034
 21
-16.175975
 31
0.0
  0
LINE
  5
12F
100
AcDbEntity
  8
0
390
0
  6
Continuous
 62
     7
100
AcDbLine
 10
69.803034
 20
11.224025
 30
0.0
 11
69.803034
 21
13.524025
 31
0.0
  0
LINE
  5
130
100
AcDbEntity
  8
0
390
0
  6
Continuous
 62
     7
100
AcDbLine
 10
69.803034
 20
-13.475975
 30
0.0
 11
69.803034
 21
-11.175975
 31
0.0
  0
LINE
  5
131
100
AcDbEntity
  8
0
390
0
  6
Continuous
 62
     7
100
AcDbLine
 10
69.803034
 20
-13.475975
 30
0.0
 11
68.703034
 21
-13.475975
 31
0.0
  0
ARC
  5
132
100
AcDbEntity
  8
0
390
0
  6
Continuous
 62
     7
100
AcDbCircle
 10
68.703034
 20
-11.475975
 30
0.0
 40
2.0
210
0.0
220
0.0
230
1.0
100
AcDbArc
 50
180.0
 51
270.0
  0
LINE
  5
133
100
AcDbEntity
  8
0
390
0
  6
Continuous
 62
     7
100
AcDbLine
 10
66.703034
 20
-11.475975
 30
0.0
 11
66.703034
 21
11.524025
 31
0.0
  0
ARC
  5
134
100
AcDbEntity
  8
0
390
0
  6
Continuous
 62
     7
100
AcDbCircle
 10
68.703034
 20
11.524025
 30
0.0
 40
2.0
210
0.0
220
0.0
230
1.0
100
AcDbArc
 50
90.0
 51
180.0
  0
LINE
  5
135
100
AcDbEntity
  8
0
390
0
  6
Continuous
 62
     7
100
AcDbLine
 10
69.803034
 20
13.524025
 30
0.0
 11
68.703034
 21
13.524025
 31
0.0
  0
LINE
  5
136
100
AcDbEntity
  8
0
390
0
  6
Continuous
 62
     7
100
AcDbLine
 10
70.36344
 20
-13.475975
 30
0.0
 11
69.803034
 21
-13.475975
 31
0.0
  0
LINE
  5
137
100
AcDbEntity
  8
0
390
0
  6
Continuous
 62
     7
100
AcDbLine
 10
72.503034
 20
15.66362
 30
0.0
 11
72.503034
 21
16.224025
 31
0.0
  0
LINE
  5
138
100
AcDbEntity
  8
0
390
0
  6
Continuous
 62
     7
100
AcDbLine
 10
72.503034
 20
16.224025
 30
0.0
 11
74.803034
 21
16.224025
 31
0.0
  0
LINE
  5
139
100
AcDbEntity
  8
0
390
0
  6
Continuous
 62
     7
100
AcDbLine
 10
97.203034
 20
16.224025
 30
0.0
 11
99.503034
 21
16.224025
 31
0.0
  0
LINE
  5
13A
100
AcDbEntity
  8
0
390
0
  6
Continuous
 62
     7
100
AcDbLine
 10
72.503034
 20
16.224025
 30
0.0
 11
72.503034
 21
17.324025
 31
0.0
  0
ARC
  5
13B
100
AcDbEntity
  8
0
390
0
  6
Continuous
 62
     7
100
AcDbCircle
 10
74.503034
 20
17.324025
 30
0.0
 40
2.0
210
0.0
220
0.0
230
1.0
100
AcDbArc
 50
90.0
 51
180.0
  0
LINE
  5
13C
100
AcDbEntity
  8
0
390
0
  6
Continuous
 62
     7
100
AcDbLine
 10
74.503034
 20
19.324025
 30
0.0
 11
97.503034
 21
19.324025
 31
0.0
  0
ARC
  5
13D
100
AcDbEntity
  8
0
390
0
  6
Continuous
 62
     7
100
AcDbCircle
 10
97.503034
 20
17.324025
 30
0.0
 40
2.0
210
0.0
220
0.0
230
1.0
100
AcDbArc
 50
0.0
 51
90.0
  0
LINE
  5
13E
100
AcDbEntity
  8
0
390
0
  6
Continuous
 62
     7
100
AcDbLine
 10
99.503034
 20
16.224025
 30
0.0
 11
99.503034
 21
17.324025
 31
0.0
  0
LINE
  5
13F
100
AcDbEntity
  8
0
390
0
  6
Continuous
 62
     7
100
AcDbLine
 10
70.36344
 20
13.524025
 30
0.0
 11
69.803034
 21
13.524025
 31
0.0
  0
LINE
  5
140
100
AcDbEntity
  8
0
390
0
  6
Continuous
 62
     7
100
AcDbLine
 10
101.642629
 20
13.524025
 30
0.0
 11
102.203034
 21
13.524025
 31
0.0
  0
LINE
  5
141
100
AcDbEntity
  8
0
390
0
  6
Continuous
 62
     7
100
AcDbLine
 10
102.203034
 20
13.524025
 30
0.0
 11
102.203034
 21
11.224025
 31
0.0
  0
LINE
  5
142
100
AcDbEntity
  8
0
390
0
  6
Continuous
 62
     7
100
AcDbLine
 10
102.203034
 20
-11.175975
 30
0.0
 11
102.203034
 21
-13.475975
 31
0.0
  0
LINE
  5
143
100
AcDbEntity
  8
0
390
0
  6
Continuous
 62
     7
100
AcDbLine
 10
102.203034
 20
13.524025
 30
0.0
 11
103.303034
 21
13.524025
 31
0.0
  0
ARC
  5
144
100
AcDbEntity
  8
0
390
0
  6
Continuous
 62
     7
100
AcDbCircle
 10
103.303034
 20
11.524025
 30
0.0
 40
2.0
210
0.0
220
0.0
230
1.0
100
AcDbArc
 50
0.0
 51
90.0
  0
LINE
  5
145
100
AcDbEntity
  8
0
390
0
  6
Continuous
 62
     7
100
AcDbLine
 10
105.303034
 20
11.524025
 30
0.0
 11
105.303034
 21
-11.475975
 31
0.0
  0
ARC
  5
146
100
AcDbEntity
  8
0
390
0
  6
Continuous
 62
     7
100
AcDbCircle
 10
103.303034
 20
-11.475975
 30
0.0
 40
2.0
210
0.0
220
0.0
230
1.0
100
AcDbArc
 50
270.0
 51
360.0
  0
LINE
  5
147
100
AcDbEntity
  8
0
390
0
  6
Continuous
 62
     7
100
AcDbLine
 10
102.203034
 20
-13.475975
 30
0.0
 11
103.303034
 21
-13.475975
 31
0.0
  0
LINE
  5
148
100
AcDbEntity
  8
0
390
0
  6
Continuous
 62
     7
100
AcDbLine
 10
99.503034
 20
15.66362
 30
0.0
 11
99.503034
 21
16.224025
 31
0.0
  0
LINE
  5
149
100
AcDbEntity
  8
0
390
0
  6
Continuous
 62
     7
100
AcDbLine
 10
101.642629
 20
-13.475975
 30
0.0
 11
102.203034
 21
-13.475975
 31
0.0
  0
LINE
  5
14A
100
AcDbEntity
  8
0
390
0
  6
Continuous
 62
     7
100
AcDbLine
 10
99.503034
 20
-15.615569
 30
0.0
 11
99.503034
 21
-16.175975
 31
0.0
  0
LINE
  5
14B
100
AcDbEntity
  8
0
390
0
  6
Continuous
 62
     7
100
AcDbLine
 10
73.367902
 20
11.224025
 30
0.0
 11
72.303034
 21
11.224025
 31
0.0
  0
LINE
  5
14C
100
AcDbEntity
  8
0
390
0
  6
Continuous
 62
     7
100
AcDbLine
 10
73.367902
 20
-11.175975
 30
0.0
 11
73.367902
 21
11.224025
 31
0.0
  0
LINE
  5
14D
100
AcDbEntity
  8
0
390
0
  6
Continuous
 62
     7
100
AcDbLine
 10
73.367902
 20
-11.175975
 30
0.0
 11
72.303034
 21
-11.175975
 31
0.0
  0
ARC
  5
14E
100
AcDbEntity
  8
0
390
0
  6
Continuous
 62
     7
100
AcDbCircle
 10
74.802454
 20
-11.176555
 30
0.0
 40
1.434553
210
0.0
220
0.0
230
1.0
100
AcDbArc
 50
179.976829
 51
270.023171
  0
LINE
  5
14F
100
AcDbEntity
  8
0
390
0
  6
Continuous
 62
     7
100
AcDbLine
 10
74.803034
 20
-12.611108
 30
0.0
 11
74.803034
 21
-13.675975
 31
0.0
  0
LINE
  5
150
100
AcDbEntity
  8
0
390
0
  6
Continuous
 62
     7
100
AcDbLine
 10
74.803034
 20
12.659158
 30
0.0
 11
74.803034
 21
13.724025
 31
0.0
  0
ARC
  5
151
100
AcDbEntity
  8
0
390
0
  6
Continuous
 62
     7
100
AcDbCircle
 10
74.802454
 20
11.224605
 30
0.0
 40
1.434553
210
0.0
220
0.0
230
1.0
100
AcDbArc
 50
89.976829
 51
180.023171
  0
LINE
  5
152
100
AcDbEntity
  8
0
390
0
  6
Continuous
 62
     7
100
AcDbLine
 10
97.203034
 20
12.659158
 30
0.0
 11
97.203034
 21
13.724025
 31
0.0
  0
LINE
  5
153
100
AcDbEntity
  8
0
390
0
  6
Continuous
 62
     7
100
AcDbLine
 10
74.803034
 20
12.659158
 30
0.0
 11
97.203034
 21
12.659158
 31
0.0
  0
LINE
  5
154
100
AcDbEntity
  8
0
390
0
  6
Continuous
 62
     7
100
AcDbLine
 10
97.203034
 20
-12.611108
 30
0.0
 11
74.803034
 21
-12.611108
 31
0.0
  0
LINE
  5
155
100
AcDbEntity
  8
0
390
0
  6
Continuous
 62
     7
100
AcDbLine
 10
97.203034
 20
-12.611108
 30
0.0
 11
97.203034
 21
-13.675975
 31
0.0
  0
LINE
  5
156
100
AcDbEntity
  8
0
390
0
  6
Continuous
 62
     7
100
AcDbLine
 10
98.638167
 20
11.224025
 30
0.0
 11
99.703034
 21
11.224025
 31
0.0
  0
ARC
  5
157
100
AcDbEntity
  8
0
390
0
  6
Continuous
 62
     7
100
AcDbCircle
 10
97.203615
 20
11.224605
 30
0.0
 40
1.434553
210
0.0
220
0.0
230
1.0
100
AcDbArc
 50
359.976829
 51
90.023171
  0
LINE
  5
158
100
AcDbEntity
  8
0
390
0
  6
Continuous
 62
     7
100
AcDbLine
 10
98.638167
 20
-11.175975
 30
0.0
 11
99.703034
 21
-11.175975
 31
0.0
  0
LINE
  5
159
100
AcDbEntity
  8
0
390
0
  6
Continuous
 62
     7
100
AcDbLine
 10
98.638167
 20
11.224025
 30
0.0
 11
98.638167
 21
-11.175975
 31
0.0
  0
ARC
  5
15A
100
AcDbEntity
  8
0
390
0
  6
Continuous
 62
     7
100
AcDbCircle
 10
97.203615
 20
-11.176555
 30
0.0
 40
1.434553
210
0.0
220
0.0
230
1.0
100
AcDbArc
 50
269.976829
 51
0.023171
  0
ARC
  5
15B
100
AcDbEntity
  8
0
390
0
  6
Continuous
 62
     7
100
AcDbCircle
 10
74.503034
 20
-19.175975
 30
0.0
 40
2.0
210
0.0
220
0.0
230
1.0
100
AcDbArc
 50
180.0
 51
270.0
  0
ARC
  5
15C
100
AcDbEntity
  8
0
390
0
  6
Continuous
 62
     7
100
AcDbCircle
 10
97.503034
 20
-19.175975
 30
0.0
 40
2.0
210
0.0
220
0.0
230
1.0
100
AcDbArc
 50
270.0
 51
360.0
  0
LINE
  5
15D
100
AcDbEntity
  8
0
390
0
  6
Continuous
 62
     7
100
AcDbLine
 10
97.503034
 20
-21.175975
 30
0.0
 11
74.503034
 21
-21.175975
 31
0.0
  0
LINE
  5
15E
100
AcDbEntity
  8
0
390
0
  6
Continuous
 62
     7
100
AcDbLine
 10
99.503034
 20
-17.275975
 30
0.0
 11
99.503034
 21
-19.175975
 31
0.0
  0
LINE
  5
15F
100
AcDbEntity
  8
0
390
0
  6
Continuous
 62
     7
100
AcDbLine
 10
72.503034
 20
-17.275975
 30
0.0
 11
72.503034
 21
-19.175975
 31
0.0
  0
ARC
  5
160
100
AcDbEntity
  8
0
390
0
  6
Continuous
 62
     7
100
AcDbCircle
 10
97.503034
 20
19.224025
 30
0.0
 40
2.0
210
0.0
220
0.0
230
1.0
100
AcDbArc
 50
0.0
 51
90.0
  0
ARC
  5
161
100
AcDbEntity
  8
0
390
0
  6
Continuous
 62
     7
100
AcDbCircle
 10
74.503034
 20
19.224025
 30
0.0
 40
2.0
210
0.0
220
0.0
230
1.0
100
AcDbArc
 50
90.0
 51
180.0
  0
LINE
  5
162
100
AcDbEntity
  8
0
390
0
  6
Continuous
 62
     7
100
AcDbLine
 10
74.503034
 20
21.224025
 30
0.0
 11
97.503034
 21
21.224025
 31
0.0
  0
LINE
  5
163
100
AcDbEntity
  8
0
390
0
  6
Continuous
 62
     7
100
AcDbLine
 10
99.503034
 20
17.324025
 30
0.0
 11
99.503034
 21
19.224025
 31
0.0
  0
LINE
  5
164
100
AcDbEntity
  8
0
390
0
  6
Continuous
 62
     7
100
AcDbLine
 10
72.503034
 20
17.324025
 30
0.0
 11
72.503034
 21
19.224025
 31
0.0
  0
ARC
  5
165
100
AcDbEntity
  8
0
390
0
  6
Continuous
 62
     7
100
AcDbCircle
 10
66.803034
 20
11.524025
 30
0.0
 40
2.0
210
0.0
220
0.0
230
1.0
100
AcDbArc
 50
90.0
 51
180.0
  0
ARC
  5
166
100
AcDbEntity
  8
0
390
0
  6
Continuous
 62
     7
100
AcDbCircle
 10
66.803034
 20
-11.475975
 30
0.0
 40
2.0
210
0.0
220
0.0
230
1.0
100
AcDbArc
 50
180.0
 51
270.0
  0
LINE
  5
167
100
AcDbEntity
  8
0
390
0
  6
Continuous
 62
     7
100
AcDbLine
 10
64.803034
 20
-11.475975
 30
0.0
 11
64.803034
 21
11.524025
 31
0.0
  0
LINE
  5
168
100
AcDbEntity
  8
0
390
0
  6
Continuous
 62
     7
100
AcDbLine
 10
68.703034
 20
-13.475975
 30
0.0
 11
66.803034
 21
-13.475975
 31
0.0
  0
LINE
  5
169
100
AcDbEntity
  8
0
390
0
  6
Continuous
 62
     7
100
AcDbLine
 10
68.703034
 20
13.524025
 30
0.0
 11
66.803034
 21
13.524025
 31
0.0
  0
ARC
  5
16A
100
AcDbEntity
  8
0
390
0
  6
Continuous
 62
     7
100
AcDbCircle
 10
105.203034
 20
-11.475975
 30
0.0
 40
2.0
210
0.0
220
0.0
230
1.0
100
AcDbArc
 50
270.0
 51
360.0
  0
ARC
  5
16B
100
AcDbEntity
  8
0
390
0
  6
Continuous
 62
     7
100
AcDbCircle
 10
105.203034
 20
11.524025
 30
0.0
 40
2.0
210
0.0
220
0.0
230
1.0
100
AcDbArc
 50
0.0
 51
90.0
  0
LINE
  5
16C
100
AcDbEntity
  8
0
390
0
  6
Continuous
 62
     7
100
AcDbLine
 10
107.203034
 20
11.524025
 30
0.0
 11
107.203034
 21
-11.475975
 31
0.0
  0
LINE
  5
16D
100
AcDbEntity
  8
0
390
0
  6
Continuous
 62
     7
100
AcDbLine
 10
103.303034
 20
-13.475975
 30
0.0
 11
105.203034
 21
-13.475975
 31
0.0
  0
LINE
  5
16E
100
AcDbEntity
  8
0
390
0
  6
Continuous
 62
     7
100
AcDbLine
 10
103.303034
 20
13.524025
 30
0.0
 11
105.203034
 21
13.524025
 31
0.0
  0
LINE
  5
16F
100
AcDbEntity
  8
0
390
0
  6
Continuous
 62
     7
100
AcDbLine
 10
105.503034
 20
-22.475975
 30
0.0
 11
66.503034
 21
-22.475975
 31
0.0
  0
ARC
  5
170
100
AcDbEntity
  8
0
390
0
  6
Continuous
 62
     7
100
AcDbCircle
 10
66.503034
 20
-19.475975
 30
0.0
 40
3.0
210
0.0
220
0.0
230
1.0
100
AcDbArc
 50
180.0
 51
270.0
  0
LINE
  5
171
100
AcDbEntity
  8
0
390
0
  6
Continuous
 62
     7
100
AcDbLine
 10
63.503034
 20
-19.475975
 30
0.0
 11
63.503034
 21
19.524025
 31
0.0
  0
ARC
  5
172
100
AcDbEntity
  8
0
390
0
  6
Continuous
 62
     7
100
AcDbCircle
 10
66.503034
 20
19.524025
 30
0.0
 40
3.0
210
0.0
220
0.0
230
1.0
100
AcDbArc
 50
90.0
 51
180.0
  0
LINE
  5
173
100
AcDbEntity
  8
0
390
0
  6
Continuous
 62
     7
100
AcDbLine
 10
66.503034
 20
22.524025
 30
0.0
 11
105.503034
 21
22.524025
 31
0.0
  0
ARC
  5
174
100
AcDbEntity
  8
0
390
0
  6
Continuous
 62
     7
100
AcDbCircle
 10
105.503034
 20
19.524025
 30
0.0
 40
3.0
210
0.0
220
0.0
230
1.0
100
AcDbArc
 50
0.0
 51
90.0
  0
LINE
  5
175
100
AcDbEntity
  8
0
390
0
  6
Continuous
 62
     7
100
AcDbLine
 10
108.503034
 20
19.524025
 30
0.0
 11
108.503034
 21
-19.475975
 31
0.0
  0
ARC
  5
176
100
AcDbEntity
  8
0
390
0
  6
Continuous
 62
     7
100
AcDbCircle
 10
105.503034
 20
-19.475975
 30
0.0
 40
3.0
210
0.0
220
0.0
230
1.0
100
AcDbArc
 50
270.0
 51
360.0
  0
LINE
  5
177
100
AcDbEntity
  8
0
390
0
  6
Continuous
 62
     7
100
AcDbLine
 10
97.22921
 20
11.687724
 30
0.0
 11
74.776859
 21
11.687724
 31
0.0
  0
ELLIPSE
  5
178
100
AcDbEntity
  8
0
390
0
  6
Continuous
 62
     7
100
AcDbEllipse
 10
74.803034
 20
11.660528
 30
0.0
 11
0.0013747604051262
 21
0.999999055016465
 31
0.0
210
0.0
220
0.0
230
1.0
 40
0.026223
 41
0.0523779058190669
 42
1.5436328967710584
  0
ELLIPSE
  5
179
100
AcDbEntity
  8
0
390
0
  6
Continuous
 62
     7
100
AcDbEllipse
 10
97.203034
 20
11.660528
 30
0.0
 11
-0.0013747604051262
 21
0.999999055016465
 31
0.0
210
0.0
220
0.0
230
1.0
 40
0.026223
 41
4.7395524104085283
 42
6.2308074013606847
  0
ELLIPSE
  5
17A
100
AcDbEntity
  8
0
390
0
  6
Continuous
 62
     7
100
AcDbEllipse
 10
74.803034
 20
-11.612478
 30
0.0
 11
-0.0013747604051262
 21
0.999999055016465
 31
0.0
210
0.0
220
0.0
230
1.0
 40
0.026223
 41
1.5979597568187707
 42
3.0892147477708982
  0
LINE
  5
17B
100
AcDbEntity
  8
0
390
0
  6
Continuous
 62
     7
100
AcDbLine
 10
74.776859
 20
-11.639674
 30
0.0
 11
97.22921
 21
-11.639674
 31
0.0
  0
ELLIPSE
  5
17C
100
AcDbEntity
  8
0
390
0
  6
Continuous
 62
     7
100
AcDbEllipse
 10
97.203034
 20
-11.612478
 30
0.0
 11
0.0013747604051262
 21
0.999999055016465
 31
0.0
210
0.0
220
0.0
230
1.0
 40
0.026223
 41
3.1939705594087431
 42
4.6852255503608173
  0
LINE
  5
17D
100
AcDbEntity
  8
0
390
0
  6
Continuous
 62
     7
100
AcDbLine
 10
74.339335
 20
11.250201
 30
0.0
 11
74.339335
 21
-11.202151
 31
0.0
  0
ELLIPSE
  5
17E
100
AcDbEntity
  8
0
390
0
  6
Continuous
 62
     7
100
AcDbEllipse
 10
74.366531
 20
-11.175975
 30
0.0
 11
-0.999999055016465
 21
0.0013747604051262
 31
0.0
210
0.0
220
0.0
230
1.0
 40
0.026223
 41
0.0523779058189261
 42
1.5436328967710264
  0
ELLIPSE
  5
17F
100
AcDbEntity
  8
0
390
0
  6
Continuous
 62
     7
100
AcDbEllipse
 10
74.366531
 20
11.224025
 30
0.0
 11
-0.999999055016465
 21
-0.0013747604051262
 31
0.0
210
0.0
220
0.0
230
1.0
 40
0.026223
 41
4.7395524104085895
 42
6.2308074013606882
  0
ELLIPSE
  5
180
100
AcDbEntity
  8
0
390
0
  6
Continuous
 62
     7
100
AcDbEllipse
 10
97.639538
 20
-11.175975
 30
0.0
 11
-0.999999055016465
 21
-0.0013747604051262
 31
0.0
210
0.0
220
0.0
230
1.0
 40
0.026223
 41
1.5979597568187391
 42
3.0892147477708116
  0
LINE
  5
181
100
AcDbEntity
  8
0
390
0
  6
Continuous
 62
     7
100
AcDbLine
 10
97.666734
 20
-11.202151
 30
0.0
 11
97.666734
 21
11.250201
 31
0.0
  0
ELLIPSE
  5
182
100
AcDbEntity
  8
0
390
0
  6
Continuous
 62
     7
100
AcDbEllipse
 10
97.639538
 20
11.224025
 30
0.0
 11
-0.999999055016465
 21
0.0013747604051262
 31
0.0
210
0.0
220
0.0
230
1.0
 40
0.026223
 41
3.1939705594086325
 42
4.6852255503608431
  0
POLYLINE
  5
183
100
AcDbEntity
  8
0
390
0
  6
Continuous
 62
     7
100
AcDb2dPolyline
 66
     1
 10
0.0
 20
0.0
 30
0.0
 40
0.1
 41
0.1
  0
VERTEX
  5
184
100
AcDbEntity
  8
0
390
0
 62
     7
100
AcDbVertex
100
AcDb2dVertex
 10
74.339335
 20
-11.202151
 30
0.0
  0
VERTEX
  5
185
100
AcDbEntity
  8
0
390
0
 62
     7
100
AcDbVertex
100
AcDb2dVertex
 10
74.339747
 20
-11.221761
 30
0.0
  0
VERTEX
  5
186
100
AcDbEntity
  8
0
390
0
 62
     7
100
AcDbVertex
100
AcDb2dVertex
 10
74.341041
 20
-11.241363
 30
0.0
  0
VERTEX
  5
187
100
AcDbEntity
  8
0
390
0
 62
     7
100
AcDbVertex
100
AcDb2dVertex
 10
74.343212
 20
-11.260899
 30
0.0
  0
VERTEX
  5
188
100
AcDbEntity
  8
0
390
0
 62
     7
100
AcDbVertex
100
AcDb2dVertex
 10
74.346254
 20
-11.280308
 30
0.0
  0
VERTEX
  5
189
100
AcDbEntity
  8
0
390
0
 62
     7
100
AcDbVertex
100
AcDb2dVertex
 10
74.350159
 20
-11.299532
 30
0.0
  0
VERTEX
  5
18A
100
AcDbEntity
  8
0
390
0
 62
     7
100
AcDbVertex
100
AcDb2dVertex
 10
74.35454
 20
-11.317133
 30
0.0
  0
VERTEX
  5
18B
100
AcDbEntity
  8
0
390
0
 62
     7
100
AcDbVertex
100
AcDb2dVertex
 10
74.359651
 20
-11.334553
 30
0.0
  0
VERTEX
  5
18C
100
AcDbEntity
  8
0
390
0
 62
     7
100
AcDbVertex
100
AcDb2dVertex
 10
74.36548
 20
-11.351747
 30
0.0
  0
VERTEX
  5
18D
100
AcDbEntity
  8
0
390
0
 62
     7
100
AcDbVertex
100
AcDb2dVertex
 10
74.372013
 20
-11.368669
 30
0.0
  0
VERTEX
  5
18E
100
AcDbEntity
  8
0
390
0
 62
     7
100
AcDbVertex
100
AcDb2dVertex
 10
74.379465
 20
-11.385784
 30
0.0
  0
VERTEX
  5
18F
100
AcDbEntity
  8
0
390
0
 62
     7
100
AcDbVertex
100
AcDb2dVertex
 10
74.38765
 20
-11.40258
 30
0.0
  0
VERTEX
  5
190
100
AcDbEntity
  8
0
390
0
 62
     7
100
AcDbVertex
100
AcDb2dVertex
 10
74.396544
 20
-11.419012
 30
0.0
  0
VERTEX
  5
191
100
AcDbEntity
  8
0
390
0
 62
     7
100
AcDbVertex
100
AcDb2dVertex
 10
74.406123
 20
-11.435035
 30
0.0
  0
VERTEX
  5
192
100
AcDbEntity
  8
0
390
0
 62
     7
100
AcDbVertex
100
AcDb2dVertex
 10
74.416082
 20
-11.450199
 30
0.0
  0
VERTEX
  5
193
100
AcDbEntity
  8
0
390
0
 62
     7
100
AcDbVertex
100
AcDb2dVertex
 10
74.426673
 20
-11.464949
 30
0.0
  0
VERTEX
  5
194
100
AcDbEntity
  8
0
390
0
 62
     7
100
AcDbVertex
100
AcDb2dVertex
 10
74.437866
 20
-11.479248
 30
0.0
  0
VERTEX
  5
195
100
AcDbEntity
  8
0
390
0
 62
     7
100
AcDbVertex
100
AcDb2dVertex
 10
74.449633
 20
-11.493057
 30
0.0
  0
VERTEX
  5
196
100
AcDbEntity
  8
0
390
0
 62
     7
100
AcDbVertex
100
AcDb2dVertex
 10
74.462332
 20
-11.506744
 30
0.0
  0
VERTEX
  5
197
100
AcDbEntity
  8
0
390
0
 62
     7
100
AcDbVertex
100
AcDb2dVertex
 10
74.475617
 20
-11.519886
 30
0.0
  0
VERTEX
  5
198
100
AcDbEntity
  8
0
390
0
 62
     7
100
AcDbVertex
100
AcDb2dVertex
 10
74.489451
 20
-11.532451
 30
0.0
  0
VERTEX
  5
199
100
AcDbEntity
  8
0
390
0
 62
     7
100
AcDbVertex
100
AcDb2dVertex
 10
74.503795
 20
-11.544401
 30
0.0
  0
VERTEX
  5
19A
100
AcDbEntity
  8
0
390
0
 62
     7
100
AcDbVertex
100
AcDb2dVertex
 10
74.51822
 20
-11.555419
 30
0.0
  0
VERTEX
  5
19B
100
AcDbEntity
  8
0
390
0
 62
     7
100
AcDbVertex
100
AcDb2dVertex
 10
74.533103
 20
-11.565836
 30
0.0
  0
VERTEX
  5
19C
100
AcDbEntity
  8
0
390
0
 62
     7
100
AcDbVertex
100
AcDb2dVertex
 10
74.548404
 20
-11.575627
 30
0.0
  0
VERTEX
  5
19D
100
AcDbEntity
  8
0
390
0
 62
     7
100
AcDbVertex
100
AcDb2dVertex
 10
74.564086
 20
-11.584766
 30
0.0
  0
VERTEX
  5
19E
100
AcDbEntity
  8
0
390
0
 62
     7
100
AcDbVertex
100
AcDb2dVertex
 10
74.580607
 20
-11.593479
 30
0.0
  0
VERTEX
  5
19F
100
AcDbEntity
  8
0
390
0
 62
     7
100
AcDbVertex
100
AcDb2dVertex
 10
74.5975
 20
-11.601486
 30
0.0
  0
VERTEX
  5
1A0
100
AcDbEntity
  8
0
390
0
 62
     7
100
AcDbVertex
100
AcDb2dVertex
 10
74.61472
 20
-11.608764
 30
0.0
  0
VERTEX
  5
1A1
100
AcDbEntity
  8
0
390
0
 62
     7
100
AcDbVertex
100
AcDb2dVertex
 10
74.632218
 20
-11.615293
 30
0.0
  0
VERTEX
  5
1A2
100
AcDbEntity
  8
0
390
0
 62
     7
100
AcDbVertex
100
AcDb2dVertex
 10
74.649477
 20
-11.620913
 30
0.0
  0
VERTEX
  5
1A3
100
AcDbEntity
  8
0
390
0
 62
     7
100
AcDbVertex
100
AcDb2dVertex
 10
74.666969
 20
-11.625815
 30
0.0
  0
VERTEX
  5
1A4
100
AcDbEntity
  8
0
390
0
 62
     7
100
AcDbVertex
100
AcDb2dVertex
 10
74.684649
 20
-11.629988
 30
0.0
  0
VERTEX
  5
1A5
100
AcDbEntity
  8
0
390
0
 62
     7
100
AcDbVertex
100
AcDb2dVertex
 10
74.702471
 20
-11.633421
 30
0.0
  0
VERTEX
  5
1A6
100
AcDbEntity
  8
0
390
0
 62
     7
100
AcDbVertex
100
AcDb2dVertex
 10
74.720943
 20
-11.636173
 30
0.0
  0
VERTEX
  5
1A7
100
AcDbEntity
  8
0
390
0
 62
     7
100
AcDbVertex
100
AcDb2dVertex
 10
74.739532
 20
-11.638136
 30
0.0
  0
VERTEX
  5
1A8
100
AcDbEntity
  8
0
390
0
 62
     7
100
AcDbVertex
100
AcDb2dVertex
 10
74.758188
 20
-11.639304
 30
0.0
  0
VERTEX
  5
1A9
100
AcDbEntity
  8
0
390
0
 62
     7
100
AcDbVertex
100
AcDb2dVertex
 10
74.776859
 20
-11.639674
 30
0.0
  0
SEQEND
  5
1AA
100
AcDbEntity
  8
0
390
0
  0
POLYLINE
  5
1AB
100
AcDbEntity
  8
0
390
0
  6
Continuous
 62
     7
100
AcDb2dPolyline
 66
     1
 10
0.0
 20
0.0
 30
0.0
 40
0.1
 41
0.1
  0
VERTEX
  5
1AC
100
AcDbEntity
  8
0
390
0
 62
     7
100
AcDbVertex
100
AcDb2dVertex
 10
97.666734
 20
11.250201
 30
0.0
  0
VERTEX
  5
1AD
100
AcDbEntity
  8
0
390
0
 62
     7
100
AcDbVertex
100
AcDb2dVertex
 10
97.666322
 20
11.269811
 30
0.0
  0
VERTEX
  5
1AE
100
AcDbEntity
  8
0
390
0
 62
     7
100
AcDbVertex
100
AcDb2dVertex
 10
97.665028
 20
11.289414
 30
0.0
  0
VERTEX
  5
1AF
100
AcDbEntity
  8
0
390
0
 62
     7
100
AcDbVertex
100
AcDb2dVertex
 10
97.662856
 20
11.308949
 30
0.0
  0
VERTEX
  5
1B0
100
AcDbEntity
  8
0
390
0
 62
     7
100
AcDbVertex
100
AcDb2dVertex
 10
97.659815
 20
11.328358
 30
0.0
  0
VERTEX
  5
1B1
100
AcDbEntity
  8
0
390
0
 62
     7
100
AcDbVertex
100
AcDb2dVertex
 10
97.655909
 20
11.347582
 30
0.0
  0
VERTEX
  5
1B2
100
AcDbEntity
  8
0
390
0
 62
     7
100
AcDbVertex
100
AcDb2dVertex
 10
97.651529
 20
11.365184
 30
0.0
  0
VERTEX
  5
1B3
100
AcDbEntity
  8
0
390
0
 62
     7
100
AcDbVertex
100
AcDb2dVertex
 10
97.646418
 20
11.382604
 30
0.0
  0
VERTEX
  5
1B4
100
AcDbEntity
  8
0
390
0
 62
     7
100
AcDbVertex
100
AcDb2dVertex
 10
97.640589
 20
11.399797
 30
0.0
  0
VERTEX
  5
1B5
100
AcDbEntity
  8
0
390
0
 62
     7
100
AcDbVertex
100
AcDb2dVertex
 10
97.634056
 20
11.41672
 30
0.0
  0
VERTEX
  5
1B6
100
AcDbEntity
  8
0
390
0
 62
     7
100
AcDbVertex
100
AcDb2dVertex
 10
97.626604
 20
11.433834
 30
0.0
  0
VERTEX
  5
1B7
100
AcDbEntity
  8
0
390
0
 62
     7
100
AcDbVertex
100
AcDb2dVertex
 10
97.618419
 20
11.45063
 30
0.0
  0
VERTEX
  5
1B8
100
AcDbEntity
  8
0
390
0
 62
     7
100
AcDbVertex
100
AcDb2dVertex
 10
97.609525
 20
11.467062
 30
0.0
  0
VERTEX
  5
1B9
100
AcDbEntity
  8
0
390
0
 62
     7
100
AcDbVertex
100
AcDb2dVertex
 10
97.599946
 20
11.483085
 30
0.0
  0
VERTEX
  5
1BA
100
AcDbEntity
  8
0
390
0
 62
     7
100
AcDbVertex
100
AcDb2dVertex
 10
97.589986
 20
11.498249
 30
0.0
  0
VERTEX
  5
1BB
100
AcDbEntity
  8
0
390
0
 62
     7
100
AcDbVertex
100
AcDb2dVertex
 10
97.579396
 20
11.512999
 30
0.0
  0
VERTEX
  5
1BC
100
AcDbEntity
  8
0
390
0
 62
     7
100
AcDbVertex
100
AcDb2dVertex
 10
97.568203
 20
11.527298
 30
0.0
  0
VERTEX
  5
1BD
100
AcDbEntity
  8
0
390
0
 62
     7
100
AcDbVertex
100
AcDb2dVertex
 10
97.556436
 20
11.541108
 30
0.0
  0
VERTEX
  5
1BE
100
AcDbEntity
  8
0
390
0
 62
     7
100
AcDbVertex
100
AcDb2dVertex
 10
97.543737
 20
11.554794
 30
0.0
  0
VERTEX
  5
1BF
100
AcDbEntity
  8
0
390
0
 62
     7
100
AcDbVertex
100
AcDb2dVertex
 10
97.530452
 20
11.567937
 30
0.0
  0
VERTEX
  5
1C0
100
AcDbEntity
  8
0
390
0
 62
     7
100
AcDbVertex
100
AcDb2dVertex
 10
97.516618
 20
11.580501
 30
0.0
  0
VERTEX
  5
1C1
100
AcDbEntity
  8
0
390
0
 62
     7
100
AcDbVertex
100
AcDb2dVertex
 10
97.502274
 20
11.592452
 30
0.0
  0
VERTEX
  5
1C2
100
AcDbEntity
  8
0
390
0
 62
     7
100
AcDbVertex
100
AcDb2dVertex
 10
97.487849
 20
11.603469
 30
0.0
  0
VERTEX
  5
1C3
100
AcDbEntity
  8
0
390
0
 62
     7
100
AcDbVertex
100
AcDb2dVertex
 10
97.472966
 20
11.613886
 30
0.0
  0
VERTEX
  5
1C4
100
AcDbEntity
  8
0
390
0
 62
     7
100
AcDbVertex
100
AcDb2dVertex
 10
97.457665
 20
11.623677
 30
0.0
  0
VERTEX
  5
1C5
100
AcDbEntity
  8
0
390
0
 62
     7
100
AcDbVertex
100
AcDb2dVertex
 10
97.441983
 20
11.632816
 30
0.0
  0
VERTEX
  5
1C6
100
AcDbEntity
  8
0
390
0
 62
     7
100
AcDbVertex
100
AcDb2dVertex
 10
97.425462
 20
11.64153
 30
0.0
  0
VERTEX
  5
1C7
100
AcDbEntity
  8
0
390
0
 62
     7
100
AcDbVertex
100
AcDb2dVertex
 10
97.408569
 20
11.649536
 30
0.0
  0
VERTEX
  5
1C8
100
AcDbEntity
  8
0
390
0
 62
     7
100
AcDbVertex
100
AcDb2dVertex
 10
97.391349
 20
11.656814
 30
0.0
  0
VERTEX
  5
1C9
100
AcDbEntity
  8
0
390
0
 62
     7
100
AcDbVertex
100
AcDb2dVertex
 10
97.373851
 20
11.663343
 30
0.0
  0
VERTEX
  5
1CA
100
AcDbEntity
  8
0
390
0
 62
     7
100
AcDbVertex
100
AcDb2dVertex
 10
97.356592
 20
11.668963
 30
0.0
  0
VERTEX
  5
1CB
100
AcDbEntity
  8
0
390
0
 62
     7
100
AcDbVertex
100
AcDb2dVertex
 10
97.3391
 20
11.673866
 30
0.0
  0
VERTEX
  5
1CC
100
AcDbEntity
  8
0
390
0
 62
     7
100
AcDbVertex
100
AcDb2dVertex
 10
97.32142
 20
11.678039
 30
0.0
  0
VERTEX
  5
1CD
100
AcDbEntity
  8
0
390
0
 62
     7
100
AcDbVertex
100
AcDb2dVertex
 10
97.303598
 20
11.681471
 30
0.0
  0
VERTEX
  5
1CE
100
AcDbEntity
  8
0
390
0
 62
     7
100
AcDbVertex
100
AcDb2dVertex
 10
97.285126
 20
11.684224
 30
0.0
  0
VERTEX
  5
1CF
100
AcDbEntity
  8
0
390
0
 62
     7
100
AcDbVertex
100
AcDb2dVertex
 10
97.266537
 20
11.686186
 30
0.0
  0
VERTEX
  5
1D0
100
AcDbEntity
  8
0
390
0
 62
     7
100
AcDbVertex
100
AcDb2dVertex
 10
97.247881
 20
11.687355
 30
0.0
  0
VERTEX
  5
1D1
100
AcDbEntity
  8
0
390
0
 62
     7
100
AcDbVertex
100
AcDb2dVertex
 10
97.22921
 20
11.687724
 30
0.0
  0
SEQEND
  5
1D2
100
AcDbEntity
  8
0
390
0
  0
POLYLINE
  5
1D3
100
AcDbEntity
  8
0
390
0
  6
Continuous
 62
     7
100
AcDb2dPolyline
 66
     1
 10
0.0
 20
0.0
 30
0.0
 40
0.1
 41
0.1
  0
VERTEX
  5
1D4
100
AcDbEntity
  8
0
390
0
 62
     7
100
AcDbVertex
100
AcDb2dVertex
 10
74.776859
 20
11.687724
 30
0.0
  0
VERTEX
  5
1D5
100
AcDbEntity
  8
0
390
0
 62
     7
100
AcDbVertex
100
AcDb2dVertex
 10
74.757248
 20
11.687313
 30
0.0
  0
VERTEX
  5
1D6
100
AcDbEntity
  8
0
390
0
 62
     7
100
AcDbVertex
100
AcDb2dVertex
 10
74.737646
 20
11.686018
 30
0.0
  0
VERTEX
  5
1D7
100
AcDbEntity
  8
0
390
0
 62
     7
100
AcDbVertex
100
AcDb2dVertex
 10
74.718111
 20
11.683847
 30
0.0
  0
VERTEX
  5
1D8
100
AcDbEntity
  8
0
390
0
 62
     7
100
AcDbVertex
100
AcDb2dVertex
 10
74.698702
 20
11.680806
 30
0.0
  0
VERTEX
  5
1D9
100
AcDbEntity
  8
0
390
0
 62
     7
100
AcDbVertex
100
AcDb2dVertex
 10
74.679477
 20
11.6769
 30
0.0
  0
VERTEX
  5
1DA
100
AcDbEntity
  8
0
390
0
 62
     7
100
AcDbVertex
100
AcDb2dVertex
 10
74.661876
 20
11.67252
 30
0.0
  0
VERTEX
  5
1DB
100
AcDbEntity
  8
0
390
0
 62
     7
100
AcDbVertex
100
AcDb2dVertex
 10
74.644456
 20
11.667408
 30
0.0
  0
VERTEX
  5
1DC
100
AcDbEntity
  8
0
390
0
 62
     7
100
AcDbVertex
100
AcDb2dVertex
 10
74.627262
 20
11.661579
 30
0.0
  0
VERTEX
  5
1DD
100
AcDbEntity
  8
0
390
0
 62
     7
100
AcDbVertex
100
AcDb2dVertex
 10
74.61034
 20
11.655047
 30
0.0
  0
VERTEX
  5
1DE
100
AcDbEntity
  8
0
390
0
 62
     7
100
AcDbVertex
100
AcDb2dVertex
 10
74.593225
 20
11.647594
 30
0.0
  0
VERTEX
  5
1DF
100
AcDbEntity
  8
0
390
0
 62
     7
100
AcDbVertex
100
AcDb2dVertex
 10
74.576429
 20
11.63941
 30
0.0
  0
VERTEX
  5
1E0
100
AcDbEntity
  8
0
390
0
 62
     7
100
AcDbVertex
100
AcDb2dVertex
 10
74.559997
 20
11.630516
 30
0.0
  0
VERTEX
  5
1E1
100
AcDbEntity
  8
0
390
0
 62
     7
100
AcDbVertex
100
AcDb2dVertex
 10
74.543975
 20
11.620937
 30
0.0
  0
VERTEX
  5
1E2
100
AcDbEntity
  8
0
390
0
 62
     7
100
AcDbVertex
100
AcDb2dVertex
 10
74.528811
 20
11.610977
 30
0.0
  0
VERTEX
  5
1E3
100
AcDbEntity
  8
0
390
0
 62
     7
100
AcDbVertex
100
AcDb2dVertex
 10
74.51406
 20
11.600387
 30
0.0
  0
VERTEX
  5
1E4
100
AcDbEntity
  8
0
390
0
 62
     7
100
AcDbVertex
100
AcDb2dVertex
 10
74.499762
 20
11.589194
 30
0.0
  0
VERTEX
  5
1E5
100
AcDbEntity
  8
0
390
0
 62
     7
100
AcDbVertex
100
AcDb2dVertex
 10
74.485952
 20
11.577427
 30
0.0
  0
VERTEX
  5
1E6
100
AcDbEntity
  8
0
390
0
 62
     7
100
AcDbVertex
100
AcDb2dVertex
 10
74.472266
 20
11.564728
 30
0.0
  0
VERTEX
  5
1E7
100
AcDbEntity
  8
0
390
0
 62
     7
100
AcDbVertex
100
AcDb2dVertex
 10
74.459123
 20
11.551442
 30
0.0
  0
VERTEX
  5
1E8
100
AcDbEntity
  8
0
390
0
 62
     7
100
AcDbVertex
100
AcDb2dVertex
 10
74.446559
 20
11.537609
 30
0.0
  0
VERTEX
  5
1E9
100
AcDbEntity
  8
0
390
0
 62
     7
100
AcDbVertex
100
AcDb2dVertex
 10
74.434608
 20
11.523264
 30
0.0
  0
VERTEX
  5
1EA
100
AcDbEntity
  8
0
390
0
 62
     7
100
AcDbVertex
100
AcDb2dVertex
 10
74.423591
 20
11.50884
 30
0.0
  0
VERTEX
  5
1EB
100
AcDbEntity
  8
0
390
0
 62
     7
100
AcDbVertex
100
AcDb2dVertex
 10
74.413173
 20
11.493957
 30
0.0
  0
VERTEX
  5
1EC
100
AcDbEntity
  8
0
390
0
 62
     7
100
AcDbVertex
100
AcDb2dVertex
 10
74.403382
 20
11.478655
 30
0.0
  0
VERTEX
  5
1ED
100
AcDbEntity
  8
0
390
0
 62
     7
100
AcDbVertex
100
AcDb2dVertex
 10
74.394243
 20
11.462974
 30
0.0
  0
VERTEX
  5
1EE
100
AcDbEntity
  8
0
390
0
 62
     7
100
AcDbVertex
100
AcDb2dVertex
 10
74.38553
 20
11.446453
 30
0.0
  0
VERTEX
  5
1EF
100
AcDbEntity
  8
0
390
0
 62
     7
100
AcDbVertex
100
AcDb2dVertex
 10
74.377524
 20
11.429559
 30
0.0
  0
VERTEX
  5
1F0
100
AcDbEntity
  8
0
390
0
 62
     7
100
AcDbVertex
100
AcDb2dVertex
 10
74.370246
 20
11.41234
 30
0.0
  0
VERTEX
  5
1F1
100
AcDbEntity
  8
0
390
0
 62
     7
100
AcDbVertex
100
AcDb2dVertex
 10
74.363716
 20
11.394842
 30
0.0
  0
VERTEX
  5
1F2
100
AcDbEntity
  8
0
390
0
 62
     7
100
AcDbVertex
100
AcDb2dVertex
 10
74.358096
 20
11.377583
 30
0.0
  0
VERTEX
  5
1F3
100
AcDbEntity
  8
0
390
0
 62
     7
100
AcDbVertex
100
AcDb2dVertex
 10
74.353194
 20
11.360091
 30
0.0
  0
VERTEX
  5
1F4
100
AcDbEntity
  8
0
390
0
 62
     7
100
AcDbVertex
100
AcDb2dVertex
 10
74.349021
 20
11.342411
 30
0.0
  0
VERTEX
  5
1F5
100
AcDbEntity
  8
0
390
0
 62
     7
100
AcDbVertex
100
AcDb2dVertex
 10
74.345589
 20
11.324589
 30
0.0
  0
VERTEX
  5
1F6
100
AcDbEntity
  8
0
390
0
 62
     7
100
AcDbVertex
100
AcDb2dVertex
 10
74.342836
 20
11.306117
 30
0.0
  0
VERTEX
  5
1F7
100
AcDbEntity
  8
0
390
0
 62
     7
100
AcDbVertex
100
AcDb2dVertex
 10
74.340873
 20
11.287528
 30
0.0
  0
VERTEX
  5
1F8
100
AcDbEntity
  8
0
390
0
 62
     7
100
AcDbVertex
100
AcDb2dVertex
 10
74.339705
 20
11.268872
 30
0.0
  0
VERTEX
  5
1F9
100
AcDbEntity
  8
0
390
0
 62
     7
100
AcDbVertex
100
AcDb2dVertex
 10
74.339335
 20
11.250201
 30
0.0
  0
SEQEND
  5
1FA
100
AcDbEntity
  8
0
390
0
  0
POLYLINE
  5
1FB
100
AcDbEntity
  8
0
390
0
  6
Continuous
 62
     7
100
AcDb2dPolyline
 66
     1
 10
0.0
 20
0.0
 30
0.0
 40
0.1
 41
0.1
  0
VERTEX
  5
1FC
100
AcDbEntity
  8
0
390
0
 62
     7
100
AcDbVertex
100
AcDb2dVertex
 10
97.22921
 20
-11.639674
 30
0.0
  0
VERTEX
  5
1FD
100
AcDbEntity
  8
0
390
0
 62
     7
100
AcDbVertex
100
AcDb2dVertex
 10
97.248821
 20
-11.639263
 30
0.0
  0
VERTEX
  5
1FE
100
AcDbEntity
  8
0
390
0
 62
     7
100
AcDbVertex
100
AcDb2dVertex
 10
97.268423
 20
-11.637968
 30
0.0
  0
VERTEX
  5
1FF
100
AcDbEntity
  8
0
390
0
 62
     7
100
AcDbVertex
100
AcDb2dVertex
 10
97.287958
 20
-11.635797
 30
0.0
  0
VERTEX
  5
200
100
AcDbEntity
  8
0
390
0
 62
     7
100
AcDbVertex
100
AcDb2dVertex
 10
97.307367
 20
-11.632755
 30
0.0
  0
VERTEX
  5
201
100
AcDbEntity
  8
0
390
0
 62
     7
100
AcDbVertex
100
AcDb2dVertex
 10
97.326592
 20
-11.62885
 30
0.0
  0
VERTEX
  5
202
100
AcDbEntity
  8
0
390
0
 62
     7
100
AcDbVertex
100
AcDb2dVertex
 10
97.344193
 20
-11.62447
 30
0.0
  0
VERTEX
  5
203
100
AcDbEntity
  8
0
390
0
 62
     7
100
AcDbVertex
100
AcDb2dVertex
 10
97.361613
 20
-11.619358
 30
0.0
  0
VERTEX
  5
204
100
AcDbEntity
  8
0
390
0
 62
     7
100
AcDbVertex
100
AcDb2dVertex
 10
97.378806
 20
-11.613529
 30
0.0
  0
VERTEX
  5
205
100
AcDbEntity
  8
0
390
0
 62
     7
100
AcDbVertex
100
AcDb2dVertex
 10
97.395729
 20
-11.606997
 30
0.0
  0
VERTEX
  5
206
100
AcDbEntity
  8
0
390
0
 62
     7
100
AcDbVertex
100
AcDb2dVertex
 10
97.412843
 20
-11.599544
 30
0.0
  0
VERTEX
  5
207
100
AcDbEntity
  8
0
390
0
 62
     7
100
AcDbVertex
100
AcDb2dVertex
 10
97.429639
 20
-11.591359
 30
0.0
  0
VERTEX
  5
208
100
AcDbEntity
  8
0
390
0
 62
     7
100
AcDbVertex
100
AcDb2dVertex
 10
97.446072
 20
-11.582466
 30
0.0
  0
VERTEX
  5
209
100
AcDbEntity
  8
0
390
0
 62
     7
100
AcDbVertex
100
AcDb2dVertex
 10
97.462094
 20
-11.572887
 30
0.0
  0
VERTEX
  5
20A
100
AcDbEntity
  8
0
390
0
 62
     7
100
AcDbVertex
100
AcDb2dVertex
 10
97.477258
 20
-11.562927
 30
0.0
  0
VERTEX
  5
20B
100
AcDbEntity
  8
0
390
0
 62
     7
100
AcDbVertex
100
AcDb2dVertex
 10
97.492009
 20
-11.552336
 30
0.0
  0
VERTEX
  5
20C
100
AcDbEntity
  8
0
390
0
 62
     7
100
AcDbVertex
100
AcDb2dVertex
 10
97.506307
 20
-11.541144
 30
0.0
  0
VERTEX
  5
20D
100
AcDbEntity
  8
0
390
0
 62
     7
100
AcDbVertex
100
AcDb2dVertex
 10
97.520117
 20
-11.529377
 30
0.0
  0
VERTEX
  5
20E
100
AcDbEntity
  8
0
390
0
 62
     7
100
AcDbVertex
100
AcDb2dVertex
 10
97.533803
 20
-11.516677
 30
0.0
  0
VERTEX
  5
20F
100
AcDbEntity
  8
0
390
0
 62
     7
100
AcDbVertex
100
AcDb2dVertex
 10
97.546946
 20
-11.503392
 30
0.0
  0
VERTEX
  5
210
100
AcDbEntity
  8
0
390
0
 62
     7
100
AcDbVertex
100
AcDb2dVertex
 10
97.55951
 20
-11.489559
 30
0.0
  0
VERTEX
  5
211
100
AcDbEntity
  8
0
390
0
 62
     7
100
AcDbVertex
100
AcDb2dVertex
 10
97.571461
 20
-11.475214
 30
0.0
  0
VERTEX
  5
212
100
AcDbEntity
  8
0
390
0
 62
     7
100
AcDbVertex
100
AcDb2dVertex
 10
97.582478
 20
-11.460789
 30
0.0
  0
VERTEX
  5
213
100
AcDbEntity
  8
0
390
0
 62
     7
100
AcDbVertex
100
AcDb2dVertex
 10
97.592896
 20
-11.445907
 30
0.0
  0
VERTEX
  5
214
100
AcDbEntity
  8
0
390
0
 62
     7
100
AcDbVertex
100
AcDb2dVertex
 10
97.602687
 20
-11.430605
 30
0.0
  0
VERTEX
  5
215
100
AcDbEntity
  8
0
390
0
 62
     7
100
AcDbVertex
100
AcDb2dVertex
 10
97.611826
 20
-11.414924
 30
0.0
  0
VERTEX
  5
216
100
AcDbEntity
  8
0
390
0
 62
     7
100
AcDbVertex
100
AcDb2dVertex
 10
97.620539
 20
-11.398403
 30
0.0
  0
VERTEX
  5
217
100
AcDbEntity
  8
0
390
0
 62
     7
100
AcDbVertex
100
AcDb2dVertex
 10
97.628545
 20
-11.381509
 30
0.0
  0
VERTEX
  5
218
100
AcDbEntity
  8
0
390
0
 62
     7
100
AcDbVertex
100
AcDb2dVertex
 10
97.635823
 20
-11.36429
 30
0.0
  0
VERTEX
  5
219
100
AcDbEntity
  8
0
390
0
 62
     7
100
AcDbVertex
100
AcDb2dVertex
 10
97.642352
 20
-11.346791
 30
0.0
  0
VERTEX
  5
21A
100
AcDbEntity
  8
0
390
0
 62
     7
100
AcDbVertex
100
AcDb2dVertex
 10
97.647973
 20
-11.329533
 30
0.0
  0
VERTEX
  5
21B
100
AcDbEntity
  8
0
390
0
 62
     7
100
AcDbVertex
100
AcDb2dVertex
 10
97.652875
 20
-11.312041
 30
0.0
  0
VERTEX
  5
21C
100
AcDbEntity
  8
0
390
0
 62
     7
100
AcDbVertex
100
AcDb2dVertex
 10
97.657048
 20
-11.294361
 30
0.0
  0
VERTEX
  5
21D
100
AcDbEntity
  8
0
390
0
 62
     7
100
AcDbVertex
100
AcDb2dVertex
 10
97.66048
 20
-11.276539
 30
0.0
  0
VERTEX
  5
21E
100
AcDbEntity
  8
0
390
0
 62
     7
100
AcDbVertex
100
AcDb2dVertex
 10
97.663233
 20
-11.258067
 30
0.0
  0
VERTEX
  5
21F
100
AcDbEntity
  8
0
390
0
 62
     7
100
AcDbVertex
100
AcDb2dVertex
 10
97.665196
 20
-11.239477
 30
0.0
  0
VERTEX
  5
220
100
AcDbEntity
  8
0
390
0
 62
     7
100
AcDbVertex
100
AcDb2dVertex
 10
97.666364
 20
-11.220822
 30
0.0
  0
VERTEX
  5
221
100
AcDbEntity
  8
0
390
0
 62
     7
100
AcDbVertex
100
AcDb2dVertex
 10
97.666734
 20
-11.202151
 30
0.0
  0
SEQEND
  5
222
100
AcDbEntity
  8
0
390
0
  0
LINE
  5
223
100
AcDbEntity
  8
0
390
0
  6
Continuous
 62
     7
100
AcDbLine
 10
-85.247957
 20
3.015524
 30
0.0
 11
-89.289735
 21
13.018203
 31
0.0
  0
LINE
  5
224
100
AcDbEntity
  8
0
390
0
  6
Continuous
 62
     7
100
AcDbLine
 10
-87.832718
 20
3.015524
 30
0.0
 11
-85.247957
 21
3.015524
 31
0.0
  0
LINE
  5
225
100
AcDbEntity
  8
0
390
0
  6
Continuous
 62
     7
100
AcDbLine
 10
-91.874494
 20
13.018203
 30
0.0
 11
-87.832718
 21
3.015524
 31
0.0
  0
LINE
  5
226
100
AcDbEntity
  8
0
390
0
  6
Continuous
 62
     7
100
AcDbLine
 10
-89.289735
 20
13.018203
 30
0.0
 11
-91.874494
 21
13.018203
 31
0.0
  0
LINE
  5
227
100
AcDbEntity
  8
0
390
0
  6
Continuous
 62
     7
100
AcDbLine
 10
-77.140977
 20
-8.161293
 30
0.0
 11
-75.731886
 21
-8.161293
 31
0.0
  0
LINE
  5
228
100
AcDbEntity
  8
0
390
0
  6
Continuous
 62
     7
100
AcDbLine
 10
-76.413704
 20
-3.161293
 30
0.0
 11
-77.140977
 21
-8.161293
 31
0.0
  0
LINE
  5
229
100
AcDbEntity
  8
0
390
0
  6
Continuous
 62
     7
100
AcDbLine
 10
-72.186432
 20
-3.161293
 30
0.0
 11
-76.413704
 21
-3.161293
 31
0.0
  0
LINE
  5
22A
100
AcDbEntity
  8
0
390
0
  6
Continuous
 62
     7
100
AcDbLine
 10
-72.186432
 20
-4.706748
 30
0.0
 11
-72.186432
 21
-3.161293
 31
0.0
  0
LINE
  5
22B
100
AcDbEntity
  8
0
390
0
  6
Continuous
 62
     7
100
AcDbLine
 10
-75.322795
 20
-4.706748
 30
0.0
 11
-72.186432
 21
-4.706748
 31
0.0
  0
LINE
  5
22C
100
AcDbEntity
  8
0
390
0
  6
Continuous
 62
     7
100
AcDbLine
 10
-75.640977
 20
-6.570384
 30
0.0
 11
-75.322795
 21
-4.706748
 31
0.0
  0
ARC
  5
22D
100
AcDbEntity
  8
0
390
0
  6
Continuous
 62
     7
100
AcDbCircle
 10
-74.242715
 20
-9.688143
 30
0.0
 40
3.125591
210
0.0
220
0.0
230
1.0
100
AcDbArc
 50
180.341044
 51
219.451092
  0
LINE
  5
22E
100
AcDbEntity
  8
0
390
0
  6
Continuous
 62
     7
100
AcDbLine
 10
-76.050068
 20
-9.706748
 30
0.0
 11
-77.36825
 21
-9.706748
 31
0.0
  0
POLYLINE
  5
22F
100
AcDbEntity
  8
0
390
0
  6
Continuous
 62
     7
100
AcDb2dPolyline
 66
     1
 10
0.0
 20
0.0
 30
0.0
 40
0.1
 41
0.1
  0
VERTEX
  5
230
100
AcDbEntity
  8
0
390
0
 62
     7
100
AcDbVertex
100
AcDb2dVertex
 10
-75.731886
 20
-8.161293
 30
0.0
 42
-0.384662
  0
VERTEX
  5
231
100
AcDbEntity
  8
0
390
0
 62
     7
100
AcDbVertex
100
AcDb2dVertex
 10
-73.943228
 20
-7.788994
 30
0.0
 42
-0.171301
  0
VERTEX
  5
232
100
AcDbEntity
  8
0
390
0
 62
     7
100
AcDbVertex
100
AcDb2dVertex
 10
-73.268289
 20
-8.697741
 30
0.0
 42
-0.424475
  0
VERTEX
  5
233
100
AcDbEntity
  8
0
390
0
 62
     7
100
AcDbVertex
100
AcDb2dVertex
 10
-74.415707
 20
-11.110474
 30
0.0
  0
VERTEX
  5
234
100
AcDbEntity
  8
0
390
0
 62
     7
100
AcDbVertex
100
AcDb2dVertex
 10
-74.545333
 20
-11.129382
 30
0.0
  0
VERTEX
  5
235
100
AcDbEntity
  8
0
390
0
 62
     7
100
AcDbVertex
100
AcDb2dVertex
 10
-74.680109
 20
-11.131604
 30
0.0
  0
VERTEX
  5
236
100
AcDbEntity
  8
0
390
0
 62
     7
100
AcDbVertex
100
AcDb2dVertex
 10
-74.811476
 20
-11.116533
 30
0.0
 42
-0.307916
  0
VERTEX
  5
237
100
AcDbEntity
  8
0
390
0
 62
     7
100
AcDbVertex
100
AcDb2dVertex
 10
-76.050068
 20
-9.706748
 30
0.0
  0
SEQEND
  5
238
100
AcDbEntity
  8
0
390
0
  0
POLYLINE
  5
239
100
AcDbEntity
  8
0
390
0
  6
Continuous
 62
     7
100
AcDb2dPolyline
 66
     1
 10
0.0
 20
0.0
 30
0.0
 40
0.1
 41
0.1
  0
VERTEX
  5
23A
100
AcDbEntity
  8
0
390
0
 62
     7
100
AcDbVertex
100
AcDb2dVertex
 10
-76.656193
 20
-11.674204
 30
0.0
 42
0.731069
  0
VERTEX
  5
23B
100
AcDbEntity
  8
0
390
0
 62
     7
100
AcDbVertex
100
AcDb2dVertex
 10
-71.776558
 20
-9.464984
 30
0.0
 42
0.502102
  0
VERTEX
  5
23C
100
AcDbEntity
  8
0
390
0
 62
     7
100
AcDbVertex
100
AcDb2dVertex
 10
-74.75615
 20
-6.188734
 30
0.0
 42
0.080318
  0
VERTEX
  5
23D
100
AcDbEntity
  8
0
390
0
 62
     7
100
AcDbVertex
100
AcDb2dVertex
 10
-75.640977
 20
-6.570384
 30
0.0
  0
SEQEND
  5
23E
100
AcDbEntity
  8
0
390
0
  0
LINE
  5
23F
100
AcDbEntity
  8
0
390
0
  6
Continuous
 62
     7
100
AcDbLine
 10
-89.692612
 20
3.015524
 30
0.0
 11
-93.734389
 21
13.018203
 31
0.0
  0
LINE
  5
240
100
AcDbEntity
  8
0
390
0
  6
Continuous
 62
     7
100
AcDbLine
 10
-92.277188
 20
3.015524
 30
0.0
 11
-89.692612
 21
3.015524
 31
0.0
  0
LINE
  5
241
100
AcDbEntity
  8
0
390
0
  6
Continuous
 62
     7
100
AcDbLine
 10
-93.734389
 20
13.018203
 30
0.0
 11
-96.318397
 21
13.018203
 31
0.0
  0
LINE
  5
242
100
AcDbEntity
  8
0
390
0
  6
Continuous
 62
     7
100
AcDbLine
 10
-96.318397
 20
13.018203
 30
0.0
 11
-92.277188
 21
3.015524
 31
0.0
  0
LINE
  5
243
100
AcDbEntity
  8
0
390
0
  6
Continuous
 62
     7
100
AcDbLine
 10
-78.795934
 20
3.015524
 30
0.0
 11
-75.285556
 21
3.015524
 31
0.0
  0
LINE
  5
244
100
AcDbEntity
  8
0
390
0
  6
Continuous
 62
     7
100
AcDbLine
 10
-78.208247
 20
4.470103
 30
0.0
 11
-78.795934
 21
3.015524
 31
0.0
  0
LINE
  5
245
100
AcDbEntity
  8
0
390
0
  6
Continuous
 62
     7
100
AcDbLine
 10
-76.787442
 20
4.470103
 30
0.0
 11
-78.208247
 21
4.470103
 31
0.0
  0
ARC
  5
246
100
AcDbEntity
  8
0
390
0
  6
Continuous
 62
     7
100
AcDbCircle
 10
-76.787474
 20
6.69458
 30
0.0
 40
2.224477
210
0.0
220
0.0
230
1.0
100
AcDbArc
 50
270.000826
 51
359.999174
  0
LINE
  5
247
100
AcDbEntity
  8
0
390
0
  6
Continuous
 62
     7
100
AcDbLine
 10
-74.562997
 20
13.018203
 30
0.0
 11
-74.562997
 21
6.694548
 31
0.0
  0
LINE
  5
248
100
AcDbEntity
  8
0
390
0
  6
Continuous
 62
     7
100
AcDbLine
 10
-71.948889
 20
13.018203
 30
0.0
 11
-74.562997
 21
13.018203
 31
0.0
  0
LINE
  5
249
100
AcDbEntity
  8
0
390
0
  6
Continuous
 62
     7
100
AcDbLine
 10
-71.948889
 20
6.352191
 30
0.0
 11
-71.948889
 21
13.018203
 31
0.0
  0
ARC
  5
24A
100
AcDbEntity
  8
0
390
0
  6
Continuous
 62
     7
100
AcDbCircle
 10
-75.285605
 20
6.352239
 30
0.0
 40
3.336716
210
0.0
220
0.0
230
1.0
100
AcDbArc
 50
270.000826
 51
359.999174
  0
LINE
  5
24B
100
AcDbEntity
  8
0
390
0
  6
Continuous
 62
     7
100
AcDbLine
 10
-84.155044
 20
11.310963
 30
0.0
 11
-85.447441
 21
8.111608
 31
0.0
  0
LINE
  5
24C
100
AcDbEntity
  8
0
390
0
  6
Continuous
 62
     7
100
AcDbLine
 10
-82.02223
 20
6.032308
 30
0.0
 11
-84.155044
 21
11.310963
 31
0.0
  0
LINE
  5
24D
100
AcDbEntity
  8
0
390
0
  6
Continuous
 62
     7
100
AcDbLine
 10
-79.199414
 20
13.018203
 30
0.0
 11
-82.02223
 21
6.032308
 31
0.0
  0
LINE
  5
24E
100
AcDbEntity
  8
0
390
0
  6
Continuous
 62
     7
100
AcDbLine
 10
-76.61462
 20
13.018203
 30
0.0
 11
-79.199414
 21
13.018203
 31
0.0
  0
LINE
  5
24F
100
AcDbEntity
  8
0
390
0
  6
Continuous
 62
     7
100
AcDbLine
 10
-83.38813
 20
3.015524
 30
0.0
 11
-80.655763
 21
3.015524
 31
0.0
  0
LINE
  5
250
100
AcDbEntity
  8
0
390
0
  6
Continuous
 62
     7
100
AcDbLine
 10
-85.447441
 20
8.111608
 30
0.0
 11
-83.38813
 21
3.015524
 31
0.0
  0
LINE
  5
251
100
AcDbEntity
  8
0
390
0
  6
Continuous
 62
     7
100
AcDbLine
 10
-80.655763
 20
3.015524
 30
0.0
 11
-76.61462
 21
13.018203
 31
0.0
  0
LINE
  5
252
100
AcDbEntity
  8
0
390
0
  6
Continuous
 62
     7
100
AcDbLine
 10
-100.231886
 20
-12.93402
 30
0.0
 11
-90.277341
 21
-12.93402
 31
0.0
  0
LINE
  5
253
100
AcDbEntity
  8
0
390
0
  6
Continuous
 62
     7
100
AcDbLine
 10
-100.231886
 20
-3.024929
 30
0.0
 11
-100.231886
 21
-12.93402
 31
0.0
  0
LINE
  5
254
100
AcDbEntity
  8
0
390
0
  6
Continuous
 62
     7
100
AcDbLine
 10
-90.277341
 20
-3.024929
 30
0.0
 11
-100.231886
 21
-3.024929
 31
0.0
  0
LINE
  5
255
100
AcDbEntity
  8
0
390
0
  6
Continuous
 62
     7
100
AcDbLine
 10
-90.277341
 20
-12.93402
 30
0.0
 11
-90.277341
 21
-3.024929
 31
0.0
  0
LINE
  5
256
100
AcDbEntity
  8
0
390
0
  6
Continuous
 62
     7
100
AcDbLine
 10
-98.86825
 20
-11.570384
 30
0.0
 11
-98.86825
 21
-4.343111
 31
0.0
  0
LINE
  5
257
100
AcDbEntity
  8
0
390
0
  6
Continuous
 62
     7
100
AcDbLine
 10
-91.640977
 20
-11.570384
 30
0.0
 11
-98.86825
 21
-11.570384
 31
0.0
  0
LINE
  5
258
100
AcDbEntity
  8
0
390
0
  6
Continuous
 62
     7
100
AcDbLine
 10
-91.640977
 20
-4.343111
 30
0.0
 11
-91.640977
 21
-11.570384
 31
0.0
  0
LINE
  5
259
100
AcDbEntity
  8
0
390
0
  6
Continuous
 62
     7
100
AcDbLine
 10
-98.86825
 20
-4.343111
 30
0.0
 11
-91.640977
 21
-4.343111
 31
0.0
  0
LINE
  5
25A
100
AcDbEntity
  8
0
390
0
  6
Continuous
 62
     7
100
AcDbLine
 10
-79.822795
 20
-9.024929
 30
0.0
 11
-79.822795
 21
-3.161293
 31
0.0
  0
LINE
  5
25B
100
AcDbEntity
  8
0
390
0
  6
Continuous
 62
     7
100
AcDbLine
 10
-78.777341
 20
-9.024929
 30
0.0
 11
-79.822795
 21
-9.024929
 31
0.0
  0
LINE
  5
25C
100
AcDbEntity
  8
0
390
0
  6
Continuous
 62
     7
100
AcDbLine
 10
-78.777341
 20
-10.479475
 30
0.0
 11
-78.777341
 21
-9.024929
 31
0.0
  0
LINE
  5
25D
100
AcDbEntity
  8
0
390
0
  6
Continuous
 62
     7
100
AcDbLine
 10
-79.822795
 20
-10.479475
 30
0.0
 11
-78.777341
 21
-10.479475
 31
0.0
  0
LINE
  5
25E
100
AcDbEntity
  8
0
390
0
  6
Continuous
 62
     7
100
AcDbLine
 10
-79.822795
 20
-12.524929
 30
0.0
 11
-79.822795
 21
-10.479475
 31
0.0
  0
LINE
  5
25F
100
AcDbEntity
  8
0
390
0
  6
Continuous
 62
     7
100
AcDbLine
 10
-81.277341
 20
-12.524929
 30
0.0
 11
-79.822795
 21
-12.524929
 31
0.0
  0
LINE
  5
260
100
AcDbEntity
  8
0
390
0
  6
Continuous
 62
     7
100
AcDbLine
 10
-81.277341
 20
-10.479475
 30
0.0
 11
-81.277341
 21
-12.524929
 31
0.0
  0
LINE
  5
261
100
AcDbEntity
  8
0
390
0
  6
Continuous
 62
     7
100
AcDbLine
 10
-84.777341
 20
-10.479475
 30
0.0
 11
-81.277341
 21
-10.479475
 31
0.0
  0
LINE
  5
262
100
AcDbEntity
  8
0
390
0
  6
Continuous
 62
     7
100
AcDbLine
 10
-84.777341
 20
-8.524929
 30
0.0
 11
-84.777341
 21
-10.479475
 31
0.0
  0
LINE
  5
263
100
AcDbEntity
  8
0
390
0
  6
Continuous
 62
     7
100
AcDbLine
 10
-79.822795
 20
-3.161293
 30
0.0
 11
-81.36825
 21
-3.161293
 31
0.0
  0
LINE
  5
264
100
AcDbEntity
  8
0
390
0
  6
Continuous
 62
     7
100
AcDbLine
 10
-81.277341
 20
-8.979475
 30
0.0
 11
-83.640977
 21
-8.979475
 31
0.0
  0
LINE
  5
265
100
AcDbEntity
  8
0
390
0
  6
Continuous
 62
     7
100
AcDbLine
 10
-81.277341
 20
-5.252202
 30
0.0
 11
-81.277341
 21
-8.979475
 31
0.0
  0
LINE
  5
266
100
AcDbEntity
  8
0
390
0
  6
Continuous
 62
     7
100
AcDbLine
 10
-83.640977
 20
-8.979475
 30
0.0
 11
-81.277341
 21
-5.252202
 31
0.0
  0
LINE
  5
267
100
AcDbEntity
  8
0
390
0
  6
Continuous
 62
     7
100
AcDbLine
 10
-81.36825
 20
-3.161293
 30
0.0
 11
-84.777341
 21
-8.524929
 31
0.0
  0
LINE
  5
268
100
AcDbEntity
  8
0
390
0
  6
Continuous
 62
     7
100
AcDbLine
 10
-108.501824
 20
-19.475975
 30
0.0
 11
-108.501824
 21
19.524025
 31
0.0
  0
ELLIPSE
  5
269
100
AcDbEntity
  8
0
390
0
  6
Continuous
 62
     7
100
AcDbEllipse
 10
-106.501824
 20
19.524025
 30
0.0
 11
2.0000000000000018
 21
0.0
 31
0.0
210
0.0
220
0.0
230
0.9999999999999999
 40
0.05002
 41
1.6233332890882297
 42
3.1415926535897931
  0
LINE
  5
26A
100
AcDbEntity
  8
0
390
0
  6
Continuous
 62
     7
100
AcDbLine
 10
-106.606849
 20
19.623928
 30
0.0
 11
-106.606849
 21
-19.575877
 31
0.0
  0
ELLIPSE
  5
26B
100
AcDbEntity
  8
0
390
0
  6
Continuous
 62
     7
100
AcDbEllipse
 10
-106.501824
 20
-19.475975
 30
0.0
 11
-2.0000000000000018
 21
0.0000000000000278
 31
0.0
210
0.0
220
0.0
230
1.0
 40
0.05002
 41
6.283185307179517
 42
7.8014446716811827
  0
LINE
  5
26C
100
AcDbEntity
  8
0
390
0
  6
Continuous
 62
     7
100
AcDbLine
 10
-66.401921
 20
20.629051
 30
0.0
 11
-105.601726
 21
20.629051
 31
0.0
  0
POLYLINE
  5
26D
100
AcDbEntity
  8
0
390
0
  6
Continuous
 62
     7
100
AcDb2dPolyline
 66
     1
 10
0.0
 20
0.0
 30
0.0
 40
0.1
 41
0.1
  0
VERTEX
  5
26E
100
AcDbEntity
  8
0
390
0
 62
     7
100
AcDbVertex
100
AcDb2dVertex
 10
-65.396798
 20
19.623928
 30
0.0
  0
VERTEX
  5
26F
100
AcDbEntity
  8
0
390
0
 62
     7
100
AcDbVertex
100
AcDb2dVertex
 10
-65.397653
 20
19.665614
 30
0.0
  0
VERTEX
  5
270
100
AcDbEntity
  8
0
390
0
 62
     7
100
AcDbVertex
100
AcDb2dVertex
 10
-65.400239
 20
19.70727
 30
0.0
  0
VERTEX
  5
271
100
AcDbEntity
  8
0
390
0
 62
     7
100
AcDbVertex
100
AcDb2dVertex
 10
-65.404547
 20
19.748787
 30
0.0
  0
VERTEX
  5
272
100
AcDbEntity
  8
0
390
0
 62
     7
100
AcDbVertex
100
AcDb2dVertex
 10
-65.410568
 20
19.790059
 30
0.0
  0
VERTEX
  5
273
100
AcDbEntity
  8
0
390
0
 62
     7
100
AcDbVertex
100
AcDb2dVertex
 10
-65.418555
 20
19.832232
 30
0.0
  0
VERTEX
  5
274
100
AcDbEntity
  8
0
390
0
 62
     7
100
AcDbVertex
100
AcDb2dVertex
 10
-65.428344
 20
19.874067
 30
0.0
  0
VERTEX
  5
275
100
AcDbEntity
  8
0
390
0
 62
     7
100
AcDbVertex
100
AcDb2dVertex
 10
-65.439909
 20
19.915452
 30
0.0
  0
VERTEX
  5
276
100
AcDbEntity
  8
0
390
0
 62
     7
100
AcDbVertex
100
AcDb2dVertex
 10
-65.45322
 20
19.956271
 30
0.0
  0
VERTEX
  5
277
100
AcDbEntity
  8
0
390
0
 62
     7
100
AcDbVertex
100
AcDb2dVertex
 10
-65.46782
 20
19.995355
 30
0.0
  0
VERTEX
  5
278
100
AcDbEntity
  8
0
390
0
 62
     7
100
AcDbVertex
100
AcDb2dVertex
 10
-65.484046
 20
20.033835
 30
0.0
  0
VERTEX
  5
279
100
AcDbEntity
  8
0
390
0
 62
     7
100
AcDbVertex
100
AcDb2dVertex
 10
-65.501853
 20
20.071613
 30
0.0
  0
VERTEX
  5
27A
100
AcDbEntity
  8
0
390
0
 62
     7
100
AcDbVertex
100
AcDb2dVertex
 10
-65.521198
 20
20.108589
 30
0.0
  0
VERTEX
  5
27B
100
AcDbEntity
  8
0
390
0
 62
     7
100
AcDbVertex
100
AcDb2dVertex
 10
-65.5427
 20
20.145768
 30
0.0
  0
VERTEX
  5
27C
100
AcDbEntity
  8
0
390
0
 62
     7
100
AcDbVertex
100
AcDb2dVertex
 10
-65.565794
 20
20.182029
 30
0.0
  0
VERTEX
  5
27D
100
AcDbEntity
  8
0
390
0
 62
     7
100
AcDbVertex
100
AcDb2dVertex
 10
-65.590415
 20
20.217274
 30
0.0
  0
VERTEX
  5
27E
100
AcDbEntity
  8
0
390
0
 62
     7
100
AcDbVertex
100
AcDb2dVertex
 10
-65.616497
 20
20.251404
 30
0.0
  0
VERTEX
  5
27F
100
AcDbEntity
  8
0
390
0
 62
     7
100
AcDbVertex
100
AcDb2dVertex
 10
-65.643182
 20
20.283422
 30
0.0
  0
VERTEX
  5
280
100
AcDbEntity
  8
0
390
0
 62
     7
100
AcDbVertex
100
AcDb2dVertex
 10
-65.671197
 20
20.314332
 30
0.0
  0
VERTEX
  5
281
100
AcDbEntity
  8
0
390
0
 62
     7
100
AcDbVertex
100
AcDb2dVertex
 10
-65.700468
 20
20.344056
 30
0.0
  0
VERTEX
  5
282
100
AcDbEntity
  8
0
390
0
 62
     7
100
AcDbVertex
100
AcDb2dVertex
 10
-65.730921
 20
20.372516
 30
0.0
  0
VERTEX
  5
283
100
AcDbEntity
  8
0
390
0
 62
     7
100
AcDbVertex
100
AcDb2dVertex
 10
-65.763469
 20
20.400453
 30
0.0
  0
VERTEX
  5
284
100
AcDbEntity
  8
0
390
0
 62
     7
100
AcDbVertex
100
AcDb2dVertex
 10
-65.79721
 20
20.426999
 30
0.0
  0
VERTEX
  5
285
100
AcDbEntity
  8
0
390
0
 62
     7
100
AcDbVertex
100
AcDb2dVertex
 10
-65.83205
 20
20.452084
 30
0.0
  0
VERTEX
  5
286
100
AcDbEntity
  8
0
390
0
 62
     7
100
AcDbVertex
100
AcDb2dVertex
 10
-65.867895
 20
20.475635
 30
0.0
  0
VERTEX
  5
287
100
AcDbEntity
  8
0
390
0
 62
     7
100
AcDbVertex
100
AcDb2dVertex
 10
-65.903643
 20
20.497018
 30
0.0
  0
VERTEX
  5
288
100
AcDbEntity
  8
0
390
0
 62
     7
100
AcDbVertex
100
AcDb2dVertex
 10
-65.940276
 20
20.516917
 30
0.0
  0
VERTEX
  5
289
100
AcDbEntity
  8
0
390
0
 62
     7
100
AcDbVertex
100
AcDb2dVertex
 10
-65.977699
 20
20.535282
 30
0.0
  0
VERTEX
  5
28A
100
AcDbEntity
  8
0
390
0
 62
     7
100
AcDbVertex
100
AcDb2dVertex
 10
-66.015815
 20
20.552066
 30
0.0
  0
VERTEX
  5
28B
100
AcDbEntity
  8
0
390
0
 62
     7
100
AcDbVertex
100
AcDb2dVertex
 10
-66.055727
 20
20.567664
 30
0.0
  0
VERTEX
  5
28C
100
AcDbEntity
  8
0
390
0
 62
     7
100
AcDbVertex
100
AcDb2dVertex
 10
-66.096303
 20
20.581557
 30
0.0
  0
VERTEX
  5
28D
100
AcDbEntity
  8
0
390
0
 62
     7
100
AcDbVertex
100
AcDb2dVertex
 10
-66.137429
 20
20.593711
 30
0.0
  0
VERTEX
  5
28E
100
AcDbEntity
  8
0
390
0
 62
     7
100
AcDbVertex
100
AcDb2dVertex
 10
-66.178993
 20
20.604091
 30
0.0
  0
VERTEX
  5
28F
100
AcDbEntity
  8
0
390
0
 62
     7
100
AcDbVertex
100
AcDb2dVertex
 10
-66.223009
 20
20.61305
 30
0.0
  0
VERTEX
  5
290
100
AcDbEntity
  8
0
390
0
 62
     7
100
AcDbVertex
100
AcDb2dVertex
 10
-66.267444
 20
20.620039
 30
0.0
  0
VERTEX
  5
291
100
AcDbEntity
  8
0
390
0
 62
     7
100
AcDbVertex
100
AcDb2dVertex
 10
-66.312163
 20
20.625046
 30
0.0
  0
VERTEX
  5
292
100
AcDbEntity
  8
0
390
0
 62
     7
100
AcDbVertex
100
AcDb2dVertex
 10
-66.357034
 20
20.628054
 30
0.0
  0
VERTEX
  5
293
100
AcDbEntity
  8
0
390
0
 62
     7
100
AcDbVertex
100
AcDb2dVertex
 10
-66.401921
 20
20.629051
 30
0.0
  0
SEQEND
  5
294
100
AcDbEntity
  8
0
390
0
  0
LINE
  5
295
100
AcDbEntity
  8
0
390
0
  6
Continuous
 62
     7
100
AcDbLine
 10
-65.396798
 20
-19.575877
 30
0.0
 11
-65.396798
 21
19.623928
 31
0.0
  0
POLYLINE
  5
296
100
AcDbEntity
  8
0
390
0
  6
Continuous
 62
     7
100
AcDb2dPolyline
 66
     1
 10
0.0
 20
0.0
 30
0.0
 40
0.1
 41
0.1
  0
VERTEX
  5
297
100
AcDbEntity
  8
0
390
0
 62
     7
100
AcDbVertex
100
AcDb2dVertex
 10
-66.401921
 20
-20.581
 30
0.0
  0
VERTEX
  5
298
100
AcDbEntity
  8
0
390
0
 62
     7
100
AcDbVertex
100
AcDb2dVertex
 10
-66.360235
 20
-20.580145
 30
0.0
  0
VERTEX
  5
299
100
AcDbEntity
  8
0
390
0
 62
     7
100
AcDbVertex
100
AcDb2dVertex
 10
-66.318579
 20
-20.57756
 30
0.0
  0
VERTEX
  5
29A
100
AcDbEntity
  8
0
390
0
 62
     7
100
AcDbVertex
100
AcDb2dVertex
 10
-66.277062
 20
-20.573252
 30
0.0
  0
VERTEX
  5
29B
100
AcDbEntity
  8
0
390
0
 62
     7
100
AcDbVertex
100
AcDb2dVertex
 10
-66.23579
 20
-20.56723
 30
0.0
  0
VERTEX
  5
29C
100
AcDbEntity
  8
0
390
0
 62
     7
100
AcDbVertex
100
AcDb2dVertex
 10
-66.193617
 20
-20.559244
 30
0.0
  0
VERTEX
  5
29D
100
AcDbEntity
  8
0
390
0
 62
     7
100
AcDbVertex
100
AcDb2dVertex
 10
-66.151782
 20
-20.549454
 30
0.0
  0
VERTEX
  5
29E
100
AcDbEntity
  8
0
390
0
 62
     7
100
AcDbVertex
100
AcDb2dVertex
 10
-66.110397
 20
-20.53789
 30
0.0
  0
VERTEX
  5
29F
100
AcDbEntity
  8
0
390
0
 62
     7
100
AcDbVertex
100
AcDb2dVertex
 10
-66.069578
 20
-20.524579
 30
0.0
  0
VERTEX
  5
2A0
100
AcDbEntity
  8
0
390
0
 62
     7
100
AcDbVertex
100
AcDb2dVertex
 10
-66.030494
 20
-20.509979
 30
0.0
  0
VERTEX
  5
2A1
100
AcDbEntity
  8
0
390
0
 62
     7
100
AcDbVertex
100
AcDb2dVertex
 10
-65.992014
 20
-20.493753
 30
0.0
  0
VERTEX
  5
2A2
100
AcDbEntity
  8
0
390
0
 62
     7
100
AcDbVertex
100
AcDb2dVertex
 10
-65.954236
 20
-20.475946
 30
0.0
  0
VERTEX
  5
2A3
100
AcDbEntity
  8
0
390
0
 62
     7
100
AcDbVertex
100
AcDb2dVertex
 10
-65.91726
 20
-20.4566
 30
0.0
  0
VERTEX
  5
2A4
100
AcDbEntity
  8
0
390
0
 62
     7
100
AcDbVertex
100
AcDb2dVertex
 10
-65.880081
 20
-20.435098
 30
0.0
  0
VERTEX
  5
2A5
100
AcDbEntity
  8
0
390
0
 62
     7
100
AcDbVertex
100
AcDb2dVertex
 10
-65.843819
 20
-20.412004
 30
0.0
  0
VERTEX
  5
2A6
100
AcDbEntity
  8
0
390
0
 62
     7
100
AcDbVertex
100
AcDb2dVertex
 10
-65.808574
 20
-20.387384
 30
0.0
  0
VERTEX
  5
2A7
100
AcDbEntity
  8
0
390
0
 62
     7
100
AcDbVertex
100
AcDb2dVertex
 10
-65.774444
 20
-20.361302
 30
0.0
  0
VERTEX
  5
2A8
100
AcDbEntity
  8
0
390
0
 62
     7
100
AcDbVertex
100
AcDb2dVertex
 10
-65.742427
 20
-20.334617
 30
0.0
  0
VERTEX
  5
2A9
100
AcDbEntity
  8
0
390
0
 62
     7
100
AcDbVertex
100
AcDb2dVertex
 10
-65.711517
 20
-20.306601
 30
0.0
  0
VERTEX
  5
2AA
100
AcDbEntity
  8
0
390
0
 62
     7
100
AcDbVertex
100
AcDb2dVertex
 10
-65.681793
 20
-20.27733
 30
0.0
  0
VERTEX
  5
2AB
100
AcDbEntity
  8
0
390
0
 62
     7
100
AcDbVertex
100
AcDb2dVertex
 10
-65.653333
 20
-20.246878
 30
0.0
  0
VERTEX
  5
2AC
100
AcDbEntity
  8
0
390
0
 62
     7
100
AcDbVertex
100
AcDb2dVertex
 10
-65.625396
 20
-20.21433
 30
0.0
  0
VERTEX
  5
2AD
100
AcDbEntity
  8
0
390
0
 62
     7
100
AcDbVertex
100
AcDb2dVertex
 10
-65.59885
 20
-20.180589
 30
0.0
  0
VERTEX
  5
2AE
100
AcDbEntity
  8
0
390
0
 62
     7
100
AcDbVertex
100
AcDb2dVertex
 10
-65.573765
 20
-20.145749
 30
0.0
  0
VERTEX
  5
2AF
100
AcDbEntity
  8
0
390
0
 62
     7
100
AcDbVertex
100
AcDb2dVertex
 10
-65.550213
 20
-20.109904
 30
0.0
  0
VERTEX
  5
2B0
100
AcDbEntity
  8
0
390
0
 62
     7
100
AcDbVertex
100
AcDb2dVertex
 10
-65.528831
 20
-20.074156
 30
0.0
  0
VERTEX
  5
2B1
100
AcDbEntity
  8
0
390
0
 62
     7
100
AcDbVertex
100
AcDb2dVertex
 10
-65.508932
 20
-20.037523
 30
0.0
  0
VERTEX
  5
2B2
100
AcDbEntity
  8
0
390
0
 62
     7
100
AcDbVertex
100
AcDb2dVertex
 10
-65.490566
 20
-20.0001
 30
0.0
  0
VERTEX
  5
2B3
100
AcDbEntity
  8
0
390
0
 62
     7
100
AcDbVertex
100
AcDb2dVertex
 10
-65.473783
 20
-19.961984
 30
0.0
  0
VERTEX
  5
2B4
100
AcDbEntity
  8
0
390
0
 62
     7
100
AcDbVertex
100
AcDb2dVertex
 10
-65.458185
 20
-19.922071
 30
0.0
  0
VERTEX
  5
2B5
100
AcDbEntity
  8
0
390
0
 62
     7
100
AcDbVertex
100
AcDb2dVertex
 10
-65.444292
 20
-19.881496
 30
0.0
  0
VERTEX
  5
2B6
100
AcDbEntity
  8
0
390
0
 62
     7
100
AcDbVertex
100
AcDb2dVertex
 10
-65.432137
 20
-19.84037
 30
0.0
  0
VERTEX
  5
2B7
100
AcDbEntity
  8
0
390
0
 62
     7
100
AcDbVertex
100
AcDb2dVertex
 10
-65.421758
 20
-19.798805
 30
0.0
  0
VERTEX
  5
2B8
100
AcDbEntity
  8
0
390
0
 62
     7
100
AcDbVertex
100
AcDb2dVertex
 10
-65.412799
 20
-19.75479
 30
0.0
  0
VERTEX
  5
2B9
100
AcDbEntity
  8
0
390
0
 62
     7
100
AcDbVertex
100
AcDb2dVertex
 10
-65.405809
 20
-19.710355
 30
0.0
  0
VERTEX
  5
2BA
100
AcDbEntity
  8
0
390
0
 62
     7
100
AcDbVertex
100
AcDb2dVertex
 10
-65.400803
 20
-19.665636
 30
0.0
  0
VERTEX
  5
2BB
100
AcDbEntity
  8
0
390
0
 62
     7
100
AcDbVertex
100
AcDb2dVertex
 10
-65.397795
 20
-19.620765
 30
0.0
  0
VERTEX
  5
2BC
100
AcDbEntity
  8
0
390
0
 62
     7
100
AcDbVertex
100
AcDb2dVertex
 10
-65.396798
 20
-19.575877
 30
0.0
  0
SEQEND
  5
2BD
100
AcDbEntity
  8
0
390
0
  0
LINE
  5
2BE
100
AcDbEntity
  8
0
390
0
  6
Continuous
 62
     7
100
AcDbLine
 10
-105.601726
 20
-20.581
 30
0.0
 11
-66.401921
 21
-20.581
 31
0.0
  0
POLYLINE
  5
2BF
100
AcDbEntity
  8
0
390
0
  6
Continuous
 62
     7
100
AcDb2dPolyline
 66
     1
 10
0.0
 20
0.0
 30
0.0
 40
0.1
 41
0.1
  0
VERTEX
  5
2C0
100
AcDbEntity
  8
0
390
0
 62
     7
100
AcDbVertex
100
AcDb2dVertex
 10
-106.606849
 20
-19.575877
 30
0.0
  0
VERTEX
  5
2C1
100
AcDbEntity
  8
0
390
0
 62
     7
100
AcDbVertex
100
AcDb2dVertex
 10
-106.605994
 20
-19.617564
 30
0.0
  0
VERTEX
  5
2C2
100
AcDbEntity
  8
0
390
0
 62
     7
100
AcDbVertex
100
AcDb2dVertex
 10
-106.603409
 20
-19.65922
 30
0.0
  0
VERTEX
  5
2C3
100
AcDbEntity
  8
0
390
0
 62
     7
100
AcDbVertex
100
AcDb2dVertex
 10
-106.599101
 20
-19.700737
 30
0.0
  0
VERTEX
  5
2C4
100
AcDbEntity
  8
0
390
0
 62
     7
100
AcDbVertex
100
AcDb2dVertex
 10
-106.593079
 20
-19.742008
 30
0.0
  0
VERTEX
  5
2C5
100
AcDbEntity
  8
0
390
0
 62
     7
100
AcDbVertex
100
AcDb2dVertex
 10
-106.585093
 20
-19.784181
 30
0.0
  0
VERTEX
  5
2C6
100
AcDbEntity
  8
0
390
0
 62
     7
100
AcDbVertex
100
AcDb2dVertex
 10
-106.575303
 20
-19.826017
 30
0.0
  0
VERTEX
  5
2C7
100
AcDbEntity
  8
0
390
0
 62
     7
100
AcDbVertex
100
AcDb2dVertex
 10
-106.563739
 20
-19.867402
 30
0.0
  0
VERTEX
  5
2C8
100
AcDbEntity
  8
0
390
0
 62
     7
100
AcDbVertex
100
AcDb2dVertex
 10
-106.550428
 20
-19.908221
 30
0.0
  0
VERTEX
  5
2C9
100
AcDbEntity
  8
0
390
0
 62
     7
100
AcDbVertex
100
AcDb2dVertex
 10
-106.535827
 20
-19.947305
 30
0.0
  0
VERTEX
  5
2CA
100
AcDbEntity
  8
0
390
0
 62
     7
100
AcDbVertex
100
AcDb2dVertex
 10
-106.519602
 20
-19.985785
 30
0.0
  0
VERTEX
  5
2CB
100
AcDbEntity
  8
0
390
0
 62
     7
100
AcDbVertex
100
AcDb2dVertex
 10
-106.501794
 20
-20.023562
 30
0.0
  0
VERTEX
  5
2CC
100
AcDbEntity
  8
0
390
0
 62
     7
100
AcDbVertex
100
AcDb2dVertex
 10
-106.482449
 20
-20.060538
 30
0.0
  0
VERTEX
  5
2CD
100
AcDbEntity
  8
0
390
0
 62
     7
100
AcDbVertex
100
AcDb2dVertex
 10
-106.460947
 20
-20.097718
 30
0.0
  0
VERTEX
  5
2CE
100
AcDbEntity
  8
0
390
0
 62
     7
100
AcDbVertex
100
AcDb2dVertex
 10
-106.437853
 20
-20.133979
 30
0.0
  0
VERTEX
  5
2CF
100
AcDbEntity
  8
0
390
0
 62
     7
100
AcDbVertex
100
AcDb2dVertex
 10
-106.413233
 20
-20.169224
 30
0.0
  0
VERTEX
  5
2D0
100
AcDbEntity
  8
0
390
0
 62
     7
100
AcDbVertex
100
AcDb2dVertex
 10
-106.387151
 20
-20.203354
 30
0.0
  0
VERTEX
  5
2D1
100
AcDbEntity
  8
0
390
0
 62
     7
100
AcDbVertex
100
AcDb2dVertex
 10
-106.360466
 20
-20.235372
 30
0.0
  0
VERTEX
  5
2D2
100
AcDbEntity
  8
0
390
0
 62
     7
100
AcDbVertex
100
AcDb2dVertex
 10
-106.33245
 20
-20.266282
 30
0.0
  0
VERTEX
  5
2D3
100
AcDbEntity
  8
0
390
0
 62
     7
100
AcDbVertex
100
AcDb2dVertex
 10
-106.303179
 20
-20.296006
 30
0.0
  0
VERTEX
  5
2D4
100
AcDbEntity
  8
0
390
0
 62
     7
100
AcDbVertex
100
AcDb2dVertex
 10
-106.272727
 20
-20.324466
 30
0.0
  0
VERTEX
  5
2D5
100
AcDbEntity
  8
0
390
0
 62
     7
100
AcDbVertex
100
AcDb2dVertex
 10
-106.240179
 20
-20.352403
 30
0.0
  0
VERTEX
  5
2D6
100
AcDbEntity
  8
0
390
0
 62
     7
100
AcDbVertex
100
AcDb2dVertex
 10
-106.206438
 20
-20.378949
 30
0.0
  0
VERTEX
  5
2D7
100
AcDbEntity
  8
0
390
0
 62
     7
100
AcDbVertex
100
AcDb2dVertex
 10
-106.171597
 20
-20.404033
 30
0.0
  0
VERTEX
  5
2D8
100
AcDbEntity
  8
0
390
0
 62
     7
100
AcDbVertex
100
AcDb2dVertex
 10
-106.135753
 20
-20.427585
 30
0.0
  0
VERTEX
  5
2D9
100
AcDbEntity
  8
0
390
0
 62
     7
100
AcDbVertex
100
AcDb2dVertex
 10
-106.100005
 20
-20.448968
 30
0.0
  0
VERTEX
  5
2DA
100
AcDbEntity
  8
0
390
0
 62
     7
100
AcDbVertex
100
AcDb2dVertex
 10
-106.063372
 20
-20.468867
 30
0.0
  0
VERTEX
  5
2DB
100
AcDbEntity
  8
0
390
0
 62
     7
100
AcDbVertex
100
AcDb2dVertex
 10
-106.025949
 20
-20.487232
 30
0.0
  0
VERTEX
  5
2DC
100
AcDbEntity
  8
0
390
0
 62
     7
100
AcDbVertex
100
AcDb2dVertex
 10
-105.987833
 20
-20.504015
 30
0.0
  0
VERTEX
  5
2DD
100
AcDbEntity
  8
0
390
0
 62
     7
100
AcDbVertex
100
AcDb2dVertex
 10
-105.94792
 20
-20.519613
 30
0.0
  0
VERTEX
  5
2DE
100
AcDbEntity
  8
0
390
0
 62
     7
100
AcDbVertex
100
AcDb2dVertex
 10
-105.907345
 20
-20.533507
 30
0.0
  0
VERTEX
  5
2DF
100
AcDbEntity
  8
0
390
0
 62
     7
100
AcDbVertex
100
AcDb2dVertex
 10
-105.866219
 20
-20.545661
 30
0.0
  0
VERTEX
  5
2E0
100
AcDbEntity
  8
0
390
0
 62
     7
100
AcDbVertex
100
AcDb2dVertex
 10
-105.824654
 20
-20.556041
 30
0.0
  0
VERTEX
  5
2E1
100
AcDbEntity
  8
0
390
0
 62
     7
100
AcDbVertex
100
AcDb2dVertex
 10
-105.780639
 20
-20.565
 30
0.0
  0
VERTEX
  5
2E2
100
AcDbEntity
  8
0
390
0
 62
     7
100
AcDbVertex
100
AcDb2dVertex
 10
-105.736204
 20
-20.571989
 30
0.0
  0
VERTEX
  5
2E3
100
AcDbEntity
  8
0
390
0
 62
     7
100
AcDbVertex
100
AcDb2dVertex
 10
-105.691485
 20
-20.576995
 30
0.0
  0
VERTEX
  5
2E4
100
AcDbEntity
  8
0
390
0
 62
     7
100
AcDbVertex
100
AcDb2dVertex
 10
-105.646614
 20
-20.580004
 30
0.0
  0
VERTEX
  5
2E5
100
AcDbEntity
  8
0
390
0
 62
     7
100
AcDbVertex
100
AcDb2dVertex
 10
-105.601726
 20
-20.581
 30
0.0
  0
SEQEND
  5
2E6
100
AcDbEntity
  8
0
390
0
  0
POLYLINE
  5
2E7
100
AcDbEntity
  8
0
390
0
  6
Continuous
 62
     7
100
AcDb2dPolyline
 66
     1
 10
0.0
 20
0.0
 30
0.0
 40
0.1
 41
0.1
  0
VERTEX
  5
2E8
100
AcDbEntity
  8
0
390
0
 62
     7
100
AcDbVertex
100
AcDb2dVertex
 10
-105.601726
 20
20.629051
 30
0.0
  0
VERTEX
  5
2E9
100
AcDbEntity
  8
0
390
0
 62
     7
100
AcDbVertex
100
AcDb2dVertex
 10
-105.643413
 20
20.628196
 30
0.0
  0
VERTEX
  5
2EA
100
AcDbEntity
  8
0
390
0
 62
     7
100
AcDbVertex
100
AcDb2dVertex
 10
-105.685069
 20
20.62561
 30
0.0
  0
VERTEX
  5
2EB
100
AcDbEntity
  8
0
390
0
 62
     7
100
AcDbVertex
100
AcDb2dVertex
 10
-105.726586
 20
20.621302
 30
0.0
  0
VERTEX
  5
2EC
100
AcDbEntity
  8
0
390
0
 62
     7
100
AcDbVertex
100
AcDb2dVertex
 10
-105.767857
 20
20.615281
 30
0.0
  0
VERTEX
  5
2ED
100
AcDbEntity
  8
0
390
0
 62
     7
100
AcDbVertex
100
AcDb2dVertex
 10
-105.81003
 20
20.607294
 30
0.0
  0
VERTEX
  5
2EE
100
AcDbEntity
  8
0
390
0
 62
     7
100
AcDbVertex
100
AcDb2dVertex
 10
-105.851866
 20
20.597505
 30
0.0
  0
VERTEX
  5
2EF
100
AcDbEntity
  8
0
390
0
 62
     7
100
AcDbVertex
100
AcDb2dVertex
 10
-105.893251
 20
20.58594
 30
0.0
  0
VERTEX
  5
2F0
100
AcDbEntity
  8
0
390
0
 62
     7
100
AcDbVertex
100
AcDb2dVertex
 10
-105.93407
 20
20.572629
 30
0.0
  0
VERTEX
  5
2F1
100
AcDbEntity
  8
0
390
0
 62
     7
100
AcDbVertex
100
AcDb2dVertex
 10
-105.973153
 20
20.558029
 30
0.0
  0
VERTEX
  5
2F2
100
AcDbEntity
  8
0
390
0
 62
     7
100
AcDbVertex
100
AcDb2dVertex
 10
-106.011634
 20
20.541803
 30
0.0
  0
VERTEX
  5
2F3
100
AcDbEntity
  8
0
390
0
 62
     7
100
AcDbVertex
100
AcDb2dVertex
 10
-106.049411
 20
20.523996
 30
0.0
  0
VERTEX
  5
2F4
100
AcDbEntity
  8
0
390
0
 62
     7
100
AcDbVertex
100
AcDb2dVertex
 10
-106.086387
 20
20.504651
 30
0.0
  0
VERTEX
  5
2F5
100
AcDbEntity
  8
0
390
0
 62
     7
100
AcDbVertex
100
AcDb2dVertex
 10
-106.123567
 20
20.483148
 30
0.0
  0
VERTEX
  5
2F6
100
AcDbEntity
  8
0
390
0
 62
     7
100
AcDbVertex
100
AcDb2dVertex
 10
-106.159828
 20
20.460054
 30
0.0
  0
VERTEX
  5
2F7
100
AcDbEntity
  8
0
390
0
 62
     7
100
AcDbVertex
100
AcDb2dVertex
 10
-106.195073
 20
20.435434
 30
0.0
  0
VERTEX
  5
2F8
100
AcDbEntity
  8
0
390
0
 62
     7
100
AcDbVertex
100
AcDb2dVertex
 10
-106.229203
 20
20.409352
 30
0.0
  0
VERTEX
  5
2F9
100
AcDbEntity
  8
0
390
0
 62
     7
100
AcDbVertex
100
AcDb2dVertex
 10
-106.261221
 20
20.382667
 30
0.0
  0
VERTEX
  5
2FA
100
AcDbEntity
  8
0
390
0
 62
     7
100
AcDbVertex
100
AcDb2dVertex
 10
-106.292131
 20
20.354652
 30
0.0
  0
VERTEX
  5
2FB
100
AcDbEntity
  8
0
390
0
 62
     7
100
AcDbVertex
100
AcDb2dVertex
 10
-106.321855
 20
20.325381
 30
0.0
  0
VERTEX
  5
2FC
100
AcDbEntity
  8
0
390
0
 62
     7
100
AcDbVertex
100
AcDb2dVertex
 10
-106.350315
 20
20.294928
 30
0.0
  0
VERTEX
  5
2FD
100
AcDbEntity
  8
0
390
0
 62
     7
100
AcDbVertex
100
AcDb2dVertex
 10
-106.378252
 20
20.26238
 30
0.0
  0
VERTEX
  5
2FE
100
AcDbEntity
  8
0
390
0
 62
     7
100
AcDbVertex
100
AcDb2dVertex
 10
-106.404798
 20
20.228639
 30
0.0
  0
VERTEX
  5
2FF
100
AcDbEntity
  8
0
390
0
 62
     7
100
AcDbVertex
100
AcDb2dVertex
 10
-106.429882
 20
20.193799
 30
0.0
  0
VERTEX
  5
300
100
AcDbEntity
  8
0
390
0
 62
     7
100
AcDbVertex
100
AcDb2dVertex
 10
-106.453434
 20
20.157954
 30
0.0
  0
VERTEX
  5
301
100
AcDbEntity
  8
0
390
0
 62
     7
100
AcDbVertex
100
AcDb2dVertex
 10
-106.474817
 20
20.122206
 30
0.0
  0
VERTEX
  5
302
100
AcDbEntity
  8
0
390
0
 62
     7
100
AcDbVertex
100
AcDb2dVertex
 10
-106.494716
 20
20.085573
 30
0.0
  0
VERTEX
  5
303
100
AcDbEntity
  8
0
390
0
 62
     7
100
AcDbVertex
100
AcDb2dVertex
 10
-106.513081
 20
20.04815
 30
0.0
  0
VERTEX
  5
304
100
AcDbEntity
  8
0
390
0
 62
     7
100
AcDbVertex
100
AcDb2dVertex
 10
-106.529864
 20
20.010034
 30
0.0
  0
VERTEX
  5
305
100
AcDbEntity
  8
0
390
0
 62
     7
100
AcDbVertex
100
AcDb2dVertex
 10
-106.545462
 20
19.970121
 30
0.0
  0
VERTEX
  5
306
100
AcDbEntity
  8
0
390
0
 62
     7
100
AcDbVertex
100
AcDb2dVertex
 10
-106.559356
 20
19.929546
 30
0.0
  0
VERTEX
  5
307
100
AcDbEntity
  8
0
390
0
 62
     7
100
AcDbVertex
100
AcDb2dVertex
 10
-106.57151
 20
19.88842
 30
0.0
  0
VERTEX
  5
308
100
AcDbEntity
  8
0
390
0
 62
     7
100
AcDbVertex
100
AcDb2dVertex
 10
-106.58189
 20
19.846856
 30
0.0
  0
VERTEX
  5
309
100
AcDbEntity
  8
0
390
0
 62
     7
100
AcDbVertex
100
AcDb2dVertex
 10
-106.590849
 20
19.80284
 30
0.0
  0
VERTEX
  5
30A
100
AcDbEntity
  8
0
390
0
 62
     7
100
AcDbVertex
100
AcDb2dVertex
 10
-106.597838
 20
19.758405
 30
0.0
  0
VERTEX
  5
30B
100
AcDbEntity
  8
0
390
0
 62
     7
100
AcDbVertex
100
AcDb2dVertex
 10
-106.602844
 20
19.713686
 30
0.0
  0
VERTEX
  5
30C
100
AcDbEntity
  8
0
390
0
 62
     7
100
AcDbVertex
100
AcDb2dVertex
 10
-106.605853
 20
19.668815
 30
0.0
  0
VERTEX
  5
30D
100
AcDbEntity
  8
0
390
0
 62
     7
100
AcDbVertex
100
AcDb2dVertex
 10
-106.606849
 20
19.623928
 30
0.0
  0
SEQEND
  5
30E
100
AcDbEntity
  8
0
390
0
  0
ELLIPSE
  5
30F
100
AcDbEntity
  8
0
390
0
  6
Continuous
 62
     7
100
AcDbEllipse
 10
-105.501824
 20
20.524025
 30
0.0
 11
-0.0000000000000278
 21
-1.9999999999999463
 31
0.0
210
0.0
220
0.0
230
1.0
 40
0.05002
 41
3.1415926535897731
 42
4.6598520180913932
  0
LINE
  5
310
100
AcDbEntity
  8
0
390
0
  6
Continuous
 62
     7
100
AcDbLine
 10
-105.501824
 20
22.524025
 30
0.0
 11
-66.501824
 21
22.524025
 31
0.0
  0
ELLIPSE
  5
311
100
AcDbEntity
  8
0
390
0
  6
Continuous
 62
     7
100
AcDbEllipse
 10
-66.501824
 20
20.524025
 30
0.0
 11
0.0
 21
-2.0000000000000018
 31
0.0
210
0.0
220
0.0
230
1.0
 40
0.05002
 41
1.6233332890882071
 42
3.1415926535897931
  0
LINE
  5
312
100
AcDbEntity
  8
0
390
0
  6
Continuous
 62
     7
100
AcDbLine
 10
-63.501824
 20
19.524025
 30
0.0
 11
-63.501824
 21
-19.475975
 31
0.0
  0
ELLIPSE
  5
313
100
AcDbEntity
  8
0
390
0
  6
Continuous
 62
     7
100
AcDbEllipse
 10
-65.501824
 20
-19.475975
 30
0.0
 11
2.0000000000000018
 21
0.0
 31
0.0
210
0.0
220
0.0
230
1.0
 40
0.05002
 41
4.7649259426780146
 42
6.2831853071796004
  0
ELLIPSE
  5
314
100
AcDbEntity
  8
0
390
0
  6
Continuous
 62
     7
100
AcDbEllipse
 10
-65.501824
 20
19.524025
 30
0.0
 11
-2.0000000000000018
 21
0.0
 31
0.0
210
0.0
220
0.0
230
0.9999999999999999
 40
0.05002
 41
3.1415926535900711
 42
4.6598520180913932
  0
LINE
  5
315
100
AcDbEntity
  8
0
390
0
  6
Continuous
 62
     7
100
AcDbLine
 10
-66.501824
 20
-22.475975
 30
0.0
 11
-105.501824
 21
-22.475975
 31
0.0
  0
ELLIPSE
  5
316
100
AcDbEntity
  8
0
390
0
  6
Continuous
 62
     7
100
AcDbEllipse
 10
-105.501824
 20
-20.475975
 30
0.0
 11
0.0
 21
-2.0000000000000018
 31
0.0
210
0.0
220
0.0
230
1.0
 40
0.05002
 41
4.7649259426779933
 42
6.2831853071796004
  0
ELLIPSE
  5
317
100
AcDbEntity
  8
0
390
0
  6
Continuous
 62
     7
100
AcDbEllipse
 10
-66.501824
 20
-20.475975
 30
0.0
 11
-0.0000000000000278
 21
-2.0000000000000018
 31
0.0
210
0.0
220
0.0
230
1.0
 40
0.05002
 41
6.2831853071794477
 42
7.8014446716811729
  0
LINE
  5
318
100
AcDbEntity
  8
0
390
0
  6
Continuous
 62
     7
100
AcDbLine
 10
-97.554639
 20
3.015524
 30
0.0
 11
-96.620563
 21
5.325761
 31
0.0
  0
LINE
  5
319
100
AcDbEntity
  8
0
390
0
  6
Continuous
 62
     7
100
AcDbLine
 10
-100.138646
 20
3.015524
 30
0.0
 11
-97.554639
 21
3.015524
 31
0.0
  0
LINE
  5
31A
100
AcDbEntity
  8
0
390
0
  6
Continuous
 62
     7
100
AcDbLine
 10
-97.108944
 20
10.515269
 30
0.0
 11
-100.138646
 21
3.015524
 31
0.0
  0
LINE
  5
31B
100
AcDbEntity
  8
0
390
0
  6
Continuous
 62
     7
100
AcDbLine
 10
-96.620563
 20
5.325761
 30
0.0
 11
-95.013215
 21
5.325761
 31
0.0
  0
LINE
  5
31C
100
AcDbEntity
  8
0
390
0
  6
Continuous
 62
     7
100
AcDbLine
 10
-95.013215
 20
5.325761
 30
0.0
 11
-97.108944
 21
10.515269
 31
0.0
  0
ARC
  5
31D
100
AcDbEntity
  8
0
390
0
  6
Continuous
 62
     7
100
AcDbCircle
 10
-105.501824
 20
19.524025
 30
0.0
 40
3.0
210
0.0
220
0.0
230
1.0
100
AcDbArc
 50
90.0
 51
180.0
  0
ARC
  5
31E
100
AcDbEntity
  8
0
390
0
  6
Continuous
 62
     7
100
AcDbCircle
 10
-66.501824
 20
-19.475975
 30
0.0
 40
3.0
210
0.0
220
0.0
230
1.0
100
AcDbArc
 50
270.0
 51
360.0
  0
ARC
  5
31F
100
AcDbEntity
  8
0
390
0
  6
Continuous
 62
     7
100
AcDbCircle
 10
-66.501824
 20
19.524025
 30
0.0
 40
3.0
210
0.0
220
0.0
230
1.0
100
AcDbArc
 50
0.0
 51
90.0
  0
ARC
  5
320
100
AcDbEntity
  8
0
390
0
  6
Continuous
 62
     7
100
AcDbCircle
 10
-105.501824
 20
-19.475975
 30
0.0
 40
3.0
210
0.0
220
0.0
230
1.0
100
AcDbArc
 50
180.0
 51
270.0
  0
POINT
  5
321
100
AcDbEntity
  8
0
390
0
 62
     7
100
AcDbPoint
 10
0.0
 20
0.0
 30
0.0
  0
ENDSEC
  0
SECTION
  2
OBJECTS
  0
DICTIONARY
  5
19
100
AcDbDictionary
280
     0
281
     1
  3
ACAD_GROUP
350
1A
  3
ACAD_MLINESTYLE
350
1B
  3
ACAD_LAYOUT
350
1E
  3
ACAD_PLOTSETTINGS
350
22
  3
ACAD_PLOTSTYLENAME
350
1F
  3
ACAD_WIPEOUT_VARS
350
23
  0
DICTIONARY
  5
1A
102
{ACAD_REACTORS
330
19
102
}
100
AcDbDictionary
280
     0
281
     1
  0
DICTIONARY
  5
1B
102
{ACAD_REACTORS
330
19
102
}
100
AcDbDictionary
280
     0
281
     1
  3
Standard
350
1C
  0
MLINESTYLE
  5
1C
102
{ACAD_REACTORS
330
1B
102
}
100
AcDbMlineStyle
  2
Standard
 70
     0
  3

 62
     0
 51
90.0
 52
90.0
 71
     2
 49
0.5
 62
   256
  6
ByLayer
 49
-0.5
 62
   256
  6
ByLayer
  0
ACDBDICTIONARYWDFLT
  5
1F
102
{ACAD_REACTORS
330
19
102
}
100
AcDbDictionary
281
     1
  3
Normal
350
1D
100
AcDbDictionaryWithDefault
340
1D
  0
ACDBPLACEHOLDER
  5
1D
102
{ACAD_REACTORS
330
1F
102
}
  0
LAYOUT
  5
20
102
{ACAD_REACTORS
330
1E
102
}
100
AcDbPlotSettings
  1

  2

  4

  6

 40
0.0
 41
0.0
 42
0.0
 43
0.0
 44
0.0
 45
0.0
 46
0.0
 47
0.0
 48
0.0
 49
0.0
140
0.0
141
0.0
142
1.0
143
1.0
 70
  1024
 72
     0
 73
     0
 74
     0
  7

 75
     0
147
1.0
148
0.0
149
0.0
100
AcDbLayout
  1
Model
 70
     0
 71
     1
 10
0.0
 20
0.0
 11
0.0
 21
0.0
 12
0.0
 22
0.0
 32
0.0
 14
0.0
 24
0.0
 34
0.0
 15
0.0
 25
0.0
 35
0.0
146
0.0
 13
0.0
 23
0.0
 33
0.0
 16
0.0
 26
0.0
 36
0.0
 17
0.0
 27
0.0
 37
0.0
 76
     0
330
A
331
0
345
0
346
0
  0
LAYOUT
  5
21
102
{ACAD_REACTORS
330
1E
102
}
100
AcDbPlotSettings
  1

  2

  4

  6

 40
0.0
 41
0.0
 42
0.0
 43
0.0
 44
0.0
 45
0.0
 46
0.0
 47
0.0
 48
0.0
 49
0.0
140
0.0
141
0.0
142
1.0
143
1.0
 70
     0
 72
     0
 73
     0
 74
     0
  7

 75
     0
147
1.0
148
0.0
149
0.0
100
AcDbLayout
  1
Layout1
 70
     0
 71
     2
 10
0.0
 20
0.0
 11
0.0
 21
0.0
 12
0.0
 22
0.0
 32
0.0
 14
0.0
 24
0.0
 34
0.0
 15
0.0
 25
0.0
 35
0.0
146
0.0
 13
0.0
 23
0.0
 33
0.0
 16
0.0
 26
0.0
 36
0.0
 17
0.0
 27
0.0
 37
0.0
 76
     0
330
B
331
0
345
0
346
0
  0
DICTIONARY
  5
1E
102
{ACAD_REACTORS
330
19
102
}
100
AcDbDictionary
280
     0
281
     1
  3
Layout1
350
21
  3
Model
350
20
  0
DICTIONARY
  5
22
102
{ACAD_REACTORS
330
19
102
}
100
AcDbDictionary
280
     0
281
     1
  0
WIPEOUTVARIABLES
  5
23
100
AcDbWipeoutVariables
 70
     1
  0
ENDSEC
  0
EOF
