  0
SECTION
  2
HEADER
  9
$ACADVER
  1
AC1015
  9
$ACADMAINTVER
 70
     6
  9
$DWGCODEPAGE
  3
DOS932
  9
$INSBASE
 10
0.0
 20
0.0
 30
0.0
  9
$EXTMIN
 10
-103.501994
 20
-20.000001
 30
0.0
  9
$EXTMAX
 10
308.058281
 20
259.529714
 30
9.906
  9
$LIMMIN
 10
-103.501994
 20
-20.000001
  9
$LIMMAX
 10
308.058281
 20
259.529714
  9
$ORTHOMODE
 70
     0
  9
$REGENMODE
 70
     1
  9
$FILLMODE
 70
     1
  9
$QTEXTMODE
 70
     0
  9
$MIRRTEXT
 70
     1
  9
$LTSCALE
 40
10.0
  9
$ATTMODE
 70
     1
  9
$TEXTSIZE
 40
0.2
  9
$TRACEWID
 40
0.05
  9
$TEXTSTYLE
  7
Standard
  9
$CLAYER
  8
0
  9
$CELTYPE
  6
Continuous
  9
$CECOLOR
 62
   256
  9
$CELTSCALE
 40
1.0
  9
$DISPSILH
 70
     0
  9
$DIMSCALE
 40
1.0
  9
$DIMASZ
 40
1.40208
  9
$DIMEXO
 40
1.40208
  9
$DIMDLI
 40
0.38
  9
$DIMRND
 40
0.0
  9
$DIMDLE
 40
0.0
  9
$DIMEXE
 40
1.05156
  9
$DIMTP
 40
0.0
  9
$DIMTM
 40
0.0
  9
$DIMTXT
 40
3.5052
  9
$DIMCEN
 40
0.09
  9
$DIMTSZ
 40
0.0
  9
$DIMTOL
 70
     0
  9
$DIMLIM
 70
     0
  9
$DIMTIH
 70
     0
  9
$DIMTOH
 70
     0
  9
$DIMSE1
 70
     0
  9
$DIMSE2
 70
     0
  9
$DIMTAD
 70
     1
  9
$DIMZIN
 70
     0
  9
$DIMBLK
  1

  9
$DIMASO
 70
     1
  9
$DIMSHO
 70
     1
  9
$DIMPOST
  1

  9
$DIMAPOST
  1

  9
$DIMALT
 70
     0
  9
$DIMALTD
 70
     2
  9
$DIMALTF
 40
25.4
  9
$DIMLFAC
 40
1.0
  9
$DIMTOFL
 70
     0
  9
$DIMTVP
 40
0.0
  9
$DIMTIX
 70
     0
  9
$DIMSOXD
 70
     0
  9
$DIMSAH
 70
     0
  9
$DIMBLK1
  1

  9
$DIMBLK2
  1

  9
$DIMSTYLE
  2
Standard
  9
$DIMCLRD
 70
     7
  9
$DIMCLRE
 70
     7
  9
$DIMCLRT
 70
     7
  9
$DIMTFAC
 40
0.5
  9
$DIMGAP
 40
1.7526
  9
$DIMJUST
 70
     0
  9
$DIMSD1
 70
     0
  9
$DIMSD2
 70
     0
  9
$DIMTOLJ
 70
     1
  9
$DIMTZIN
 70
     0
  9
$DIMALTZ
 70
     0
  9
$DIMALTTZ
 70
     0
  9
$DIMUPT
 70
     0
  9
$DIMDEC
 70
     2
  9
$DIMTDEC
 70
     4
  9
$DIMALTU
 70
     2
  9
$DIMALTTD
 70
     2
  9
$DIMTXSTY
  7
Standard
  9
$DIMAUNIT
 70
     0
  9
$DIMADEC
 70
     0
  9
$DIMALTRND
 40
0.0
  9
$DIMAZIN
 70
     0
  9
$DIMDSEP
 70
     0
  9
$DIMATFIT
 70
     3
  9
$DIMFRAC
 70
     0
  9
$DIMLDRBLK
  1

  9
$DIMLUNIT
 70
     2
  9
$DIMLWD
 70
     0
  9
$DIMLWE
 70
     0
  9
$DIMTMOVE
 70
     0
  9
$LUNITS
 70
     2
  9
$LUPREC
 70
     4
  9
$SKETCHINC
 40
0.1
  9
$FILLETRAD
 40
0.0
  9
$AUNITS
 70
     0
  9
$AUPREC
 70
     0
  9
$MENU
  1
acad
  9
$ELEVATION
 40
0.0
  9
$PELEVATION
 40
0.0
  9
$THICKNESS
 40
0.0
  9
$LIMCHECK
 70
     0
  9
$CHAMFERA
 40
0.0
  9
$CHAMFERB
 40
0.0
  9
$CHAMFERC
 40
0.0
  9
$CHAMFERD
 40
0.0
  9
$SKPOLY
 70
     0
  9
$TDCREATE
 40
2459786.615000000
  9
$TDUCREATE
 40
0.000000000
  9
$TDUPDATE
 40
2459786.239918982
  9
$TDUUPDATE
 40
0.000000000
  9
$TDINDWG
 40
0.0000000000
  9
$TDUSRTIMER
 40
0.0000000000
  9
$USRTIMER
 70
     1
  9
$ANGBASE
 50
0.0
  9
$ANGDIR
 70
     0
  9
$PDMODE
 70
     0
  9
$PDSIZE
 40
0.0
  9
$PLINEWID
 40
0.0
  9
$SPLFRAME
 70
     0
  9
$SPLINETYPE
 70
     6
  9
$SPLINESEGS
 70
     8
  9
$HANDSEED
  5
32F
  9
$SURFTAB1
 70
     6
  9
$SURFTAB2
 70
     6
  9
$SURFTYPE
 70
     6
  9
$SURFU
 70
     6
  9
$SURFV
 70
     6
  9
$UCSBASE
  2

  9
$UCSNAME
  2

  9
$UCSORG
 10
0.0
 20
0.0
 30
0.0
  9
$UCSXDIR
 10
1.0
 20
0.0
 30
0.0
  9
$UCSYDIR
 10
0.0
 20
1.0
 30
0.0
  9
$UCSORTHOREF
  2

  9
$UCSORTHOVIEW
 70
     0
  9
$UCSORGTOP
 10
0.0
 20
0.0
 30
0.0
  9
$UCSORGBOTTOM
 10
0.0
 20
0.0
 30
0.0
  9
$UCSORGLEFT
 10
0.0
 20
0.0
 30
0.0
  9
$UCSORGRIGHT
 10
0.0
 20
0.0
 30
0.0
  9
$UCSORGFRONT
 10
0.0
 20
0.0
 30
0.0
  9
$UCSORGBACK
 10
0.0
 20
0.0
 30
0.0
  9
$PUCSBASE
  2

  9
$PUCSNAME
  2

  9
$PUCSORG
 10
0.0
 20
0.0
 30
0.0
  9
$PUCSXDIR
 10
1.0
 20
0.0
 30
0.0
  9
$PUCSYDIR
 10
0.0
 20
1.0
 30
0.0
  9
$PUCSORTHOREF
  2

  9
$PUCSORTHOVIEW
 70
     0
  9
$PUCSORGTOP
 10
0.0
 20
0.0
 30
0.0
  9
$PUCSORGBOTTOM
 10
0.0
 20
0.0
 30
0.0
  9
$PUCSORGLEFT
 10
0.0
 20
0.0
 30
0.0
  9
$PUCSORGRIGHT
 10
0.0
 20
0.0
 30
0.0
  9
$PUCSORGFRONT
 10
0.0
 20
0.0
 30
0.0
  9
$PUCSORGBACK
 10
0.0
 20
0.0
 30
0.0
  9
$USERI1
 70
     0
  9
$USERI2
 70
     0
  9
$USERI3
 70
     0
  9
$USERI4
 70
     0
  9
$USERI5
 70
     0
  9
$USERR1
 40
0.0
  9
$USERR2
 40
0.0
  9
$USERR3
 40
0.0
  9
$USERR4
 40
0.0
  9
$USERR5
 40
0.0
  9
$WORLDVIEW
 70
     1
  9
$SHADEDGE
 70
     3
  9
$SHADEDIF
 70
    70
  9
$TILEMODE
 70
     1
  9
$MAXACTVP
 70
    16
  9
$PINSBASE
 10
0.0
 20
0.0
 30
0.0
  9
$PLIMCHECK
 70
     0
  9
$PEXTMIN
 10
1.000000E+20
 20
1.000000E+20
 30
1.000000E+20
  9
$PEXTMAX
 10
-1.000000E+20
 20
-1.000000E+20
 30
-1.000000E+20
  9
$PLIMMIN
 10
0.0
 20
0.0
  9
$PLIMMAX
 10
12.0
 20
9.0
  9
$UNITMODE
 70
     0
  9
$VISRETAIN
 70
     0
  9
$PLINEGEN
 70
     1
  9
$PSLTSCALE
 70
     0
  9
$TREEDEPTH
 70
  3020
  9
$CMLSTYLE
  2
Standard
  9
$CMLJUST
 70
     0
  9
$CMLSCALE
 40
1.0
  9
$PROXYGRAPHICS
 70
     0
  9
$MEASUREMENT
 70
     0
  9
$CELWEIGHT
370
     0
  9
$ENDCAPS
280
     0
  9
$JOINSTYLE
280
     0
  9
$LWDISPLAY
290
     0
  9
$INSUNITS
 70
     0
  9
$HYPERLINKBASE
  1

  9
$STYLESHEET
  1

  9
$XEDIT
290
     1
  9
$CEPSNTYPE
380
     0
  9
$PSTYLEMODE
290
     1
  9
$FINGERPRINTGUID
  2

  9
$VERSIONGUID
  2

  9
$EXTNAMES
290
     1
  9
$PSVPSCALE
 40
0.0
  0
ENDSEC
  0
SECTION
  2
CLASSES
  0
CLASS
  1
LWPOLYLINE
  2
AcDbPolyline
  3
AutoCAD 2000
 90
        0
280
     0
281
     1
  0
CLASS
  1
IMAGE
  2
AcDbRasterImage
  3
ISM
 90
      127
280
     0
281
     1
  0
CLASS
  1
OLE2FRAME
  2
AcDbOle2Frame
  3
AutoCAD 2000
 90
        0
280
     0
281
     1
  0
CLASS
  1
HATCH
  2
AcDbHatch
  3
AutoCAD 2000
 90
        0
280
     0
281
     1
  0
CLASS
  1
DICTIONARYVAR
  2
AcDbDictionaryVar
  3
AutoCAD 2000
 90
        0
280
     0
281
     0
  0
CLASS
  1
RASTERVARIABLES
  2
AcDbRasterVariables
  3
ISM
 90
        0
280
     0
281
     0
  0
CLASS
  1
IMAGEDEF
  2
AcDbRasterImageDef
  3
ISM
 90
        0
280
     0
281
     0
  0
CLASS
  1
IMAGEDEF_REACTOR
  2
AcDbRasterImageDefReactor
  3
ISM
 90
        1
280
     0
281
     0
  0
CLASS
  1
IDBUFFER
  2
AcDbIdBuffer
  3
AutoCAD 2000
 90
        0
280
     0
281
     0
  0
CLASS
  1
SPATIAL_FILTER
  2
AcDbSpatialFilter
  3
AutoCAD 2000
 90
        0
280
     0
281
     0
  0
CLASS
  1
XRECORD
  2
AcDbXrecord
  3
AutoCAD 2000
 90
        0
280
     0
281
     0
  0
CLASS
  1
SORTENTSTABLE
  2
AcDbSortentsTable
  3
AutoCAD 2000
 90
        0
280
     0
281
     0
  0
CLASS
  1
LAYER_INDEX
  2
AcDbLayerIndex
  3
AutoCAD 2000
 90
        0
280
     0
281
     0
  0
CLASS
  1
SPATIAL_INDEX
  2
AcDbSpatialIndex
  3
AutoCAD 2000
 90
        0
280
     0
281
     0
  0
CLASS
  1
OBJECT_PTR
  2
CAseDLPNTableRecord
  3
"ASE-LPNTableRecord"
 90
        1
280
     0
281
     0
  0
CLASS
  1
LAYOUT
  2
AcDbLayout
  3
AutoCAD 2000
 90
        0
280
     0
281
     0
  0
CLASS
  1
PLOTSETTINGS
  2
AcDbPlotSettings
  3
AutoCAD 2000
 90
        0
280
     0
281
     0
  0
CLASS
  1
ACDBDICTIONARYWDFLT
  2
AcDbDictionaryWithDefault
  3
AutoCAD 2000
 90
        0
280
     0
281
     0
  0
CLASS
  1
ACDBPLACEHOLDER
  2
AcDbPlaceHolder
  3
AutoCAD 2000
 90
        0
280
     0
281
     0
  0
CLASS
  1
VBA_PROJECT
  2
AcDbVbaProject
  3
acadvba
 90
        0
280
     0
281
     0
  0
CLASS
  1
WIPEOUT
  2
AcDbWipeout
  3
WipeOut|AutoCAD Express Tool|expresstools@autodesk.com
 90
      127
280
     0
281
     1
  0
CLASS
  1
WIPEOUTVARIABLES
  2
AcDbWipeoutVariables
  3
WipeOut|AutoCAD Express Tool|expresstools@autodesk.com
 90
        0
280
     0
281
     0
  0
CLASS
  1
RTEXT
  2
RText
  3
RText|AutoCAD Express Tool|expresstools@autodesk.com
 90
        0
280
     0
281
     1
  0
CLASS
  1
ARCALIGNEDTEXT
  2
AcDbArcAlignedText
  3
ATEXT|AutoCAD Express Tool|expresstools@autodesk.com
 90
        0
280
     0
281
     1
  0
ENDSEC
  0
SECTION
  2
TABLES
  0
TABLE
  2
VPORT
  5
7
100
AcDbSymbolTable
 70
     1
  0
VPORT
  5
15
100
AcDbSymbolTableRecord
100
AcDbViewportTableRecord
  2
*ACTIVE
 70
     0
 10
0.0
 20
0.0
 11
1.0
 21
1.0
 12
6.591288
 22
4.579184
 13
0.0
 23
0.0
 14
1.0
 24
1.0
 15
0.0
 25
0.0
 16
0.0
 26
0.0
 36
1.0
 17
0.0
 27
0.0
 37
0.0
 40
9.158369
 41
0.688564
 42
50.0
 43
0.0
 44
0.0
 50
0.0
 51
0.0
 71
     0
 72
   100
 73
     1
 74
     1
 75
     0
 76
     0
 77
     0
 78
     0
281
     0
 65
     0
110
0.0
120
0.0
130
0.0
111
1.0
121
0.0
131
0.0
112
0.0
122
1.0
132
0.0
345
0
346
0
 79
     0
146
0.0
  0
ENDTAB
  0
TABLE
  2
LTYPE
  5
4
100
AcDbSymbolTable
 70
     3
  0
LTYPE
  5
11
100
AcDbSymbolTableRecord
100
AcDbLinetypeTableRecord
  2
ByBlock
 70
    64
  3

 72
    65
 73
     0
 40
0.0
  0
LTYPE
  5
12
100
AcDbSymbolTableRecord
100
AcDbLinetypeTableRecord
  2
ByLayer
 70
    64
  3

 72
    65
 73
     0
 40
0.0
  0
LTYPE
  5
13
100
AcDbSymbolTableRecord
100
AcDbLinetypeTableRecord
  2
Continuous
 70
    64
  3
Solid line
 72
    65
 73
     0
 40
0.0
  0
ENDTAB
  0
TABLE
  2
LAYER
  5
2
100
AcDbSymbolTable
 70
     1
  0
LAYER
  5
14
100
AcDbSymbolTableRecord
100
AcDbLayerTableRecord
  2
0
 70
     0
 62
     7
  6
Continuous
290
     1
370
    -3
390
1D
  0
ENDTAB
  0
TABLE
  2
STYLE
  5
3
100
AcDbSymbolTable
 70
     1
  0
STYLE
  5
17
100
AcDbSymbolTableRecord
100
AcDbTextStyleTableRecord
  2
Standard
 70
     0
 40
0.0
 41
1.0
 50
0.0
 71
     0
 42
0.0
  3
FG教科書体NT-M
  4

1001
ACAD
1000
FG教科書体NT-M
1071
        0
  0
ENDTAB
  0
TABLE
  2
VIEW
  5
5
100
AcDbSymbolTable
 70
     0
  0
ENDTAB
  0
TABLE
  2
UCS
  5
6
100
AcDbSymbolTable
 70
     0
  0
ENDTAB
  0
TABLE
  2
APPID
  5
8
100
AcDbSymbolTable
 70
     2
  0
APPID
  5
16
100
AcDbSymbolTableRecord
100
AcDbRegAppTableRecord
  2
ACAD
 70
     0
  0
APPID
  5
26
100
AcDbSymbolTableRecord
100
AcDbRegAppTableRecord
  2
TOPsolid_Design
 70
     0
  0
ENDTAB
  0
TABLE
  2
DIMSTYLE
  5
9
100
AcDbSymbolTable
 70
     1
100
AcDbDimStyleTable
 71
     0
  0
DIMSTYLE
105
18
100
AcDbSymbolTableRecord
100
AcDbDimStyleTableRecord
  2
Standard
 70
     0
  3

  4

 40
1.0
 41
1.40208
 42
1.40208
 43
0.38
 44
1.05156
 45
0.0
 46
0.0
 47
0.0
 48
0.0
 71
     0
 72
     0
 73
     0
 74
     0
 75
     0
 76
     0
 77
     1
 78
     0
 79
     0
140
3.5052
141
0.09
142
0.0
143
25.4
144
1.0
145
0.0
146
0.5
147
1.7526
148
0.0
170
     0
171
     2
172
     0
173
     0
174
     0
175
     0
176
     7
177
     7
178
     7
179
     0
271
     2
272
     4
273
     2
274
     2
275
     0
276
     0
277
     2
278
    46
279
     0
280
     0
281
     0
282
     0
283
     1
284
     0
285
     0
286
     0
288
     0
289
     3
340
17
341
0
342
0
343
0
344
0
371
    -2
372
    -2
  0
ENDTAB
  0
TABLE
  2
BLOCK_RECORD
  5
1
100
AcDbSymbolTable
 70
     0
  0
BLOCK_RECORD
  5
A
100
AcDbSymbolTableRecord
100
AcDbBlockTableRecord
  2
*MODEL_SPACE
340
20
  0
BLOCK_RECORD
  5
B
100
AcDbSymbolTableRecord
100
AcDbBlockTableRecord
  2
*PAPER_SPACE
340
21
  0
ENDTAB
  0
ENDSEC
  0
SECTION
  2
BLOCKS
  0
BLOCK
  5
D
100
AcDbEntity
  8
0
390
0
100
AcDbBlockBegin
  2
*MODEL_SPACE
 70
     0
 10
0.0
 20
0.0
 30
0.0
  3
*MODEL_SPACE
  1

  0
ENDBLK
  5
E
100
AcDbEntity
  8
0
390
0
100
AcDbBlockEnd
  0
BLOCK
  5
F
100
AcDbEntity
 67
     1
  8
0
390
0
100
AcDbBlockBegin
  2
*PAPER_SPACE
 70
     0
 10
0.0
 20
0.0
 30
0.0
  3
*PAPER_SPACE
  1

  0
ENDBLK
  5
10
100
AcDbEntity
 67
     1
  8
0
390
0
100
AcDbBlockEnd
  0
ENDSEC
  0
SECTION
  2
ENTITIES
  0
LINE
  5
27
100
AcDbEntity
  8
0
390
0
  6
Continuous
 62
     7
100
AcDbLine
 10
-12.708813
 20
17.081593
 30
0.0
 11
-12.708813
 21
18.086392
 31
0.0
  0
ELLIPSE
  5
28
100
AcDbEntity
  8
0
390
0
  6
Continuous
 62
     7
100
AcDbEllipse
 10
-10.712346
 20
17.999999
 30
0.0
 11
-0.0000000000000278
 21
-2.0000000000000018
 31
0.0
210
0.0
220
0.0
230
1.0
 40
0.999166
 41
3.1415926535898349
 42
4.6691788044962674
  0
LINE
  5
29
100
AcDbEntity
  8
0
390
0
  6
Continuous
 62
     7
100
AcDbLine
 10
-10.712346
 20
19.999999
 30
0.0
 11
-10.712346
 21
16.999999
 31
0.0
  0
LINE
  5
2A
100
AcDbEntity
  8
0
390
0
  6
Continuous
 62
     7
100
AcDbLine
 10
-12.708813
 20
17.081593
 30
0.0
 11
-10.712346
 21
16.999999
 31
0.0
  0
POLYLINE
  5
2B
100
AcDbEntity
  8
0
390
0
  6
Continuous
 62
     7
100
AcDb2dPolyline
 66
     1
 10
0.0
 20
0.0
 30
0.0
 40
0.1
 41
0.1
  0
VERTEX
  5
2C
100
AcDbEntity
  8
0
390
0
 62
     7
100
AcDbVertex
100
AcDb2dVertex
 10
-10.712346
 20
16.999999
 30
0.0
  0
VERTEX
  5
2D
100
AcDbEntity
  8
0
390
0
 62
     7
100
AcDbVertex
100
AcDb2dVertex
 10
-10.988926
 20
7.790109
 30
0.0
  0
VERTEX
  5
2E
100
AcDbEntity
  8
0
390
0
 62
     7
100
AcDbVertex
100
AcDb2dVertex
 10
-11.037373
 20
-4.601387
 30
0.0
  0
VERTEX
  5
2F
100
AcDbEntity
  8
0
390
0
 62
     7
100
AcDbVertex
100
AcDb2dVertex
 10
-10.712346
 20
-17.000001
 30
0.0
  0
SEQEND
  5
30
100
AcDbEntity
  8
0
390
0
  0
LINE
  5
31
100
AcDbEntity
  8
0
390
0
  6
Continuous
 62
     7
100
AcDbLine
 10
-10.712346
 20
-17.000001
 30
0.0
 11
-12.708813
 21
-17.081595
 31
0.0
  0
POLYLINE
  5
32
100
AcDbEntity
  8
0
390
0
  6
Continuous
 62
     7
100
AcDb2dPolyline
 66
     1
 10
0.0
 20
0.0
 30
0.0
 40
0.1
 41
0.1
  0
VERTEX
  5
33
100
AcDbEntity
  8
0
390
0
 62
     7
100
AcDbVertex
100
AcDb2dVertex
 10
-12.708813
 20
-17.081595
 30
0.0
  0
VERTEX
  5
34
100
AcDbEntity
  8
0
390
0
 62
     7
100
AcDbVertex
100
AcDb2dVertex
 10
-13.035173
 20
-4.634365
 30
0.0
  0
VERTEX
  5
35
100
AcDbEntity
  8
0
390
0
 62
     7
100
AcDbVertex
100
AcDb2dVertex
 10
-12.986627
 20
7.828184
 30
0.0
  0
VERTEX
  5
36
100
AcDbEntity
  8
0
390
0
 62
     7
100
AcDbVertex
100
AcDb2dVertex
 10
-12.708813
 20
17.081593
 30
0.0
  0
SEQEND
  5
37
100
AcDbEntity
  8
0
390
0
  0
LINE
  5
38
100
AcDbEntity
  8
0
390
0
  6
Continuous
 62
     7
100
AcDbLine
 10
-8.5
 20
-20.000001
 30
0.0
 11
-10.712346
 21
-20.000001
 31
0.0
  0
LINE
  5
39
100
AcDbEntity
  8
0
390
0
  6
Continuous
 62
     7
100
AcDbLine
 10
-10.712346
 20
-17.000001
 30
0.0
 11
-10.712346
 21
-20.000001
 31
0.0
  0
LINE
  5
3A
100
AcDbEntity
  8
0
390
0
  6
Continuous
 62
     7
100
AcDbLine
 10
-8.5
 20
-17.000001
 30
0.0
 11
-10.712346
 21
-17.000001
 31
0.0
  0
LINE
  5
3B
100
AcDbEntity
  8
0
390
0
  6
Continuous
 62
     7
100
AcDbLine
 10
-8.5
 20
-20.000001
 30
0.0
 11
-8.5
 21
-17.000001
 31
0.0
  0
LINE
  5
3C
100
AcDbEntity
  8
0
390
0
  6
Continuous
 62
     7
100
AcDbLine
 10
-8.5
 20
16.999999
 30
0.0
 11
-10.712346
 21
16.999999
 31
0.0
  0
LINE
  5
3D
100
AcDbEntity
  8
0
390
0
  6
Continuous
 62
     7
100
AcDbLine
 10
-8.5
 20
-17.000001
 30
0.0
 11
-8.5
 21
16.999999
 31
0.0
  0
LINE
  5
3E
100
AcDbEntity
  8
0
390
0
  6
Continuous
 62
     7
100
AcDbLine
 10
-8.5
 20
19.999999
 30
0.0
 11
-10.712346
 21
19.999999
 31
0.0
  0
LINE
  5
3F
100
AcDbEntity
  8
0
390
0
  6
Continuous
 62
     7
100
AcDbLine
 10
-8.5
 20
16.999999
 30
0.0
 11
-8.5
 21
19.999999
 31
0.0
  0
ELLIPSE
  5
40
100
AcDbEntity
  8
0
390
0
  6
Continuous
 62
     7
100
AcDbEllipse
 10
-10.712346
 20
-18.000001
 30
0.0
 11
0.0000000000000833
 21
-2.0000000000000018
 31
0.0
210
0.0
220
0.0
230
1.0
 40
0.999166
 41
4.755599156273087
 42
6.2831853071795463
  0
LINE
  5
41
100
AcDbEntity
  8
0
390
0
  6
Continuous
 62
     7
100
AcDbLine
 10
-12.708813
 20
-18.086395
 30
0.0
 11
-12.708813
 21
-17.081595
 31
0.0
  0
LINE
  5
42
100
AcDbEntity
  8
0
390
0
  6
Continuous
 62
     7
100
AcDbLine
 10
-13.061467
 20
-18.088661
 30
0.0
 11
-12.708813
 21
-18.086395
 31
0.0
  0
LINE
  5
43
100
AcDbEntity
  8
0
390
0
  6
Continuous
 62
     7
100
AcDbLine
 10
-12.708813
 20
18.086392
 30
0.0
 11
-13.061467
 21
18.088659
 31
0.0
  0
LINE
  5
44
100
AcDbEntity
  8
0
390
0
  6
Continuous
 62
     7
100
AcDbLine
 10
-13.316346
 20
2.993998
 30
0.0
 11
-13.17213
 21
6.330665
 31
0.0
  0
LINE
  5
45
100
AcDbEntity
  8
0
390
0
  6
Continuous
 62
     7
100
AcDbLine
 10
-13.17213
 20
6.330665
 30
0.0
 11
-13.013425
 21
12.996677
 31
0.0
  0
LINE
  5
46
100
AcDbEntity
  8
0
390
0
  6
Continuous
 62
     7
100
AcDbLine
 10
4.979869
 20
9.499999
 30
0.0
 11
4.5
 21
9.499999
 31
0.0
  0
LINE
  5
47
100
AcDbEntity
  8
0
390
0
  6
Continuous
 62
     7
100
AcDbLine
 10
4.5
 20
9.499999
 30
0.0
 11
4.5
 21
11.499999
 31
0.0
  0
LINE
  5
48
100
AcDbEntity
  8
0
390
0
  6
Continuous
 62
     7
100
AcDbLine
 10
4.5
 20
11.499999
 30
0.0
 11
5.787922
 21
11.499999
 31
0.0
  0
ELLIPSE
  5
49
100
AcDbEntity
  8
0
390
0
  6
Continuous
 62
     7
100
AcDbEllipse
 10
5.787922
 20
9.499999
 30
0.0
 11
0.0
 21
-2.0000000000000018
 31
0.0
210
0.0
220
0.0
230
1.0
 40
0.404026
 41
3.1415926535897931
 42
4.7123889803846897
  0
LINE
  5
4A
100
AcDbEntity
  8
0
390
0
  6
Continuous
 62
     7
100
AcDbLine
 10
4.979869
 20
-9.500001
 30
0.0
 11
4.979869
 21
9.499999
 31
0.0
  0
LINE
  5
4B
100
AcDbEntity
  8
0
390
0
  6
Continuous
 62
     7
100
AcDbLine
 10
4.5
 20
-9.500001
 30
0.0
 11
4.979869
 21
-9.500001
 31
0.0
  0
LINE
  5
4C
100
AcDbEntity
  8
0
390
0
  6
Continuous
 62
     7
100
AcDbLine
 10
4.5
 20
-9.500001
 30
0.0
 11
4.5
 21
9.499999
 31
0.0
  0
LINE
  5
4D
100
AcDbEntity
  8
0
390
0
  6
Continuous
 62
     7
100
AcDbLine
 10
7.0
 20
11.499999
 30
0.0
 11
5.787922
 21
11.499999
 31
0.0
  0
LINE
  5
4E
100
AcDbEntity
  8
0
390
0
  6
Continuous
 62
     7
100
AcDbLine
 10
7.0
 20
8.699999
 30
0.0
 11
7.0
 21
11.499999
 31
0.0
  0
LINE
  5
4F
100
AcDbEntity
  8
0
390
0
  6
Continuous
 62
     7
100
AcDbLine
 10
7.0
 20
8.699999
 30
0.0
 11
7.0
 21
-8.700001
 31
0.0
  0
LINE
  5
50
100
AcDbEntity
  8
0
390
0
  6
Continuous
 62
     7
100
AcDbLine
 10
7.0
 20
-11.500001
 30
0.0
 11
7.0
 21
-8.700001
 31
0.0
  0
LINE
  5
51
100
AcDbEntity
  8
0
390
0
  6
Continuous
 62
     7
100
AcDbLine
 10
7.0
 20
-11.500001
 30
0.0
 11
5.787922
 21
-11.500001
 31
0.0
  0
ELLIPSE
  5
52
100
AcDbEntity
  8
0
390
0
  6
Continuous
 62
     7
100
AcDbEllipse
 10
5.787922
 20
-9.500001
 30
0.0
 11
0.0
 21
2.0000000000000018
 31
0.0
210
0.0
220
0.0
230
1.0
 40
0.404026
 41
1.5707963267948966
 42
3.1415926535897931
  0
LINE
  5
53
100
AcDbEntity
  8
0
390
0
  6
Continuous
 62
     7
100
AcDbLine
 10
5.787922
 20
-11.500001
 30
0.0
 11
4.5
 21
-11.500001
 31
0.0
  0
LINE
  5
54
100
AcDbEntity
  8
0
390
0
  6
Continuous
 62
     7
100
AcDbLine
 10
4.5
 20
-11.500001
 30
0.0
 11
4.5
 21
-9.500001
 31
0.0
  0
LINE
  5
55
100
AcDbEntity
  8
0
390
0
  6
Continuous
 62
     7
100
AcDbLine
 10
-3.212078
 20
-11.500001
 30
0.0
 11
-4.5
 21
-11.500001
 31
0.0
  0
LINE
  5
56
100
AcDbEntity
  8
0
390
0
  6
Continuous
 62
     7
100
AcDbLine
 10
-4.5
 20
-11.500001
 30
0.0
 11
-4.5
 21
-9.500001
 31
0.0
  0
LINE
  5
57
100
AcDbEntity
  8
0
390
0
  6
Continuous
 62
     7
100
AcDbLine
 10
-4.5
 20
-9.500001
 30
0.0
 11
-4.020131
 21
-9.500001
 31
0.0
  0
ELLIPSE
  5
58
100
AcDbEntity
  8
0
390
0
  6
Continuous
 62
     7
100
AcDbEllipse
 10
-3.212078
 20
-9.500001
 30
0.0
 11
0.0
 21
2.0000000000000018
 31
0.0
210
0.0
220
0.0
230
1.0
 40
0.404026
 41
1.5707963267948966
 42
3.1415926535897931
  0
LINE
  5
59
100
AcDbEntity
  8
0
390
0
  6
Continuous
 62
     7
100
AcDbLine
 10
-4.020131
 20
9.499999
 30
0.0
 11
-4.5
 21
9.499999
 31
0.0
  0
LINE
  5
5A
100
AcDbEntity
  8
0
390
0
  6
Continuous
 62
     7
100
AcDbLine
 10
-4.020131
 20
-9.500001
 30
0.0
 11
-4.020131
 21
9.499999
 31
0.0
  0
LINE
  5
5B
100
AcDbEntity
  8
0
390
0
  6
Continuous
 62
     7
100
AcDbLine
 10
-4.5
 20
-9.500001
 30
0.0
 11
-4.5
 21
9.499999
 31
0.0
  0
LINE
  5
5C
100
AcDbEntity
  8
0
390
0
  6
Continuous
 62
     7
100
AcDbLine
 10
-4.5
 20
9.499999
 30
0.0
 11
-4.5
 21
11.499999
 31
0.0
  0
LINE
  5
5D
100
AcDbEntity
  8
0
390
0
  6
Continuous
 62
     7
100
AcDbLine
 10
-4.5
 20
11.499999
 30
0.0
 11
-3.212078
 21
11.499999
 31
0.0
  0
ELLIPSE
  5
5E
100
AcDbEntity
  8
0
390
0
  6
Continuous
 62
     7
100
AcDbEllipse
 10
-3.212078
 20
9.499999
 30
0.0
 11
0.0
 21
-2.0000000000000018
 31
0.0
210
0.0
220
0.0
230
1.0
 40
0.404026
 41
3.1415926535897922
 42
4.7123889803846897
  0
LINE
  5
5F
100
AcDbEntity
  8
0
390
0
  6
Continuous
 62
     7
100
AcDbLine
 10
-2.0
 20
11.499999
 30
0.0
 11
-3.212078
 21
11.499999
 31
0.0
  0
LINE
  5
60
100
AcDbEntity
  8
0
390
0
  6
Continuous
 62
     7
100
AcDbLine
 10
-2.0
 20
8.699999
 30
0.0
 11
-2.0
 21
11.499999
 31
0.0
  0
LINE
  5
61
100
AcDbEntity
  8
0
390
0
  6
Continuous
 62
     7
100
AcDbLine
 10
-2.0
 20
8.699999
 30
0.0
 11
-2.0
 21
-8.700001
 31
0.0
  0
LINE
  5
62
100
AcDbEntity
  8
0
390
0
  6
Continuous
 62
     7
100
AcDbLine
 10
-2.0
 20
-11.500001
 30
0.0
 11
-2.0
 21
-8.700001
 31
0.0
  0
LINE
  5
63
100
AcDbEntity
  8
0
390
0
  6
Continuous
 62
     7
100
AcDbLine
 10
-2.0
 20
-11.500001
 30
0.0
 11
-3.212078
 21
-11.500001
 31
0.0
  0
LINE
  5
64
100
AcDbEntity
  8
0
390
0
  6
Continuous
 62
     7
100
AcDbLine
 10
0.0
 20
-9.500001
 30
0.0
 11
0.479869
 21
-9.500001
 31
0.0
  0
LINE
  5
65
100
AcDbEntity
  8
0
390
0
  6
Continuous
 62
     7
100
AcDbLine
 10
0.0
 20
-9.500001
 30
0.0
 11
0.0
 21
9.499999
 31
0.0
  0
LINE
  5
66
100
AcDbEntity
  8
0
390
0
  6
Continuous
 62
     7
100
AcDbLine
 10
0.479869
 20
9.499999
 30
0.0
 11
0.0
 21
9.499999
 31
0.0
  0
LINE
  5
67
100
AcDbEntity
  8
0
390
0
  6
Continuous
 62
     7
100
AcDbLine
 10
0.479869
 20
-9.500001
 30
0.0
 11
0.479869
 21
9.499999
 31
0.0
  0
LINE
  5
68
100
AcDbEntity
  8
0
390
0
  6
Continuous
 62
     7
100
AcDbLine
 10
2.5
 20
8.699999
 30
0.0
 11
2.5
 21
11.499999
 31
0.0
  0
LINE
  5
69
100
AcDbEntity
  8
0
390
0
  6
Continuous
 62
     7
100
AcDbLine
 10
2.5
 20
8.699999
 30
0.0
 11
2.5
 21
-8.700001
 31
0.0
  0
LINE
  5
6A
100
AcDbEntity
  8
0
390
0
  6
Continuous
 62
     7
100
AcDbLine
 10
2.5
 20
-11.500001
 30
0.0
 11
2.5
 21
-8.700001
 31
0.0
  0
LINE
  5
6B
100
AcDbEntity
  8
0
390
0
  6
Continuous
 62
     7
100
AcDbLine
 10
2.5
 20
-11.500001
 30
0.0
 11
1.287922
 21
-11.500001
 31
0.0
  0
ELLIPSE
  5
6C
100
AcDbEntity
  8
0
390
0
  6
Continuous
 62
     7
100
AcDbEllipse
 10
1.287922
 20
-9.500001
 30
0.0
 11
0.0
 21
2.0000000000000018
 31
0.0
210
0.0
220
0.0
230
1.0
 40
0.404026
 41
1.5707963267948966
 42
3.1415926535897931
  0
ELLIPSE
  5
6D
100
AcDbEntity
  8
0
390
0
  6
Continuous
 62
     7
100
AcDbEllipse
 10
1.287922
 20
9.499999
 30
0.0
 11
0.0
 21
-2.0000000000000018
 31
0.0
210
0.0
220
0.0
230
1.0
 40
0.404026
 41
3.1415926535897931
 42
4.7123889803846897
  0
LINE
  5
6E
100
AcDbEntity
  8
0
390
0
  6
Continuous
 62
     7
100
AcDbLine
 10
2.5
 20
11.499999
 30
0.0
 11
1.287922
 21
11.499999
 31
0.0
  0
LINE
  5
6F
100
AcDbEntity
  8
0
390
0
  6
Continuous
 62
     7
100
AcDbLine
 10
0.0
 20
9.499999
 30
0.0
 11
0.0
 21
11.499999
 31
0.0
  0
LINE
  5
70
100
AcDbEntity
  8
0
390
0
  6
Continuous
 62
     7
100
AcDbLine
 10
0.0
 20
11.499999
 30
0.0
 11
1.287922
 21
11.499999
 31
0.0
  0
LINE
  5
71
100
AcDbEntity
  8
0
390
0
  6
Continuous
 62
     7
100
AcDbLine
 10
1.287922
 20
-11.500001
 30
0.0
 11
0.0
 21
-11.500001
 31
0.0
  0
LINE
  5
72
100
AcDbEntity
  8
0
390
0
  6
Continuous
 62
     7
100
AcDbLine
 10
0.0
 20
-11.500001
 30
0.0
 11
0.0
 21
-9.500001
 31
0.0
  0
LINE
  5
73
100
AcDbEntity
  8
0
390
0
  6
Continuous
 62
     7
100
AcDbLine
 10
-10.712346
 20
-20.000001
 30
0.0
 11
-11.063433
 21
-20.000001
 31
0.0
  0
LINE
  5
74
100
AcDbEntity
  8
0
390
0
  6
Continuous
 62
     7
100
AcDbLine
 10
-11.063423
 20
19.999999
 30
0.0
 11
-10.712346
 21
19.999999
 31
0.0
  0
LINE
  5
75
100
AcDbEntity
  8
0
390
0
  6
Continuous
 62
     7
100
AcDbLine
 10
9.0
 20
-9.500001
 30
0.0
 11
9.447519
 21
-9.500001
 31
0.0
  0
LINE
  5
76
100
AcDbEntity
  8
0
390
0
  6
Continuous
 62
     7
100
AcDbLine
 10
9.0
 20
-9.500001
 30
0.0
 11
9.0
 21
9.499999
 31
0.0
  0
LINE
  5
77
100
AcDbEntity
  8
0
390
0
  6
Continuous
 62
     7
100
AcDbLine
 10
9.447519
 20
9.499999
 30
0.0
 11
9.0
 21
9.499999
 31
0.0
  0
LINE
  5
78
100
AcDbEntity
  8
0
390
0
  6
Continuous
 62
     7
100
AcDbLine
 10
9.447519
 20
-9.500001
 30
0.0
 11
9.447519
 21
9.499999
 31
0.0
  0
LINE
  5
79
100
AcDbEntity
  8
0
390
0
  6
Continuous
 62
     7
100
AcDbLine
 10
10.255572
 20
-11.500001
 30
0.0
 11
9.0
 21
-11.500001
 31
0.0
  0
LINE
  5
7A
100
AcDbEntity
  8
0
390
0
  6
Continuous
 62
     7
100
AcDbLine
 10
9.0
 20
-11.500001
 30
0.0
 11
9.0
 21
-9.500001
 31
0.0
  0
ELLIPSE
  5
7B
100
AcDbEntity
  8
0
390
0
  6
Continuous
 62
     7
100
AcDbEllipse
 10
10.255572
 20
-9.500001
 30
0.0
 11
0.0
 21
2.0000000000000018
 31
0.0
210
0.0
220
0.0
230
1.0
 40
0.404026
 41
1.5707963267948966
 42
3.1415926535897931
  0
LINE
  5
7C
100
AcDbEntity
  8
0
390
0
  6
Continuous
 62
     7
100
AcDbLine
 10
9.0
 20
9.499999
 30
0.0
 11
9.0
 21
11.499999
 31
0.0
  0
LINE
  5
7D
100
AcDbEntity
  8
0
390
0
  6
Continuous
 62
     7
100
AcDbLine
 10
9.0
 20
11.499999
 30
0.0
 11
10.255572
 21
11.499999
 31
0.0
  0
ELLIPSE
  5
7E
100
AcDbEntity
  8
0
390
0
  6
Continuous
 62
     7
100
AcDbEllipse
 10
10.255572
 20
9.499999
 30
0.0
 11
0.0
 21
-2.0000000000000018
 31
0.0
210
0.0
220
0.0
230
1.0
 40
0.404026
 41
3.1415926535897922
 42
4.7123889803846897
  0
LINE
  5
7F
100
AcDbEntity
  8
0
390
0
  6
Continuous
 62
     7
100
AcDbLine
 10
10.7
 20
8.699999
 30
0.0
 11
10.7
 21
11.499999
 31
0.0
  0
LINE
  5
80
100
AcDbEntity
  8
0
390
0
  6
Continuous
 62
     7
100
AcDbLine
 10
10.7
 20
8.699999
 30
0.0
 11
10.7
 21
-8.700001
 31
0.0
  0
LINE
  5
81
100
AcDbEntity
  8
0
390
0
  6
Continuous
 62
     7
100
AcDbLine
 10
10.7
 20
-11.500001
 30
0.0
 11
10.7
 21
-8.700001
 31
0.0
  0
LINE
  5
82
100
AcDbEntity
  8
0
390
0
  6
Continuous
 62
     7
100
AcDbLine
 10
10.7
 20
-11.500001
 30
0.0
 11
10.255572
 21
-11.500001
 31
0.0
  0
LINE
  5
83
100
AcDbEntity
  8
0
390
0
  6
Continuous
 62
     7
100
AcDbLine
 10
10.7
 20
11.499999
 30
0.0
 11
10.255572
 21
11.499999
 31
0.0
  0
LINE
  5
84
100
AcDbEntity
  8
0
390
0
  6
Continuous
 62
     7
100
AcDbLine
 10
-13.720917
 20
-9.955547
 30
0.0
 11
-13.652559
 21
-11.196269
 31
0.0
  0
POLYLINE
  5
85
100
AcDbEntity
  8
0
390
0
  6
Continuous
 62
     7
100
AcDb2dPolyline
 66
     1
 10
0.0
 20
0.0
 30
0.0
 40
0.1
 41
0.1
  0
VERTEX
  5
86
100
AcDbEntity
  8
0
390
0
 62
     7
100
AcDbVertex
100
AcDb2dVertex
 10
-13.698998
 20
-11.503582
 30
0.0
 42
-0.016125
  0
VERTEX
  5
87
100
AcDbEntity
  8
0
390
0
 62
     7
100
AcDbVertex
100
AcDb2dVertex
 10
-13.815347
 20
-3.172176
 30
0.0
  0
VERTEX
  5
88
100
AcDbEntity
  8
0
390
0
 62
     7
100
AcDbVertex
100
AcDb2dVertex
 10
-13.797694
 20
-3.09191
 30
0.0
  0
SEQEND
  5
89
100
AcDbEntity
  8
0
390
0
  0
LINE
  5
8A
100
AcDbEntity
  8
0
390
0
  6
Continuous
 62
     7
100
AcDbLine
 10
-13.609373
 20
-12.637365
 30
0.0
 11
-13.698998
 21
-11.503582
 31
0.0
  0
POLYLINE
  5
8B
100
AcDbEntity
  8
0
390
0
  6
Continuous
 62
     7
100
AcDb2dPolyline
 66
     1
 10
0.0
 20
0.0
 30
0.0
 40
0.1
 41
0.1
  0
VERTEX
  5
8C
100
AcDbEntity
  8
0
390
0
 62
     7
100
AcDbVertex
100
AcDb2dVertex
 10
-13.797694
 20
-3.09191
 30
0.0
  0
VERTEX
  5
8D
100
AcDbEntity
  8
0
390
0
 62
     7
100
AcDbVertex
100
AcDb2dVertex
 10
-13.77436
 20
-3.197558
 30
0.0
 42
-0.011644
  0
VERTEX
  5
8E
100
AcDbEntity
  8
0
390
0
 62
     7
100
AcDbVertex
100
AcDb2dVertex
 10
-13.600158
 20
-12.612256
 30
0.0
  0
VERTEX
  5
8F
100
AcDbEntity
  8
0
390
0
 62
     7
100
AcDbVertex
100
AcDb2dVertex
 10
-13.609373
 20
-12.637365
 30
0.0
  0
SEQEND
  5
90
100
AcDbEntity
  8
0
390
0
  0
POLYLINE
  5
91
100
AcDbEntity
  8
0
390
0
  6
Continuous
 62
     7
100
AcDb2dPolyline
 66
     1
 10
0.0
 20
0.0
 30
0.0
 40
0.1
 41
0.1
  0
VERTEX
  5
92
100
AcDbEntity
  8
0
390
0
 62
     7
100
AcDbVertex
100
AcDb2dVertex
 10
-13.297465
 20
-3.09191
 30
0.0
  0
VERTEX
  5
93
100
AcDbEntity
  8
0
390
0
 62
     7
100
AcDbVertex
100
AcDb2dVertex
 10
-13.274105
 20
-3.197557
 30
0.0
 42
-0.011657
  0
VERTEX
  5
94
100
AcDbEntity
  8
0
390
0
 62
     7
100
AcDbVertex
100
AcDb2dVertex
 10
-13.099709
 20
-12.612255
 30
0.0
  0
VERTEX
  5
95
100
AcDbEntity
  8
0
390
0
 62
     7
100
AcDbVertex
100
AcDb2dVertex
 10
-13.108934
 20
-12.637365
 30
0.0
  0
SEQEND
  5
96
100
AcDbEntity
  8
0
390
0
  0
LINE
  5
97
100
AcDbEntity
  8
0
390
0
  6
Continuous
 62
     7
100
AcDbLine
 10
-13.51397
 20
12.996677
 30
0.0
 11
-13.013425
 21
12.996677
 31
0.0
  0
LINE
  5
98
100
AcDbEntity
  8
0
390
0
  6
Continuous
 62
     7
100
AcDbLine
 10
-13.672498
 20
6.330665
 30
0.0
 11
-13.17213
 21
6.330665
 31
0.0
  0
LINE
  5
99
100
AcDbEntity
  8
0
390
0
  6
Continuous
 62
     7
100
AcDbLine
 10
-13.672498
 20
6.330665
 30
0.0
 11
-13.51397
 21
12.996677
 31
0.0
  0
LINE
  5
9A
100
AcDbEntity
  8
0
390
0
  6
Continuous
 62
     7
100
AcDbLine
 10
-13.900149
 20
2.993998
 30
0.0
 11
-13.816555
 21
2.993998
 31
0.0
  0
LINE
  5
9B
100
AcDbEntity
  8
0
390
0
  6
Continuous
 62
     7
100
AcDbLine
 10
-13.873507
 20
4.448577
 30
0.0
 11
-13.900149
 21
2.993998
 31
0.0
  0
LINE
  5
9C
100
AcDbEntity
  8
0
390
0
  6
Continuous
 62
     7
100
AcDbLine
 10
-13.841474
 20
4.448577
 30
0.0
 11
-13.873507
 21
4.448577
 31
0.0
  0
LINE
  5
9D
100
AcDbEntity
  8
0
390
0
  6
Continuous
 62
     7
100
AcDbLine
 10
-13.750542
 20
6.673022
 30
0.0
 11
-13.841474
 21
4.448577
 31
0.0
  0
LINE
  5
9E
100
AcDbEntity
  8
0
390
0
  6
Continuous
 62
     7
100
AcDbLine
 10
-13.595573
 20
12.996677
 30
0.0
 11
-13.750542
 21
6.673022
 31
0.0
  0
LINE
  5
9F
100
AcDbEntity
  8
0
390
0
  6
Continuous
 62
     7
100
AcDbLine
 10
-13.51397
 20
12.996677
 30
0.0
 11
-13.595573
 21
12.996677
 31
0.0
  0
LINE
  5
A0
100
AcDbEntity
  8
0
390
0
  6
Continuous
 62
     7
100
AcDbLine
 10
-13.816555
 20
2.993998
 30
0.0
 11
-13.672498
 21
6.330665
 31
0.0
  0
LINE
  5
A1
100
AcDbEntity
  8
0
390
0
  6
Continuous
 62
     7
100
AcDbLine
 10
-13.816555
 20
2.993998
 30
0.0
 11
-13.316346
 21
2.993998
 31
0.0
  0
LINE
  5
A2
100
AcDbEntity
  8
0
390
0
  6
Continuous
 62
     7
100
AcDbLine
 10
13.5
 20
-8.700001
 30
0.0
 11
10.7
 21
-8.700001
 31
0.0
  0
LINE
  5
A3
100
AcDbEntity
  8
0
390
0
  6
Continuous
 62
     7
100
AcDbLine
 10
13.5
 20
-13.700001
 30
0.0
 11
13.5
 21
-8.700001
 31
0.0
  0
LINE
  5
A4
100
AcDbEntity
  8
0
390
0
  6
Continuous
 62
     7
100
AcDbLine
 10
13.5
 20
-13.700001
 30
0.0
 11
10.7
 21
-13.700001
 31
0.0
  0
LINE
  5
A5
100
AcDbEntity
  8
0
390
0
  6
Continuous
 62
     7
100
AcDbLine
 10
9.0
 20
-12.842464
 30
0.0
 11
10.7
 21
-12.842464
 31
0.0
  0
LINE
  5
A6
100
AcDbEntity
  8
0
390
0
  6
Continuous
 62
     7
100
AcDbLine
 10
9.0
 20
-13.700001
 30
0.0
 11
7.0
 21
-13.700001
 31
0.0
  0
LINE
  5
A7
100
AcDbEntity
  8
0
390
0
  6
Continuous
 62
     7
100
AcDbLine
 10
4.5
 20
-12.842464
 30
0.0
 11
7.0
 21
-12.842464
 31
0.0
  0
LINE
  5
A8
100
AcDbEntity
  8
0
390
0
  6
Continuous
 62
     7
100
AcDbLine
 10
4.5
 20
-13.700001
 30
0.0
 11
2.5
 21
-13.700001
 31
0.0
  0
LINE
  5
A9
100
AcDbEntity
  8
0
390
0
  6
Continuous
 62
     7
100
AcDbLine
 10
0.0
 20
-12.842464
 30
0.0
 11
2.5
 21
-12.842464
 31
0.0
  0
LINE
  5
AA
100
AcDbEntity
  8
0
390
0
  6
Continuous
 62
     7
100
AcDbLine
 10
0.0
 20
-13.700001
 30
0.0
 11
-2.0
 21
-13.700001
 31
0.0
  0
LINE
  5
AB
100
AcDbEntity
  8
0
390
0
  6
Continuous
 62
     7
100
AcDbLine
 10
-4.5
 20
-12.842464
 30
0.0
 11
-2.0
 21
-12.842464
 31
0.0
  0
LINE
  5
AC
100
AcDbEntity
  8
0
390
0
  6
Continuous
 62
     7
100
AcDbLine
 10
-4.5
 20
-13.700001
 30
0.0
 11
-8.5
 21
-13.700001
 31
0.0
  0
LINE
  5
AD
100
AcDbEntity
  8
0
390
0
  6
Continuous
 62
     7
100
AcDbLine
 10
-4.5
 20
-8.700001
 30
0.0
 11
-8.5
 21
-8.700001
 31
0.0
  0
LINE
  5
AE
100
AcDbEntity
  8
0
390
0
  6
Continuous
 62
     7
100
AcDbLine
 10
0.0
 20
-8.700001
 30
0.0
 11
-2.0
 21
-8.700001
 31
0.0
  0
LINE
  5
AF
100
AcDbEntity
  8
0
390
0
  6
Continuous
 62
     7
100
AcDbLine
 10
4.5
 20
-8.700001
 30
0.0
 11
2.5
 21
-8.700001
 31
0.0
  0
LINE
  5
B0
100
AcDbEntity
  8
0
390
0
  6
Continuous
 62
     7
100
AcDbLine
 10
9.0
 20
-8.700001
 30
0.0
 11
7.0
 21
-8.700001
 31
0.0
  0
LINE
  5
B1
100
AcDbEntity
  8
0
390
0
  6
Continuous
 62
     7
100
AcDbLine
 10
4.5
 20
8.699999
 30
0.0
 11
2.5
 21
8.699999
 31
0.0
  0
LINE
  5
B2
100
AcDbEntity
  8
0
390
0
  6
Continuous
 62
     7
100
AcDbLine
 10
0.0
 20
8.699999
 30
0.0
 11
-2.0
 21
8.699999
 31
0.0
  0
LINE
  5
B3
100
AcDbEntity
  8
0
390
0
  6
Continuous
 62
     7
100
AcDbLine
 10
-4.5
 20
8.699999
 30
0.0
 11
-8.5
 21
8.699999
 31
0.0
  0
LINE
  5
B4
100
AcDbEntity
  8
0
390
0
  6
Continuous
 62
     7
100
AcDbLine
 10
-4.5
 20
13.699999
 30
0.0
 11
-8.5
 21
13.699999
 31
0.0
  0
LINE
  5
B5
100
AcDbEntity
  8
0
390
0
  6
Continuous
 62
     7
100
AcDbLine
 10
-4.5
 20
12.842462
 30
0.0
 11
-2.0
 21
12.842462
 31
0.0
  0
LINE
  5
B6
100
AcDbEntity
  8
0
390
0
  6
Continuous
 62
     7
100
AcDbLine
 10
0.0
 20
13.699999
 30
0.0
 11
-2.0
 21
13.699999
 31
0.0
  0
LINE
  5
B7
100
AcDbEntity
  8
0
390
0
  6
Continuous
 62
     7
100
AcDbLine
 10
0.0
 20
12.842462
 30
0.0
 11
2.5
 21
12.842462
 31
0.0
  0
LINE
  5
B8
100
AcDbEntity
  8
0
390
0
  6
Continuous
 62
     7
100
AcDbLine
 10
4.5
 20
13.699999
 30
0.0
 11
2.5
 21
13.699999
 31
0.0
  0
LINE
  5
B9
100
AcDbEntity
  8
0
390
0
  6
Continuous
 62
     7
100
AcDbLine
 10
4.5
 20
12.842462
 30
0.0
 11
7.0
 21
12.842462
 31
0.0
  0
LINE
  5
BA
100
AcDbEntity
  8
0
390
0
  6
Continuous
 62
     7
100
AcDbLine
 10
9.0
 20
13.699999
 30
0.0
 11
7.0
 21
13.699999
 31
0.0
  0
LINE
  5
BB
100
AcDbEntity
  8
0
390
0
  6
Continuous
 62
     7
100
AcDbLine
 10
9.0
 20
12.842462
 30
0.0
 11
10.7
 21
12.842462
 31
0.0
  0
LINE
  5
BC
100
AcDbEntity
  8
0
390
0
  6
Continuous
 62
     7
100
AcDbLine
 10
13.5
 20
13.699999
 30
0.0
 11
10.7
 21
13.699999
 31
0.0
  0
LINE
  5
BD
100
AcDbEntity
  8
0
390
0
  6
Continuous
 62
     7
100
AcDbLine
 10
13.5
 20
8.699999
 30
0.0
 11
13.5
 21
13.699999
 31
0.0
  0
LINE
  5
BE
100
AcDbEntity
  8
0
390
0
  6
Continuous
 62
     7
100
AcDbLine
 10
13.5
 20
8.699999
 30
0.0
 11
10.7
 21
8.699999
 31
0.0
  0
LINE
  5
BF
100
AcDbEntity
  8
0
390
0
  6
Continuous
 62
     7
100
AcDbLine
 10
9.0
 20
8.699999
 30
0.0
 11
7.0
 21
8.699999
 31
0.0
  0
LINE
  5
C0
100
AcDbEntity
  8
0
390
0
  6
Continuous
 62
     7
100
AcDbLine
 10
13.5
 20
-8.700001
 30
0.0
 11
13.5
 21
8.699999
 31
0.0
  0
LINE
  5
C1
100
AcDbEntity
  8
0
390
0
  6
Continuous
 62
     7
100
AcDbLine
 10
-13.78674
 20
-4.517913
 30
0.0
 11
-13.720917
 21
-9.955547
 31
0.0
  0
LINE
  5
C2
100
AcDbEntity
  8
0
390
0
  6
Continuous
 62
     7
100
AcDbLine
 10
-13.650959
 20
-11.197676
 30
0.0
 11
-13.785115
 21
-4.516781
 31
0.0
  0
LINE
  5
C3
100
AcDbEntity
  8
0
390
0
  6
Continuous
 62
     7
100
AcDbLine
 10
-3.212078
 20
16.699999
 30
0.0
 11
-4.5
 21
16.699999
 31
0.0
  0
LINE
  5
C4
100
AcDbEntity
  8
0
390
0
  6
Continuous
 62
     7
100
AcDbLine
 10
-4.5
 20
16.699999
 30
0.0
 11
-4.5
 21
18.699999
 31
0.0
  0
LINE
  5
C5
100
AcDbEntity
  8
0
390
0
  6
Continuous
 62
     7
100
AcDbLine
 10
-4.5
 20
18.699999
 30
0.0
 11
-4.020131
 21
18.699999
 31
0.0
  0
LINE
  5
C6
100
AcDbEntity
  8
0
390
0
  6
Continuous
 62
     7
100
AcDbLine
 10
-4.020131
 20
18.699999
 30
0.0
 11
-3.212078
 21
16.699999
 31
0.0
  0
LINE
  5
C7
100
AcDbEntity
  8
0
390
0
  6
Continuous
 62
     7
100
AcDbLine
 10
1.287922
 20
16.699999
 30
0.0
 11
0.0
 21
16.699999
 31
0.0
  0
LINE
  5
C8
100
AcDbEntity
  8
0
390
0
  6
Continuous
 62
     7
100
AcDbLine
 10
0.0
 20
18.699999
 30
0.0
 11
0.479869
 21
18.699999
 31
0.0
  0
LINE
  5
C9
100
AcDbEntity
  8
0
390
0
  6
Continuous
 62
     7
100
AcDbLine
 10
0.479869
 20
18.699999
 30
0.0
 11
1.287922
 21
16.699999
 31
0.0
  0
LINE
  5
CA
100
AcDbEntity
  8
0
390
0
  6
Continuous
 62
     7
100
AcDbLine
 10
0.0
 20
16.699999
 30
0.0
 11
0.0
 21
18.699999
 31
0.0
  0
LINE
  5
CB
100
AcDbEntity
  8
0
390
0
  6
Continuous
 62
     7
100
AcDbLine
 10
5.787922
 20
16.699999
 30
0.0
 11
4.5
 21
16.699999
 31
0.0
  0
LINE
  5
CC
100
AcDbEntity
  8
0
390
0
  6
Continuous
 62
     7
100
AcDbLine
 10
4.5
 20
18.699999
 30
0.0
 11
4.979869
 21
18.699999
 31
0.0
  0
LINE
  5
CD
100
AcDbEntity
  8
0
390
0
  6
Continuous
 62
     7
100
AcDbLine
 10
4.979869
 20
18.699999
 30
0.0
 11
5.787922
 21
16.699999
 31
0.0
  0
LINE
  5
CE
100
AcDbEntity
  8
0
390
0
  6
Continuous
 62
     7
100
AcDbLine
 10
4.5
 20
16.699999
 30
0.0
 11
4.5
 21
18.699999
 31
0.0
  0
LINE
  5
CF
100
AcDbEntity
  8
0
390
0
  6
Continuous
 62
     7
100
AcDbLine
 10
-2.0
 20
12.842462
 30
0.0
 11
-2.0
 21
13.699999
 31
0.0
  0
LINE
  5
D0
100
AcDbEntity
  8
0
390
0
  6
Continuous
 62
     7
100
AcDbLine
 10
-2.0
 20
13.699999
 30
0.0
 11
-3.212078
 21
16.699999
 31
0.0
  0
LINE
  5
D1
100
AcDbEntity
  8
0
390
0
  6
Continuous
 62
     7
100
AcDbLine
 10
-4.5
 20
16.699999
 30
0.0
 11
-4.5
 21
12.842462
 31
0.0
  0
LINE
  5
D2
100
AcDbEntity
  8
0
390
0
  6
Continuous
 62
     7
100
AcDbLine
 10
10.7
 20
-12.842464
 30
0.0
 11
10.7
 21
-13.700001
 31
0.0
  0
LINE
  5
D3
100
AcDbEntity
  8
0
390
0
  6
Continuous
 62
     7
100
AcDbLine
 10
10.7
 20
-13.700001
 30
0.0
 11
10.255572
 21
-14.800001
 31
0.0
  0
LINE
  5
D4
100
AcDbEntity
  8
0
390
0
  6
Continuous
 62
     7
100
AcDbLine
 10
9.0
 20
-14.800001
 30
0.0
 11
10.255572
 21
-14.800001
 31
0.0
  0
LINE
  5
D5
100
AcDbEntity
  8
0
390
0
  6
Continuous
 62
     7
100
AcDbLine
 10
9.0
 20
-14.800001
 30
0.0
 11
9.0
 21
-12.842464
 31
0.0
  0
LINE
  5
D6
100
AcDbEntity
  8
0
390
0
  6
Continuous
 62
     7
100
AcDbLine
 10
7.0
 20
12.842462
 30
0.0
 11
7.0
 21
13.699999
 31
0.0
  0
LINE
  5
D7
100
AcDbEntity
  8
0
390
0
  6
Continuous
 62
     7
100
AcDbLine
 10
7.0
 20
13.699999
 30
0.0
 11
5.787922
 21
16.699999
 31
0.0
  0
LINE
  5
D8
100
AcDbEntity
  8
0
390
0
  6
Continuous
 62
     7
100
AcDbLine
 10
4.5
 20
16.699999
 30
0.0
 11
4.5
 21
12.842462
 31
0.0
  0
LINE
  5
D9
100
AcDbEntity
  8
0
390
0
  6
Continuous
 62
     7
100
AcDbLine
 10
2.5
 20
12.842462
 30
0.0
 11
2.5
 21
13.699999
 31
0.0
  0
LINE
  5
DA
100
AcDbEntity
  8
0
390
0
  6
Continuous
 62
     7
100
AcDbLine
 10
2.5
 20
13.699999
 30
0.0
 11
1.287922
 21
16.699999
 31
0.0
  0
LINE
  5
DB
100
AcDbEntity
  8
0
390
0
  6
Continuous
 62
     7
100
AcDbLine
 10
0.0
 20
16.699999
 30
0.0
 11
0.0
 21
12.842462
 31
0.0
  0
LINE
  5
DC
100
AcDbEntity
  8
0
390
0
  6
Continuous
 62
     7
100
AcDbLine
 10
-2.0
 20
-12.842464
 30
0.0
 11
-2.0
 21
-13.700001
 31
0.0
  0
LINE
  5
DD
100
AcDbEntity
  8
0
390
0
  6
Continuous
 62
     7
100
AcDbLine
 10
-4.5
 20
-16.700001
 30
0.0
 11
-3.212078
 21
-16.700001
 31
0.0
  0
LINE
  5
DE
100
AcDbEntity
  8
0
390
0
  6
Continuous
 62
     7
100
AcDbLine
 10
-2.0
 20
-13.700001
 30
0.0
 11
-3.212078
 21
-16.700001
 31
0.0
  0
LINE
  5
DF
100
AcDbEntity
  8
0
390
0
  6
Continuous
 62
     7
100
AcDbLine
 10
-4.5
 20
-16.700001
 30
0.0
 11
-4.5
 21
-12.842464
 31
0.0
  0
LINE
  5
E0
100
AcDbEntity
  8
0
390
0
  6
Continuous
 62
     7
100
AcDbLine
 10
7.0
 20
-12.842464
 30
0.0
 11
7.0
 21
-13.700001
 31
0.0
  0
LINE
  5
E1
100
AcDbEntity
  8
0
390
0
  6
Continuous
 62
     7
100
AcDbLine
 10
4.5
 20
-16.700001
 30
0.0
 11
5.787922
 21
-16.700001
 31
0.0
  0
LINE
  5
E2
100
AcDbEntity
  8
0
390
0
  6
Continuous
 62
     7
100
AcDbLine
 10
4.5
 20
-16.700001
 30
0.0
 11
4.5
 21
-12.842464
 31
0.0
  0
LINE
  5
E3
100
AcDbEntity
  8
0
390
0
  6
Continuous
 62
     7
100
AcDbLine
 10
7.0
 20
-13.700001
 30
0.0
 11
5.787922
 21
-16.700001
 31
0.0
  0
LINE
  5
E4
100
AcDbEntity
  8
0
390
0
  6
Continuous
 62
     7
100
AcDbLine
 10
9.447519
 20
-16.800001
 30
0.0
 11
9.0
 21
-16.800001
 31
0.0
  0
LINE
  5
E5
100
AcDbEntity
  8
0
390
0
  6
Continuous
 62
     7
100
AcDbLine
 10
9.0
 20
-16.800001
 30
0.0
 11
9.0
 21
-14.800001
 31
0.0
  0
LINE
  5
E6
100
AcDbEntity
  8
0
390
0
  6
Continuous
 62
     7
100
AcDbLine
 10
10.255572
 20
-14.800001
 30
0.0
 11
9.447519
 21
-16.800001
 31
0.0
  0
LINE
  5
E7
100
AcDbEntity
  8
0
390
0
  6
Continuous
 62
     7
100
AcDbLine
 10
10.255572
 20
14.799999
 30
0.0
 11
9.0
 21
14.799999
 31
0.0
  0
LINE
  5
E8
100
AcDbEntity
  8
0
390
0
  6
Continuous
 62
     7
100
AcDbLine
 10
9.0
 20
16.799999
 30
0.0
 11
9.447519
 21
16.799999
 31
0.0
  0
LINE
  5
E9
100
AcDbEntity
  8
0
390
0
  6
Continuous
 62
     7
100
AcDbLine
 10
9.447519
 20
16.799999
 30
0.0
 11
10.255572
 21
14.799999
 31
0.0
  0
LINE
  5
EA
100
AcDbEntity
  8
0
390
0
  6
Continuous
 62
     7
100
AcDbLine
 10
9.0
 20
14.799999
 30
0.0
 11
9.0
 21
16.799999
 31
0.0
  0
LINE
  5
EB
100
AcDbEntity
  8
0
390
0
  6
Continuous
 62
     7
100
AcDbLine
 10
2.5
 20
-12.842464
 30
0.0
 11
2.5
 21
-13.700001
 31
0.0
  0
LINE
  5
EC
100
AcDbEntity
  8
0
390
0
  6
Continuous
 62
     7
100
AcDbLine
 10
2.5
 20
-13.700001
 30
0.0
 11
1.287922
 21
-16.700001
 31
0.0
  0
LINE
  5
ED
100
AcDbEntity
  8
0
390
0
  6
Continuous
 62
     7
100
AcDbLine
 10
0.0
 20
-16.700001
 30
0.0
 11
1.287922
 21
-16.700001
 31
0.0
  0
LINE
  5
EE
100
AcDbEntity
  8
0
390
0
  6
Continuous
 62
     7
100
AcDbLine
 10
0.0
 20
-16.700001
 30
0.0
 11
0.0
 21
-12.842464
 31
0.0
  0
LINE
  5
EF
100
AcDbEntity
  8
0
390
0
  6
Continuous
 62
     7
100
AcDbLine
 10
4.979869
 20
-18.700001
 30
0.0
 11
4.5
 21
-18.700001
 31
0.0
  0
LINE
  5
F0
100
AcDbEntity
  8
0
390
0
  6
Continuous
 62
     7
100
AcDbLine
 10
4.5
 20
-18.700001
 30
0.0
 11
4.5
 21
-16.700001
 31
0.0
  0
LINE
  5
F1
100
AcDbEntity
  8
0
390
0
  6
Continuous
 62
     7
100
AcDbLine
 10
5.787922
 20
-16.700001
 30
0.0
 11
4.979869
 21
-18.700001
 31
0.0
  0
LINE
  5
F2
100
AcDbEntity
  8
0
390
0
  6
Continuous
 62
     7
100
AcDbLine
 10
-4.020131
 20
-18.700001
 30
0.0
 11
-4.5
 21
-18.700001
 31
0.0
  0
LINE
  5
F3
100
AcDbEntity
  8
0
390
0
  6
Continuous
 62
     7
100
AcDbLine
 10
-3.212078
 20
-16.700001
 30
0.0
 11
-4.020131
 21
-18.700001
 31
0.0
  0
LINE
  5
F4
100
AcDbEntity
  8
0
390
0
  6
Continuous
 62
     7
100
AcDbLine
 10
-4.5
 20
-18.700001
 30
0.0
 11
-4.5
 21
-16.700001
 31
0.0
  0
LINE
  5
F5
100
AcDbEntity
  8
0
390
0
  6
Continuous
 62
     7
100
AcDbLine
 10
10.7
 20
12.842462
 30
0.0
 11
10.7
 21
13.699999
 31
0.0
  0
LINE
  5
F6
100
AcDbEntity
  8
0
390
0
  6
Continuous
 62
     7
100
AcDbLine
 10
10.7
 20
13.699999
 30
0.0
 11
10.255572
 21
14.799999
 31
0.0
  0
LINE
  5
F7
100
AcDbEntity
  8
0
390
0
  6
Continuous
 62
     7
100
AcDbLine
 10
9.0
 20
14.799999
 30
0.0
 11
9.0
 21
12.842462
 31
0.0
  0
LINE
  5
F8
100
AcDbEntity
  8
0
390
0
  6
Continuous
 62
     7
100
AcDbLine
 10
0.479869
 20
-18.700001
 30
0.0
 11
0.0
 21
-18.700001
 31
0.0
  0
LINE
  5
F9
100
AcDbEntity
  8
0
390
0
  6
Continuous
 62
     7
100
AcDbLine
 10
1.287922
 20
-16.700001
 30
0.0
 11
0.479869
 21
-18.700001
 31
0.0
  0
LINE
  5
FA
100
AcDbEntity
  8
0
390
0
  6
Continuous
 62
     7
100
AcDbLine
 10
0.0
 20
-18.700001
 30
0.0
 11
0.0
 21
-16.700001
 31
0.0
  0
LINE
  5
FB
100
AcDbEntity
  8
0
390
0
  6
Continuous
 62
     7
100
AcDbLine
 10
-13.807481
 20
11.289437
 30
0.0
 11
-13.893527
 21
8.090082
 31
0.0
  0
LINE
  5
FC
100
AcDbEntity
  8
0
390
0
  6
Continuous
 62
     7
100
AcDbLine
 10
-13.912529
 20
6.010782
 30
0.0
 11
-13.807481
 21
11.289437
 31
0.0
  0
LINE
  5
FD
100
AcDbEntity
  8
0
390
0
  6
Continuous
 62
     7
100
AcDbLine
 10
-13.700468
 20
12.996677
 30
0.0
 11
-13.912529
 21
6.010782
 31
0.0
  0
LINE
  5
FE
100
AcDbEntity
  8
0
390
0
  6
Continuous
 62
     7
100
AcDbLine
 10
-13.932994
 20
2.993998
 30
0.0
 11
-13.908274
 21
4.449607
 31
0.0
  0
LINE
  5
FF
100
AcDbEntity
  8
0
390
0
  6
Continuous
 62
     7
100
AcDbLine
 10
-13.908274
 20
4.449607
 30
0.0
 11
-13.648342
 21
12.996677
 31
0.0
  0
LINE
  5
100
100
AcDbEntity
  8
0
390
0
  6
Continuous
 62
     7
100
AcDbLine
 10
-13.893527
 20
8.090082
 30
0.0
 11
-13.953238
 21
4.452893
 31
0.0
  0
LINE
  5
101
100
AcDbEntity
  8
0
390
0
  6
Continuous
 62
     7
100
AcDbLine
 10
-13.953238
 20
4.452893
 30
0.0
 11
-13.966042
 21
2.993998
 31
0.0
  0
LINE
  5
102
100
AcDbEntity
  8
0
390
0
  6
Continuous
 62
     7
100
AcDbLine
 10
-13.648342
 20
12.996677
 30
0.0
 11
-13.700468
 21
12.996677
 31
0.0
  0
LINE
  5
103
100
AcDbEntity
  8
0
390
0
  6
Continuous
 62
     7
100
AcDbLine
 10
-13.648342
 20
12.996677
 30
0.0
 11
-13.645583
 21
12.996677
 31
0.0
  0
LINE
  5
104
100
AcDbEntity
  8
0
390
0
  6
Continuous
 62
     7
100
AcDbLine
 10
-13.82381
 20
-9.046456
 30
0.0
 11
-13.906021
 21
-4.498893
 31
0.0
  0
LINE
  5
105
100
AcDbEntity
  8
0
390
0
  6
Continuous
 62
     7
100
AcDbLine
 10
-13.906021
 20
-4.498893
 30
0.0
 11
-13.920152
 21
-3.182819
 31
0.0
  0
LINE
  5
106
100
AcDbEntity
  8
0
390
0
  6
Continuous
 62
     7
100
AcDbLine
 10
-13.806051
 20
-9.046456
 30
0.0
 11
-13.82381
 21
-9.046456
 31
0.0
  0
LINE
  5
107
100
AcDbEntity
  8
0
390
0
  6
Continuous
 62
     7
100
AcDbLine
 10
-13.769617
 20
-10.501001
 30
0.0
 11
-13.806051
 21
-9.046456
 31
0.0
  0
LINE
  5
108
100
AcDbEntity
  8
0
390
0
  6
Continuous
 62
     7
100
AcDbLine
 10
-13.78713
 20
-10.501001
 30
0.0
 11
-13.769617
 21
-10.501001
 31
0.0
  0
LINE
  5
109
100
AcDbEntity
  8
0
390
0
  6
Continuous
 62
     7
100
AcDbLine
 10
-13.7273
 20
-12.546456
 30
0.0
 11
-13.78713
 21
-10.501001
 31
0.0
  0
LINE
  5
10A
100
AcDbEntity
  8
0
390
0
  6
Continuous
 62
     7
100
AcDbLine
 10
-13.746787
 20
-12.546456
 30
0.0
 11
-13.7273
 21
-12.546456
 31
0.0
  0
LINE
  5
10B
100
AcDbEntity
  8
0
390
0
  6
Continuous
 62
     7
100
AcDbLine
 10
-13.806984
 20
-10.501001
 30
0.0
 11
-13.78727
 21
-11.207351
 31
0.0
  0
LINE
  5
10C
100
AcDbEntity
  8
0
390
0
  6
Continuous
 62
     7
100
AcDbLine
 10
-13.78727
 20
-11.207351
 30
0.0
 11
-13.779714
 21
-11.467825
 31
0.0
  0
LINE
  5
10D
100
AcDbEntity
  8
0
390
0
  6
Continuous
 62
     7
100
AcDbLine
 10
-13.779714
 20
-11.467825
 30
0.0
 11
-13.746787
 21
-12.546456
 31
0.0
  0
LINE
  5
10E
100
AcDbEntity
  8
0
390
0
  6
Continuous
 62
     7
100
AcDbLine
 10
-13.832705
 20
-10.501001
 30
0.0
 11
-13.806984
 21
-10.501001
 31
0.0
  0
LINE
  5
10F
100
AcDbEntity
  8
0
390
0
  6
Continuous
 62
     7
100
AcDbLine
 10
-13.882058
 20
-8.546456
 30
0.0
 11
-13.832705
 21
-10.501001
 31
0.0
  0
LINE
  5
110
100
AcDbEntity
  8
0
390
0
  6
Continuous
 62
     7
100
AcDbLine
 10
-13.943658
 20
-3.182819
 30
0.0
 11
-13.882058
 21
-8.546456
 31
0.0
  0
LINE
  5
111
100
AcDbEntity
  8
0
390
0
  6
Continuous
 62
     7
100
AcDbLine
 10
-13.920152
 20
-3.182819
 30
0.0
 11
-13.943658
 21
-3.182819
 31
0.0
  0
LINE
  5
112
100
AcDbEntity
  8
0
390
0
  6
Continuous
 62
     7
100
AcDbLine
 10
-13.845068
 20
-9.001001
 30
0.0
 11
-13.866335
 21
-9.001001
 31
0.0
  0
LINE
  5
113
100
AcDbEntity
  8
0
390
0
  6
Continuous
 62
     7
100
AcDbLine
 10
-13.916996
 20
-5.273728
 30
0.0
 11
-13.845068
 21
-9.001001
 31
0.0
  0
LINE
  5
114
100
AcDbEntity
  8
0
390
0
  6
Continuous
 62
     7
100
AcDbLine
 10
-13.866335
 20
-9.001001
 30
0.0
 11
-13.916996
 21
-5.273728
 31
0.0
  0
LINE
  5
115
100
AcDbEntity
  8
0
390
0
  6
Continuous
 62
     7
100
AcDbLine
 10
-13.7273
 20
-12.546456
 30
0.0
 11
-13.631371
 21
-12.546456
 31
0.0
  0
LINE
  5
116
100
AcDbEntity
  8
0
390
0
  6
Continuous
 62
     7
100
AcDbLine
 10
-13.920152
 20
-3.182819
 30
0.0
 11
-13.816286
 21
-3.182819
 31
0.0
  0
LINE
  5
117
100
AcDbEntity
  8
0
390
0
  6
Continuous
 62
     7
100
AcDbLine
 10
-13.807481
 20
11.289437
 30
0.0
 11
-13.752292
 21
11.289437
 31
0.0
  0
LINE
  5
118
100
AcDbEntity
  8
0
390
0
  6
Continuous
 62
     7
100
AcDbLine
 10
-13.745133
 20
12.996677
 30
0.0
 11
-13.700468
 21
12.996677
 31
0.0
  0
LINE
  5
119
100
AcDbEntity
  8
0
390
0
  6
Continuous
 62
     7
100
AcDbLine
 10
-13.97667
 20
2.993998
 30
0.0
 11
-13.959627
 21
4.44861
 31
0.0
  0
LINE
  5
11A
100
AcDbEntity
  8
0
390
0
  6
Continuous
 62
     7
100
AcDbLine
 10
-13.959627
 20
4.44861
 30
0.0
 11
-13.953662
 21
4.86405
 31
0.0
  0
LINE
  5
11B
100
AcDbEntity
  8
0
390
0
  6
Continuous
 62
     7
100
AcDbLine
 10
-13.953662
 20
4.86405
 30
0.0
 11
-13.919397
 21
6.817006
 31
0.0
  0
LINE
  5
11C
100
AcDbEntity
  8
0
390
0
  6
Continuous
 62
     7
100
AcDbLine
 10
-13.803193
 20
11.289766
 30
0.0
 11
-13.745133
 21
12.996677
 31
0.0
  0
LINE
  5
11D
100
AcDbEntity
  8
0
390
0
  6
Continuous
 62
     7
100
AcDbLine
 10
-13.735451
 20
-12.955547
 30
0.0
 11
-13.748631
 21
-12.546523
 31
0.0
  0
LINE
  5
11E
100
AcDbEntity
  8
0
390
0
  6
Continuous
 62
     7
100
AcDbLine
 10
-13.789148
 20
-11.207037
 30
0.0
 11
-13.794632
 21
-11.014703
 31
0.0
  0
LINE
  5
11F
100
AcDbEntity
  8
0
390
0
  6
Continuous
 62
     7
100
AcDbLine
 10
-13.794632
 20
-11.014703
 30
0.0
 11
-13.808862
 21
-10.50119
 31
0.0
  0
LINE
  5
120
100
AcDbEntity
  8
0
390
0
  6
Continuous
 62
     7
100
AcDbLine
 10
-13.944405
 20
-3.203401
 30
0.0
 11
-13.945868
 21
-3.046456
 31
0.0
  0
LINE
  5
121
100
AcDbEntity
  8
0
390
0
  6
Continuous
 62
     7
100
AcDbLine
 10
-13.945868
 20
-3.046456
 30
0.0
 11
-13.796243
 21
-3.046456
 31
0.0
  0
LINE
  5
122
100
AcDbEntity
  8
0
390
0
  6
Continuous
 62
     7
100
AcDbLine
 10
-13.796243
 20
-3.046456
 30
0.0
 11
-13.477096
 21
-3.046456
 31
0.0
  0
LINE
  5
123
100
AcDbEntity
  8
0
390
0
  6
Continuous
 62
     7
100
AcDbLine
 10
-13.735451
 20
-12.955547
 30
0.0
 11
-13.259893
 21
-12.955547
 31
0.0
  0
ARC
  5
124
100
AcDbEntity
  8
0
390
0
  6
Continuous
 62
     7
100
AcDbCircle
 10
436.496157
 20
1.859849
 30
0.0
 40
450.0
210
0.0
220
0.0
230
1.0
100
AcDbArc
 50
180.236804
 51
180.624702
  0
ARC
  5
125
100
AcDbEntity
  8
0
390
0
  6
Continuous
 62
     7
100
AcDbCircle
 10
436.496157
 20
1.859849
 30
0.0
 40
450.0
210
0.0
220
0.0
230
1.0
100
AcDbArc
 50
181.846162
 51
182.54097
  0
ARC
  5
126
100
AcDbEntity
  8
0
390
0
  6
Continuous
 62
     7
100
AcDbCircle
 10
436.496157
 20
-1.859851
 30
0.0
 40
450.0
210
0.0
220
0.0
230
1.0
100
AcDbArc
 50
179.381985
 51
179.763196
  0
ARC
  5
127
100
AcDbEntity
  8
0
390
0
  6
Continuous
 62
     7
100
AcDbCircle
 10
436.496157
 20
-1.859851
 30
0.0
 40
450.0
210
0.0
220
0.0
230
1.0
100
AcDbArc
 50
177.459017
 51
178.108064
  0
ARC
  5
128
100
AcDbEntity
  8
0
390
0
  6
Continuous
 62
     7
100
AcDbCircle
 10
-11.063433
 20
-18.000001
 30
0.0
 40
2.0
210
0.0
220
0.0
230
1.0
100
AcDbArc
 50
182.540756
 51
270.0
  0
ARC
  5
129
100
AcDbEntity
  8
0
390
0
  6
Continuous
 62
     7
100
AcDbCircle
 10
-11.063433
 20
17.999999
 30
0.0
 40
2.0
210
0.0
220
0.0
230
1.0
100
AcDbArc
 50
90.0
 51
177.459244
  0
LINE
  5
12A
100
AcDbEntity
  8
0
390
0
  6
Continuous
 62
     7
100
AcDbLine
 10
-13.609385
 20
-12.637365
 30
0.0
 11
-13.108947
 21
-12.637365
 31
0.0
  0
LINE
  5
12B
100
AcDbEntity
  8
0
390
0
  6
Continuous
 62
     7
100
AcDbLine
 10
-13.297457
 20
-3.09191
 30
0.0
 11
-13.797686
 21
-3.09191
 31
0.0
  0
ARC
  5
12C
100
AcDbEntity
  8
0
390
0
  6
Continuous
 62
     7
100
AcDbCircle
 10
436.496157
 20
-1.859851
 30
0.0
 40
450.5
210
0.0
220
0.0
230
1.0
100
AcDbArc
 50
179.144813
 51
179.197564
  0
ARC
  5
12D
100
AcDbEntity
  8
0
390
0
  6
Continuous
 62
     7
100
AcDbCircle
 10
436.496157
 20
-1.859851
 30
0.0
 40
450.5
210
0.0
220
0.0
230
1.0
100
AcDbArc
 50
179.197564
 51
179.382668
  0
LINE
  5
12E
100
AcDbEntity
  8
0
390
0
  6
Continuous
 62
     7
100
AcDbLine
 10
92.198419
 20
-13.700001
 30
0.0
 11
74.798419
 21
-13.700001
 31
0.0
  0
LINE
  5
12F
100
AcDbEntity
  8
0
390
0
  6
Continuous
 62
     7
100
AcDbLine
 10
69.798419
 20
-8.700001
 30
0.0
 11
69.798419
 21
8.699999
 31
0.0
  0
ARC
  5
130
100
AcDbEntity
  8
0
390
0
  6
Continuous
 62
     7
100
AcDbCircle
 10
74.798419
 20
8.699999
 30
0.0
 40
5.0
210
0.0
220
0.0
230
1.0
100
AcDbArc
 50
90.0
 51
180.0
  0
LINE
  5
131
100
AcDbEntity
  8
0
390
0
  6
Continuous
 62
     7
100
AcDbLine
 10
74.798419
 20
13.699999
 30
0.0
 11
92.198419
 21
13.699999
 31
0.0
  0
ARC
  5
132
100
AcDbEntity
  8
0
390
0
  6
Continuous
 62
     7
100
AcDbCircle
 10
92.198419
 20
8.699999
 30
0.0
 40
5.0
210
0.0
220
0.0
230
1.0
100
AcDbArc
 50
0.0
 51
90.0
  0
LINE
  5
133
100
AcDbEntity
  8
0
390
0
  6
Continuous
 62
     7
100
AcDbLine
 10
97.198419
 20
8.699999
 30
0.0
 11
97.198419
 21
-8.700001
 31
0.0
  0
ARC
  5
134
100
AcDbEntity
  8
0
390
0
  6
Continuous
 62
     7
100
AcDbCircle
 10
92.198419
 20
-8.700001
 30
0.0
 40
5.0
210
0.0
220
0.0
230
1.0
100
AcDbArc
 50
270.0
 51
360.0
  0
ARC
  5
135
100
AcDbEntity
  8
0
390
0
  6
Continuous
 62
     7
100
AcDbCircle
 10
92.198419
 20
8.699999
 30
0.0
 40
2.5
210
0.0
220
0.0
230
1.0
100
AcDbArc
 50
0.0
 51
90.0
  0
LINE
  5
136
100
AcDbEntity
  8
0
390
0
  6
Continuous
 62
     7
100
AcDbLine
 10
74.798419
 20
11.199999
 30
0.0
 11
92.198419
 21
11.199999
 31
0.0
  0
ARC
  5
137
100
AcDbEntity
  8
0
390
0
  6
Continuous
 62
     7
100
AcDbCircle
 10
74.798419
 20
8.699999
 30
0.0
 40
2.5
210
0.0
220
0.0
230
1.0
100
AcDbArc
 50
90.0
 51
180.0
  0
LINE
  5
138
100
AcDbEntity
  8
0
390
0
  6
Continuous
 62
     7
100
AcDbLine
 10
72.298419
 20
-8.700001
 30
0.0
 11
72.298419
 21
8.699999
 31
0.0
  0
ARC
  5
139
100
AcDbEntity
  8
0
390
0
  6
Continuous
 62
     7
100
AcDbCircle
 10
74.798419
 20
-8.700001
 30
0.0
 40
2.5
210
0.0
220
0.0
230
1.0
100
AcDbArc
 50
180.0
 51
270.0
  0
LINE
  5
13A
100
AcDbEntity
  8
0
390
0
  6
Continuous
 62
     7
100
AcDbLine
 10
92.198419
 20
-11.200001
 30
0.0
 11
74.798419
 21
-11.200001
 31
0.0
  0
ARC
  5
13B
100
AcDbEntity
  8
0
390
0
  6
Continuous
 62
     7
100
AcDbCircle
 10
92.198419
 20
-8.700001
 30
0.0
 40
2.5
210
0.0
220
0.0
230
1.0
100
AcDbArc
 50
270.0
 51
360.0
  0
LINE
  5
13C
100
AcDbEntity
  8
0
390
0
  6
Continuous
 62
     7
100
AcDbLine
 10
94.698419
 20
8.699999
 30
0.0
 11
94.698419
 21
-8.700001
 31
0.0
  0
ARC
  5
13D
100
AcDbEntity
  8
0
390
0
  6
Continuous
 62
     7
100
AcDbCircle
 10
74.798419
 20
-8.700001
 30
0.0
 40
5.0
210
0.0
220
0.0
230
1.0
100
AcDbArc
 50
180.0
 51
270.0
  0
LINE
  5
13E
100
AcDbEntity
  8
0
390
0
  6
Continuous
 62
     7
100
AcDbLine
 10
69.798419
 20
8.699999
 30
0.0
 11
69.798419
 21
11.499999
 31
0.0
  0
LINE
  5
13F
100
AcDbEntity
  8
0
390
0
  6
Continuous
 62
     7
100
AcDbLine
 10
69.798419
 20
-11.500001
 30
0.0
 11
69.798419
 21
-8.700001
 31
0.0
  0
LINE
  5
140
100
AcDbEntity
  8
0
390
0
  6
Continuous
 62
     7
100
AcDbLine
 10
69.798419
 20
-11.500001
 30
0.0
 11
68.698419
 21
-11.500001
 31
0.0
  0
ARC
  5
141
100
AcDbEntity
  8
0
390
0
  6
Continuous
 62
     7
100
AcDbCircle
 10
68.698419
 20
-9.500001
 30
0.0
 40
2.0
210
0.0
220
0.0
230
1.0
100
AcDbArc
 50
180.0
 51
270.0
  0
LINE
  5
142
100
AcDbEntity
  8
0
390
0
  6
Continuous
 62
     7
100
AcDbLine
 10
66.698419
 20
-9.500001
 30
0.0
 11
66.698419
 21
9.499999
 31
0.0
  0
ARC
  5
143
100
AcDbEntity
  8
0
390
0
  6
Continuous
 62
     7
100
AcDbCircle
 10
68.698419
 20
9.499999
 30
0.0
 40
2.0
210
0.0
220
0.0
230
1.0
100
AcDbArc
 50
90.0
 51
180.0
  0
LINE
  5
144
100
AcDbEntity
  8
0
390
0
  6
Continuous
 62
     7
100
AcDbLine
 10
69.798419
 20
11.499999
 30
0.0
 11
68.698419
 21
11.499999
 31
0.0
  0
LINE
  5
145
100
AcDbEntity
  8
0
390
0
  6
Continuous
 62
     7
100
AcDbLine
 10
70.655956
 20
-11.500001
 30
0.0
 11
69.798419
 21
-11.500001
 31
0.0
  0
LINE
  5
146
100
AcDbEntity
  8
0
390
0
  6
Continuous
 62
     7
100
AcDbLine
 10
70.655956
 20
11.499999
 30
0.0
 11
69.798419
 21
11.499999
 31
0.0
  0
LINE
  5
147
100
AcDbEntity
  8
0
390
0
  6
Continuous
 62
     7
100
AcDbLine
 10
92.198419
 20
13.699999
 30
0.0
 11
94.998419
 21
13.699999
 31
0.0
  0
LINE
  5
148
100
AcDbEntity
  8
0
390
0
  6
Continuous
 62
     7
100
AcDbLine
 10
71.998419
 20
13.699999
 30
0.0
 11
74.798419
 21
13.699999
 31
0.0
  0
LINE
  5
149
100
AcDbEntity
  8
0
390
0
  6
Continuous
 62
     7
100
AcDbLine
 10
71.998419
 20
13.699999
 30
0.0
 11
71.998419
 21
14.799999
 31
0.0
  0
ARC
  5
14A
100
AcDbEntity
  8
0
390
0
  6
Continuous
 62
     7
100
AcDbCircle
 10
73.998419
 20
14.799999
 30
0.0
 40
2.0
210
0.0
220
0.0
230
1.0
100
AcDbArc
 50
90.0
 51
180.0
  0
LINE
  5
14B
100
AcDbEntity
  8
0
390
0
  6
Continuous
 62
     7
100
AcDbLine
 10
73.998419
 20
16.799999
 30
0.0
 11
92.998419
 21
16.799999
 31
0.0
  0
ARC
  5
14C
100
AcDbEntity
  8
0
390
0
  6
Continuous
 62
     7
100
AcDbCircle
 10
92.998419
 20
14.799999
 30
0.0
 40
2.0
210
0.0
220
0.0
230
1.0
100
AcDbArc
 50
0.0
 51
90.0
  0
LINE
  5
14D
100
AcDbEntity
  8
0
390
0
  6
Continuous
 62
     7
100
AcDbLine
 10
94.998419
 20
13.699999
 30
0.0
 11
94.998419
 21
14.799999
 31
0.0
  0
LINE
  5
14E
100
AcDbEntity
  8
0
390
0
  6
Continuous
 62
     7
100
AcDbLine
 10
74.798419
 20
-13.700001
 30
0.0
 11
71.998419
 21
-13.700001
 31
0.0
  0
LINE
  5
14F
100
AcDbEntity
  8
0
390
0
  6
Continuous
 62
     7
100
AcDbLine
 10
94.998419
 20
-13.700001
 30
0.0
 11
92.198419
 21
-13.700001
 31
0.0
  0
LINE
  5
150
100
AcDbEntity
  8
0
390
0
  6
Continuous
 62
     7
100
AcDbLine
 10
94.998419
 20
-13.700001
 30
0.0
 11
94.998419
 21
-14.800001
 31
0.0
  0
ARC
  5
151
100
AcDbEntity
  8
0
390
0
  6
Continuous
 62
     7
100
AcDbCircle
 10
92.998419
 20
-14.800001
 30
0.0
 40
2.0
210
0.0
220
0.0
230
1.0
100
AcDbArc
 50
270.0
 51
360.0
  0
LINE
  5
152
100
AcDbEntity
  8
0
390
0
  6
Continuous
 62
     7
100
AcDbLine
 10
92.998419
 20
-16.800001
 30
0.0
 11
73.998419
 21
-16.800001
 31
0.0
  0
ARC
  5
153
100
AcDbEntity
  8
0
390
0
  6
Continuous
 62
     7
100
AcDbCircle
 10
73.998419
 20
-14.800001
 30
0.0
 40
2.0
210
0.0
220
0.0
230
1.0
100
AcDbArc
 50
180.0
 51
270.0
  0
LINE
  5
154
100
AcDbEntity
  8
0
390
0
  6
Continuous
 62
     7
100
AcDbLine
 10
71.998419
 20
-13.700001
 30
0.0
 11
71.998419
 21
-14.800001
 31
0.0
  0
LINE
  5
155
100
AcDbEntity
  8
0
390
0
  6
Continuous
 62
     7
100
AcDbLine
 10
71.998419
 20
12.842462
 30
0.0
 11
71.998419
 21
13.699999
 31
0.0
  0
LINE
  5
156
100
AcDbEntity
  8
0
390
0
  6
Continuous
 62
     7
100
AcDbLine
 10
71.998419
 20
-12.842464
 30
0.0
 11
71.998419
 21
-13.700001
 31
0.0
  0
LINE
  5
157
100
AcDbEntity
  8
0
390
0
  6
Continuous
 62
     7
100
AcDbLine
 10
94.998419
 20
12.842462
 30
0.0
 11
94.998419
 21
13.699999
 31
0.0
  0
LINE
  5
158
100
AcDbEntity
  8
0
390
0
  6
Continuous
 62
     7
100
AcDbLine
 10
94.998419
 20
-12.842464
 30
0.0
 11
94.998419
 21
-13.700001
 31
0.0
  0
LINE
  5
159
100
AcDbEntity
  8
0
390
0
  6
Continuous
 62
     7
100
AcDbLine
 10
96.340882
 20
11.499999
 30
0.0
 11
97.198419
 21
11.499999
 31
0.0
  0
LINE
  5
15A
100
AcDbEntity
  8
0
390
0
  6
Continuous
 62
     7
100
AcDbLine
 10
97.198419
 20
11.499999
 30
0.0
 11
97.198419
 21
8.699999
 31
0.0
  0
LINE
  5
15B
100
AcDbEntity
  8
0
390
0
  6
Continuous
 62
     7
100
AcDbLine
 10
97.198419
 20
-8.700001
 30
0.0
 11
97.198419
 21
-11.500001
 31
0.0
  0
LINE
  5
15C
100
AcDbEntity
  8
0
390
0
  6
Continuous
 62
     7
100
AcDbLine
 10
96.340882
 20
-11.500001
 30
0.0
 11
97.198419
 21
-11.500001
 31
0.0
  0
LINE
  5
15D
100
AcDbEntity
  8
0
390
0
  6
Continuous
 62
     7
100
AcDbLine
 10
97.198419
 20
11.499999
 30
0.0
 11
98.298419
 21
11.499999
 31
0.0
  0
ARC
  5
15E
100
AcDbEntity
  8
0
390
0
  6
Continuous
 62
     7
100
AcDbCircle
 10
98.298419
 20
9.499999
 30
0.0
 40
2.0
210
0.0
220
0.0
230
1.0
100
AcDbArc
 50
0.0
 51
90.0
  0
LINE
  5
15F
100
AcDbEntity
  8
0
390
0
  6
Continuous
 62
     7
100
AcDbLine
 10
100.298419
 20
9.499999
 30
0.0
 11
100.298419
 21
-9.500001
 31
0.0
  0
ARC
  5
160
100
AcDbEntity
  8
0
390
0
  6
Continuous
 62
     7
100
AcDbCircle
 10
98.298419
 20
-9.500001
 30
0.0
 40
2.0
210
0.0
220
0.0
230
1.0
100
AcDbArc
 50
270.0
 51
360.0
  0
LINE
  5
161
100
AcDbEntity
  8
0
390
0
  6
Continuous
 62
     7
100
AcDbLine
 10
97.198419
 20
-11.500001
 30
0.0
 11
98.298419
 21
-11.500001
 31
0.0
  0
LINE
  5
162
100
AcDbEntity
  8
0
390
0
  6
Continuous
 62
     7
100
AcDbLine
 10
73.363421
 20
-8.700001
 30
0.0
 11
72.298419
 21
-8.700001
 31
0.0
  0
ARC
  5
163
100
AcDbEntity
  8
0
390
0
  6
Continuous
 62
     7
100
AcDbCircle
 10
74.797927
 20
-8.700493
 30
0.0
 40
1.434506
210
0.0
220
0.0
230
1.0
100
AcDbArc
 50
179.980375
 51
270.019625
  0
LINE
  5
164
100
AcDbEntity
  8
0
390
0
  6
Continuous
 62
     7
100
AcDbLine
 10
74.798419
 20
-10.134999
 30
0.0
 11
74.798419
 21
-11.200001
 31
0.0
  0
LINE
  5
165
100
AcDbEntity
  8
0
390
0
  6
Continuous
 62
     7
100
AcDbLine
 10
74.798419
 20
10.134996
 30
0.0
 11
74.798419
 21
11.199999
 31
0.0
  0
ARC
  5
166
100
AcDbEntity
  8
0
390
0
  6
Continuous
 62
     7
100
AcDbCircle
 10
74.797927
 20
8.70049
 30
0.0
 40
1.434506
210
0.0
220
0.0
230
1.0
100
AcDbArc
 50
89.980375
 51
180.019625
  0
LINE
  5
167
100
AcDbEntity
  8
0
390
0
  6
Continuous
 62
     7
100
AcDbLine
 10
73.363421
 20
8.699999
 30
0.0
 11
72.298419
 21
8.699999
 31
0.0
  0
LINE
  5
168
100
AcDbEntity
  8
0
390
0
  6
Continuous
 62
     7
100
AcDbLine
 10
73.363421
 20
-8.700001
 30
0.0
 11
73.363421
 21
8.699999
 31
0.0
  0
LINE
  5
169
100
AcDbEntity
  8
0
390
0
  6
Continuous
 62
     7
100
AcDbLine
 10
92.198419
 20
10.134996
 30
0.0
 11
92.198419
 21
11.199999
 31
0.0
  0
LINE
  5
16A
100
AcDbEntity
  8
0
390
0
  6
Continuous
 62
     7
100
AcDbLine
 10
74.798419
 20
10.134996
 30
0.0
 11
92.198419
 21
10.134996
 31
0.0
  0
LINE
  5
16B
100
AcDbEntity
  8
0
390
0
  6
Continuous
 62
     7
100
AcDbLine
 10
92.198419
 20
-10.134999
 30
0.0
 11
74.798419
 21
-10.134999
 31
0.0
  0
LINE
  5
16C
100
AcDbEntity
  8
0
390
0
  6
Continuous
 62
     7
100
AcDbLine
 10
92.198419
 20
-10.134999
 30
0.0
 11
92.198419
 21
-11.200001
 31
0.0
  0
LINE
  5
16D
100
AcDbEntity
  8
0
390
0
  6
Continuous
 62
     7
100
AcDbLine
 10
93.633416
 20
8.699999
 30
0.0
 11
94.698419
 21
8.699999
 31
0.0
  0
ARC
  5
16E
100
AcDbEntity
  8
0
390
0
  6
Continuous
 62
     7
100
AcDbCircle
 10
92.19891
 20
8.70049
 30
0.0
 40
1.434506
210
0.0
220
0.0
230
1.0
100
AcDbArc
 50
359.980375
 51
90.019625
  0
ARC
  5
16F
100
AcDbEntity
  8
0
390
0
  6
Continuous
 62
     7
100
AcDbCircle
 10
92.19891
 20
-8.700493
 30
0.0
 40
1.434506
210
0.0
220
0.0
230
1.0
100
AcDbArc
 50
269.980375
 51
0.019625
  0
LINE
  5
170
100
AcDbEntity
  8
0
390
0
  6
Continuous
 62
     7
100
AcDbLine
 10
93.633416
 20
-8.700001
 30
0.0
 11
94.698419
 21
-8.700001
 31
0.0
  0
LINE
  5
171
100
AcDbEntity
  8
0
390
0
  6
Continuous
 62
     7
100
AcDbLine
 10
93.633416
 20
8.699999
 30
0.0
 11
93.633416
 21
-8.700001
 31
0.0
  0
ARC
  5
172
100
AcDbEntity
  8
0
390
0
  6
Continuous
 62
     7
100
AcDbCircle
 10
73.998419
 20
-16.700001
 30
0.0
 40
2.0
210
0.0
220
0.0
230
1.0
100
AcDbArc
 50
180.0
 51
270.0
  0
LINE
  5
173
100
AcDbEntity
  8
0
390
0
  6
Continuous
 62
     7
100
AcDbLine
 10
71.998419
 20
-14.800001
 30
0.0
 11
71.998419
 21
-16.700001
 31
0.0
  0
LINE
  5
174
100
AcDbEntity
  8
0
390
0
  6
Continuous
 62
     7
100
AcDbLine
 10
94.998419
 20
-14.800001
 30
0.0
 11
94.998419
 21
-16.700001
 31
0.0
  0
ARC
  5
175
100
AcDbEntity
  8
0
390
0
  6
Continuous
 62
     7
100
AcDbCircle
 10
92.998419
 20
-16.700001
 30
0.0
 40
2.0
210
0.0
220
0.0
230
1.0
100
AcDbArc
 50
270.0
 51
360.0
  0
LINE
  5
176
100
AcDbEntity
  8
0
390
0
  6
Continuous
 62
     7
100
AcDbLine
 10
92.998419
 20
-18.700001
 30
0.0
 11
73.998419
 21
-18.700001
 31
0.0
  0
ARC
  5
177
100
AcDbEntity
  8
0
390
0
  6
Continuous
 62
     7
100
AcDbCircle
 10
66.798419
 20
9.499999
 30
0.0
 40
2.0
210
0.0
220
0.0
230
1.0
100
AcDbArc
 50
90.0
 51
180.0
  0
ARC
  5
178
100
AcDbEntity
  8
0
390
0
  6
Continuous
 62
     7
100
AcDbCircle
 10
66.798419
 20
-9.500001
 30
0.0
 40
2.0
210
0.0
220
0.0
230
1.0
100
AcDbArc
 50
180.0
 51
270.0
  0
LINE
  5
179
100
AcDbEntity
  8
0
390
0
  6
Continuous
 62
     7
100
AcDbLine
 10
64.798419
 20
-9.500001
 30
0.0
 11
64.798419
 21
9.499999
 31
0.0
  0
LINE
  5
17A
100
AcDbEntity
  8
0
390
0
  6
Continuous
 62
     7
100
AcDbLine
 10
68.698419
 20
-11.500001
 30
0.0
 11
66.798419
 21
-11.500001
 31
0.0
  0
LINE
  5
17B
100
AcDbEntity
  8
0
390
0
  6
Continuous
 62
     7
100
AcDbLine
 10
68.698419
 20
11.499999
 30
0.0
 11
66.798419
 21
11.499999
 31
0.0
  0
ARC
  5
17C
100
AcDbEntity
  8
0
390
0
  6
Continuous
 62
     7
100
AcDbCircle
 10
92.998419
 20
16.699999
 30
0.0
 40
2.0
210
0.0
220
0.0
230
1.0
100
AcDbArc
 50
0.0
 51
90.0
  0
ARC
  5
17D
100
AcDbEntity
  8
0
390
0
  6
Continuous
 62
     7
100
AcDbCircle
 10
73.998419
 20
16.699999
 30
0.0
 40
2.0
210
0.0
220
0.0
230
1.0
100
AcDbArc
 50
90.0
 51
180.0
  0
LINE
  5
17E
100
AcDbEntity
  8
0
390
0
  6
Continuous
 62
     7
100
AcDbLine
 10
73.998419
 20
18.699999
 30
0.0
 11
92.998419
 21
18.699999
 31
0.0
  0
LINE
  5
17F
100
AcDbEntity
  8
0
390
0
  6
Continuous
 62
     7
100
AcDbLine
 10
94.998419
 20
14.799999
 30
0.0
 11
94.998419
 21
16.699999
 31
0.0
  0
LINE
  5
180
100
AcDbEntity
  8
0
390
0
  6
Continuous
 62
     7
100
AcDbLine
 10
71.998419
 20
14.799999
 30
0.0
 11
71.998419
 21
16.699999
 31
0.0
  0
ARC
  5
181
100
AcDbEntity
  8
0
390
0
  6
Continuous
 62
     7
100
AcDbCircle
 10
100.198419
 20
-9.500001
 30
0.0
 40
2.0
210
0.0
220
0.0
230
1.0
100
AcDbArc
 50
270.0
 51
360.0
  0
ARC
  5
182
100
AcDbEntity
  8
0
390
0
  6
Continuous
 62
     7
100
AcDbCircle
 10
100.198419
 20
9.499999
 30
0.0
 40
2.0
210
0.0
220
0.0
230
1.0
100
AcDbArc
 50
0.0
 51
90.0
  0
LINE
  5
183
100
AcDbEntity
  8
0
390
0
  6
Continuous
 62
     7
100
AcDbLine
 10
102.198419
 20
9.499999
 30
0.0
 11
102.198419
 21
-9.500001
 31
0.0
  0
LINE
  5
184
100
AcDbEntity
  8
0
390
0
  6
Continuous
 62
     7
100
AcDbLine
 10
98.298419
 20
-11.500001
 30
0.0
 11
100.198419
 21
-11.500001
 31
0.0
  0
LINE
  5
185
100
AcDbEntity
  8
0
390
0
  6
Continuous
 62
     7
100
AcDbLine
 10
98.298419
 20
11.499999
 30
0.0
 11
100.198419
 21
11.499999
 31
0.0
  0
LINE
  5
186
100
AcDbEntity
  8
0
390
0
  6
Continuous
 62
     7
100
AcDbLine
 10
100.498419
 20
-20.000001
 30
0.0
 11
66.498419
 21
-20.000001
 31
0.0
  0
ARC
  5
187
100
AcDbEntity
  8
0
390
0
  6
Continuous
 62
     7
100
AcDbCircle
 10
66.498419
 20
-17.000001
 30
0.0
 40
3.0
210
0.0
220
0.0
230
1.0
100
AcDbArc
 50
180.0
 51
270.0
  0
LINE
  5
188
100
AcDbEntity
  8
0
390
0
  6
Continuous
 62
     7
100
AcDbLine
 10
63.498419
 20
-17.000001
 30
0.0
 11
63.498419
 21
16.999999
 31
0.0
  0
ARC
  5
189
100
AcDbEntity
  8
0
390
0
  6
Continuous
 62
     7
100
AcDbCircle
 10
66.498419
 20
16.999999
 30
0.0
 40
3.0
210
0.0
220
0.0
230
1.0
100
AcDbArc
 50
90.0
 51
180.0
  0
LINE
  5
18A
100
AcDbEntity
  8
0
390
0
  6
Continuous
 62
     7
100
AcDbLine
 10
66.498419
 20
19.999999
 30
0.0
 11
100.498419
 21
19.999999
 31
0.0
  0
ARC
  5
18B
100
AcDbEntity
  8
0
390
0
  6
Continuous
 62
     7
100
AcDbCircle
 10
100.498419
 20
16.999999
 30
0.0
 40
3.0
210
0.0
220
0.0
230
1.0
100
AcDbArc
 50
0.0
 51
90.0
  0
LINE
  5
18C
100
AcDbEntity
  8
0
390
0
  6
Continuous
 62
     7
100
AcDbLine
 10
103.498419
 20
16.999999
 30
0.0
 11
103.498419
 21
-17.000001
 31
0.0
  0
ARC
  5
18D
100
AcDbEntity
  8
0
390
0
  6
Continuous
 62
     7
100
AcDbCircle
 10
100.498419
 20
-17.000001
 30
0.0
 40
3.0
210
0.0
220
0.0
230
1.0
100
AcDbArc
 50
270.0
 51
360.0
  0
LINE
  5
18E
100
AcDbEntity
  8
0
390
0
  6
Continuous
 62
     7
100
AcDbLine
 10
74.338572
 20
8.722356
 30
0.0
 11
74.338572
 21
-8.722359
 31
0.0
  0
ELLIPSE
  5
18F
100
AcDbEntity
  8
0
390
0
  6
Continuous
 62
     7
100
AcDbEllipse
 10
74.362051
 20
-8.700001
 30
0.0
 11
-0.9999993111443617
 21
0.001173759285128
 31
0.0
210
0.0
220
0.0
230
1.0
 40
0.022391
 41
0.0523730200620665
 42
1.5473417074728781
  0
ELLIPSE
  5
190
100
AcDbEntity
  8
0
390
0
  6
Continuous
 62
     7
100
AcDbEllipse
 10
74.362051
 20
8.699999
 30
0.0
 11
-0.9999993111443617
 21
-0.001173759285128
 31
0.0
210
0.0
220
0.0
230
1.0
 40
0.022391
 41
4.7358435997067083
 42
6.2308122871186296
  0
ELLIPSE
  5
191
100
AcDbEntity
  8
0
390
0
  6
Continuous
 62
     7
100
AcDbEllipse
 10
74.798419
 20
-9.136369
 30
0.0
 11
-0.0011737592851557
 21
0.9999993111443339
 31
0.0
210
0.0
220
0.0
230
1.0
 40
0.022391
 41
1.594250946116945
 42
3.089219633528725
  0
LINE
  5
192
100
AcDbEntity
  8
0
390
0
  6
Continuous
 62
     7
100
AcDbLine
 10
74.776061
 20
-9.159848
 30
0.0
 11
92.220776
 21
-9.159848
 31
0.0
  0
ELLIPSE
  5
193
100
AcDbEntity
  8
0
390
0
  6
Continuous
 62
     7
100
AcDbEllipse
 10
92.198419
 20
-9.136369
 30
0.0
 11
0.0011737592851557
 21
0.9999993111443339
 31
0.0
210
0.0
220
0.0
230
1.0
 40
0.022391
 41
3.1939656736509696
 42
4.6889343610626417
  0
ELLIPSE
  5
194
100
AcDbEntity
  8
0
390
0
  6
Continuous
 62
     7
100
AcDbEllipse
 10
92.634786
 20
-8.700001
 30
0.0
 11
-0.9999993111443617
 21
-0.001173759285128
 31
0.0
210
0.0
220
0.0
230
1.0
 40
0.022391
 41
1.5942509461168874
 42
3.0892196335286171
  0
LINE
  5
195
100
AcDbEntity
  8
0
390
0
  6
Continuous
 62
     7
100
AcDbLine
 10
92.658265
 20
-8.722359
 30
0.0
 11
92.658265
 21
8.722356
 31
0.0
  0
ELLIPSE
  5
196
100
AcDbEntity
  8
0
390
0
  6
Continuous
 62
     7
100
AcDbEllipse
 10
92.634786
 20
8.699999
 30
0.0
 11
-0.9999993111443617
 21
0.001173759285128
 31
0.0
210
0.0
220
0.0
230
1.0
 40
0.022391
 41
3.1939656736507787
 42
4.688934361062671
  0
LINE
  5
197
100
AcDbEntity
  8
0
390
0
  6
Continuous
 62
     7
100
AcDbLine
 10
92.220776
 20
9.159845
 30
0.0
 11
74.776061
 21
9.159845
 31
0.0
  0
ELLIPSE
  5
198
100
AcDbEntity
  8
0
390
0
  6
Continuous
 62
     7
100
AcDbEllipse
 10
74.798419
 20
9.136367
 30
0.0
 11
0.0011737592851557
 21
0.9999993111443339
 31
0.0
210
0.0
220
0.0
230
1.0
 40
0.022391
 41
0.0523730200609583
 42
1.5473417074728224
  0
ELLIPSE
  5
199
100
AcDbEntity
  8
0
390
0
  6
Continuous
 62
     7
100
AcDbEllipse
 10
92.198419
 20
9.136367
 30
0.0
 11
-0.0011737592851557
 21
0.9999993111443339
 31
0.0
210
0.0
220
0.0
230
1.0
 40
0.022391
 41
4.7358435997067918
 42
6.2308122871186296
  0
POLYLINE
  5
19A
100
AcDbEntity
  8
0
390
0
  6
Continuous
 62
     7
100
AcDb2dPolyline
 66
     1
 10
0.0
 20
0.0
 30
0.0
 40
0.1
 41
0.1
  0
VERTEX
  5
19B
100
AcDbEntity
  8
0
390
0
 62
     7
100
AcDbVertex
100
AcDb2dVertex
 10
92.658265
 20
8.722356
 30
0.0
  0
VERTEX
  5
19C
100
AcDbEntity
  8
0
390
0
 62
     7
100
AcDbVertex
100
AcDb2dVertex
 10
92.657844
 20
8.741913
 30
0.0
  0
VERTEX
  5
19D
100
AcDbEntity
  8
0
390
0
 62
     7
100
AcDbVertex
100
AcDb2dVertex
 10
92.656543
 20
8.761461
 30
0.0
  0
VERTEX
  5
19E
100
AcDbEntity
  8
0
390
0
 62
     7
100
AcDbVertex
100
AcDb2dVertex
 10
92.654371
 20
8.780942
 30
0.0
  0
VERTEX
  5
19F
100
AcDbEntity
  8
0
390
0
 62
     7
100
AcDbVertex
100
AcDb2dVertex
 10
92.651334
 20
8.800298
 30
0.0
  0
VERTEX
  5
1A0
100
AcDbEntity
  8
0
390
0
 62
     7
100
AcDbVertex
100
AcDb2dVertex
 10
92.647437
 20
8.819469
 30
0.0
  0
VERTEX
  5
1A1
100
AcDbEntity
  8
0
390
0
 62
     7
100
AcDbVertex
100
AcDb2dVertex
 10
92.643056
 20
8.837074
 30
0.0
  0
VERTEX
  5
1A2
100
AcDbEntity
  8
0
390
0
 62
     7
100
AcDbVertex
100
AcDb2dVertex
 10
92.637942
 20
8.854498
 30
0.0
  0
VERTEX
  5
1A3
100
AcDbEntity
  8
0
390
0
 62
     7
100
AcDbVertex
100
AcDb2dVertex
 10
92.632112
 20
8.871696
 30
0.0
  0
VERTEX
  5
1A4
100
AcDbEntity
  8
0
390
0
 62
     7
100
AcDbVertex
100
AcDb2dVertex
 10
92.625578
 20
8.888622
 30
0.0
  0
VERTEX
  5
1A5
100
AcDbEntity
  8
0
390
0
 62
     7
100
AcDbVertex
100
AcDb2dVertex
 10
92.618125
 20
8.90574
 30
0.0
  0
VERTEX
  5
1A6
100
AcDbEntity
  8
0
390
0
 62
     7
100
AcDbVertex
100
AcDb2dVertex
 10
92.609939
 20
8.92254
 30
0.0
  0
VERTEX
  5
1A7
100
AcDbEntity
  8
0
390
0
 62
     7
100
AcDbVertex
100
AcDb2dVertex
 10
92.601045
 20
8.938975
 30
0.0
  0
VERTEX
  5
1A8
100
AcDbEntity
  8
0
390
0
 62
     7
100
AcDbVertex
100
AcDb2dVertex
 10
92.591466
 20
8.955002
 30
0.0
  0
VERTEX
  5
1A9
100
AcDbEntity
  8
0
390
0
 62
     7
100
AcDbVertex
100
AcDb2dVertex
 10
92.581505
 20
8.970171
 30
0.0
  0
VERTEX
  5
1AA
100
AcDbEntity
  8
0
390
0
 62
     7
100
AcDbVertex
100
AcDb2dVertex
 10
92.570914
 20
8.984927
 30
0.0
  0
VERTEX
  5
1AB
100
AcDbEntity
  8
0
390
0
 62
     7
100
AcDbVertex
100
AcDb2dVertex
 10
92.55972
 20
8.999232
 30
0.0
  0
VERTEX
  5
1AC
100
AcDbEntity
  8
0
390
0
 62
     7
100
AcDbVertex
100
AcDb2dVertex
 10
92.547953
 20
9.013047
 30
0.0
  0
VERTEX
  5
1AD
100
AcDbEntity
  8
0
390
0
 62
     7
100
AcDbVertex
100
AcDb2dVertex
 10
92.535254
 20
9.02674
 30
0.0
  0
VERTEX
  5
1AE
100
AcDbEntity
  8
0
390
0
 62
     7
100
AcDbVertex
100
AcDb2dVertex
 10
92.521969
 20
9.039889
 30
0.0
  0
VERTEX
  5
1AF
100
AcDbEntity
  8
0
390
0
 62
     7
100
AcDbVertex
100
AcDb2dVertex
 10
92.508136
 20
9.05246
 30
0.0
  0
VERTEX
  5
1B0
100
AcDbEntity
  8
0
390
0
 62
     7
100
AcDbVertex
100
AcDb2dVertex
 10
92.493792
 20
9.064418
 30
0.0
  0
VERTEX
  5
1B1
100
AcDbEntity
  8
0
390
0
 62
     7
100
AcDbVertex
100
AcDb2dVertex
 10
92.47937
 20
9.075441
 30
0.0
  0
VERTEX
  5
1B2
100
AcDbEntity
  8
0
390
0
 62
     7
100
AcDbVertex
100
AcDb2dVertex
 10
92.46449
 20
9.085865
 30
0.0
  0
VERTEX
  5
1B3
100
AcDbEntity
  8
0
390
0
 62
     7
100
AcDbVertex
100
AcDb2dVertex
 10
92.449191
 20
9.095664
 30
0.0
  0
VERTEX
  5
1B4
100
AcDbEntity
  8
0
390
0
 62
     7
100
AcDbVertex
100
AcDb2dVertex
 10
92.433512
 20
9.104811
 30
0.0
  0
VERTEX
  5
1B5
100
AcDbEntity
  8
0
390
0
 62
     7
100
AcDbVertex
100
AcDb2dVertex
 10
92.416995
 20
9.113533
 30
0.0
  0
VERTEX
  5
1B6
100
AcDbEntity
  8
0
390
0
 62
     7
100
AcDbVertex
100
AcDb2dVertex
 10
92.400104
 20
9.121548
 30
0.0
  0
VERTEX
  5
1B7
100
AcDbEntity
  8
0
390
0
 62
     7
100
AcDbVertex
100
AcDb2dVertex
 10
92.382887
 20
9.128836
 30
0.0
  0
VERTEX
  5
1B8
100
AcDbEntity
  8
0
390
0
 62
     7
100
AcDbVertex
100
AcDb2dVertex
 10
92.365391
 20
9.135375
 30
0.0
  0
VERTEX
  5
1B9
100
AcDbEntity
  8
0
390
0
 62
     7
100
AcDbVertex
100
AcDb2dVertex
 10
92.348137
 20
9.141005
 30
0.0
  0
VERTEX
  5
1BA
100
AcDbEntity
  8
0
390
0
 62
     7
100
AcDbVertex
100
AcDb2dVertex
 10
92.330649
 20
9.145918
 30
0.0
  0
VERTEX
  5
1BB
100
AcDbEntity
  8
0
390
0
 62
     7
100
AcDbVertex
100
AcDb2dVertex
 10
92.312974
 20
9.150101
 30
0.0
  0
VERTEX
  5
1BC
100
AcDbEntity
  8
0
390
0
 62
     7
100
AcDbVertex
100
AcDb2dVertex
 10
92.295155
 20
9.153544
 30
0.0
  0
VERTEX
  5
1BD
100
AcDbEntity
  8
0
390
0
 62
     7
100
AcDbVertex
100
AcDb2dVertex
 10
92.276686
 20
9.156309
 30
0.0
  0
VERTEX
  5
1BE
100
AcDbEntity
  8
0
390
0
 62
     7
100
AcDbVertex
100
AcDb2dVertex
 10
92.258099
 20
9.158283
 30
0.0
  0
VERTEX
  5
1BF
100
AcDbEntity
  8
0
390
0
 62
     7
100
AcDbVertex
100
AcDb2dVertex
 10
92.239445
 20
9.159464
 30
0.0
  0
VERTEX
  5
1C0
100
AcDbEntity
  8
0
390
0
 62
     7
100
AcDbVertex
100
AcDb2dVertex
 10
92.220776
 20
9.159845
 30
0.0
  0
SEQEND
  5
1C1
100
AcDbEntity
  8
0
390
0
  0
POLYLINE
  5
1C2
100
AcDbEntity
  8
0
390
0
  6
Continuous
 62
     7
100
AcDb2dPolyline
 66
     1
 10
0.0
 20
0.0
 30
0.0
 40
0.1
 41
0.1
  0
VERTEX
  5
1C3
100
AcDbEntity
  8
0
390
0
 62
     7
100
AcDbVertex
100
AcDb2dVertex
 10
74.338572
 20
-8.722359
 30
0.0
  0
VERTEX
  5
1C4
100
AcDbEntity
  8
0
390
0
 62
     7
100
AcDbVertex
100
AcDb2dVertex
 10
74.338994
 20
-8.741915
 30
0.0
  0
VERTEX
  5
1C5
100
AcDbEntity
  8
0
390
0
 62
     7
100
AcDbVertex
100
AcDb2dVertex
 10
74.340294
 20
-8.761464
 30
0.0
  0
VERTEX
  5
1C6
100
AcDbEntity
  8
0
390
0
 62
     7
100
AcDbVertex
100
AcDb2dVertex
 10
74.342466
 20
-8.780945
 30
0.0
  0
VERTEX
  5
1C7
100
AcDbEntity
  8
0
390
0
 62
     7
100
AcDbVertex
100
AcDb2dVertex
 10
74.345503
 20
-8.8003
 30
0.0
  0
VERTEX
  5
1C8
100
AcDbEntity
  8
0
390
0
 62
     7
100
AcDbVertex
100
AcDb2dVertex
 10
74.3494
 20
-8.819471
 30
0.0
  0
VERTEX
  5
1C9
100
AcDbEntity
  8
0
390
0
 62
     7
100
AcDbVertex
100
AcDb2dVertex
 10
74.353782
 20
-8.837077
 30
0.0
  0
VERTEX
  5
1CA
100
AcDbEntity
  8
0
390
0
 62
     7
100
AcDbVertex
100
AcDb2dVertex
 10
74.358895
 20
-8.854501
 30
0.0
  0
VERTEX
  5
1CB
100
AcDbEntity
  8
0
390
0
 62
     7
100
AcDbVertex
100
AcDb2dVertex
 10
74.364725
 20
-8.871698
 30
0.0
  0
VERTEX
  5
1CC
100
AcDbEntity
  8
0
390
0
 62
     7
100
AcDbVertex
100
AcDb2dVertex
 10
74.371259
 20
-8.888625
 30
0.0
  0
VERTEX
  5
1CD
100
AcDbEntity
  8
0
390
0
 62
     7
100
AcDbVertex
100
AcDb2dVertex
 10
74.378713
 20
-8.905742
 30
0.0
  0
VERTEX
  5
1CE
100
AcDbEntity
  8
0
390
0
 62
     7
100
AcDbVertex
100
AcDb2dVertex
 10
74.386898
 20
-8.922542
 30
0.0
  0
VERTEX
  5
1CF
100
AcDbEntity
  8
0
390
0
 62
     7
100
AcDbVertex
100
AcDb2dVertex
 10
74.395792
 20
-8.938978
 30
0.0
  0
VERTEX
  5
1D0
100
AcDbEntity
  8
0
390
0
 62
     7
100
AcDbVertex
100
AcDb2dVertex
 10
74.405371
 20
-8.955004
 30
0.0
  0
VERTEX
  5
1D1
100
AcDbEntity
  8
0
390
0
 62
     7
100
AcDbVertex
100
AcDb2dVertex
 10
74.415332
 20
-8.970174
 30
0.0
  0
VERTEX
  5
1D2
100
AcDbEntity
  8
0
390
0
 62
     7
100
AcDbVertex
100
AcDb2dVertex
 10
74.425923
 20
-8.984929
 30
0.0
  0
VERTEX
  5
1D3
100
AcDbEntity
  8
0
390
0
 62
     7
100
AcDbVertex
100
AcDb2dVertex
 10
74.437117
 20
-8.999234
 30
0.0
  0
VERTEX
  5
1D4
100
AcDbEntity
  8
0
390
0
 62
     7
100
AcDbVertex
100
AcDb2dVertex
 10
74.448884
 20
-9.01305
 30
0.0
  0
VERTEX
  5
1D5
100
AcDbEntity
  8
0
390
0
 62
     7
100
AcDbVertex
100
AcDb2dVertex
 10
74.461583
 20
-9.026742
 30
0.0
  0
VERTEX
  5
1D6
100
AcDbEntity
  8
0
390
0
 62
     7
100
AcDbVertex
100
AcDb2dVertex
 10
74.474868
 20
-9.039891
 30
0.0
  0
VERTEX
  5
1D7
100
AcDbEntity
  8
0
390
0
 62
     7
100
AcDbVertex
100
AcDb2dVertex
 10
74.488701
 20
-9.052462
 30
0.0
  0
VERTEX
  5
1D8
100
AcDbEntity
  8
0
390
0
 62
     7
100
AcDbVertex
100
AcDb2dVertex
 10
74.503045
 20
-9.06442
 30
0.0
  0
VERTEX
  5
1D9
100
AcDbEntity
  8
0
390
0
 62
     7
100
AcDbVertex
100
AcDb2dVertex
 10
74.517467
 20
-9.075444
 30
0.0
  0
VERTEX
  5
1DA
100
AcDbEntity
  8
0
390
0
 62
     7
100
AcDbVertex
100
AcDb2dVertex
 10
74.532347
 20
-9.085868
 30
0.0
  0
VERTEX
  5
1DB
100
AcDbEntity
  8
0
390
0
 62
     7
100
AcDbVertex
100
AcDb2dVertex
 10
74.547646
 20
-9.095666
 30
0.0
  0
VERTEX
  5
1DC
100
AcDbEntity
  8
0
390
0
 62
     7
100
AcDbVertex
100
AcDb2dVertex
 10
74.563325
 20
-9.104813
 30
0.0
  0
VERTEX
  5
1DD
100
AcDbEntity
  8
0
390
0
 62
     7
100
AcDbVertex
100
AcDb2dVertex
 10
74.579843
 20
-9.113535
 30
0.0
  0
VERTEX
  5
1DE
100
AcDbEntity
  8
0
390
0
 62
     7
100
AcDbVertex
100
AcDb2dVertex
 10
74.596733
 20
-9.12155
 30
0.0
  0
VERTEX
  5
1DF
100
AcDbEntity
  8
0
390
0
 62
     7
100
AcDbVertex
100
AcDb2dVertex
 10
74.61395
 20
-9.128838
 30
0.0
  0
VERTEX
  5
1E0
100
AcDbEntity
  8
0
390
0
 62
     7
100
AcDbVertex
100
AcDb2dVertex
 10
74.631446
 20
-9.135378
 30
0.0
  0
VERTEX
  5
1E1
100
AcDbEntity
  8
0
390
0
 62
     7
100
AcDbVertex
100
AcDb2dVertex
 10
74.6487
 20
-9.141007
 30
0.0
  0
VERTEX
  5
1E2
100
AcDbEntity
  8
0
390
0
 62
     7
100
AcDbVertex
100
AcDb2dVertex
 10
74.666188
 20
-9.14592
 30
0.0
  0
VERTEX
  5
1E3
100
AcDbEntity
  8
0
390
0
 62
     7
100
AcDbVertex
100
AcDb2dVertex
 10
74.683864
 20
-9.150104
 30
0.0
  0
VERTEX
  5
1E4
100
AcDbEntity
  8
0
390
0
 62
     7
100
AcDbVertex
100
AcDb2dVertex
 10
74.701682
 20
-9.153547
 30
0.0
  0
VERTEX
  5
1E5
100
AcDbEntity
  8
0
390
0
 62
     7
100
AcDbVertex
100
AcDb2dVertex
 10
74.720151
 20
-9.156311
 30
0.0
  0
VERTEX
  5
1E6
100
AcDbEntity
  8
0
390
0
 62
     7
100
AcDbVertex
100
AcDb2dVertex
 10
74.738738
 20
-9.158286
 30
0.0
  0
VERTEX
  5
1E7
100
AcDbEntity
  8
0
390
0
 62
     7
100
AcDbVertex
100
AcDb2dVertex
 10
74.757392
 20
-9.159466
 30
0.0
  0
VERTEX
  5
1E8
100
AcDbEntity
  8
0
390
0
 62
     7
100
AcDbVertex
100
AcDb2dVertex
 10
74.776061
 20
-9.159848
 30
0.0
  0
SEQEND
  5
1E9
100
AcDbEntity
  8
0
390
0
  0
POLYLINE
  5
1EA
100
AcDbEntity
  8
0
390
0
  6
Continuous
 62
     7
100
AcDb2dPolyline
 66
     1
 10
0.0
 20
0.0
 30
0.0
 40
0.1
 41
0.1
  0
VERTEX
  5
1EB
100
AcDbEntity
  8
0
390
0
 62
     7
100
AcDbVertex
100
AcDb2dVertex
 10
74.776061
 20
9.159845
 30
0.0
  0
VERTEX
  5
1EC
100
AcDbEntity
  8
0
390
0
 62
     7
100
AcDbVertex
100
AcDb2dVertex
 10
74.756504
 20
9.159424
 30
0.0
  0
VERTEX
  5
1ED
100
AcDbEntity
  8
0
390
0
 62
     7
100
AcDbVertex
100
AcDb2dVertex
 10
74.736956
 20
9.158124
 30
0.0
  0
VERTEX
  5
1EE
100
AcDbEntity
  8
0
390
0
 62
     7
100
AcDbVertex
100
AcDb2dVertex
 10
74.717475
 20
9.155952
 30
0.0
  0
VERTEX
  5
1EF
100
AcDbEntity
  8
0
390
0
 62
     7
100
AcDbVertex
100
AcDb2dVertex
 10
74.69812
 20
9.152914
 30
0.0
  0
VERTEX
  5
1F0
100
AcDbEntity
  8
0
390
0
 62
     7
100
AcDbVertex
100
AcDb2dVertex
 10
74.678949
 20
9.149018
 30
0.0
  0
VERTEX
  5
1F1
100
AcDbEntity
  8
0
390
0
 62
     7
100
AcDbVertex
100
AcDb2dVertex
 10
74.661343
 20
9.144636
 30
0.0
  0
VERTEX
  5
1F2
100
AcDbEntity
  8
0
390
0
 62
     7
100
AcDbVertex
100
AcDb2dVertex
 10
74.643919
 20
9.139523
 30
0.0
  0
VERTEX
  5
1F3
100
AcDbEntity
  8
0
390
0
 62
     7
100
AcDbVertex
100
AcDb2dVertex
 10
74.626721
 20
9.133692
 30
0.0
  0
VERTEX
  5
1F4
100
AcDbEntity
  8
0
390
0
 62
     7
100
AcDbVertex
100
AcDb2dVertex
 10
74.609795
 20
9.127159
 30
0.0
  0
VERTEX
  5
1F5
100
AcDbEntity
  8
0
390
0
 62
     7
100
AcDbVertex
100
AcDb2dVertex
 10
74.592677
 20
9.119705
 30
0.0
  0
VERTEX
  5
1F6
100
AcDbEntity
  8
0
390
0
 62
     7
100
AcDbVertex
100
AcDb2dVertex
 10
74.575878
 20
9.111519
 30
0.0
  0
VERTEX
  5
1F7
100
AcDbEntity
  8
0
390
0
 62
     7
100
AcDbVertex
100
AcDb2dVertex
 10
74.559442
 20
9.102625
 30
0.0
  0
VERTEX
  5
1F8
100
AcDbEntity
  8
0
390
0
 62
     7
100
AcDbVertex
100
AcDb2dVertex
 10
74.543416
 20
9.093046
 30
0.0
  0
VERTEX
  5
1F9
100
AcDbEntity
  8
0
390
0
 62
     7
100
AcDbVertex
100
AcDb2dVertex
 10
74.528246
 20
9.083085
 30
0.0
  0
VERTEX
  5
1FA
100
AcDbEntity
  8
0
390
0
 62
     7
100
AcDbVertex
100
AcDb2dVertex
 10
74.51349
 20
9.072494
 30
0.0
  0
VERTEX
  5
1FB
100
AcDbEntity
  8
0
390
0
 62
     7
100
AcDbVertex
100
AcDb2dVertex
 10
74.499186
 20
9.061301
 30
0.0
  0
VERTEX
  5
1FC
100
AcDbEntity
  8
0
390
0
 62
     7
100
AcDbVertex
100
AcDb2dVertex
 10
74.48537
 20
9.049533
 30
0.0
  0
VERTEX
  5
1FD
100
AcDbEntity
  8
0
390
0
 62
     7
100
AcDbVertex
100
AcDb2dVertex
 10
74.471678
 20
9.036834
 30
0.0
  0
VERTEX
  5
1FE
100
AcDbEntity
  8
0
390
0
 62
     7
100
AcDbVertex
100
AcDb2dVertex
 10
74.458529
 20
9.02355
 30
0.0
  0
VERTEX
  5
1FF
100
AcDbEntity
  8
0
390
0
 62
     7
100
AcDbVertex
100
AcDb2dVertex
 10
74.445958
 20
9.009717
 30
0.0
  0
VERTEX
  5
200
100
AcDbEntity
  8
0
390
0
 62
     7
100
AcDbVertex
100
AcDb2dVertex
 10
74.434
 20
8.995373
 30
0.0
  0
VERTEX
  5
201
100
AcDbEntity
  8
0
390
0
 62
     7
100
AcDbVertex
100
AcDb2dVertex
 10
74.422976
 20
8.980951
 30
0.0
  0
VERTEX
  5
202
100
AcDbEntity
  8
0
390
0
 62
     7
100
AcDbVertex
100
AcDb2dVertex
 10
74.412552
 20
8.966071
 30
0.0
  0
VERTEX
  5
203
100
AcDbEntity
  8
0
390
0
 62
     7
100
AcDbVertex
100
AcDb2dVertex
 10
74.402753
 20
8.950772
 30
0.0
  0
VERTEX
  5
204
100
AcDbEntity
  8
0
390
0
 62
     7
100
AcDbVertex
100
AcDb2dVertex
 10
74.393606
 20
8.935093
 30
0.0
  0
VERTEX
  5
205
100
AcDbEntity
  8
0
390
0
 62
     7
100
AcDbVertex
100
AcDb2dVertex
 10
74.384885
 20
8.918575
 30
0.0
  0
VERTEX
  5
206
100
AcDbEntity
  8
0
390
0
 62
     7
100
AcDbVertex
100
AcDb2dVertex
 10
74.376869
 20
8.901684
 30
0.0
  0
VERTEX
  5
207
100
AcDbEntity
  8
0
390
0
 62
     7
100
AcDbVertex
100
AcDb2dVertex
 10
74.369581
 20
8.884468
 30
0.0
  0
VERTEX
  5
208
100
AcDbEntity
  8
0
390
0
 62
     7
100
AcDbVertex
100
AcDb2dVertex
 10
74.363042
 20
8.866971
 30
0.0
  0
VERTEX
  5
209
100
AcDbEntity
  8
0
390
0
 62
     7
100
AcDbVertex
100
AcDb2dVertex
 10
74.357412
 20
8.849717
 30
0.0
  0
VERTEX
  5
20A
100
AcDbEntity
  8
0
390
0
 62
     7
100
AcDbVertex
100
AcDb2dVertex
 10
74.3525
 20
8.83223
 30
0.0
  0
VERTEX
  5
20B
100
AcDbEntity
  8
0
390
0
 62
     7
100
AcDbVertex
100
AcDb2dVertex
 10
74.348316
 20
8.814554
 30
0.0
  0
VERTEX
  5
20C
100
AcDbEntity
  8
0
390
0
 62
     7
100
AcDbVertex
100
AcDb2dVertex
 10
74.344873
 20
8.796735
 30
0.0
  0
VERTEX
  5
20D
100
AcDbEntity
  8
0
390
0
 62
     7
100
AcDbVertex
100
AcDb2dVertex
 10
74.342109
 20
8.778266
 30
0.0
  0
VERTEX
  5
20E
100
AcDbEntity
  8
0
390
0
 62
     7
100
AcDbVertex
100
AcDb2dVertex
 10
74.340134
 20
8.759679
 30
0.0
  0
VERTEX
  5
20F
100
AcDbEntity
  8
0
390
0
 62
     7
100
AcDbVertex
100
AcDb2dVertex
 10
74.338954
 20
8.741026
 30
0.0
  0
VERTEX
  5
210
100
AcDbEntity
  8
0
390
0
 62
     7
100
AcDbVertex
100
AcDb2dVertex
 10
74.338572
 20
8.722356
 30
0.0
  0
SEQEND
  5
211
100
AcDbEntity
  8
0
390
0
  0
POLYLINE
  5
212
100
AcDbEntity
  8
0
390
0
  6
Continuous
 62
     7
100
AcDb2dPolyline
 66
     1
 10
0.0
 20
0.0
 30
0.0
 40
0.1
 41
0.1
  0
VERTEX
  5
213
100
AcDbEntity
  8
0
390
0
 62
     7
100
AcDbVertex
100
AcDb2dVertex
 10
92.220776
 20
-9.159848
 30
0.0
  0
VERTEX
  5
214
100
AcDbEntity
  8
0
390
0
 62
     7
100
AcDbVertex
100
AcDb2dVertex
 10
92.240333
 20
-9.159426
 30
0.0
  0
VERTEX
  5
215
100
AcDbEntity
  8
0
390
0
 62
     7
100
AcDbVertex
100
AcDb2dVertex
 10
92.259881
 20
-9.158126
 30
0.0
  0
VERTEX
  5
216
100
AcDbEntity
  8
0
390
0
 62
     7
100
AcDbVertex
100
AcDb2dVertex
 10
92.279362
 20
-9.155954
 30
0.0
  0
VERTEX
  5
217
100
AcDbEntity
  8
0
390
0
 62
     7
100
AcDbVertex
100
AcDb2dVertex
 10
92.298717
 20
-9.152916
 30
0.0
  0
VERTEX
  5
218
100
AcDbEntity
  8
0
390
0
 62
     7
100
AcDbVertex
100
AcDb2dVertex
 10
92.317889
 20
-9.14902
 30
0.0
  0
VERTEX
  5
219
100
AcDbEntity
  8
0
390
0
 62
     7
100
AcDbVertex
100
AcDb2dVertex
 10
92.335494
 20
-9.144638
 30
0.0
  0
VERTEX
  5
21A
100
AcDbEntity
  8
0
390
0
 62
     7
100
AcDbVertex
100
AcDb2dVertex
 10
92.352918
 20
-9.139525
 30
0.0
  0
VERTEX
  5
21B
100
AcDbEntity
  8
0
390
0
 62
     7
100
AcDbVertex
100
AcDb2dVertex
 10
92.370116
 20
-9.133695
 30
0.0
  0
VERTEX
  5
21C
100
AcDbEntity
  8
0
390
0
 62
     7
100
AcDbVertex
100
AcDb2dVertex
 10
92.387042
 20
-9.127161
 30
0.0
  0
VERTEX
  5
21D
100
AcDbEntity
  8
0
390
0
 62
     7
100
AcDbVertex
100
AcDb2dVertex
 10
92.40416
 20
-9.119707
 30
0.0
  0
VERTEX
  5
21E
100
AcDbEntity
  8
0
390
0
 62
     7
100
AcDbVertex
100
AcDb2dVertex
 10
92.420959
 20
-9.111522
 30
0.0
  0
VERTEX
  5
21F
100
AcDbEntity
  8
0
390
0
 62
     7
100
AcDbVertex
100
AcDb2dVertex
 10
92.437395
 20
-9.102628
 30
0.0
  0
VERTEX
  5
220
100
AcDbEntity
  8
0
390
0
 62
     7
100
AcDbVertex
100
AcDb2dVertex
 10
92.453421
 20
-9.093048
 30
0.0
  0
VERTEX
  5
221
100
AcDbEntity
  8
0
390
0
 62
     7
100
AcDbVertex
100
AcDb2dVertex
 10
92.468591
 20
-9.083088
 30
0.0
  0
VERTEX
  5
222
100
AcDbEntity
  8
0
390
0
 62
     7
100
AcDbVertex
100
AcDb2dVertex
 10
92.483347
 20
-9.072496
 30
0.0
  0
VERTEX
  5
223
100
AcDbEntity
  8
0
390
0
 62
     7
100
AcDbVertex
100
AcDb2dVertex
 10
92.497651
 20
-9.061303
 30
0.0
  0
VERTEX
  5
224
100
AcDbEntity
  8
0
390
0
 62
     7
100
AcDbVertex
100
AcDb2dVertex
 10
92.511467
 20
-9.049536
 30
0.0
  0
VERTEX
  5
225
100
AcDbEntity
  8
0
390
0
 62
     7
100
AcDbVertex
100
AcDb2dVertex
 10
92.525159
 20
-9.036836
 30
0.0
  0
VERTEX
  5
226
100
AcDbEntity
  8
0
390
0
 62
     7
100
AcDbVertex
100
AcDb2dVertex
 10
92.538308
 20
-9.023552
 30
0.0
  0
VERTEX
  5
227
100
AcDbEntity
  8
0
390
0
 62
     7
100
AcDbVertex
100
AcDb2dVertex
 10
92.55088
 20
-9.009719
 30
0.0
  0
VERTEX
  5
228
100
AcDbEntity
  8
0
390
0
 62
     7
100
AcDbVertex
100
AcDb2dVertex
 10
92.562837
 20
-8.995375
 30
0.0
  0
VERTEX
  5
229
100
AcDbEntity
  8
0
390
0
 62
     7
100
AcDbVertex
100
AcDb2dVertex
 10
92.573861
 20
-8.980953
 30
0.0
  0
VERTEX
  5
22A
100
AcDbEntity
  8
0
390
0
 62
     7
100
AcDbVertex
100
AcDb2dVertex
 10
92.584285
 20
-8.966073
 30
0.0
  0
VERTEX
  5
22B
100
AcDbEntity
  8
0
390
0
 62
     7
100
AcDbVertex
100
AcDb2dVertex
 10
92.594084
 20
-8.950774
 30
0.0
  0
VERTEX
  5
22C
100
AcDbEntity
  8
0
390
0
 62
     7
100
AcDbVertex
100
AcDb2dVertex
 10
92.603231
 20
-8.935095
 30
0.0
  0
VERTEX
  5
22D
100
AcDbEntity
  8
0
390
0
 62
     7
100
AcDbVertex
100
AcDb2dVertex
 10
92.611953
 20
-8.918577
 30
0.0
  0
VERTEX
  5
22E
100
AcDbEntity
  8
0
390
0
 62
     7
100
AcDbVertex
100
AcDb2dVertex
 10
92.619968
 20
-8.901687
 30
0.0
  0
VERTEX
  5
22F
100
AcDbEntity
  8
0
390
0
 62
     7
100
AcDbVertex
100
AcDb2dVertex
 10
92.627256
 20
-8.88447
 30
0.0
  0
VERTEX
  5
230
100
AcDbEntity
  8
0
390
0
 62
     7
100
AcDbVertex
100
AcDb2dVertex
 10
92.633795
 20
-8.866974
 30
0.0
  0
VERTEX
  5
231
100
AcDbEntity
  8
0
390
0
 62
     7
100
AcDbVertex
100
AcDb2dVertex
 10
92.639425
 20
-8.84972
 30
0.0
  0
VERTEX
  5
232
100
AcDbEntity
  8
0
390
0
 62
     7
100
AcDbVertex
100
AcDb2dVertex
 10
92.644337
 20
-8.832232
 30
0.0
  0
VERTEX
  5
233
100
AcDbEntity
  8
0
390
0
 62
     7
100
AcDbVertex
100
AcDb2dVertex
 10
92.648521
 20
-8.814556
 30
0.0
  0
VERTEX
  5
234
100
AcDbEntity
  8
0
390
0
 62
     7
100
AcDbVertex
100
AcDb2dVertex
 10
92.651964
 20
-8.796737
 30
0.0
  0
VERTEX
  5
235
100
AcDbEntity
  8
0
390
0
 62
     7
100
AcDbVertex
100
AcDb2dVertex
 10
92.654729
 20
-8.778269
 30
0.0
  0
VERTEX
  5
236
100
AcDbEntity
  8
0
390
0
 62
     7
100
AcDbVertex
100
AcDb2dVertex
 10
92.656703
 20
-8.759682
 30
0.0
  0
VERTEX
  5
237
100
AcDbEntity
  8
0
390
0
 62
     7
100
AcDbVertex
100
AcDb2dVertex
 10
92.657883
 20
-8.741028
 30
0.0
  0
VERTEX
  5
238
100
AcDbEntity
  8
0
390
0
 62
     7
100
AcDbVertex
100
AcDb2dVertex
 10
92.658265
 20
-8.722359
 30
0.0
  0
SEQEND
  5
239
100
AcDbEntity
  8
0
390
0
  0
POLYLINE
  5
23A
100
AcDbEntity
  8
0
390
0
  6
Continuous
 62
     7
100
AcDb2dPolyline
 66
     1
 10
0.0
 20
0.0
 30
0.0
 70
     1
 40
0.1
 41
0.1
  0
VERTEX
  5
23B
100
AcDbEntity
  8
0
390
0
 62
     7
100
AcDbVertex
100
AcDb2dVertex
 10
-73.511872
 20
-9.955547
 30
0.0
 42
0.953625
  0
VERTEX
  5
23C
100
AcDbEntity
  8
0
390
0
 62
     7
100
AcDbVertex
100
AcDb2dVertex
 10
-70.80764
 20
-9.861469
 30
0.0
 42
0.254746
  0
VERTEX
  5
23D
100
AcDbEntity
  8
0
390
0
 62
     7
100
AcDbVertex
100
AcDb2dVertex
 10
-71.44426
 20
-4.782065
 30
0.0
 42
0.59839
  0
VERTEX
  5
23E
100
AcDbEntity
  8
0
390
0
 62
     7
100
AcDbVertex
100
AcDb2dVertex
 10
-73.536199
 20
-5.769047
 30
0.0
 42
0.152514
  0
SEQEND
  5
23F
100
AcDbEntity
  8
0
390
0
  0
POLYLINE
  5
240
100
AcDbEntity
  8
0
390
0
  6
Continuous
 62
     7
100
AcDb2dPolyline
 66
     1
 10
0.0
 20
0.0
 30
0.0
 70
     1
 40
0.1
 41
0.1
  0
VERTEX
  5
241
100
AcDbEntity
  8
0
390
0
 62
     7
100
AcDbVertex
100
AcDb2dVertex
 10
-74.333428
 20
-11.503582
 30
0.0
 42
-0.354468
  0
VERTEX
  5
242
100
AcDbEntity
  8
0
390
0
 62
     7
100
AcDbVertex
100
AcDb2dVertex
 10
-73.469696
 20
-3.470989
 30
0.0
 42
-0.541995
  0
VERTEX
  5
243
100
AcDbEntity
  8
0
390
0
 62
     7
100
AcDbVertex
100
AcDb2dVertex
 10
-69.428542
 20
-5.496514
 30
0.0
 42
-0.269785
  0
VERTEX
  5
244
100
AcDbEntity
  8
0
390
0
 62
     7
100
AcDbVertex
100
AcDb2dVertex
 10
-70.539688
 20
-12.003693
 30
0.0
 42
-0.452366
  0
SEQEND
  5
245
100
AcDbEntity
  8
0
390
0
  0
LINE
  5
246
100
AcDbEntity
  8
0
390
0
  6
Continuous
 62
     7
100
AcDbLine
 10
-82.745627
 20
2.993998
 30
0.0
 11
-86.787405
 21
12.996677
 31
0.0
  0
LINE
  5
247
100
AcDbEntity
  8
0
390
0
  6
Continuous
 62
     7
100
AcDbLine
 10
-85.330387
 20
2.993998
 30
0.0
 11
-82.745627
 21
2.993998
 31
0.0
  0
LINE
  5
248
100
AcDbEntity
  8
0
390
0
  6
Continuous
 62
     7
100
AcDbLine
 10
-86.787405
 20
12.996677
 30
0.0
 11
-89.372164
 21
12.996677
 31
0.0
  0
LINE
  5
249
100
AcDbEntity
  8
0
390
0
  6
Continuous
 62
     7
100
AcDbLine
 10
-89.372164
 20
12.996677
 30
0.0
 11
-85.330387
 21
2.993998
 31
0.0
  0
LINE
  5
24A
100
AcDbEntity
  8
0
390
0
  6
Continuous
 62
     7
100
AcDbLine
 10
-81.652714
 20
11.289437
 30
0.0
 11
-82.945111
 21
8.090082
 31
0.0
  0
LINE
  5
24B
100
AcDbEntity
  8
0
390
0
  6
Continuous
 62
     7
100
AcDbLine
 10
-79.5199
 20
6.010782
 30
0.0
 11
-81.652714
 21
11.289437
 31
0.0
  0
LINE
  5
24C
100
AcDbEntity
  8
0
390
0
  6
Continuous
 62
     7
100
AcDbLine
 10
-76.697084
 20
12.996677
 30
0.0
 11
-79.5199
 21
6.010782
 31
0.0
  0
LINE
  5
24D
100
AcDbEntity
  8
0
390
0
  6
Continuous
 62
     7
100
AcDbLine
 10
-74.11229
 20
12.996677
 30
0.0
 11
-76.697084
 21
12.996677
 31
0.0
  0
LINE
  5
24E
100
AcDbEntity
  8
0
390
0
  6
Continuous
 62
     7
100
AcDbLine
 10
-78.153433
 20
2.993998
 30
0.0
 11
-74.11229
 21
12.996677
 31
0.0
  0
LINE
  5
24F
100
AcDbEntity
  8
0
390
0
  6
Continuous
 62
     7
100
AcDbLine
 10
-80.8858
 20
2.993998
 30
0.0
 11
-78.153433
 21
2.993998
 31
0.0
  0
LINE
  5
250
100
AcDbEntity
  8
0
390
0
  6
Continuous
 62
     7
100
AcDbLine
 10
-82.945111
 20
8.090082
 30
0.0
 11
-80.8858
 21
2.993998
 31
0.0
  0
LINE
  5
251
100
AcDbEntity
  8
0
390
0
  6
Continuous
 62
     7
100
AcDbLine
 10
-76.293604
 20
2.993998
 30
0.0
 11
-72.783226
 21
2.993998
 31
0.0
  0
LINE
  5
252
100
AcDbEntity
  8
0
390
0
  6
Continuous
 62
     7
100
AcDbLine
 10
-75.705917
 20
4.448577
 30
0.0
 11
-76.293604
 21
2.993998
 31
0.0
  0
LINE
  5
253
100
AcDbEntity
  8
0
390
0
  6
Continuous
 62
     7
100
AcDbLine
 10
-74.285112
 20
4.448577
 30
0.0
 11
-75.705917
 21
4.448577
 31
0.0
  0
ARC
  5
254
100
AcDbEntity
  8
0
390
0
  6
Continuous
 62
     7
100
AcDbCircle
 10
-74.285144
 20
6.673054
 30
0.0
 40
2.224477
210
0.0
220
0.0
230
1.0
100
AcDbArc
 50
270.000825
 51
359.999175
  0
LINE
  5
255
100
AcDbEntity
  8
0
390
0
  6
Continuous
 62
     7
100
AcDbLine
 10
-72.060667
 20
12.996677
 30
0.0
 11
-72.060667
 21
6.673022
 31
0.0
  0
LINE
  5
256
100
AcDbEntity
  8
0
390
0
  6
Continuous
 62
     7
100
AcDbLine
 10
-69.446559
 20
12.996677
 30
0.0
 11
-72.060667
 21
12.996677
 31
0.0
  0
LINE
  5
257
100
AcDbEntity
  8
0
390
0
  6
Continuous
 62
     7
100
AcDbLine
 10
-69.446559
 20
6.330665
 30
0.0
 11
-69.446559
 21
12.996677
 31
0.0
  0
ARC
  5
258
100
AcDbEntity
  8
0
390
0
  6
Continuous
 62
     7
100
AcDbCircle
 10
-72.783275
 20
6.330713
 30
0.0
 40
3.336716
210
0.0
220
0.0
230
1.0
100
AcDbArc
 50
270.000826
 51
359.999174
  0
LINE
  5
259
100
AcDbEntity
  8
0
390
0
  6
Continuous
 62
     7
100
AcDbLine
 10
-77.466417
 20
-9.046456
 30
0.0
 11
-77.466417
 21
-3.182819
 31
0.0
  0
LINE
  5
25A
100
AcDbEntity
  8
0
390
0
  6
Continuous
 62
     7
100
AcDbLine
 10
-76.420962
 20
-9.046456
 30
0.0
 11
-77.466417
 21
-9.046456
 31
0.0
  0
LINE
  5
25B
100
AcDbEntity
  8
0
390
0
  6
Continuous
 62
     7
100
AcDbLine
 10
-76.420962
 20
-10.501001
 30
0.0
 11
-76.420962
 21
-9.046456
 31
0.0
  0
LINE
  5
25C
100
AcDbEntity
  8
0
390
0
  6
Continuous
 62
     7
100
AcDbLine
 10
-77.466417
 20
-10.501001
 30
0.0
 11
-76.420962
 21
-10.501001
 31
0.0
  0
LINE
  5
25D
100
AcDbEntity
  8
0
390
0
  6
Continuous
 62
     7
100
AcDbLine
 10
-77.466417
 20
-12.546456
 30
0.0
 11
-77.466417
 21
-10.501001
 31
0.0
  0
LINE
  5
25E
100
AcDbEntity
  8
0
390
0
  6
Continuous
 62
     7
100
AcDbLine
 10
-78.920962
 20
-12.546456
 30
0.0
 11
-77.466417
 21
-12.546456
 31
0.0
  0
LINE
  5
25F
100
AcDbEntity
  8
0
390
0
  6
Continuous
 62
     7
100
AcDbLine
 10
-78.920962
 20
-10.501001
 30
0.0
 11
-78.920962
 21
-12.546456
 31
0.0
  0
LINE
  5
260
100
AcDbEntity
  8
0
390
0
  6
Continuous
 62
     7
100
AcDbLine
 10
-82.420962
 20
-10.501001
 30
0.0
 11
-78.920962
 21
-10.501001
 31
0.0
  0
LINE
  5
261
100
AcDbEntity
  8
0
390
0
  6
Continuous
 62
     7
100
AcDbLine
 10
-82.420962
 20
-8.546456
 30
0.0
 11
-82.420962
 21
-10.501001
 31
0.0
  0
LINE
  5
262
100
AcDbEntity
  8
0
390
0
  6
Continuous
 62
     7
100
AcDbLine
 10
-79.011872
 20
-3.182819
 30
0.0
 11
-82.420962
 21
-8.546456
 31
0.0
  0
LINE
  5
263
100
AcDbEntity
  8
0
390
0
  6
Continuous
 62
     7
100
AcDbLine
 10
-77.466417
 20
-3.182819
 30
0.0
 11
-79.011872
 21
-3.182819
 31
0.0
  0
LINE
  5
264
100
AcDbEntity
  8
0
390
0
  6
Continuous
 62
     7
100
AcDbLine
 10
-78.920962
 20
-9.001001
 30
0.0
 11
-81.284599
 21
-9.001001
 31
0.0
  0
LINE
  5
265
100
AcDbEntity
  8
0
390
0
  6
Continuous
 62
     7
100
AcDbLine
 10
-78.920962
 20
-5.273728
 30
0.0
 11
-78.920962
 21
-9.001001
 31
0.0
  0
LINE
  5
266
100
AcDbEntity
  8
0
390
0
  6
Continuous
 62
     7
100
AcDbLine
 10
-81.284599
 20
-9.001001
 30
0.0
 11
-78.920962
 21
-5.273728
 31
0.0
  0
LINE
  5
267
100
AcDbEntity
  8
0
390
0
  6
Continuous
 62
     7
100
AcDbLine
 10
-87.190282
 20
2.993998
 30
0.0
 11
-91.232059
 21
12.996677
 31
0.0
  0
LINE
  5
268
100
AcDbEntity
  8
0
390
0
  6
Continuous
 62
     7
100
AcDbLine
 10
-89.774858
 20
2.993998
 30
0.0
 11
-87.190282
 21
2.993998
 31
0.0
  0
LINE
  5
269
100
AcDbEntity
  8
0
390
0
  6
Continuous
 62
     7
100
AcDbLine
 10
-93.816067
 20
12.996677
 30
0.0
 11
-89.774858
 21
2.993998
 31
0.0
  0
LINE
  5
26A
100
AcDbEntity
  8
0
390
0
  6
Continuous
 62
     7
100
AcDbLine
 10
-91.232059
 20
12.996677
 30
0.0
 11
-93.816067
 21
12.996677
 31
0.0
  0
LINE
  5
26B
100
AcDbEntity
  8
0
390
0
  6
Continuous
 62
     7
100
AcDbLine
 10
-97.875508
 20
-12.955547
 30
0.0
 11
-87.920962
 21
-12.955547
 31
0.0
  0
LINE
  5
26C
100
AcDbEntity
  8
0
390
0
  6
Continuous
 62
     7
100
AcDbLine
 10
-97.875508
 20
-3.046456
 30
0.0
 11
-97.875508
 21
-12.955547
 31
0.0
  0
LINE
  5
26D
100
AcDbEntity
  8
0
390
0
  6
Continuous
 62
     7
100
AcDbLine
 10
-87.920962
 20
-3.046456
 30
0.0
 11
-97.875508
 21
-3.046456
 31
0.0
  0
LINE
  5
26E
100
AcDbEntity
  8
0
390
0
  6
Continuous
 62
     7
100
AcDbLine
 10
-87.920962
 20
-12.955547
 30
0.0
 11
-87.920962
 21
-3.046456
 31
0.0
  0
LINE
  5
26F
100
AcDbEntity
  8
0
390
0
  6
Continuous
 62
     7
100
AcDbLine
 10
-96.511872
 20
-11.59191
 30
0.0
 11
-96.511872
 21
-4.364638
 31
0.0
  0
LINE
  5
270
100
AcDbEntity
  8
0
390
0
  6
Continuous
 62
     7
100
AcDbLine
 10
-89.284599
 20
-11.59191
 30
0.0
 11
-96.511872
 21
-11.59191
 31
0.0
  0
LINE
  5
271
100
AcDbEntity
  8
0
390
0
  6
Continuous
 62
     7
100
AcDbLine
 10
-89.284599
 20
-4.364638
 30
0.0
 11
-89.284599
 21
-11.59191
 31
0.0
  0
LINE
  5
272
100
AcDbEntity
  8
0
390
0
  6
Continuous
 62
     7
100
AcDbLine
 10
-96.511872
 20
-4.364638
 30
0.0
 11
-89.284599
 21
-4.364638
 31
0.0
  0
LINE
  5
273
100
AcDbEntity
  8
0
390
0
  6
Continuous
 62
     7
100
AcDbLine
 10
-66.4204
 20
18.086392
 30
0.0
 11
-100.583588
 21
18.086392
 31
0.0
  0
POLYLINE
  5
274
100
AcDbEntity
  8
0
390
0
  6
Continuous
 62
     7
100
AcDb2dPolyline
 66
     1
 10
0.0
 20
0.0
 30
0.0
 40
0.1
 41
0.1
  0
VERTEX
  5
275
100
AcDbEntity
  8
0
390
0
 62
     7
100
AcDbVertex
100
AcDb2dVertex
 10
-65.4156
 20
17.081593
 30
0.0
  0
VERTEX
  5
276
100
AcDbEntity
  8
0
390
0
 62
     7
100
AcDbVertex
100
AcDb2dVertex
 10
-65.416476
 20
17.123277
 30
0.0
  0
VERTEX
  5
277
100
AcDbEntity
  8
0
390
0
 62
     7
100
AcDbVertex
100
AcDb2dVertex
 10
-65.419082
 20
17.164928
 30
0.0
  0
VERTEX
  5
278
100
AcDbEntity
  8
0
390
0
 62
     7
100
AcDbVertex
100
AcDb2dVertex
 10
-65.423411
 20
17.206437
 30
0.0
  0
VERTEX
  5
279
100
AcDbEntity
  8
0
390
0
 62
     7
100
AcDbVertex
100
AcDb2dVertex
 10
-65.429454
 20
17.247699
 30
0.0
  0
VERTEX
  5
27A
100
AcDbEntity
  8
0
390
0
 62
     7
100
AcDbVertex
100
AcDb2dVertex
 10
-65.437462
 20
17.28986
 30
0.0
  0
VERTEX
  5
27B
100
AcDbEntity
  8
0
390
0
 62
     7
100
AcDbVertex
100
AcDb2dVertex
 10
-65.447272
 20
17.331681
 30
0.0
  0
VERTEX
  5
27C
100
AcDbEntity
  8
0
390
0
 62
     7
100
AcDbVertex
100
AcDb2dVertex
 10
-65.458856
 20
17.373049
 30
0.0
  0
VERTEX
  5
27D
100
AcDbEntity
  8
0
390
0
 62
     7
100
AcDbVertex
100
AcDb2dVertex
 10
-65.472184
 20
17.413849
 30
0.0
  0
VERTEX
  5
27E
100
AcDbEntity
  8
0
390
0
 62
     7
100
AcDbVertex
100
AcDb2dVertex
 10
-65.486803
 20
17.452922
 30
0.0
  0
VERTEX
  5
27F
100
AcDbEntity
  8
0
390
0
 62
     7
100
AcDbVertex
100
AcDb2dVertex
 10
-65.503047
 20
17.491391
 30
0.0
  0
VERTEX
  5
280
100
AcDbEntity
  8
0
390
0
 62
     7
100
AcDbVertex
100
AcDb2dVertex
 10
-65.52087
 20
17.529155
 30
0.0
  0
VERTEX
  5
281
100
AcDbEntity
  8
0
390
0
 62
     7
100
AcDbVertex
100
AcDb2dVertex
 10
-65.540229
 20
17.566116
 30
0.0
  0
VERTEX
  5
282
100
AcDbEntity
  8
0
390
0
 62
     7
100
AcDbVertex
100
AcDb2dVertex
 10
-65.561743
 20
17.603277
 30
0.0
  0
VERTEX
  5
283
100
AcDbEntity
  8
0
390
0
 62
     7
100
AcDbVertex
100
AcDb2dVertex
 10
-65.584846
 20
17.63952
 30
0.0
  0
VERTEX
  5
284
100
AcDbEntity
  8
0
390
0
 62
     7
100
AcDbVertex
100
AcDb2dVertex
 10
-65.609473
 20
17.674746
 30
0.0
  0
VERTEX
  5
285
100
AcDbEntity
  8
0
390
0
 62
     7
100
AcDbVertex
100
AcDb2dVertex
 10
-65.635559
 20
17.708858
 30
0.0
  0
VERTEX
  5
286
100
AcDbEntity
  8
0
390
0
 62
     7
100
AcDbVertex
100
AcDb2dVertex
 10
-65.662263
 20
17.740877
 30
0.0
  0
VERTEX
  5
287
100
AcDbEntity
  8
0
390
0
 62
     7
100
AcDbVertex
100
AcDb2dVertex
 10
-65.690296
 20
17.771788
 30
0.0
  0
VERTEX
  5
288
100
AcDbEntity
  8
0
390
0
 62
     7
100
AcDbVertex
100
AcDb2dVertex
 10
-65.719585
 20
17.801512
 30
0.0
  0
VERTEX
  5
289
100
AcDbEntity
  8
0
390
0
 62
     7
100
AcDbVertex
100
AcDb2dVertex
 10
-65.750055
 20
17.829971
 30
0.0
  0
VERTEX
  5
28A
100
AcDbEntity
  8
0
390
0
 62
     7
100
AcDbVertex
100
AcDb2dVertex
 10
-65.782619
 20
17.857907
 30
0.0
  0
VERTEX
  5
28B
100
AcDbEntity
  8
0
390
0
 62
     7
100
AcDbVertex
100
AcDb2dVertex
 10
-65.816376
 20
17.884451
 30
0.0
  0
VERTEX
  5
28C
100
AcDbEntity
  8
0
390
0
 62
     7
100
AcDbVertex
100
AcDb2dVertex
 10
-65.851231
 20
17.909533
 30
0.0
  0
VERTEX
  5
28D
100
AcDbEntity
  8
0
390
0
 62
     7
100
AcDbVertex
100
AcDb2dVertex
 10
-65.887092
 20
17.933082
 30
0.0
  0
VERTEX
  5
28E
100
AcDbEntity
  8
0
390
0
 62
     7
100
AcDbVertex
100
AcDb2dVertex
 10
-65.92286
 20
17.954466
 30
0.0
  0
VERTEX
  5
28F
100
AcDbEntity
  8
0
390
0
 62
     7
100
AcDbVertex
100
AcDb2dVertex
 10
-65.959514
 20
17.974364
 30
0.0
  0
VERTEX
  5
290
100
AcDbEntity
  8
0
390
0
 62
     7
100
AcDbVertex
100
AcDb2dVertex
 10
-65.996958
 20
17.992729
 30
0.0
  0
VERTEX
  5
291
100
AcDbEntity
  8
0
390
0
 62
     7
100
AcDbVertex
100
AcDb2dVertex
 10
-66.035096
 20
18.009511
 30
0.0
  0
VERTEX
  5
292
100
AcDbEntity
  8
0
390
0
 62
     7
100
AcDbVertex
100
AcDb2dVertex
 10
-66.075032
 20
18.025106
 30
0.0
  0
VERTEX
  5
293
100
AcDbEntity
  8
0
390
0
 62
     7
100
AcDbVertex
100
AcDb2dVertex
 10
-66.115632
 20
18.038995
 30
0.0
  0
VERTEX
  5
294
100
AcDbEntity
  8
0
390
0
 62
     7
100
AcDbVertex
100
AcDb2dVertex
 10
-66.156784
 20
18.051144
 30
0.0
  0
VERTEX
  5
295
100
AcDbEntity
  8
0
390
0
 62
     7
100
AcDbVertex
100
AcDb2dVertex
 10
-66.198375
 20
18.061516
 30
0.0
  0
VERTEX
  5
296
100
AcDbEntity
  8
0
390
0
 62
     7
100
AcDbVertex
100
AcDb2dVertex
 10
-66.242212
 20
18.070427
 30
0.0
  0
VERTEX
  5
297
100
AcDbEntity
  8
0
390
0
 62
     7
100
AcDbVertex
100
AcDb2dVertex
 10
-66.286465
 20
18.077385
 30
0.0
  0
VERTEX
  5
298
100
AcDbEntity
  8
0
390
0
 62
     7
100
AcDbVertex
100
AcDb2dVertex
 10
-66.331002
 20
18.082374
 30
0.0
  0
VERTEX
  5
299
100
AcDbEntity
  8
0
390
0
 62
     7
100
AcDbVertex
100
AcDb2dVertex
 10
-66.375691
 20
18.085382
 30
0.0
  0
VERTEX
  5
29A
100
AcDbEntity
  8
0
390
0
 62
     7
100
AcDbVertex
100
AcDb2dVertex
 10
-66.4204
 20
18.086392
 30
0.0
  0
SEQEND
  5
29B
100
AcDbEntity
  8
0
390
0
  0
LINE
  5
29C
100
AcDbEntity
  8
0
390
0
  6
Continuous
 62
     7
100
AcDbLine
 10
-65.4156
 20
-17.081595
 30
0.0
 11
-65.4156
 21
17.081593
 31
0.0
  0
POLYLINE
  5
29D
100
AcDbEntity
  8
0
390
0
  6
Continuous
 62
     7
100
AcDb2dPolyline
 66
     1
 10
0.0
 20
0.0
 30
0.0
 40
0.1
 41
0.1
  0
VERTEX
  5
29E
100
AcDbEntity
  8
0
390
0
 62
     7
100
AcDbVertex
100
AcDb2dVertex
 10
-66.4204
 20
-18.086395
 30
0.0
  0
VERTEX
  5
29F
100
AcDbEntity
  8
0
390
0
 62
     7
100
AcDbVertex
100
AcDb2dVertex
 10
-66.378716
 20
-18.085519
 30
0.0
  0
VERTEX
  5
2A0
100
AcDbEntity
  8
0
390
0
 62
     7
100
AcDbVertex
100
AcDb2dVertex
 10
-66.337065
 20
-18.082913
 30
0.0
  0
VERTEX
  5
2A1
100
AcDbEntity
  8
0
390
0
 62
     7
100
AcDbVertex
100
AcDb2dVertex
 10
-66.295555
 20
-18.078583
 30
0.0
  0
VERTEX
  5
2A2
100
AcDbEntity
  8
0
390
0
 62
     7
100
AcDbVertex
100
AcDb2dVertex
 10
-66.254293
 20
-18.072541
 30
0.0
  0
VERTEX
  5
2A3
100
AcDbEntity
  8
0
390
0
 62
     7
100
AcDbVertex
100
AcDb2dVertex
 10
-66.212133
 20
-18.064533
 30
0.0
  0
VERTEX
  5
2A4
100
AcDbEntity
  8
0
390
0
 62
     7
100
AcDbVertex
100
AcDb2dVertex
 10
-66.170312
 20
-18.054723
 30
0.0
  0
VERTEX
  5
2A5
100
AcDbEntity
  8
0
390
0
 62
     7
100
AcDbVertex
100
AcDb2dVertex
 10
-66.128944
 20
-18.043139
 30
0.0
  0
VERTEX
  5
2A6
100
AcDbEntity
  8
0
390
0
 62
     7
100
AcDbVertex
100
AcDb2dVertex
 10
-66.088144
 20
-18.029811
 30
0.0
  0
VERTEX
  5
2A7
100
AcDbEntity
  8
0
390
0
 62
     7
100
AcDbVertex
100
AcDb2dVertex
 10
-66.04907
 20
-18.015192
 30
0.0
  0
VERTEX
  5
2A8
100
AcDbEntity
  8
0
390
0
 62
     7
100
AcDbVertex
100
AcDb2dVertex
 10
-66.010602
 20
-17.998948
 30
0.0
  0
VERTEX
  5
2A9
100
AcDbEntity
  8
0
390
0
 62
     7
100
AcDbVertex
100
AcDb2dVertex
 10
-65.972838
 20
-17.981125
 30
0.0
  0
VERTEX
  5
2AA
100
AcDbEntity
  8
0
390
0
 62
     7
100
AcDbVertex
100
AcDb2dVertex
 10
-65.935877
 20
-17.961766
 30
0.0
  0
VERTEX
  5
2AB
100
AcDbEntity
  8
0
390
0
 62
     7
100
AcDbVertex
100
AcDb2dVertex
 10
-65.898715
 20
-17.940252
 30
0.0
  0
VERTEX
  5
2AC
100
AcDbEntity
  8
0
390
0
 62
     7
100
AcDbVertex
100
AcDb2dVertex
 10
-65.862473
 20
-17.917149
 30
0.0
  0
VERTEX
  5
2AD
100
AcDbEntity
  8
0
390
0
 62
     7
100
AcDbVertex
100
AcDb2dVertex
 10
-65.827246
 20
-17.892522
 30
0.0
  0
VERTEX
  5
2AE
100
AcDbEntity
  8
0
390
0
 62
     7
100
AcDbVertex
100
AcDb2dVertex
 10
-65.793135
 20
-17.866436
 30
0.0
  0
VERTEX
  5
2AF
100
AcDbEntity
  8
0
390
0
 62
     7
100
AcDbVertex
100
AcDb2dVertex
 10
-65.761116
 20
-17.839732
 30
0.0
  0
VERTEX
  5
2B0
100
AcDbEntity
  8
0
390
0
 62
     7
100
AcDbVertex
100
AcDb2dVertex
 10
-65.730205
 20
-17.811698
 30
0.0
  0
VERTEX
  5
2B1
100
AcDbEntity
  8
0
390
0
 62
     7
100
AcDbVertex
100
AcDb2dVertex
 10
-65.700481
 20
-17.78241
 30
0.0
  0
VERTEX
  5
2B2
100
AcDbEntity
  8
0
390
0
 62
     7
100
AcDbVertex
100
AcDb2dVertex
 10
-65.672021
 20
-17.75194
 30
0.0
  0
VERTEX
  5
2B3
100
AcDbEntity
  8
0
390
0
 62
     7
100
AcDbVertex
100
AcDb2dVertex
 10
-65.644086
 20
-17.719376
 30
0.0
  0
VERTEX
  5
2B4
100
AcDbEntity
  8
0
390
0
 62
     7
100
AcDbVertex
100
AcDb2dVertex
 10
-65.617542
 20
-17.685619
 30
0.0
  0
VERTEX
  5
2B5
100
AcDbEntity
  8
0
390
0
 62
     7
100
AcDbVertex
100
AcDb2dVertex
 10
-65.59246
 20
-17.650764
 30
0.0
  0
VERTEX
  5
2B6
100
AcDbEntity
  8
0
390
0
 62
     7
100
AcDbVertex
100
AcDb2dVertex
 10
-65.56891
 20
-17.614903
 30
0.0
  0
VERTEX
  5
2B7
100
AcDbEntity
  8
0
390
0
 62
     7
100
AcDbVertex
100
AcDb2dVertex
 10
-65.547527
 20
-17.579135
 30
0.0
  0
VERTEX
  5
2B8
100
AcDbEntity
  8
0
390
0
 62
     7
100
AcDbVertex
100
AcDb2dVertex
 10
-65.527628
 20
-17.542481
 30
0.0
  0
VERTEX
  5
2B9
100
AcDbEntity
  8
0
390
0
 62
     7
100
AcDbVertex
100
AcDb2dVertex
 10
-65.509263
 20
-17.505037
 30
0.0
  0
VERTEX
  5
2BA
100
AcDbEntity
  8
0
390
0
 62
     7
100
AcDbVertex
100
AcDb2dVertex
 10
-65.492482
 20
-17.466899
 30
0.0
  0
VERTEX
  5
2BB
100
AcDbEntity
  8
0
390
0
 62
     7
100
AcDbVertex
100
AcDb2dVertex
 10
-65.476887
 20
-17.426963
 30
0.0
  0
VERTEX
  5
2BC
100
AcDbEntity
  8
0
390
0
 62
     7
100
AcDbVertex
100
AcDb2dVertex
 10
-65.462997
 20
-17.386363
 30
0.0
  0
VERTEX
  5
2BD
100
AcDbEntity
  8
0
390
0
 62
     7
100
AcDbVertex
100
AcDb2dVertex
 10
-65.450849
 20
-17.345211
 30
0.0
  0
VERTEX
  5
2BE
100
AcDbEntity
  8
0
390
0
 62
     7
100
AcDbVertex
100
AcDb2dVertex
 10
-65.440476
 20
-17.303619
 30
0.0
  0
VERTEX
  5
2BF
100
AcDbEntity
  8
0
390
0
 62
     7
100
AcDbVertex
100
AcDb2dVertex
 10
-65.431566
 20
-17.259783
 30
0.0
  0
VERTEX
  5
2C0
100
AcDbEntity
  8
0
390
0
 62
     7
100
AcDbVertex
100
AcDb2dVertex
 10
-65.424608
 20
-17.21553
 30
0.0
  0
VERTEX
  5
2C1
100
AcDbEntity
  8
0
390
0
 62
     7
100
AcDbVertex
100
AcDb2dVertex
 10
-65.419618
 20
-17.170993
 30
0.0
  0
VERTEX
  5
2C2
100
AcDbEntity
  8
0
390
0
 62
     7
100
AcDbVertex
100
AcDb2dVertex
 10
-65.416611
 20
-17.126304
 30
0.0
  0
VERTEX
  5
2C3
100
AcDbEntity
  8
0
390
0
 62
     7
100
AcDbVertex
100
AcDb2dVertex
 10
-65.4156
 20
-17.081595
 30
0.0
  0
SEQEND
  5
2C4
100
AcDbEntity
  8
0
390
0
  0
LINE
  5
2C5
100
AcDbEntity
  8
0
390
0
  6
Continuous
 62
     7
100
AcDbLine
 10
-100.583588
 20
-18.086395
 30
0.0
 11
-66.4204
 21
-18.086395
 31
0.0
  0
POLYLINE
  5
2C6
100
AcDbEntity
  8
0
390
0
  6
Continuous
 62
     7
100
AcDb2dPolyline
 66
     1
 10
0.0
 20
0.0
 30
0.0
 40
0.1
 41
0.1
  0
VERTEX
  5
2C7
100
AcDbEntity
  8
0
390
0
 62
     7
100
AcDbVertex
100
AcDb2dVertex
 10
-101.588387
 20
-17.081595
 30
0.0
  0
VERTEX
  5
2C8
100
AcDbEntity
  8
0
390
0
 62
     7
100
AcDbVertex
100
AcDb2dVertex
 10
-101.587512
 20
-17.123279
 30
0.0
  0
VERTEX
  5
2C9
100
AcDbEntity
  8
0
390
0
 62
     7
100
AcDbVertex
100
AcDb2dVertex
 10
-101.584905
 20
-17.16493
 30
0.0
  0
VERTEX
  5
2CA
100
AcDbEntity
  8
0
390
0
 62
     7
100
AcDbVertex
100
AcDb2dVertex
 10
-101.580576
 20
-17.20644
 30
0.0
  0
VERTEX
  5
2CB
100
AcDbEntity
  8
0
390
0
 62
     7
100
AcDbVertex
100
AcDb2dVertex
 10
-101.574533
 20
-17.247701
 30
0.0
  0
VERTEX
  5
2CC
100
AcDbEntity
  8
0
390
0
 62
     7
100
AcDbVertex
100
AcDb2dVertex
 10
-101.566525
 20
-17.289862
 30
0.0
  0
VERTEX
  5
2CD
100
AcDbEntity
  8
0
390
0
 62
     7
100
AcDbVertex
100
AcDb2dVertex
 10
-101.556715
 20
-17.331683
 30
0.0
  0
VERTEX
  5
2CE
100
AcDbEntity
  8
0
390
0
 62
     7
100
AcDbVertex
100
AcDb2dVertex
 10
-101.545131
 20
-17.373051
 30
0.0
  0
VERTEX
  5
2CF
100
AcDbEntity
  8
0
390
0
 62
     7
100
AcDbVertex
100
AcDb2dVertex
 10
-101.531803
 20
-17.413851
 30
0.0
  0
VERTEX
  5
2D0
100
AcDbEntity
  8
0
390
0
 62
     7
100
AcDbVertex
100
AcDb2dVertex
 10
-101.517184
 20
-17.452925
 30
0.0
  0
VERTEX
  5
2D1
100
AcDbEntity
  8
0
390
0
 62
     7
100
AcDbVertex
100
AcDb2dVertex
 10
-101.500941
 20
-17.491393
 30
0.0
  0
VERTEX
  5
2D2
100
AcDbEntity
  8
0
390
0
 62
     7
100
AcDbVertex
100
AcDb2dVertex
 10
-101.483118
 20
-17.529157
 30
0.0
  0
VERTEX
  5
2D3
100
AcDbEntity
  8
0
390
0
 62
     7
100
AcDbVertex
100
AcDb2dVertex
 10
-101.463758
 20
-17.566118
 30
0.0
  0
VERTEX
  5
2D4
100
AcDbEntity
  8
0
390
0
 62
     7
100
AcDbVertex
100
AcDb2dVertex
 10
-101.442245
 20
-17.603279
 30
0.0
  0
VERTEX
  5
2D5
100
AcDbEntity
  8
0
390
0
 62
     7
100
AcDbVertex
100
AcDb2dVertex
 10
-101.419142
 20
-17.639522
 30
0.0
  0
VERTEX
  5
2D6
100
AcDbEntity
  8
0
390
0
 62
     7
100
AcDbVertex
100
AcDb2dVertex
 10
-101.394515
 20
-17.674748
 30
0.0
  0
VERTEX
  5
2D7
100
AcDbEntity
  8
0
390
0
 62
     7
100
AcDbVertex
100
AcDb2dVertex
 10
-101.368429
 20
-17.70886
 30
0.0
  0
VERTEX
  5
2D8
100
AcDbEntity
  8
0
390
0
 62
     7
100
AcDbVertex
100
AcDb2dVertex
 10
-101.341724
 20
-17.740879
 30
0.0
  0
VERTEX
  5
2D9
100
AcDbEntity
  8
0
390
0
 62
     7
100
AcDbVertex
100
AcDb2dVertex
 10
-101.313691
 20
-17.77179
 30
0.0
  0
VERTEX
  5
2DA
100
AcDbEntity
  8
0
390
0
 62
     7
100
AcDbVertex
100
AcDb2dVertex
 10
-101.284402
 20
-17.801514
 30
0.0
  0
VERTEX
  5
2DB
100
AcDbEntity
  8
0
390
0
 62
     7
100
AcDbVertex
100
AcDb2dVertex
 10
-101.253932
 20
-17.829974
 30
0.0
  0
VERTEX
  5
2DC
100
AcDbEntity
  8
0
390
0
 62
     7
100
AcDbVertex
100
AcDb2dVertex
 10
-101.221368
 20
-17.857909
 30
0.0
  0
VERTEX
  5
2DD
100
AcDbEntity
  8
0
390
0
 62
     7
100
AcDbVertex
100
AcDb2dVertex
 10
-101.187612
 20
-17.884453
 30
0.0
  0
VERTEX
  5
2DE
100
AcDbEntity
  8
0
390
0
 62
     7
100
AcDbVertex
100
AcDb2dVertex
 10
-101.152756
 20
-17.909535
 30
0.0
  0
VERTEX
  5
2DF
100
AcDbEntity
  8
0
390
0
 62
     7
100
AcDbVertex
100
AcDb2dVertex
 10
-101.116896
 20
-17.933085
 30
0.0
  0
VERTEX
  5
2E0
100
AcDbEntity
  8
0
390
0
 62
     7
100
AcDbVertex
100
AcDb2dVertex
 10
-101.081128
 20
-17.954468
 30
0.0
  0
VERTEX
  5
2E1
100
AcDbEntity
  8
0
390
0
 62
     7
100
AcDbVertex
100
AcDb2dVertex
 10
-101.044474
 20
-17.974367
 30
0.0
  0
VERTEX
  5
2E2
100
AcDbEntity
  8
0
390
0
 62
     7
100
AcDbVertex
100
AcDb2dVertex
 10
-101.00703
 20
-17.992731
 30
0.0
  0
VERTEX
  5
2E3
100
AcDbEntity
  8
0
390
0
 62
     7
100
AcDbVertex
100
AcDb2dVertex
 10
-100.968891
 20
-18.009513
 30
0.0
  0
VERTEX
  5
2E4
100
AcDbEntity
  8
0
390
0
 62
     7
100
AcDbVertex
100
AcDb2dVertex
 10
-100.928955
 20
-18.025108
 30
0.0
  0
VERTEX
  5
2E5
100
AcDbEntity
  8
0
390
0
 62
     7
100
AcDbVertex
100
AcDb2dVertex
 10
-100.888355
 20
-18.038997
 30
0.0
  0
VERTEX
  5
2E6
100
AcDbEntity
  8
0
390
0
 62
     7
100
AcDbVertex
100
AcDb2dVertex
 10
-100.847204
 20
-18.051146
 30
0.0
  0
VERTEX
  5
2E7
100
AcDbEntity
  8
0
390
0
 62
     7
100
AcDbVertex
100
AcDb2dVertex
 10
-100.805612
 20
-18.061518
 30
0.0
  0
VERTEX
  5
2E8
100
AcDbEntity
  8
0
390
0
 62
     7
100
AcDbVertex
100
AcDb2dVertex
 10
-100.761775
 20
-18.070429
 30
0.0
  0
VERTEX
  5
2E9
100
AcDbEntity
  8
0
390
0
 62
     7
100
AcDbVertex
100
AcDb2dVertex
 10
-100.717522
 20
-18.077387
 30
0.0
  0
VERTEX
  5
2EA
100
AcDbEntity
  8
0
390
0
 62
     7
100
AcDbVertex
100
AcDb2dVertex
 10
-100.672985
 20
-18.082377
 30
0.0
  0
VERTEX
  5
2EB
100
AcDbEntity
  8
0
390
0
 62
     7
100
AcDbVertex
100
AcDb2dVertex
 10
-100.628296
 20
-18.085384
 30
0.0
  0
VERTEX
  5
2EC
100
AcDbEntity
  8
0
390
0
 62
     7
100
AcDbVertex
100
AcDb2dVertex
 10
-100.583588
 20
-18.086395
 30
0.0
  0
SEQEND
  5
2ED
100
AcDbEntity
  8
0
390
0
  0
LINE
  5
2EE
100
AcDbEntity
  8
0
390
0
  6
Continuous
 62
     7
100
AcDbLine
 10
-101.588387
 20
17.081593
 30
0.0
 11
-101.588387
 21
-17.081595
 31
0.0
  0
POLYLINE
  5
2EF
100
AcDbEntity
  8
0
390
0
  6
Continuous
 62
     7
100
AcDb2dPolyline
 66
     1
 10
0.0
 20
0.0
 30
0.0
 40
0.1
 41
0.1
  0
VERTEX
  5
2F0
100
AcDbEntity
  8
0
390
0
 62
     7
100
AcDbVertex
100
AcDb2dVertex
 10
-100.583588
 20
18.086392
 30
0.0
  0
VERTEX
  5
2F1
100
AcDbEntity
  8
0
390
0
 62
     7
100
AcDbVertex
100
AcDb2dVertex
 10
-100.625272
 20
18.085517
 30
0.0
  0
VERTEX
  5
2F2
100
AcDbEntity
  8
0
390
0
 62
     7
100
AcDbVertex
100
AcDb2dVertex
 10
-100.666922
 20
18.08291
 30
0.0
  0
VERTEX
  5
2F3
100
AcDbEntity
  8
0
390
0
 62
     7
100
AcDbVertex
100
AcDb2dVertex
 10
-100.708432
 20
18.078581
 30
0.0
  0
VERTEX
  5
2F4
100
AcDbEntity
  8
0
390
0
 62
     7
100
AcDbVertex
100
AcDb2dVertex
 10
-100.749694
 20
18.072538
 30
0.0
  0
VERTEX
  5
2F5
100
AcDbEntity
  8
0
390
0
 62
     7
100
AcDbVertex
100
AcDb2dVertex
 10
-100.791855
 20
18.06453
 30
0.0
  0
VERTEX
  5
2F6
100
AcDbEntity
  8
0
390
0
 62
     7
100
AcDbVertex
100
AcDb2dVertex
 10
-100.833676
 20
18.05472
 30
0.0
  0
VERTEX
  5
2F7
100
AcDbEntity
  8
0
390
0
 62
     7
100
AcDbVertex
100
AcDb2dVertex
 10
-100.875043
 20
18.043137
 30
0.0
  0
VERTEX
  5
2F8
100
AcDbEntity
  8
0
390
0
 62
     7
100
AcDbVertex
100
AcDb2dVertex
 10
-100.915844
 20
18.029808
 30
0.0
  0
VERTEX
  5
2F9
100
AcDbEntity
  8
0
390
0
 62
     7
100
AcDbVertex
100
AcDb2dVertex
 10
-100.954917
 20
18.015189
 30
0.0
  0
VERTEX
  5
2FA
100
AcDbEntity
  8
0
390
0
 62
     7
100
AcDbVertex
100
AcDb2dVertex
 10
-100.993385
 20
17.998946
 30
0.0
  0
VERTEX
  5
2FB
100
AcDbEntity
  8
0
390
0
 62
     7
100
AcDbVertex
100
AcDb2dVertex
 10
-101.031149
 20
17.981123
 30
0.0
  0
VERTEX
  5
2FC
100
AcDbEntity
  8
0
390
0
 62
     7
100
AcDbVertex
100
AcDb2dVertex
 10
-101.068111
 20
17.961763
 30
0.0
  0
VERTEX
  5
2FD
100
AcDbEntity
  8
0
390
0
 62
     7
100
AcDbVertex
100
AcDb2dVertex
 10
-101.105272
 20
17.94025
 30
0.0
  0
VERTEX
  5
2FE
100
AcDbEntity
  8
0
390
0
 62
     7
100
AcDbVertex
100
AcDb2dVertex
 10
-101.141515
 20
17.917147
 30
0.0
  0
VERTEX
  5
2FF
100
AcDbEntity
  8
0
390
0
 62
     7
100
AcDbVertex
100
AcDb2dVertex
 10
-101.176741
 20
17.89252
 30
0.0
  0
VERTEX
  5
300
100
AcDbEntity
  8
0
390
0
 62
     7
100
AcDbVertex
100
AcDb2dVertex
 10
-101.210852
 20
17.866434
 30
0.0
  0
VERTEX
  5
301
100
AcDbEntity
  8
0
390
0
 62
     7
100
AcDbVertex
100
AcDb2dVertex
 10
-101.242871
 20
17.83973
 30
0.0
  0
VERTEX
  5
302
100
AcDbEntity
  8
0
390
0
 62
     7
100
AcDbVertex
100
AcDb2dVertex
 10
-101.273782
 20
17.811696
 30
0.0
  0
VERTEX
  5
303
100
AcDbEntity
  8
0
390
0
 62
     7
100
AcDbVertex
100
AcDb2dVertex
 10
-101.303507
 20
17.782407
 30
0.0
  0
VERTEX
  5
304
100
AcDbEntity
  8
0
390
0
 62
     7
100
AcDbVertex
100
AcDb2dVertex
 10
-101.331966
 20
17.751937
 30
0.0
  0
VERTEX
  5
305
100
AcDbEntity
  8
0
390
0
 62
     7
100
AcDbVertex
100
AcDb2dVertex
 10
-101.359902
 20
17.719374
 30
0.0
  0
VERTEX
  5
306
100
AcDbEntity
  8
0
390
0
 62
     7
100
AcDbVertex
100
AcDb2dVertex
 10
-101.386446
 20
17.685617
 30
0.0
  0
VERTEX
  5
307
100
AcDbEntity
  8
0
390
0
 62
     7
100
AcDbVertex
100
AcDb2dVertex
 10
-101.411528
 20
17.650761
 30
0.0
  0
VERTEX
  5
308
100
AcDbEntity
  8
0
390
0
 62
     7
100
AcDbVertex
100
AcDb2dVertex
 10
-101.435077
 20
17.614901
 30
0.0
  0
VERTEX
  5
309
100
AcDbEntity
  8
0
390
0
 62
     7
100
AcDbVertex
100
AcDb2dVertex
 10
-101.45646
 20
17.579133
 30
0.0
  0
VERTEX
  5
30A
100
AcDbEntity
  8
0
390
0
 62
     7
100
AcDbVertex
100
AcDb2dVertex
 10
-101.476359
 20
17.542479
 30
0.0
  0
VERTEX
  5
30B
100
AcDbEntity
  8
0
390
0
 62
     7
100
AcDbVertex
100
AcDb2dVertex
 10
-101.494724
 20
17.505035
 30
0.0
  0
VERTEX
  5
30C
100
AcDbEntity
  8
0
390
0
 62
     7
100
AcDbVertex
100
AcDb2dVertex
 10
-101.511506
 20
17.466896
 30
0.0
  0
VERTEX
  5
30D
100
AcDbEntity
  8
0
390
0
 62
     7
100
AcDbVertex
100
AcDb2dVertex
 10
-101.527101
 20
17.42696
 30
0.0
  0
VERTEX
  5
30E
100
AcDbEntity
  8
0
390
0
 62
     7
100
AcDbVertex
100
AcDb2dVertex
 10
-101.54099
 20
17.38636
 30
0.0
  0
VERTEX
  5
30F
100
AcDbEntity
  8
0
390
0
 62
     7
100
AcDbVertex
100
AcDb2dVertex
 10
-101.553139
 20
17.345209
 30
0.0
  0
VERTEX
  5
310
100
AcDbEntity
  8
0
390
0
 62
     7
100
AcDbVertex
100
AcDb2dVertex
 10
-101.563511
 20
17.303617
 30
0.0
  0
VERTEX
  5
311
100
AcDbEntity
  8
0
390
0
 62
     7
100
AcDbVertex
100
AcDb2dVertex
 10
-101.572422
 20
17.259781
 30
0.0
  0
VERTEX
  5
312
100
AcDbEntity
  8
0
390
0
 62
     7
100
AcDbVertex
100
AcDb2dVertex
 10
-101.579379
 20
17.215528
 30
0.0
  0
VERTEX
  5
313
100
AcDbEntity
  8
0
390
0
 62
     7
100
AcDbVertex
100
AcDb2dVertex
 10
-101.584369
 20
17.17099
 30
0.0
  0
VERTEX
  5
314
100
AcDbEntity
  8
0
390
0
 62
     7
100
AcDbVertex
100
AcDb2dVertex
 10
-101.587376
 20
17.126301
 30
0.0
  0
VERTEX
  5
315
100
AcDbEntity
  8
0
390
0
 62
     7
100
AcDbVertex
100
AcDb2dVertex
 10
-101.588387
 20
17.081593
 30
0.0
  0
SEQEND
  5
316
100
AcDbEntity
  8
0
390
0
  0
LINE
  5
317
100
AcDbEntity
  8
0
390
0
  6
Continuous
 62
     7
100
AcDbLine
 10
-95.052309
 20
2.993998
 30
0.0
 11
-94.118233
 21
5.304235
 31
0.0
  0
LINE
  5
318
100
AcDbEntity
  8
0
390
0
  6
Continuous
 62
     7
100
AcDbLine
 10
-97.636316
 20
2.993998
 30
0.0
 11
-95.052309
 21
2.993998
 31
0.0
  0
LINE
  5
319
100
AcDbEntity
  8
0
390
0
  6
Continuous
 62
     7
100
AcDbLine
 10
-94.606613
 20
10.493743
 30
0.0
 11
-97.636316
 21
2.993998
 31
0.0
  0
LINE
  5
31A
100
AcDbEntity
  8
0
390
0
  6
Continuous
 62
     7
100
AcDbLine
 10
-92.510885
 20
5.304235
 30
0.0
 11
-94.606613
 21
10.493743
 31
0.0
  0
LINE
  5
31B
100
AcDbEntity
  8
0
390
0
  6
Continuous
 62
     7
100
AcDbLine
 10
-94.118233
 20
5.304235
 30
0.0
 11
-92.510885
 21
5.304235
 31
0.0
  0
LINE
  5
31C
100
AcDbEntity
  8
0
390
0
  6
Continuous
 62
     7
100
AcDbLine
 10
-63.501994
 20
16.999999
 30
0.0
 11
-63.501994
 21
-17.000001
 31
0.0
  0
ELLIPSE
  5
31D
100
AcDbEntity
  8
0
390
0
  6
Continuous
 62
     7
100
AcDbEllipse
 10
-65.501994
 20
-17.000001
 30
0.0
 11
1.999999999999974
 21
0.0
 31
0.0
210
0.0
220
0.0
230
1.0
 40
0.040835
 41
4.7555991562731288
 42
6.2831853071795862
  0
ELLIPSE
  5
31E
100
AcDbEntity
  8
0
390
0
  6
Continuous
 62
     7
100
AcDbEllipse
 10
-65.501994
 20
16.999999
 30
0.0
 11
-2.0000000000000018
 21
0.0
 31
0.0
210
0.0
220
0.0
230
1.0
 40
0.040835
 41
3.1769222940410398
 42
4.6691788044962363
  0
ELLIPSE
  5
31F
100
AcDbEntity
  8
0
390
0
  6
Continuous
 62
     7
100
AcDbEllipse
 10
-65.501994
 20
16.999999
 30
0.0
 11
-2.0000000000000018
 21
0.0
 31
0.0
210
0.0
220
0.0
230
1.0
 40
0.040835
 41
3.1415926535897656
 42
3.1769222940410122
  0
ELLIPSE
  5
320
100
AcDbEntity
  8
0
390
0
  6
Continuous
 62
     7
100
AcDbEllipse
 10
-100.501994
 20
17.999999
 30
0.0
 11
0.0
 21
-2.0000000000000018
 31
0.0
210
0.0
220
0.0
230
1.0
 40
0.040835
 41
3.1769222940409709
 42
4.6691788044962372
  0
ELLIPSE
  5
321
100
AcDbEntity
  8
0
390
0
  6
Continuous
 62
     7
100
AcDbEllipse
 10
-100.501994
 20
17.999999
 30
0.0
 11
0.0
 21
-2.0000000000000018
 31
0.0
210
0.0
220
0.0
230
1.0
 40
0.040835
 41
3.1415926535897101
 42
3.1769222940409572
  0
LINE
  5
322
100
AcDbEntity
  8
0
390
0
  6
Continuous
 62
     7
100
AcDbLine
 10
-100.501994
 20
19.999999
 30
0.0
 11
-66.501994
 21
19.999999
 31
0.0
  0
ELLIPSE
  5
323
100
AcDbEntity
  8
0
390
0
  6
Continuous
 62
     7
100
AcDbEllipse
 10
-66.501994
 20
17.999999
 30
0.0
 11
0.0
 21
-2.0000000000000018
 31
0.0
210
0.0
220
0.0
230
1.0
 40
0.040835
 41
1.6140065026833212
 42
3.1415926535894743
  0
LINE
  5
324
100
AcDbEntity
  8
0
390
0
  6
Continuous
 62
     7
100
AcDbLine
 10
-66.501994
 20
-20.000001
 30
0.0
 11
-100.501994
 21
-20.000001
 31
0.0
  0
ELLIPSE
  5
325
100
AcDbEntity
  8
0
390
0
  6
Continuous
 62
     7
100
AcDbEllipse
 10
-100.501994
 20
-18.000001
 30
0.0
 11
0.0
 21
-1.999999999999974
 31
0.0
210
0.0
220
0.0
230
1.0
 40
0.040835
 41
4.7555991562731288
 42
6.2831853071795862
  0
ELLIPSE
  5
326
100
AcDbEntity
  8
0
390
0
  6
Continuous
 62
     7
100
AcDbEllipse
 10
-66.501994
 20
-18.000001
 30
0.0
 11
0.0
 21
-2.0000000000000018
 31
0.0
210
0.0
220
0.0
230
1.0
 40
0.040835
 41
6.2831853071795463
 42
7.8107714580860454
  0
LINE
  5
327
100
AcDbEntity
  8
0
390
0
  6
Continuous
 62
     7
100
AcDbLine
 10
-103.501994
 20
-17.000001
 30
0.0
 11
-103.501994
 21
16.999999
 31
0.0
  0
ELLIPSE
  5
328
100
AcDbEntity
  8
0
390
0
  6
Continuous
 62
     7
100
AcDbEllipse
 10
-101.501994
 20
16.999999
 30
0.0
 11
2.0000000000000018
 21
0.0
 31
0.0
210
0.0
220
0.0
230
1.0
 40
0.040835
 41
1.6140065026833352
 42
3.1415926535897931
  0
ELLIPSE
  5
329
100
AcDbEntity
  8
0
390
0
  6
Continuous
 62
     7
100
AcDbEllipse
 10
-101.501994
 20
-17.000001
 30
0.0
 11
-2.0000000000000018
 21
0.0
 31
0.0
210
0.0
220
0.0
230
1.0
 40
0.040835
 41
6.2831853071795463
 42
7.8107714580860428
  0
ARC
  5
32A
100
AcDbEntity
  8
0
390
0
  6
Continuous
 62
     7
100
AcDbCircle
 10
-100.501991
 20
16.999996
 30
0.0
 40
3.000003
210
0.0
220
0.0
230
1.0
100
AcDbArc
 50
90.000057
 51
179.999943
  0
ARC
  5
32B
100
AcDbEntity
  8
0
390
0
  6
Continuous
 62
     7
100
AcDbCircle
 10
-100.501991
 20
-16.999998
 30
0.0
 40
3.000003
210
0.0
220
0.0
230
1.0
100
AcDbArc
 50
180.000057
 51
269.999943
  0
ARC
  5
32C
100
AcDbEntity
  8
0
390
0
  6
Continuous
 62
     7
100
AcDbCircle
 10
-66.501997
 20
16.999996
 30
0.0
 40
3.000003
210
0.0
220
0.0
230
1.0
100
AcDbArc
 50
0.000057
 51
89.999943
  0
ARC
  5
32D
100
AcDbEntity
  8
0
390
0
  6
Continuous
 62
     7
100
AcDbCircle
 10
-66.501994
 20
-17.000001
 30
0.0
 40
3.0
210
0.0
220
0.0
230
1.0
100
AcDbArc
 50
270.0
 51
360.0
  0
POINT
  5
32E
100
AcDbEntity
  8
0
390
0
 62
     7
100
AcDbPoint
 10
0.0
 20
0.0
 30
0.0
  0
ENDSEC
  0
SECTION
  2
OBJECTS
  0
DICTIONARY
  5
19
100
AcDbDictionary
280
     0
281
     1
  3
ACAD_GROUP
350
1A
  3
ACAD_MLINESTYLE
350
1B
  3
ACAD_LAYOUT
350
1E
  3
ACAD_PLOTSETTINGS
350
22
  3
ACAD_PLOTSTYLENAME
350
1F
  3
ACAD_WIPEOUT_VARS
350
23
  0
DICTIONARY
  5
1A
102
{ACAD_REACTORS
330
19
102
}
100
AcDbDictionary
280
     0
281
     1
  0
DICTIONARY
  5
1B
102
{ACAD_REACTORS
330
19
102
}
100
AcDbDictionary
280
     0
281
     1
  3
Standard
350
1C
  0
MLINESTYLE
  5
1C
102
{ACAD_REACTORS
330
1B
102
}
100
AcDbMlineStyle
  2
Standard
 70
     0
  3

 62
     0
 51
90.0
 52
90.0
 71
     2
 49
0.5
 62
   256
  6
ByLayer
 49
-0.5
 62
   256
  6
ByLayer
  0
ACDBDICTIONARYWDFLT
  5
1F
102
{ACAD_REACTORS
330
19
102
}
100
AcDbDictionary
281
     1
  3
Normal
350
1D
100
AcDbDictionaryWithDefault
340
1D
  0
ACDBPLACEHOLDER
  5
1D
102
{ACAD_REACTORS
330
1F
102
}
  0
LAYOUT
  5
20
102
{ACAD_REACTORS
330
1E
102
}
100
AcDbPlotSettings
  1

  2

  4

  6

 40
0.0
 41
0.0
 42
0.0
 43
0.0
 44
0.0
 45
0.0
 46
0.0
 47
0.0
 48
0.0
 49
0.0
140
0.0
141
0.0
142
1.0
143
1.0
 70
  1024
 72
     0
 73
     0
 74
     0
  7

 75
     0
147
1.0
148
0.0
149
0.0
100
AcDbLayout
  1
Model
 70
     0
 71
     1
 10
0.0
 20
0.0
 11
0.0
 21
0.0
 12
0.0
 22
0.0
 32
0.0
 14
0.0
 24
0.0
 34
0.0
 15
0.0
 25
0.0
 35
0.0
146
0.0
 13
0.0
 23
0.0
 33
0.0
 16
0.0
 26
0.0
 36
0.0
 17
0.0
 27
0.0
 37
0.0
 76
     0
330
A
331
0
345
0
346
0
  0
LAYOUT
  5
21
102
{ACAD_REACTORS
330
1E
102
}
100
AcDbPlotSettings
  1

  2

  4

  6

 40
0.0
 41
0.0
 42
0.0
 43
0.0
 44
0.0
 45
0.0
 46
0.0
 47
0.0
 48
0.0
 49
0.0
140
0.0
141
0.0
142
1.0
143
1.0
 70
     0
 72
     0
 73
     0
 74
     0
  7

 75
     0
147
1.0
148
0.0
149
0.0
100
AcDbLayout
  1
Layout1
 70
     0
 71
     2
 10
0.0
 20
0.0
 11
0.0
 21
0.0
 12
0.0
 22
0.0
 32
0.0
 14
0.0
 24
0.0
 34
0.0
 15
0.0
 25
0.0
 35
0.0
146
0.0
 13
0.0
 23
0.0
 33
0.0
 16
0.0
 26
0.0
 36
0.0
 17
0.0
 27
0.0
 37
0.0
 76
     0
330
B
331
0
345
0
346
0
  0
DICTIONARY
  5
1E
102
{ACAD_REACTORS
330
19
102
}
100
AcDbDictionary
280
     0
281
     1
  3
Layout1
350
21
  3
Model
350
20
  0
DICTIONARY
  5
22
102
{ACAD_REACTORS
330
19
102
}
100
AcDbDictionary
280
     0
281
     1
  0
WIPEOUTVARIABLES
  5
23
100
AcDbWipeoutVariables
 70
     1
  0
ENDSEC
  0
EOF
