  0
SECTION
  2
HEADER
  9
$ACADVER
  1
AC1015
  9
$ACADMAINTVER
 70
     6
  9
$DWGCODEPAGE
  3
DOS932
  9
$INSBASE
 10
0.0
 20
0.0
 30
0.0
  9
$EXTMIN
 10
-93.002392
 20
-15.0
 30
0.0
  9
$EXTMAX
 10
297.800647
 20
264.519568
 30
9.906
  9
$LIMMIN
 10
-93.002392
 20
-15.0
  9
$LIMMAX
 10
297.800647
 20
264.519568
  9
$ORTHOMODE
 70
     0
  9
$REGENMODE
 70
     1
  9
$FILLMODE
 70
     1
  9
$QTEXTMODE
 70
     0
  9
$MIRRTEXT
 70
     1
  9
$LTSCALE
 40
10.0
  9
$ATTMODE
 70
     1
  9
$TEXTSIZE
 40
0.2
  9
$TRACEWID
 40
0.05
  9
$TEXTSTYLE
  7
Standard
  9
$CLAYER
  8
0
  9
$CELTYPE
  6
Continuous
  9
$CECOLOR
 62
   256
  9
$CELTSCALE
 40
1.0
  9
$DISPSILH
 70
     0
  9
$DIMSCALE
 40
1.0
  9
$DIMASZ
 40
1.40208
  9
$DIMEXO
 40
1.40208
  9
$DIMDLI
 40
0.38
  9
$DIMRND
 40
0.0
  9
$DIMDLE
 40
0.0
  9
$DIMEXE
 40
1.05156
  9
$DIMTP
 40
0.0
  9
$DIMTM
 40
0.0
  9
$DIMTXT
 40
3.5052
  9
$DIMCEN
 40
0.09
  9
$DIMTSZ
 40
0.0
  9
$DIMTOL
 70
     0
  9
$DIMLIM
 70
     0
  9
$DIMTIH
 70
     0
  9
$DIMTOH
 70
     0
  9
$DIMSE1
 70
     0
  9
$DIMSE2
 70
     0
  9
$DIMTAD
 70
     1
  9
$DIMZIN
 70
     0
  9
$DIMBLK
  1

  9
$DIMASO
 70
     1
  9
$DIMSHO
 70
     1
  9
$DIMPOST
  1

  9
$DIMAPOST
  1

  9
$DIMALT
 70
     0
  9
$DIMALTD
 70
     2
  9
$DIMALTF
 40
25.4
  9
$DIMLFAC
 40
1.0
  9
$DIMTOFL
 70
     0
  9
$DIMTVP
 40
0.0
  9
$DIMTIX
 70
     0
  9
$DIMSOXD
 70
     0
  9
$DIMSAH
 70
     0
  9
$DIMBLK1
  1

  9
$DIMBLK2
  1

  9
$DIMSTYLE
  2
Standard
  9
$DIMCLRD
 70
     7
  9
$DIMCLRE
 70
     7
  9
$DIMCLRT
 70
     7
  9
$DIMTFAC
 40
0.5
  9
$DIMGAP
 40
1.7526
  9
$DIMJUST
 70
     0
  9
$DIMSD1
 70
     0
  9
$DIMSD2
 70
     0
  9
$DIMTOLJ
 70
     1
  9
$DIMTZIN
 70
     0
  9
$DIMALTZ
 70
     0
  9
$DIMALTTZ
 70
     0
  9
$DIMUPT
 70
     0
  9
$DIMDEC
 70
     2
  9
$DIMTDEC
 70
     4
  9
$DIMALTU
 70
     2
  9
$DIMALTTD
 70
     2
  9
$DIMTXSTY
  7
Standard
  9
$DIMAUNIT
 70
     0
  9
$DIMADEC
 70
     0
  9
$DIMALTRND
 40
0.0
  9
$DIMAZIN
 70
     0
  9
$DIMDSEP
 70
     0
  9
$DIMATFIT
 70
     3
  9
$DIMFRAC
 70
     0
  9
$DIMLDRBLK
  1

  9
$DIMLUNIT
 70
     2
  9
$DIMLWD
 70
     0
  9
$DIMLWE
 70
     0
  9
$DIMTMOVE
 70
     0
  9
$LUNITS
 70
     2
  9
$LUPREC
 70
     4
  9
$SKETCHINC
 40
0.1
  9
$FILLETRAD
 40
0.0
  9
$AUNITS
 70
     0
  9
$AUPREC
 70
     0
  9
$MENU
  1
acad
  9
$ELEVATION
 40
0.0
  9
$PELEVATION
 40
0.0
  9
$THICKNESS
 40
0.0
  9
$LIMCHECK
 70
     0
  9
$CHAMFERA
 40
0.0
  9
$CHAMFERB
 40
0.0
  9
$CHAMFERC
 40
0.0
  9
$CHAMFERD
 40
0.0
  9
$SKPOLY
 70
     0
  9
$TDCREATE
 40
2459786.611215278
  9
$TDUCREATE
 40
0.000000000
  9
$TDUPDATE
 40
2459786.236122685
  9
$TDUUPDATE
 40
0.000000000
  9
$TDINDWG
 40
0.0000000000
  9
$TDUSRTIMER
 40
0.0000000000
  9
$USRTIMER
 70
     1
  9
$ANGBASE
 50
0.0
  9
$ANGDIR
 70
     0
  9
$PDMODE
 70
     0
  9
$PDSIZE
 40
0.0
  9
$PLINEWID
 40
0.0
  9
$SPLFRAME
 70
     0
  9
$SPLINETYPE
 70
     6
  9
$SPLINESEGS
 70
     8
  9
$HANDSEED
  5
441
  9
$SURFTAB1
 70
     6
  9
$SURFTAB2
 70
     6
  9
$SURFTYPE
 70
     6
  9
$SURFU
 70
     6
  9
$SURFV
 70
     6
  9
$UCSBASE
  2

  9
$UCSNAME
  2

  9
$UCSORG
 10
0.0
 20
0.0
 30
0.0
  9
$UCSXDIR
 10
1.0
 20
0.0
 30
0.0
  9
$UCSYDIR
 10
0.0
 20
1.0
 30
0.0
  9
$UCSORTHOREF
  2

  9
$UCSORTHOVIEW
 70
     0
  9
$UCSORGTOP
 10
0.0
 20
0.0
 30
0.0
  9
$UCSORGBOTTOM
 10
0.0
 20
0.0
 30
0.0
  9
$UCSORGLEFT
 10
0.0
 20
0.0
 30
0.0
  9
$UCSORGRIGHT
 10
0.0
 20
0.0
 30
0.0
  9
$UCSORGFRONT
 10
0.0
 20
0.0
 30
0.0
  9
$UCSORGBACK
 10
0.0
 20
0.0
 30
0.0
  9
$PUCSBASE
  2

  9
$PUCSNAME
  2

  9
$PUCSORG
 10
0.0
 20
0.0
 30
0.0
  9
$PUCSXDIR
 10
1.0
 20
0.0
 30
0.0
  9
$PUCSYDIR
 10
0.0
 20
1.0
 30
0.0
  9
$PUCSORTHOREF
  2

  9
$PUCSORTHOVIEW
 70
     0
  9
$PUCSORGTOP
 10
0.0
 20
0.0
 30
0.0
  9
$PUCSORGBOTTOM
 10
0.0
 20
0.0
 30
0.0
  9
$PUCSORGLEFT
 10
0.0
 20
0.0
 30
0.0
  9
$PUCSORGRIGHT
 10
0.0
 20
0.0
 30
0.0
  9
$PUCSORGFRONT
 10
0.0
 20
0.0
 30
0.0
  9
$PUCSORGBACK
 10
0.0
 20
0.0
 30
0.0
  9
$USERI1
 70
     0
  9
$USERI2
 70
     0
  9
$USERI3
 70
     0
  9
$USERI4
 70
     0
  9
$USERI5
 70
     0
  9
$USERR1
 40
0.0
  9
$USERR2
 40
0.0
  9
$USERR3
 40
0.0
  9
$USERR4
 40
0.0
  9
$USERR5
 40
0.0
  9
$WORLDVIEW
 70
     1
  9
$SHADEDGE
 70
     3
  9
$SHADEDIF
 70
    70
  9
$TILEMODE
 70
     1
  9
$MAXACTVP
 70
    16
  9
$PINSBASE
 10
0.0
 20
0.0
 30
0.0
  9
$PLIMCHECK
 70
     0
  9
$PEXTMIN
 10
1.000000E+20
 20
1.000000E+20
 30
1.000000E+20
  9
$PEXTMAX
 10
-1.000000E+20
 20
-1.000000E+20
 30
-1.000000E+20
  9
$PLIMMIN
 10
0.0
 20
0.0
  9
$PLIMMAX
 10
12.0
 20
9.0
  9
$UNITMODE
 70
     0
  9
$VISRETAIN
 70
     0
  9
$PLINEGEN
 70
     1
  9
$PSLTSCALE
 70
     0
  9
$TREEDEPTH
 70
  3020
  9
$CMLSTYLE
  2
Standard
  9
$CMLJUST
 70
     0
  9
$CMLSCALE
 40
1.0
  9
$PROXYGRAPHICS
 70
     0
  9
$MEASUREMENT
 70
     0
  9
$CELWEIGHT
370
     0
  9
$ENDCAPS
280
     0
  9
$JOINSTYLE
280
     0
  9
$LWDISPLAY
290
     0
  9
$INSUNITS
 70
     0
  9
$HYPERLINKBASE
  1

  9
$STYLESHEET
  1

  9
$XEDIT
290
     1
  9
$CEPSNTYPE
380
     0
  9
$PSTYLEMODE
290
     1
  9
$FINGERPRINTGUID
  2

  9
$VERSIONGUID
  2

  9
$EXTNAMES
290
     1
  9
$PSVPSCALE
 40
0.0
  0
ENDSEC
  0
SECTION
  2
CLASSES
  0
CLASS
  1
LWPOLYLINE
  2
AcDbPolyline
  3
AutoCAD 2000
 90
        0
280
     0
281
     1
  0
CLASS
  1
IMAGE
  2
AcDbRasterImage
  3
ISM
 90
      127
280
     0
281
     1
  0
CLASS
  1
OLE2FRAME
  2
AcDbOle2Frame
  3
AutoCAD 2000
 90
        0
280
     0
281
     1
  0
CLASS
  1
HATCH
  2
AcDbHatch
  3
AutoCAD 2000
 90
        0
280
     0
281
     1
  0
CLASS
  1
DICTIONARYVAR
  2
AcDbDictionaryVar
  3
AutoCAD 2000
 90
        0
280
     0
281
     0
  0
CLASS
  1
RASTERVARIABLES
  2
AcDbRasterVariables
  3
ISM
 90
        0
280
     0
281
     0
  0
CLASS
  1
IMAGEDEF
  2
AcDbRasterImageDef
  3
ISM
 90
        0
280
     0
281
     0
  0
CLASS
  1
IMAGEDEF_REACTOR
  2
AcDbRasterImageDefReactor
  3
ISM
 90
        1
280
     0
281
     0
  0
CLASS
  1
IDBUFFER
  2
AcDbIdBuffer
  3
AutoCAD 2000
 90
        0
280
     0
281
     0
  0
CLASS
  1
SPATIAL_FILTER
  2
AcDbSpatialFilter
  3
AutoCAD 2000
 90
        0
280
     0
281
     0
  0
CLASS
  1
XRECORD
  2
AcDbXrecord
  3
AutoCAD 2000
 90
        0
280
     0
281
     0
  0
CLASS
  1
SORTENTSTABLE
  2
AcDbSortentsTable
  3
AutoCAD 2000
 90
        0
280
     0
281
     0
  0
CLASS
  1
LAYER_INDEX
  2
AcDbLayerIndex
  3
AutoCAD 2000
 90
        0
280
     0
281
     0
  0
CLASS
  1
SPATIAL_INDEX
  2
AcDbSpatialIndex
  3
AutoCAD 2000
 90
        0
280
     0
281
     0
  0
CLASS
  1
OBJECT_PTR
  2
CAseDLPNTableRecord
  3
"ASE-LPNTableRecord"
 90
        1
280
     0
281
     0
  0
CLASS
  1
LAYOUT
  2
AcDbLayout
  3
AutoCAD 2000
 90
        0
280
     0
281
     0
  0
CLASS
  1
PLOTSETTINGS
  2
AcDbPlotSettings
  3
AutoCAD 2000
 90
        0
280
     0
281
     0
  0
CLASS
  1
ACDBDICTIONARYWDFLT
  2
AcDbDictionaryWithDefault
  3
AutoCAD 2000
 90
        0
280
     0
281
     0
  0
CLASS
  1
ACDBPLACEHOLDER
  2
AcDbPlaceHolder
  3
AutoCAD 2000
 90
        0
280
     0
281
     0
  0
CLASS
  1
VBA_PROJECT
  2
AcDbVbaProject
  3
acadvba
 90
        0
280
     0
281
     0
  0
CLASS
  1
WIPEOUT
  2
AcDbWipeout
  3
WipeOut|AutoCAD Express Tool|expresstools@autodesk.com
 90
      127
280
     0
281
     1
  0
CLASS
  1
WIPEOUTVARIABLES
  2
AcDbWipeoutVariables
  3
WipeOut|AutoCAD Express Tool|expresstools@autodesk.com
 90
        0
280
     0
281
     0
  0
CLASS
  1
RTEXT
  2
RText
  3
RText|AutoCAD Express Tool|expresstools@autodesk.com
 90
        0
280
     0
281
     1
  0
CLASS
  1
ARCALIGNEDTEXT
  2
AcDbArcAlignedText
  3
ATEXT|AutoCAD Express Tool|expresstools@autodesk.com
 90
        0
280
     0
281
     1
  0
ENDSEC
  0
SECTION
  2
TABLES
  0
TABLE
  2
VPORT
  5
7
100
AcDbSymbolTable
 70
     1
  0
VPORT
  5
15
100
AcDbSymbolTableRecord
100
AcDbViewportTableRecord
  2
*ACTIVE
 70
     0
 10
0.0
 20
0.0
 11
1.0
 21
1.0
 12
6.591288
 22
4.579184
 13
0.0
 23
0.0
 14
1.0
 24
1.0
 15
0.0
 25
0.0
 16
0.0
 26
0.0
 36
1.0
 17
0.0
 27
0.0
 37
0.0
 40
9.158369
 41
0.688564
 42
50.0
 43
0.0
 44
0.0
 50
0.0
 51
0.0
 71
     0
 72
   100
 73
     1
 74
     1
 75
     0
 76
     0
 77
     0
 78
     0
281
     0
 65
     0
110
0.0
120
0.0
130
0.0
111
1.0
121
0.0
131
0.0
112
0.0
122
1.0
132
0.0
345
0
346
0
 79
     0
146
0.0
  0
ENDTAB
  0
TABLE
  2
LTYPE
  5
4
100
AcDbSymbolTable
 70
     3
  0
LTYPE
  5
11
100
AcDbSymbolTableRecord
100
AcDbLinetypeTableRecord
  2
ByBlock
 70
    64
  3

 72
    65
 73
     0
 40
0.0
  0
LTYPE
  5
12
100
AcDbSymbolTableRecord
100
AcDbLinetypeTableRecord
  2
ByLayer
 70
    64
  3

 72
    65
 73
     0
 40
0.0
  0
LTYPE
  5
13
100
AcDbSymbolTableRecord
100
AcDbLinetypeTableRecord
  2
Continuous
 70
    64
  3
Solid line
 72
    65
 73
     0
 40
0.0
  0
ENDTAB
  0
TABLE
  2
LAYER
  5
2
100
AcDbSymbolTable
 70
     1
  0
LAYER
  5
14
100
AcDbSymbolTableRecord
100
AcDbLayerTableRecord
  2
0
 70
     0
 62
     7
  6
Continuous
290
     1
370
    -3
390
1D
  0
ENDTAB
  0
TABLE
  2
STYLE
  5
3
100
AcDbSymbolTable
 70
     1
  0
STYLE
  5
17
100
AcDbSymbolTableRecord
100
AcDbTextStyleTableRecord
  2
Standard
 70
     0
 40
0.0
 41
1.0
 50
0.0
 71
     0
 42
0.0
  3
FG教科書体NT-M
  4

1001
ACAD
1000
FG教科書体NT-M
1071
        0
  0
ENDTAB
  0
TABLE
  2
VIEW
  5
5
100
AcDbSymbolTable
 70
     0
  0
ENDTAB
  0
TABLE
  2
UCS
  5
6
100
AcDbSymbolTable
 70
     0
  0
ENDTAB
  0
TABLE
  2
APPID
  5
8
100
AcDbSymbolTable
 70
     2
  0
APPID
  5
16
100
AcDbSymbolTableRecord
100
AcDbRegAppTableRecord
  2
ACAD
 70
     0
  0
APPID
  5
26
100
AcDbSymbolTableRecord
100
AcDbRegAppTableRecord
  2
TOPsolid_Design
 70
     0
  0
ENDTAB
  0
TABLE
  2
DIMSTYLE
  5
9
100
AcDbSymbolTable
 70
     1
100
AcDbDimStyleTable
 71
     0
  0
DIMSTYLE
105
18
100
AcDbSymbolTableRecord
100
AcDbDimStyleTableRecord
  2
Standard
 70
     0
  3

  4

 40
1.0
 41
1.40208
 42
1.40208
 43
0.38
 44
1.05156
 45
0.0
 46
0.0
 47
0.0
 48
0.0
 71
     0
 72
     0
 73
     0
 74
     0
 75
     0
 76
     0
 77
     1
 78
     0
 79
     0
140
3.5052
141
0.09
142
0.0
143
25.4
144
1.0
145
0.0
146
0.5
147
1.7526
148
0.0
170
     0
171
     2
172
     0
173
     0
174
     0
175
     0
176
     7
177
     7
178
     7
179
     0
271
     2
272
     4
273
     2
274
     2
275
     0
276
     0
277
     2
278
    46
279
     0
280
     0
281
     0
282
     0
283
     1
284
     0
285
     0
286
     0
288
     0
289
     3
340
17
341
0
342
0
343
0
344
0
371
    -2
372
    -2
  0
ENDTAB
  0
TABLE
  2
BLOCK_RECORD
  5
1
100
AcDbSymbolTable
 70
     0
  0
BLOCK_RECORD
  5
A
100
AcDbSymbolTableRecord
100
AcDbBlockTableRecord
  2
*MODEL_SPACE
340
20
  0
BLOCK_RECORD
  5
B
100
AcDbSymbolTableRecord
100
AcDbBlockTableRecord
  2
*PAPER_SPACE
340
21
  0
ENDTAB
  0
ENDSEC
  0
SECTION
  2
BLOCKS
  0
BLOCK
  5
D
100
AcDbEntity
  8
0
390
0
100
AcDbBlockBegin
  2
*MODEL_SPACE
 70
     0
 10
0.0
 20
0.0
 30
0.0
  3
*MODEL_SPACE
  1

  0
ENDBLK
  5
E
100
AcDbEntity
  8
0
390
0
100
AcDbBlockEnd
  0
BLOCK
  5
F
100
AcDbEntity
 67
     1
  8
0
390
0
100
AcDbBlockBegin
  2
*PAPER_SPACE
 70
     0
 10
0.0
 20
0.0
 30
0.0
  3
*PAPER_SPACE
  1

  0
ENDBLK
  5
10
100
AcDbEntity
 67
     1
  8
0
390
0
100
AcDbBlockEnd
  0
ENDSEC
  0
SECTION
  2
ENTITIES
  0
POLYLINE
  5
27
100
AcDbEntity
  8
0
390
0
  6
Continuous
 62
     7
100
AcDb2dPolyline
 66
     1
 10
0.0
 20
0.0
 30
0.0
 40
0.1
 41
0.1
  0
VERTEX
  5
28
100
AcDbEntity
  8
0
390
0
 62
     7
100
AcDbVertex
100
AcDb2dVertex
 10
-10.633298
 20
12.0
 30
0.0
  0
VERTEX
  5
29
100
AcDbEntity
  8
0
390
0
 62
     7
100
AcDbVertex
100
AcDb2dVertex
 10
-10.768118
 20
5.703552
 30
0.0
  0
VERTEX
  5
2A
100
AcDbEntity
  8
0
390
0
 62
     7
100
AcDbVertex
100
AcDb2dVertex
 10
-10.795311
 20
-3.146926
 30
0.0
  0
VERTEX
  5
2B
100
AcDbEntity
  8
0
390
0
 62
     7
100
AcDbVertex
100
AcDb2dVertex
 10
-10.633298
 20
-12.0
 30
0.0
  0
SEQEND
  5
2C
100
AcDbEntity
  8
0
390
0
  0
LINE
  5
2D
100
AcDbEntity
  8
0
390
0
  6
Continuous
 62
     7
100
AcDbLine
 10
-10.633298
 20
-12.0
 30
0.0
 11
-12.631454
 21
-12.058238
 31
0.0
  0
POLYLINE
  5
2E
100
AcDbEntity
  8
0
390
0
  6
Continuous
 62
     7
100
AcDb2dPolyline
 66
     1
 10
0.0
 20
0.0
 30
0.0
 40
0.1
 41
0.1
  0
VERTEX
  5
2F
100
AcDbEntity
  8
0
390
0
 62
     7
100
AcDbVertex
100
AcDb2dVertex
 10
-12.631454
 20
-12.058238
 30
0.0
  0
VERTEX
  5
30
100
AcDbEntity
  8
0
390
0
 62
     7
100
AcDbVertex
100
AcDb2dVertex
 10
-12.794248
 20
-3.166394
 30
0.0
  0
VERTEX
  5
31
100
AcDbEntity
  8
0
390
0
 62
     7
100
AcDbVertex
100
AcDb2dVertex
 10
-12.766952
 20
5.73099
 30
0.0
  0
VERTEX
  5
32
100
AcDbEntity
  8
0
390
0
 62
     7
100
AcDbVertex
100
AcDb2dVertex
 10
-12.631454
 20
12.058238
 30
0.0
  0
SEQEND
  5
33
100
AcDbEntity
  8
0
390
0
  0
LINE
  5
34
100
AcDbEntity
  8
0
390
0
  6
Continuous
 62
     7
100
AcDbLine
 10
-12.631454
 20
12.058238
 30
0.0
 11
-10.633298
 21
12.0
 31
0.0
  0
LINE
  5
35
100
AcDbEntity
  8
0
390
0
  6
Continuous
 62
     7
100
AcDbLine
 10
-8.999771
 20
-15.0
 30
0.0
 11
-8.999771
 21
-12.0
 31
0.0
  0
LINE
  5
36
100
AcDbEntity
  8
0
390
0
  6
Continuous
 62
     7
100
AcDbLine
 10
-8.999771
 20
-15.0
 30
0.0
 11
-10.633298
 21
-15.0
 31
0.0
  0
LINE
  5
37
100
AcDbEntity
  8
0
390
0
  6
Continuous
 62
     7
100
AcDbLine
 10
-10.633298
 20
-12.0
 30
0.0
 11
-10.633298
 21
-15.0
 31
0.0
  0
LINE
  5
38
100
AcDbEntity
  8
0
390
0
  6
Continuous
 62
     7
100
AcDbLine
 10
-8.999771
 20
-12.0
 30
0.0
 11
-10.633298
 21
-12.0
 31
0.0
  0
LINE
  5
39
100
AcDbEntity
  8
0
390
0
  6
Continuous
 62
     7
100
AcDbLine
 10
-8.999771
 20
-12.0
 30
0.0
 11
-8.999771
 21
12.0
 31
0.0
  0
LINE
  5
3A
100
AcDbEntity
  8
0
390
0
  6
Continuous
 62
     7
100
AcDbLine
 10
-8.999771
 20
12.0
 30
0.0
 11
-10.633298
 21
12.0
 31
0.0
  0
LINE
  5
3B
100
AcDbEntity
  8
0
390
0
  6
Continuous
 62
     7
100
AcDbLine
 10
-8.999771
 20
12.0
 30
0.0
 11
-8.999771
 21
15.0
 31
0.0
  0
LINE
  5
3C
100
AcDbEntity
  8
0
390
0
  6
Continuous
 62
     7
100
AcDbLine
 10
-10.633298
 20
15.0
 30
0.0
 11
-10.633298
 21
12.0
 31
0.0
  0
LINE
  5
3D
100
AcDbEntity
  8
0
390
0
  6
Continuous
 62
     7
100
AcDbLine
 10
-8.999771
 20
15.0
 30
0.0
 11
-10.633298
 21
15.0
 31
0.0
  0
LINE
  5
3E
100
AcDbEntity
  8
0
390
0
  6
Continuous
 62
     7
100
AcDbLine
 10
-12.631454
 20
12.058238
 30
0.0
 11
-12.631454
 21
13.063091
 31
0.0
  0
ELLIPSE
  5
3F
100
AcDbEntity
  8
0
390
0
  6
Continuous
 62
     7
100
AcDbEllipse
 10
-10.633298
 20
13.0
 30
0.0
 11
0.0
 21
-2.0000000000000018
 31
0.0
210
0.0
220
0.0
230
1.0
 40
0.999576
 41
3.1415926535897931
 42
4.6808382656878162
  0
ELLIPSE
  5
40
100
AcDbEntity
  8
0
390
0
  6
Continuous
 62
     7
100
AcDbEllipse
 10
-10.633298
 20
-13.0
 30
0.0
 11
0.0
 21
-2.0000000000000018
 31
0.0
210
0.0
220
0.0
230
1.0
 40
0.999576
 41
4.7439396950815631
 42
6.2831853071795862
  0
LINE
  5
41
100
AcDbEntity
  8
0
390
0
  6
Continuous
 62
     7
100
AcDbLine
 10
-12.631454
 20
-13.063091
 30
0.0
 11
-12.631454
 21
-12.058238
 31
0.0
  0
POLYLINE
  5
42
100
AcDbEntity
  8
0
390
0
  6
Continuous
 62
     7
100
AcDb2dPolyline
 66
     1
 10
0.0
 20
0.0
 30
0.0
 40
0.1
 41
0.1
  0
VERTEX
  5
43
100
AcDbEntity
  8
0
390
0
 62
     7
100
AcDbVertex
100
AcDb2dVertex
 10
4.884124
 20
7.0
 30
0.0
  0
VERTEX
  5
44
100
AcDbEntity
  8
0
390
0
 62
     7
100
AcDbVertex
100
AcDb2dVertex
 10
4.785954
 20
6.970031
 30
0.0
  0
VERTEX
  5
45
100
AcDbEntity
  8
0
390
0
 62
     7
100
AcDbVertex
100
AcDb2dVertex
 10
4.693667
 20
6.881921
 30
0.0
  0
VERTEX
  5
46
100
AcDbEntity
  8
0
390
0
 62
     7
100
AcDbVertex
100
AcDb2dVertex
 10
4.627813
 20
6.77301
 30
0.0
 42
0.107895
  0
VERTEX
  5
47
100
AcDbEntity
  8
0
390
0
 62
     7
100
AcDbVertex
100
AcDb2dVertex
 10
4.480098
 20
6.0
 30
0.0
  0
SEQEND
  5
48
100
AcDbEntity
  8
0
390
0
  0
LINE
  5
49
100
AcDbEntity
  8
0
390
0
  6
Continuous
 62
     7
100
AcDbLine
 10
6.500229
 20
7.0
 30
0.0
 11
4.884124
 21
7.0
 31
0.0
  0
LINE
  5
4A
100
AcDbEntity
  8
0
390
0
  6
Continuous
 62
     7
100
AcDbLine
 10
6.500229
 20
4.7
 30
0.0
 11
6.500229
 21
7.0
 31
0.0
  0
LINE
  5
4B
100
AcDbEntity
  8
0
390
0
  6
Continuous
 62
     7
100
AcDbLine
 10
6.500229
 20
4.7
 30
0.0
 11
6.500229
 21
-4.7
 31
0.0
  0
LINE
  5
4C
100
AcDbEntity
  8
0
390
0
  6
Continuous
 62
     7
100
AcDbLine
 10
6.500229
 20
-7.0
 30
0.0
 11
6.500229
 21
-4.7
 31
0.0
  0
LINE
  5
4D
100
AcDbEntity
  8
0
390
0
  6
Continuous
 62
     7
100
AcDbLine
 10
6.500229
 20
-7.0
 30
0.0
 11
4.884124
 21
-7.0
 31
0.0
  0
POLYLINE
  5
4E
100
AcDbEntity
  8
0
390
0
  6
Continuous
 62
     7
100
AcDb2dPolyline
 66
     1
 10
0.0
 20
0.0
 30
0.0
 40
0.1
 41
0.1
  0
VERTEX
  5
4F
100
AcDbEntity
  8
0
390
0
 62
     7
100
AcDbVertex
100
AcDb2dVertex
 10
4.480098
 20
-6.0
 30
0.0
 42
0.107895
  0
VERTEX
  5
50
100
AcDbEntity
  8
0
390
0
 62
     7
100
AcDbVertex
100
AcDb2dVertex
 10
4.627813
 20
-6.773011
 30
0.0
  0
VERTEX
  5
51
100
AcDbEntity
  8
0
390
0
 62
     7
100
AcDbVertex
100
AcDb2dVertex
 10
4.693667
 20
-6.881922
 30
0.0
  0
VERTEX
  5
52
100
AcDbEntity
  8
0
390
0
 62
     7
100
AcDbVertex
100
AcDb2dVertex
 10
4.766841
 20
-6.956941
 30
0.0
  0
VERTEX
  5
53
100
AcDbEntity
  8
0
390
0
 62
     7
100
AcDbVertex
100
AcDb2dVertex
 10
4.864299
 20
-6.998796
 30
0.0
  0
VERTEX
  5
54
100
AcDbEntity
  8
0
390
0
 62
     7
100
AcDbVertex
100
AcDb2dVertex
 10
4.884124
 20
-7.0
 30
0.0
  0
SEQEND
  5
55
100
AcDbEntity
  8
0
390
0
  0
LINE
  5
56
100
AcDbEntity
  8
0
390
0
  6
Continuous
 62
     7
100
AcDbLine
 10
4.480098
 20
-6.0
 30
0.0
 11
4.480098
 21
6.0
 31
0.0
  0
LINE
  5
57
100
AcDbEntity
  8
0
390
0
  6
Continuous
 62
     7
100
AcDbLine
 10
4.884124
 20
-7.0
 30
0.0
 11
4.000229
 21
-7.0
 31
0.0
  0
LINE
  5
58
100
AcDbEntity
  8
0
390
0
  6
Continuous
 62
     7
100
AcDbLine
 10
4.000229
 20
-7.0
 30
0.0
 11
4.000229
 21
-6.0
 31
0.0
  0
LINE
  5
59
100
AcDbEntity
  8
0
390
0
  6
Continuous
 62
     7
100
AcDbLine
 10
4.000229
 20
-6.0
 30
0.0
 11
4.480098
 21
-6.0
 31
0.0
  0
LINE
  5
5A
100
AcDbEntity
  8
0
390
0
  6
Continuous
 62
     7
100
AcDbLine
 10
4.480098
 20
6.0
 30
0.0
 11
4.000229
 21
6.0
 31
0.0
  0
LINE
  5
5B
100
AcDbEntity
  8
0
390
0
  6
Continuous
 62
     7
100
AcDbLine
 10
4.000229
 20
-6.0
 30
0.0
 11
4.000229
 21
6.0
 31
0.0
  0
LINE
  5
5C
100
AcDbEntity
  8
0
390
0
  6
Continuous
 62
     7
100
AcDbLine
 10
4.000229
 20
6.0
 30
0.0
 11
4.000229
 21
7.0
 31
0.0
  0
LINE
  5
5D
100
AcDbEntity
  8
0
390
0
  6
Continuous
 62
     7
100
AcDbLine
 10
4.000229
 20
7.0
 30
0.0
 11
4.884124
 21
7.0
 31
0.0
  0
LINE
  5
5E
100
AcDbEntity
  8
0
390
0
  6
Continuous
 62
     7
100
AcDbLine
 10
-4.519902
 20
6.0
 30
0.0
 11
-4.999771
 21
6.0
 31
0.0
  0
LINE
  5
5F
100
AcDbEntity
  8
0
390
0
  6
Continuous
 62
     7
100
AcDbLine
 10
-4.519902
 20
-6.0
 30
0.0
 11
-4.519902
 21
6.0
 31
0.0
  0
LINE
  5
60
100
AcDbEntity
  8
0
390
0
  6
Continuous
 62
     7
100
AcDbLine
 10
-4.999771
 20
-6.0
 30
0.0
 11
-4.519902
 21
-6.0
 31
0.0
  0
LINE
  5
61
100
AcDbEntity
  8
0
390
0
  6
Continuous
 62
     7
100
AcDbLine
 10
-4.999771
 20
-6.0
 30
0.0
 11
-4.999771
 21
6.0
 31
0.0
  0
POLYLINE
  5
62
100
AcDbEntity
  8
0
390
0
  6
Continuous
 62
     7
100
AcDb2dPolyline
 66
     1
 10
0.0
 20
0.0
 30
0.0
 40
0.1
 41
0.1
  0
VERTEX
  5
63
100
AcDbEntity
  8
0
390
0
 62
     7
100
AcDbVertex
100
AcDb2dVertex
 10
-4.115876
 20
7.0
 30
0.0
  0
VERTEX
  5
64
100
AcDbEntity
  8
0
390
0
 62
     7
100
AcDbVertex
100
AcDb2dVertex
 10
-4.214046
 20
6.970031
 30
0.0
  0
VERTEX
  5
65
100
AcDbEntity
  8
0
390
0
 62
     7
100
AcDbVertex
100
AcDb2dVertex
 10
-4.306333
 20
6.881921
 30
0.0
  0
VERTEX
  5
66
100
AcDbEntity
  8
0
390
0
 62
     7
100
AcDbVertex
100
AcDb2dVertex
 10
-4.372187
 20
6.77301
 30
0.0
 42
0.107895
  0
VERTEX
  5
67
100
AcDbEntity
  8
0
390
0
 62
     7
100
AcDbVertex
100
AcDb2dVertex
 10
-4.519902
 20
6.0
 30
0.0
  0
SEQEND
  5
68
100
AcDbEntity
  8
0
390
0
  0
LINE
  5
69
100
AcDbEntity
  8
0
390
0
  6
Continuous
 62
     7
100
AcDbLine
 10
-2.499771
 20
7.0
 30
0.0
 11
-4.115876
 21
7.0
 31
0.0
  0
LINE
  5
6A
100
AcDbEntity
  8
0
390
0
  6
Continuous
 62
     7
100
AcDbLine
 10
-2.499771
 20
4.7
 30
0.0
 11
-2.499771
 21
7.0
 31
0.0
  0
LINE
  5
6B
100
AcDbEntity
  8
0
390
0
  6
Continuous
 62
     7
100
AcDbLine
 10
-2.499771
 20
4.7
 30
0.0
 11
-2.499771
 21
-4.7
 31
0.0
  0
LINE
  5
6C
100
AcDbEntity
  8
0
390
0
  6
Continuous
 62
     7
100
AcDbLine
 10
-2.499771
 20
-7.0
 30
0.0
 11
-2.499771
 21
-4.7
 31
0.0
  0
LINE
  5
6D
100
AcDbEntity
  8
0
390
0
  6
Continuous
 62
     7
100
AcDbLine
 10
-2.499771
 20
-7.0
 30
0.0
 11
-4.115876
 21
-7.0
 31
0.0
  0
POLYLINE
  5
6E
100
AcDbEntity
  8
0
390
0
  6
Continuous
 62
     7
100
AcDb2dPolyline
 66
     1
 10
0.0
 20
0.0
 30
0.0
 40
0.1
 41
0.1
  0
VERTEX
  5
6F
100
AcDbEntity
  8
0
390
0
 62
     7
100
AcDbVertex
100
AcDb2dVertex
 10
-4.519902
 20
-6.0
 30
0.0
 42
0.107895
  0
VERTEX
  5
70
100
AcDbEntity
  8
0
390
0
 62
     7
100
AcDbVertex
100
AcDb2dVertex
 10
-4.372187
 20
-6.773011
 30
0.0
  0
VERTEX
  5
71
100
AcDbEntity
  8
0
390
0
 62
     7
100
AcDbVertex
100
AcDb2dVertex
 10
-4.306333
 20
-6.881922
 30
0.0
  0
VERTEX
  5
72
100
AcDbEntity
  8
0
390
0
 62
     7
100
AcDbVertex
100
AcDb2dVertex
 10
-4.233159
 20
-6.956941
 30
0.0
  0
VERTEX
  5
73
100
AcDbEntity
  8
0
390
0
 62
     7
100
AcDbVertex
100
AcDb2dVertex
 10
-4.135701
 20
-6.998796
 30
0.0
  0
VERTEX
  5
74
100
AcDbEntity
  8
0
390
0
 62
     7
100
AcDbVertex
100
AcDb2dVertex
 10
-4.115876
 20
-7.0
 30
0.0
  0
SEQEND
  5
75
100
AcDbEntity
  8
0
390
0
  0
LINE
  5
76
100
AcDbEntity
  8
0
390
0
  6
Continuous
 62
     7
100
AcDbLine
 10
-4.115876
 20
-7.0
 30
0.0
 11
-4.999771
 21
-7.0
 31
0.0
  0
LINE
  5
77
100
AcDbEntity
  8
0
390
0
  6
Continuous
 62
     7
100
AcDbLine
 10
-4.999771
 20
-7.0
 30
0.0
 11
-4.999771
 21
-6.0
 31
0.0
  0
LINE
  5
78
100
AcDbEntity
  8
0
390
0
  6
Continuous
 62
     7
100
AcDbLine
 10
-4.999771
 20
6.0
 30
0.0
 11
-4.999771
 21
7.0
 31
0.0
  0
LINE
  5
79
100
AcDbEntity
  8
0
390
0
  6
Continuous
 62
     7
100
AcDbLine
 10
-4.999771
 20
7.0
 30
0.0
 11
-4.115876
 21
7.0
 31
0.0
  0
LINE
  5
7A
100
AcDbEntity
  8
0
390
0
  6
Continuous
 62
     7
100
AcDbLine
 10
0.384124
 20
-7.0
 30
0.0
 11
-0.499771
 21
-7.0
 31
0.0
  0
LINE
  5
7B
100
AcDbEntity
  8
0
390
0
  6
Continuous
 62
     7
100
AcDbLine
 10
-0.499771
 20
-7.0
 30
0.0
 11
-0.499771
 21
-6.0
 31
0.0
  0
LINE
  5
7C
100
AcDbEntity
  8
0
390
0
  6
Continuous
 62
     7
100
AcDbLine
 10
-0.499771
 20
-6.0
 30
0.0
 11
-0.019902
 21
-6.0
 31
0.0
  0
POLYLINE
  5
7D
100
AcDbEntity
  8
0
390
0
  6
Continuous
 62
     7
100
AcDb2dPolyline
 66
     1
 10
0.0
 20
0.0
 30
0.0
 40
0.1
 41
0.1
  0
VERTEX
  5
7E
100
AcDbEntity
  8
0
390
0
 62
     7
100
AcDbVertex
100
AcDb2dVertex
 10
-0.019902
 20
-6.0
 30
0.0
 42
0.107895
  0
VERTEX
  5
7F
100
AcDbEntity
  8
0
390
0
 62
     7
100
AcDbVertex
100
AcDb2dVertex
 10
0.127813
 20
-6.773011
 30
0.0
  0
VERTEX
  5
80
100
AcDbEntity
  8
0
390
0
 62
     7
100
AcDbVertex
100
AcDb2dVertex
 10
0.193667
 20
-6.881922
 30
0.0
  0
VERTEX
  5
81
100
AcDbEntity
  8
0
390
0
 62
     7
100
AcDbVertex
100
AcDb2dVertex
 10
0.266841
 20
-6.956941
 30
0.0
  0
VERTEX
  5
82
100
AcDbEntity
  8
0
390
0
 62
     7
100
AcDbVertex
100
AcDb2dVertex
 10
0.364299
 20
-6.998796
 30
0.0
  0
VERTEX
  5
83
100
AcDbEntity
  8
0
390
0
 62
     7
100
AcDbVertex
100
AcDb2dVertex
 10
0.384124
 20
-7.0
 30
0.0
  0
SEQEND
  5
84
100
AcDbEntity
  8
0
390
0
  0
LINE
  5
85
100
AcDbEntity
  8
0
390
0
  6
Continuous
 62
     7
100
AcDbLine
 10
-0.499771
 20
-6.0
 30
0.0
 11
-0.499771
 21
6.0
 31
0.0
  0
LINE
  5
86
100
AcDbEntity
  8
0
390
0
  6
Continuous
 62
     7
100
AcDbLine
 10
-0.019902
 20
6.0
 30
0.0
 11
-0.499771
 21
6.0
 31
0.0
  0
LINE
  5
87
100
AcDbEntity
  8
0
390
0
  6
Continuous
 62
     7
100
AcDbLine
 10
-0.019902
 20
-6.0
 30
0.0
 11
-0.019902
 21
6.0
 31
0.0
  0
LINE
  5
88
100
AcDbEntity
  8
0
390
0
  6
Continuous
 62
     7
100
AcDbLine
 10
2.000229
 20
4.7
 30
0.0
 11
2.000229
 21
7.0
 31
0.0
  0
LINE
  5
89
100
AcDbEntity
  8
0
390
0
  6
Continuous
 62
     7
100
AcDbLine
 10
2.000229
 20
4.7
 30
0.0
 11
2.000229
 21
-4.7
 31
0.0
  0
LINE
  5
8A
100
AcDbEntity
  8
0
390
0
  6
Continuous
 62
     7
100
AcDbLine
 10
2.000229
 20
-7.0
 30
0.0
 11
2.000229
 21
-4.7
 31
0.0
  0
LINE
  5
8B
100
AcDbEntity
  8
0
390
0
  6
Continuous
 62
     7
100
AcDbLine
 10
2.000229
 20
-7.0
 30
0.0
 11
0.384124
 21
-7.0
 31
0.0
  0
POLYLINE
  5
8C
100
AcDbEntity
  8
0
390
0
  6
Continuous
 62
     7
100
AcDb2dPolyline
 66
     1
 10
0.0
 20
0.0
 30
0.0
 40
0.1
 41
0.1
  0
VERTEX
  5
8D
100
AcDbEntity
  8
0
390
0
 62
     7
100
AcDbVertex
100
AcDb2dVertex
 10
0.384124
 20
7.0
 30
0.0
  0
VERTEX
  5
8E
100
AcDbEntity
  8
0
390
0
 62
     7
100
AcDbVertex
100
AcDb2dVertex
 10
0.285954
 20
6.970031
 30
0.0
  0
VERTEX
  5
8F
100
AcDbEntity
  8
0
390
0
 62
     7
100
AcDbVertex
100
AcDb2dVertex
 10
0.193667
 20
6.881921
 30
0.0
  0
VERTEX
  5
90
100
AcDbEntity
  8
0
390
0
 62
     7
100
AcDbVertex
100
AcDb2dVertex
 10
0.127813
 20
6.77301
 30
0.0
 42
0.107895
  0
VERTEX
  5
91
100
AcDbEntity
  8
0
390
0
 62
     7
100
AcDbVertex
100
AcDb2dVertex
 10
-0.019902
 20
6.0
 30
0.0
  0
SEQEND
  5
92
100
AcDbEntity
  8
0
390
0
  0
LINE
  5
93
100
AcDbEntity
  8
0
390
0
  6
Continuous
 62
     7
100
AcDbLine
 10
2.000229
 20
7.0
 30
0.0
 11
0.384124
 21
7.0
 31
0.0
  0
LINE
  5
94
100
AcDbEntity
  8
0
390
0
  6
Continuous
 62
     7
100
AcDbLine
 10
-0.499771
 20
6.0
 30
0.0
 11
-0.499771
 21
7.0
 31
0.0
  0
LINE
  5
95
100
AcDbEntity
  8
0
390
0
  6
Continuous
 62
     7
100
AcDbLine
 10
-0.499771
 20
7.0
 30
0.0
 11
0.384124
 21
7.0
 31
0.0
  0
LINE
  5
96
100
AcDbEntity
  8
0
390
0
  6
Continuous
 62
     7
100
AcDbLine
 10
-12.806217
 20
-13.062284
 30
0.0
 11
-12.631454
 21
-13.063091
 31
0.0
  0
LINE
  5
97
100
AcDbEntity
  8
0
390
0
  6
Continuous
 62
     7
100
AcDbLine
 10
-12.981519
 20
4.006391
 30
0.0
 11
-12.953647
 21
6.645719
 31
0.0
  0
LINE
  5
98
100
AcDbEntity
  8
0
390
0
  6
Continuous
 62
     7
100
AcDbLine
 10
-12.631454
 20
13.063091
 30
0.0
 11
-12.806217
 21
13.062284
 31
0.0
  0
LINE
  5
99
100
AcDbEntity
  8
0
390
0
  6
Continuous
 62
     7
100
AcDbLine
 10
-12.965004
 20
2.497999
 30
0.0
 11
-12.928681
 21
4.166333
 31
0.0
  0
LINE
  5
9A
100
AcDbEntity
  8
0
390
0
  6
Continuous
 62
     7
100
AcDbLine
 10
-12.928681
 20
4.166333
 30
0.0
 11
-12.883258
 21
7.499339
 31
0.0
  0
LINE
  5
9B
100
AcDbEntity
  8
0
390
0
  6
Continuous
 62
     7
100
AcDbLine
 10
-10.633298
 20
-15.0
 30
0.0
 11
-10.807187
 21
-15.0
 31
0.0
  0
LINE
  5
9C
100
AcDbEntity
  8
0
390
0
  6
Continuous
 62
     7
100
AcDbLine
 10
-10.807187
 20
15.0
 30
0.0
 11
-10.633298
 21
15.0
 31
0.0
  0
LINE
  5
9D
100
AcDbEntity
  8
0
390
0
  6
Continuous
 62
     7
100
AcDbLine
 10
9.351774
 20
-7.0
 30
0.0
 11
8.500229
 21
-7.0
 31
0.0
  0
LINE
  5
9E
100
AcDbEntity
  8
0
390
0
  6
Continuous
 62
     7
100
AcDbLine
 10
8.500229
 20
-7.0
 30
0.0
 11
8.500229
 21
-6.0
 31
0.0
  0
LINE
  5
9F
100
AcDbEntity
  8
0
390
0
  6
Continuous
 62
     7
100
AcDbLine
 10
8.500229
 20
-6.0
 30
0.0
 11
8.947748
 21
-6.0
 31
0.0
  0
POLYLINE
  5
A0
100
AcDbEntity
  8
0
390
0
  6
Continuous
 62
     7
100
AcDb2dPolyline
 66
     1
 10
0.0
 20
0.0
 30
0.0
 40
0.1
 41
0.1
  0
VERTEX
  5
A1
100
AcDbEntity
  8
0
390
0
 62
     7
100
AcDbVertex
100
AcDb2dVertex
 10
8.947748
 20
-6.0
 30
0.0
 42
0.107895
  0
VERTEX
  5
A2
100
AcDbEntity
  8
0
390
0
 62
     7
100
AcDbVertex
100
AcDb2dVertex
 10
9.095462
 20
-6.773011
 30
0.0
  0
VERTEX
  5
A3
100
AcDbEntity
  8
0
390
0
 62
     7
100
AcDbVertex
100
AcDb2dVertex
 10
9.161317
 20
-6.881922
 30
0.0
  0
VERTEX
  5
A4
100
AcDbEntity
  8
0
390
0
 62
     7
100
AcDbVertex
100
AcDb2dVertex
 10
9.234491
 20
-6.956941
 30
0.0
  0
VERTEX
  5
A5
100
AcDbEntity
  8
0
390
0
 62
     7
100
AcDbVertex
100
AcDb2dVertex
 10
9.331949
 20
-6.998796
 30
0.0
  0
VERTEX
  5
A6
100
AcDbEntity
  8
0
390
0
 62
     7
100
AcDbVertex
100
AcDb2dVertex
 10
9.351774
 20
-7.0
 30
0.0
  0
SEQEND
  5
A7
100
AcDbEntity
  8
0
390
0
  0
LINE
  5
A8
100
AcDbEntity
  8
0
390
0
  6
Continuous
 62
     7
100
AcDbLine
 10
8.947748
 20
6.0
 30
0.0
 11
8.500229
 21
6.0
 31
0.0
  0
LINE
  5
A9
100
AcDbEntity
  8
0
390
0
  6
Continuous
 62
     7
100
AcDbLine
 10
8.500229
 20
6.0
 30
0.0
 11
8.500229
 21
7.0
 31
0.0
  0
LINE
  5
AA
100
AcDbEntity
  8
0
390
0
  6
Continuous
 62
     7
100
AcDbLine
 10
8.500229
 20
7.0
 30
0.0
 11
9.351774
 21
7.0
 31
0.0
  0
POLYLINE
  5
AB
100
AcDbEntity
  8
0
390
0
  6
Continuous
 62
     7
100
AcDb2dPolyline
 66
     1
 10
0.0
 20
0.0
 30
0.0
 40
0.1
 41
0.1
  0
VERTEX
  5
AC
100
AcDbEntity
  8
0
390
0
 62
     7
100
AcDbVertex
100
AcDb2dVertex
 10
9.351774
 20
7.0
 30
0.0
  0
VERTEX
  5
AD
100
AcDbEntity
  8
0
390
0
 62
     7
100
AcDbVertex
100
AcDb2dVertex
 10
9.253604
 20
6.970031
 30
0.0
  0
VERTEX
  5
AE
100
AcDbEntity
  8
0
390
0
 62
     7
100
AcDbVertex
100
AcDb2dVertex
 10
9.161317
 20
6.881921
 30
0.0
  0
VERTEX
  5
AF
100
AcDbEntity
  8
0
390
0
 62
     7
100
AcDbVertex
100
AcDb2dVertex
 10
9.095462
 20
6.77301
 30
0.0
 42
0.107895
  0
VERTEX
  5
B0
100
AcDbEntity
  8
0
390
0
 62
     7
100
AcDbVertex
100
AcDb2dVertex
 10
8.947748
 20
6.0
 30
0.0
  0
SEQEND
  5
B1
100
AcDbEntity
  8
0
390
0
  0
LINE
  5
B2
100
AcDbEntity
  8
0
390
0
  6
Continuous
 62
     7
100
AcDbLine
 10
10.200229
 20
4.7
 30
0.0
 11
10.200229
 21
7.0
 31
0.0
  0
LINE
  5
B3
100
AcDbEntity
  8
0
390
0
  6
Continuous
 62
     7
100
AcDbLine
 10
10.200229
 20
-4.7
 30
0.0
 11
10.200229
 21
4.7
 31
0.0
  0
LINE
  5
B4
100
AcDbEntity
  8
0
390
0
  6
Continuous
 62
     7
100
AcDbLine
 10
10.200229
 20
-7.0
 30
0.0
 11
10.200229
 21
-4.7
 31
0.0
  0
LINE
  5
B5
100
AcDbEntity
  8
0
390
0
  6
Continuous
 62
     7
100
AcDbLine
 10
10.200229
 20
-7.0
 30
0.0
 11
9.351774
 21
-7.0
 31
0.0
  0
LINE
  5
B6
100
AcDbEntity
  8
0
390
0
  6
Continuous
 62
     7
100
AcDbLine
 10
8.947748
 20
-6.0
 30
0.0
 11
8.947748
 21
6.0
 31
0.0
  0
LINE
  5
B7
100
AcDbEntity
  8
0
390
0
  6
Continuous
 62
     7
100
AcDbLine
 10
10.200229
 20
7.0
 30
0.0
 11
9.351774
 21
7.0
 31
0.0
  0
LINE
  5
B8
100
AcDbEntity
  8
0
390
0
  6
Continuous
 62
     7
100
AcDbLine
 10
8.500229
 20
-6.0
 30
0.0
 11
8.500229
 21
6.0
 31
0.0
  0
LINE
  5
B9
100
AcDbEntity
  8
0
390
0
  6
Continuous
 62
     7
100
AcDbLine
 10
13.000229
 20
-4.7
 30
0.0
 11
10.200229
 21
-4.7
 31
0.0
  0
LINE
  5
BA
100
AcDbEntity
  8
0
390
0
  6
Continuous
 62
     7
100
AcDbLine
 10
13.000229
 20
-8.7
 30
0.0
 11
13.000229
 21
-4.7
 31
0.0
  0
LINE
  5
BB
100
AcDbEntity
  8
0
390
0
  6
Continuous
 62
     7
100
AcDbLine
 10
13.000229
 20
-8.7
 30
0.0
 11
10.200229
 21
-8.7
 31
0.0
  0
LINE
  5
BC
100
AcDbEntity
  8
0
390
0
  6
Continuous
 62
     7
100
AcDbLine
 10
8.500229
 20
-7.972614
 30
0.0
 11
10.200229
 21
-7.972614
 31
0.0
  0
LINE
  5
BD
100
AcDbEntity
  8
0
390
0
  6
Continuous
 62
     7
100
AcDbLine
 10
8.500229
 20
-8.7
 30
0.0
 11
6.500229
 21
-8.7
 31
0.0
  0
LINE
  5
BE
100
AcDbEntity
  8
0
390
0
  6
Continuous
 62
     7
100
AcDbLine
 10
4.000229
 20
-7.972614
 30
0.0
 11
6.500229
 21
-7.972614
 31
0.0
  0
LINE
  5
BF
100
AcDbEntity
  8
0
390
0
  6
Continuous
 62
     7
100
AcDbLine
 10
4.000229
 20
-8.7
 30
0.0
 11
2.000229
 21
-8.7
 31
0.0
  0
LINE
  5
C0
100
AcDbEntity
  8
0
390
0
  6
Continuous
 62
     7
100
AcDbLine
 10
-0.499771
 20
-7.972614
 30
0.0
 11
2.000229
 21
-7.972614
 31
0.0
  0
LINE
  5
C1
100
AcDbEntity
  8
0
390
0
  6
Continuous
 62
     7
100
AcDbLine
 10
-0.499771
 20
-8.7
 30
0.0
 11
-2.499771
 21
-8.7
 31
0.0
  0
LINE
  5
C2
100
AcDbEntity
  8
0
390
0
  6
Continuous
 62
     7
100
AcDbLine
 10
-4.999771
 20
-7.972614
 30
0.0
 11
-2.499771
 21
-7.972614
 31
0.0
  0
LINE
  5
C3
100
AcDbEntity
  8
0
390
0
  6
Continuous
 62
     7
100
AcDbLine
 10
-4.999771
 20
-8.7
 30
0.0
 11
-8.999771
 21
-8.7
 31
0.0
  0
LINE
  5
C4
100
AcDbEntity
  8
0
390
0
  6
Continuous
 62
     7
100
AcDbLine
 10
-4.999771
 20
-4.7
 30
0.0
 11
-8.999771
 21
-4.7
 31
0.0
  0
LINE
  5
C5
100
AcDbEntity
  8
0
390
0
  6
Continuous
 62
     7
100
AcDbLine
 10
-0.499771
 20
-4.7
 30
0.0
 11
-2.499771
 21
-4.7
 31
0.0
  0
LINE
  5
C6
100
AcDbEntity
  8
0
390
0
  6
Continuous
 62
     7
100
AcDbLine
 10
4.000229
 20
-4.7
 30
0.0
 11
2.000229
 21
-4.7
 31
0.0
  0
LINE
  5
C7
100
AcDbEntity
  8
0
390
0
  6
Continuous
 62
     7
100
AcDbLine
 10
8.500229
 20
-4.7
 30
0.0
 11
6.500229
 21
-4.7
 31
0.0
  0
LINE
  5
C8
100
AcDbEntity
  8
0
390
0
  6
Continuous
 62
     7
100
AcDbLine
 10
4.000229
 20
4.7
 30
0.0
 11
2.000229
 21
4.7
 31
0.0
  0
LINE
  5
C9
100
AcDbEntity
  8
0
390
0
  6
Continuous
 62
     7
100
AcDbLine
 10
-0.499771
 20
4.7
 30
0.0
 11
-2.499771
 21
4.7
 31
0.0
  0
LINE
  5
CA
100
AcDbEntity
  8
0
390
0
  6
Continuous
 62
     7
100
AcDbLine
 10
-4.999771
 20
4.7
 30
0.0
 11
-8.999771
 21
4.7
 31
0.0
  0
LINE
  5
CB
100
AcDbEntity
  8
0
390
0
  6
Continuous
 62
     7
100
AcDbLine
 10
-4.999771
 20
8.7
 30
0.0
 11
-8.999771
 21
8.7
 31
0.0
  0
LINE
  5
CC
100
AcDbEntity
  8
0
390
0
  6
Continuous
 62
     7
100
AcDbLine
 10
-4.999771
 20
7.972613
 30
0.0
 11
-2.499771
 21
7.972613
 31
0.0
  0
LINE
  5
CD
100
AcDbEntity
  8
0
390
0
  6
Continuous
 62
     7
100
AcDbLine
 10
-0.499771
 20
8.7
 30
0.0
 11
-2.499771
 21
8.7
 31
0.0
  0
LINE
  5
CE
100
AcDbEntity
  8
0
390
0
  6
Continuous
 62
     7
100
AcDbLine
 10
-0.499771
 20
7.972613
 30
0.0
 11
2.000229
 21
7.972613
 31
0.0
  0
LINE
  5
CF
100
AcDbEntity
  8
0
390
0
  6
Continuous
 62
     7
100
AcDbLine
 10
4.000229
 20
8.7
 30
0.0
 11
2.000229
 21
8.7
 31
0.0
  0
LINE
  5
D0
100
AcDbEntity
  8
0
390
0
  6
Continuous
 62
     7
100
AcDbLine
 10
4.000229
 20
7.972613
 30
0.0
 11
6.500229
 21
7.972613
 31
0.0
  0
LINE
  5
D1
100
AcDbEntity
  8
0
390
0
  6
Continuous
 62
     7
100
AcDbLine
 10
8.500229
 20
8.7
 30
0.0
 11
6.500229
 21
8.7
 31
0.0
  0
LINE
  5
D2
100
AcDbEntity
  8
0
390
0
  6
Continuous
 62
     7
100
AcDbLine
 10
8.500229
 20
7.972613
 30
0.0
 11
10.200229
 21
7.972613
 31
0.0
  0
LINE
  5
D3
100
AcDbEntity
  8
0
390
0
  6
Continuous
 62
     7
100
AcDbLine
 10
13.000229
 20
8.7
 30
0.0
 11
10.200229
 21
8.7
 31
0.0
  0
LINE
  5
D4
100
AcDbEntity
  8
0
390
0
  6
Continuous
 62
     7
100
AcDbLine
 10
13.000229
 20
4.7
 30
0.0
 11
13.000229
 21
8.7
 31
0.0
  0
LINE
  5
D5
100
AcDbEntity
  8
0
390
0
  6
Continuous
 62
     7
100
AcDbLine
 10
13.000229
 20
4.7
 30
0.0
 11
10.200229
 21
4.7
 31
0.0
  0
LINE
  5
D6
100
AcDbEntity
  8
0
390
0
  6
Continuous
 62
     7
100
AcDbLine
 10
8.500229
 20
4.7
 30
0.0
 11
6.500229
 21
4.7
 31
0.0
  0
LINE
  5
D7
100
AcDbEntity
  8
0
390
0
  6
Continuous
 62
     7
100
AcDbLine
 10
13.000229
 20
-4.7
 30
0.0
 11
13.000229
 21
4.7
 31
0.0
  0
LINE
  5
D8
100
AcDbEntity
  8
0
390
0
  6
Continuous
 62
     7
100
AcDbLine
 10
-13.442366
 20
-5.476773
 30
0.0
 11
-13.425497
 21
-6.097803
 31
0.0
  0
LINE
  5
D9
100
AcDbEntity
  8
0
390
0
  6
Continuous
 62
     7
100
AcDbLine
 10
-13.436458
 20
-6.25079
 30
0.0
 11
-13.439801
 21
-6.09445
 31
0.0
  0
LINE
  5
DA
100
AcDbEntity
  8
0
390
0
  6
Continuous
 62
     7
100
AcDbLine
 10
-13.439801
 20
-6.09445
 30
0.0
 11
-13.463425
 21
-2.044955
 31
0.0
  0
LINE
  5
DB
100
AcDbEntity
  8
0
390
0
  6
Continuous
 62
     7
100
AcDbLine
 10
-13.4149
 20
-6.817682
 30
0.0
 11
-13.436458
 21
-6.25079
 31
0.0
  0
LINE
  5
DC
100
AcDbEntity
  8
0
390
0
  6
Continuous
 62
     7
100
AcDbLine
 10
-13.463425
 20
-2.044955
 30
0.0
 11
-13.4149
 21
-6.817682
 31
0.0
  0
LINE
  5
DD
100
AcDbEntity
  8
0
390
0
  6
Continuous
 62
     7
100
AcDbLine
 10
-12.963379
 20
-2.044955
 30
0.0
 11
-12.914793
 21
-6.817682
 31
0.0
  0
LINE
  5
DE
100
AcDbEntity
  8
0
390
0
  6
Continuous
 62
     7
100
AcDbLine
 10
-13.482385
 20
2.497999
 30
0.0
 11
-13.465048
 21
2.497999
 31
0.0
  0
LINE
  5
DF
100
AcDbEntity
  8
0
390
0
  6
Continuous
 62
     7
100
AcDbLine
 10
-13.42877
 20
4.166333
 30
0.0
 11
-13.383404
 21
7.499339
 31
0.0
  0
LINE
  5
E0
100
AcDbEntity
  8
0
390
0
  6
Continuous
 62
     7
100
AcDbLine
 10
-13.465048
 20
2.497999
 30
0.0
 11
-13.42877
 21
4.166333
 31
0.0
  0
LINE
  5
E1
100
AcDbEntity
  8
0
390
0
  6
Continuous
 62
     7
100
AcDbLine
 10
-13.42877
 20
4.166333
 30
0.0
 11
-12.928681
 21
4.166333
 31
0.0
  0
LINE
  5
E2
100
AcDbEntity
  8
0
390
0
  6
Continuous
 62
     7
100
AcDbLine
 10
-13.383404
 20
7.499339
 30
0.0
 11
-12.883258
 21
7.499339
 31
0.0
  0
LINE
  5
E3
100
AcDbEntity
  8
0
390
0
  6
Continuous
 62
     7
100
AcDbLine
 10
-13.465048
 20
2.497999
 30
0.0
 11
-12.965004
 21
2.497999
 31
0.0
  0
LINE
  5
E4
100
AcDbEntity
  8
0
390
0
  6
Continuous
 62
     7
100
AcDbLine
 10
-4.115876
 20
12.7
 30
0.0
 11
-4.999771
 21
12.7
 31
0.0
  0
LINE
  5
E5
100
AcDbEntity
  8
0
390
0
  6
Continuous
 62
     7
100
AcDbLine
 10
-4.999771
 20
12.7
 30
0.0
 11
-4.999771
 21
13.7
 31
0.0
  0
LINE
  5
E6
100
AcDbEntity
  8
0
390
0
  6
Continuous
 62
     7
100
AcDbLine
 10
-4.999771
 20
13.7
 30
0.0
 11
-4.519902
 21
13.7
 31
0.0
  0
LINE
  5
E7
100
AcDbEntity
  8
0
390
0
  6
Continuous
 62
     7
100
AcDbLine
 10
-4.519902
 20
13.7
 30
0.0
 11
-4.115876
 21
12.7
 31
0.0
  0
LINE
  5
E8
100
AcDbEntity
  8
0
390
0
  6
Continuous
 62
     7
100
AcDbLine
 10
-4.999771
 20
12.7
 30
0.0
 11
-4.999771
 21
7.972613
 31
0.0
  0
LINE
  5
E9
100
AcDbEntity
  8
0
390
0
  6
Continuous
 62
     7
100
AcDbLine
 10
-2.499771
 20
8.7
 30
0.0
 11
-4.115876
 21
12.7
 31
0.0
  0
LINE
  5
EA
100
AcDbEntity
  8
0
390
0
  6
Continuous
 62
     7
100
AcDbLine
 10
-2.499771
 20
7.972613
 30
0.0
 11
-2.499771
 21
8.7
 31
0.0
  0
LINE
  5
EB
100
AcDbEntity
  8
0
390
0
  6
Continuous
 62
     7
100
AcDbLine
 10
0.384124
 20
12.7
 30
0.0
 11
-0.499771
 21
12.7
 31
0.0
  0
LINE
  5
EC
100
AcDbEntity
  8
0
390
0
  6
Continuous
 62
     7
100
AcDbLine
 10
-0.499771
 20
12.7
 30
0.0
 11
-0.499771
 21
7.972613
 31
0.0
  0
LINE
  5
ED
100
AcDbEntity
  8
0
390
0
  6
Continuous
 62
     7
100
AcDbLine
 10
2.000229
 20
7.972613
 30
0.0
 11
2.000229
 21
8.7
 31
0.0
  0
LINE
  5
EE
100
AcDbEntity
  8
0
390
0
  6
Continuous
 62
     7
100
AcDbLine
 10
2.000229
 20
8.7
 30
0.0
 11
0.384124
 21
12.7
 31
0.0
  0
LINE
  5
EF
100
AcDbEntity
  8
0
390
0
  6
Continuous
 62
     7
100
AcDbLine
 10
4.884124
 20
12.7
 30
0.0
 11
4.000229
 21
12.7
 31
0.0
  0
LINE
  5
F0
100
AcDbEntity
  8
0
390
0
  6
Continuous
 62
     7
100
AcDbLine
 10
6.500229
 20
7.972613
 30
0.0
 11
6.500229
 21
8.7
 31
0.0
  0
LINE
  5
F1
100
AcDbEntity
  8
0
390
0
  6
Continuous
 62
     7
100
AcDbLine
 10
4.000229
 20
12.7
 30
0.0
 11
4.000229
 21
7.972613
 31
0.0
  0
LINE
  5
F2
100
AcDbEntity
  8
0
390
0
  6
Continuous
 62
     7
100
AcDbLine
 10
6.500229
 20
8.7
 30
0.0
 11
4.884124
 21
12.7
 31
0.0
  0
LINE
  5
F3
100
AcDbEntity
  8
0
390
0
  6
Continuous
 62
     7
100
AcDbLine
 10
-0.499771
 20
13.7
 30
0.0
 11
-0.019902
 21
13.7
 31
0.0
  0
LINE
  5
F4
100
AcDbEntity
  8
0
390
0
  6
Continuous
 62
     7
100
AcDbLine
 10
-0.499771
 20
12.7
 30
0.0
 11
-0.499771
 21
13.7
 31
0.0
  0
LINE
  5
F5
100
AcDbEntity
  8
0
390
0
  6
Continuous
 62
     7
100
AcDbLine
 10
-0.019902
 20
13.7
 30
0.0
 11
0.384124
 21
12.7
 31
0.0
  0
LINE
  5
F6
100
AcDbEntity
  8
0
390
0
  6
Continuous
 62
     7
100
AcDbLine
 10
4.000229
 20
13.7
 30
0.0
 11
4.480098
 21
13.7
 31
0.0
  0
LINE
  5
F7
100
AcDbEntity
  8
0
390
0
  6
Continuous
 62
     7
100
AcDbLine
 10
4.000229
 20
12.7
 30
0.0
 11
4.000229
 21
13.7
 31
0.0
  0
LINE
  5
F8
100
AcDbEntity
  8
0
390
0
  6
Continuous
 62
     7
100
AcDbLine
 10
4.480098
 20
13.7
 30
0.0
 11
4.884124
 21
12.7
 31
0.0
  0
LINE
  5
F9
100
AcDbEntity
  8
0
390
0
  6
Continuous
 62
     7
100
AcDbLine
 10
-0.019902
 20
-13.7
 30
0.0
 11
-0.499771
 21
-13.7
 31
0.0
  0
LINE
  5
FA
100
AcDbEntity
  8
0
390
0
  6
Continuous
 62
     7
100
AcDbLine
 10
-0.499771
 20
-13.7
 30
0.0
 11
-0.499771
 21
-12.7
 31
0.0
  0
LINE
  5
FB
100
AcDbEntity
  8
0
390
0
  6
Continuous
 62
     7
100
AcDbLine
 10
-0.499771
 20
-12.7
 30
0.0
 11
0.384124
 21
-12.7
 31
0.0
  0
LINE
  5
FC
100
AcDbEntity
  8
0
390
0
  6
Continuous
 62
     7
100
AcDbLine
 10
0.384124
 20
-12.7
 30
0.0
 11
-0.019902
 21
-13.7
 31
0.0
  0
LINE
  5
FD
100
AcDbEntity
  8
0
390
0
  6
Continuous
 62
     7
100
AcDbLine
 10
9.351774
 20
10.8
 30
0.0
 11
8.500229
 21
10.8
 31
0.0
  0
LINE
  5
FE
100
AcDbEntity
  8
0
390
0
  6
Continuous
 62
     7
100
AcDbLine
 10
8.500229
 20
10.8
 30
0.0
 11
8.500229
 21
11.8
 31
0.0
  0
LINE
  5
FF
100
AcDbEntity
  8
0
390
0
  6
Continuous
 62
     7
100
AcDbLine
 10
8.500229
 20
11.8
 30
0.0
 11
8.947748
 21
11.8
 31
0.0
  0
LINE
  5
100
100
AcDbEntity
  8
0
390
0
  6
Continuous
 62
     7
100
AcDbLine
 10
8.947748
 20
11.8
 30
0.0
 11
9.351774
 21
10.8
 31
0.0
  0
LINE
  5
101
100
AcDbEntity
  8
0
390
0
  6
Continuous
 62
     7
100
AcDbLine
 10
10.200229
 20
8.7
 30
0.0
 11
9.351774
 21
10.8
 31
0.0
  0
LINE
  5
102
100
AcDbEntity
  8
0
390
0
  6
Continuous
 62
     7
100
AcDbLine
 10
8.500229
 20
10.8
 30
0.0
 11
8.500229
 21
7.972613
 31
0.0
  0
LINE
  5
103
100
AcDbEntity
  8
0
390
0
  6
Continuous
 62
     7
100
AcDbLine
 10
10.200229
 20
7.972613
 30
0.0
 11
10.200229
 21
8.7
 31
0.0
  0
LINE
  5
104
100
AcDbEntity
  8
0
390
0
  6
Continuous
 62
     7
100
AcDbLine
 10
2.000229
 20
-8.7
 30
0.0
 11
0.384124
 21
-12.7
 31
0.0
  0
LINE
  5
105
100
AcDbEntity
  8
0
390
0
  6
Continuous
 62
     7
100
AcDbLine
 10
2.000229
 20
-7.972614
 30
0.0
 11
2.000229
 21
-8.7
 31
0.0
  0
LINE
  5
106
100
AcDbEntity
  8
0
390
0
  6
Continuous
 62
     7
100
AcDbLine
 10
-0.499771
 20
-12.7
 30
0.0
 11
-0.499771
 21
-7.972614
 31
0.0
  0
LINE
  5
107
100
AcDbEntity
  8
0
390
0
  6
Continuous
 62
     7
100
AcDbLine
 10
6.500229
 20
-7.972614
 30
0.0
 11
6.500229
 21
-8.7
 31
0.0
  0
LINE
  5
108
100
AcDbEntity
  8
0
390
0
  6
Continuous
 62
     7
100
AcDbLine
 10
6.500229
 20
-8.7
 30
0.0
 11
4.884124
 21
-12.7
 31
0.0
  0
LINE
  5
109
100
AcDbEntity
  8
0
390
0
  6
Continuous
 62
     7
100
AcDbLine
 10
4.000229
 20
-12.7
 30
0.0
 11
4.884124
 21
-12.7
 31
0.0
  0
LINE
  5
10A
100
AcDbEntity
  8
0
390
0
  6
Continuous
 62
     7
100
AcDbLine
 10
4.000229
 20
-12.7
 30
0.0
 11
4.000229
 21
-7.972614
 31
0.0
  0
LINE
  5
10B
100
AcDbEntity
  8
0
390
0
  6
Continuous
 62
     7
100
AcDbLine
 10
10.200229
 20
-7.972614
 30
0.0
 11
10.200229
 21
-8.7
 31
0.0
  0
LINE
  5
10C
100
AcDbEntity
  8
0
390
0
  6
Continuous
 62
     7
100
AcDbLine
 10
10.200229
 20
-8.7
 30
0.0
 11
9.351774
 21
-10.8
 31
0.0
  0
LINE
  5
10D
100
AcDbEntity
  8
0
390
0
  6
Continuous
 62
     7
100
AcDbLine
 10
8.500229
 20
-10.8
 30
0.0
 11
9.351774
 21
-10.8
 31
0.0
  0
LINE
  5
10E
100
AcDbEntity
  8
0
390
0
  6
Continuous
 62
     7
100
AcDbLine
 10
8.500229
 20
-10.8
 30
0.0
 11
8.500229
 21
-7.972614
 31
0.0
  0
LINE
  5
10F
100
AcDbEntity
  8
0
390
0
  6
Continuous
 62
     7
100
AcDbLine
 10
-4.519902
 20
-13.7
 30
0.0
 11
-4.999771
 21
-13.7
 31
0.0
  0
LINE
  5
110
100
AcDbEntity
  8
0
390
0
  6
Continuous
 62
     7
100
AcDbLine
 10
-4.999771
 20
-12.7
 30
0.0
 11
-4.115876
 21
-12.7
 31
0.0
  0
LINE
  5
111
100
AcDbEntity
  8
0
390
0
  6
Continuous
 62
     7
100
AcDbLine
 10
-4.115876
 20
-12.7
 30
0.0
 11
-4.519902
 21
-13.7
 31
0.0
  0
LINE
  5
112
100
AcDbEntity
  8
0
390
0
  6
Continuous
 62
     7
100
AcDbLine
 10
-4.999771
 20
-13.7
 30
0.0
 11
-4.999771
 21
-12.7
 31
0.0
  0
LINE
  5
113
100
AcDbEntity
  8
0
390
0
  6
Continuous
 62
     7
100
AcDbLine
 10
4.480098
 20
-13.7
 30
0.0
 11
4.000229
 21
-13.7
 31
0.0
  0
LINE
  5
114
100
AcDbEntity
  8
0
390
0
  6
Continuous
 62
     7
100
AcDbLine
 10
4.884124
 20
-12.7
 30
0.0
 11
4.480098
 21
-13.7
 31
0.0
  0
LINE
  5
115
100
AcDbEntity
  8
0
390
0
  6
Continuous
 62
     7
100
AcDbLine
 10
4.000229
 20
-13.7
 30
0.0
 11
4.000229
 21
-12.7
 31
0.0
  0
LINE
  5
116
100
AcDbEntity
  8
0
390
0
  6
Continuous
 62
     7
100
AcDbLine
 10
-2.499771
 20
-7.972614
 30
0.0
 11
-2.499771
 21
-8.7
 31
0.0
  0
LINE
  5
117
100
AcDbEntity
  8
0
390
0
  6
Continuous
 62
     7
100
AcDbLine
 10
-2.499771
 20
-8.7
 30
0.0
 11
-4.115876
 21
-12.7
 31
0.0
  0
LINE
  5
118
100
AcDbEntity
  8
0
390
0
  6
Continuous
 62
     7
100
AcDbLine
 10
-4.999771
 20
-12.7
 30
0.0
 11
-4.999771
 21
-7.972614
 31
0.0
  0
LINE
  5
119
100
AcDbEntity
  8
0
390
0
  6
Continuous
 62
     7
100
AcDbLine
 10
8.947748
 20
-11.8
 30
0.0
 11
8.500229
 21
-11.8
 31
0.0
  0
LINE
  5
11A
100
AcDbEntity
  8
0
390
0
  6
Continuous
 62
     7
100
AcDbLine
 10
9.351774
 20
-10.8
 30
0.0
 11
8.947748
 21
-11.8
 31
0.0
  0
LINE
  5
11B
100
AcDbEntity
  8
0
390
0
  6
Continuous
 62
     7
100
AcDbLine
 10
8.500229
 20
-11.8
 30
0.0
 11
8.500229
 21
-10.8
 31
0.0
  0
LINE
  5
11C
100
AcDbEntity
  8
0
390
0
  6
Continuous
 62
     7
100
AcDbLine
 10
-13.459865
 20
-2.75739
 30
0.0
 11
-13.442366
 21
-5.476773
 31
0.0
  0
LINE
  5
11D
100
AcDbEntity
  8
0
390
0
  6
Continuous
 62
     7
100
AcDbLine
 10
-13.425497
 20
-6.097839
 30
0.0
 11
-13.459865
 21
-2.75739
 31
0.0
  0
LINE
  5
11E
100
AcDbEntity
  8
0
390
0
  6
Continuous
 62
     7
100
AcDbLine
 10
-13.470368
 20
4.311789
 30
0.0
 11
-13.415397
 21
7.499339
 31
0.0
  0
LINE
  5
11F
100
AcDbEntity
  8
0
390
0
  6
Continuous
 62
     7
100
AcDbLine
 10
-13.482677
 20
-3.9995
 30
0.0
 11
-13.476011
 21
-4.704046
 31
0.0
  0
LINE
  5
120
100
AcDbEntity
  8
0
390
0
  6
Continuous
 62
     7
100
AcDbLine
 10
-13.487704
 20
-3.544955
 30
0.0
 11
-13.49076
 21
-2.731828
 31
0.0
  0
LINE
  5
121
100
AcDbEntity
  8
0
390
0
  6
Continuous
 62
     7
100
AcDbLine
 10
-13.488965
 20
-3.544955
 30
0.0
 11
-13.487704
 21
-3.544955
 31
0.0
  0
LINE
  5
122
100
AcDbEntity
  8
0
390
0
  6
Continuous
 62
     7
100
AcDbLine
 10
-13.47552
 20
-4.272228
 30
0.0
 11
-13.493807
 21
-2.044955
 31
0.0
  0
LINE
  5
123
100
AcDbEntity
  8
0
390
0
  6
Continuous
 62
     7
100
AcDbLine
 10
-13.45655
 20
-6.437596
 30
0.0
 11
-13.447482
 21
-6.818167
 31
0.0
  0
LINE
  5
124
100
AcDbEntity
  8
0
390
0
  6
Continuous
 62
     7
100
AcDbLine
 10
-13.473996
 20
-5.158591
 30
0.0
 11
-13.45655
 21
-6.437596
 31
0.0
  0
LINE
  5
125
100
AcDbEntity
  8
0
390
0
  6
Continuous
 62
     7
100
AcDbLine
 10
-13.472633
 20
-5.158591
 30
0.0
 11
-13.473996
 21
-5.158591
 31
0.0
  0
LINE
  5
126
100
AcDbEntity
  8
0
390
0
  6
Continuous
 62
     7
100
AcDbLine
 10
-13.476011
 20
-4.704046
 30
0.0
 11
-13.458007
 21
-6.094934
 31
0.0
  0
LINE
  5
127
100
AcDbEntity
  8
0
390
0
  6
Continuous
 62
     7
100
AcDbLine
 10
-13.447401
 20
-6.817682
 30
0.0
 11
-13.47552
 21
-4.272228
 31
0.0
  0
LINE
  5
128
100
AcDbEntity
  8
0
390
0
  6
Continuous
 62
     7
100
AcDbLine
 10
-13.493807
 20
-2.044955
 30
0.0
 11
-13.488965
 21
-3.544955
 31
0.0
  0
LINE
  5
129
100
AcDbEntity
  8
0
390
0
  6
Continuous
 62
     7
100
AcDbLine
 10
-13.458007
 20
-6.094934
 30
0.0
 11
-13.472633
 21
-5.158591
 31
0.0
  0
LINE
  5
12A
100
AcDbEntity
  8
0
390
0
  6
Continuous
 62
     7
100
AcDbLine
 10
-13.49076
 20
-2.731828
 30
0.0
 11
-13.482677
 21
-3.9995
 31
0.0
  0
LINE
  5
12B
100
AcDbEntity
  8
0
390
0
  6
Continuous
 62
     7
100
AcDbLine
 10
-13.487704
 20
-3.544955
 30
0.0
 11
-13.482835
 21
-3.544955
 31
0.0
  0
LINE
  5
12C
100
AcDbEntity
  8
0
390
0
  6
Continuous
 62
     7
100
AcDbLine
 10
-13.453705
 20
6.645719
 30
0.0
 11
-12.953647
 21
6.645719
 31
0.0
  0
LINE
  5
12D
100
AcDbEntity
  8
0
390
0
  6
Continuous
 62
     7
100
AcDbLine
 10
-13.452767
 20
6.64575
 30
0.0
 11
-13.437795
 21
7.499339
 31
0.0
  0
LINE
  5
12E
100
AcDbEntity
  8
0
390
0
  6
Continuous
 62
     7
100
AcDbLine
 10
-13.493104
 20
-2.022228
 30
0.0
 11
-12.99772
 21
-2.022228
 31
0.0
  0
ARC
  5
12F
100
AcDbEntity
  8
0
390
0
  6
Continuous
 62
     7
100
AcDbCircle
 10
386.999771
 20
0.605466
 30
0.0
 40
400.0
210
0.0
220
0.0
230
1.0
100
AcDbArc
 50
179.728914
 51
180.0
  0
ARC
  5
130
100
AcDbEntity
  8
0
390
0
  6
Continuous
 62
     7
100
AcDbCircle
 10
386.999771
 20
0.605466
 30
0.0
 40
400.0
210
0.0
220
0.0
230
1.0
100
AcDbArc
 50
178.21529
 51
179.012477
  0
ARC
  5
131
100
AcDbEntity
  8
0
390
0
  6
Continuous
 62
     7
100
AcDbCircle
 10
386.999771
 20
-0.605467
 30
0.0
 40
400.0
210
0.0
220
0.0
230
1.0
100
AcDbArc
 50
180.0
 51
180.202936
  0
ARC
  5
132
100
AcDbEntity
  8
0
390
0
  6
Continuous
 62
     7
100
AcDbCircle
 10
386.999771
 20
-0.605467
 30
0.0
 40
400.0
210
0.0
220
0.0
230
1.0
100
AcDbArc
 50
180.88987
 51
181.784668
  0
LINE
  5
133
100
AcDbEntity
  8
0
390
0
  6
Continuous
 62
     7
100
AcDbLine
 10
-13.000229
 20
0.605466
 30
0.0
 11
-13.000229
 21
-0.605467
 31
0.0
  0
ARC
  5
134
100
AcDbEntity
  8
0
390
0
  6
Continuous
 62
     7
100
AcDbCircle
 10
-10.807187
 20
-13.0
 30
0.0
 40
2.0
210
0.0
220
0.0
230
1.0
100
AcDbArc
 50
181.784596
 51
270.0
  0
ARC
  5
135
100
AcDbEntity
  8
0
390
0
  6
Continuous
 62
     7
100
AcDbCircle
 10
-10.807187
 20
13.0
 30
0.0
 40
2.0
210
0.0
220
0.0
230
1.0
100
AcDbArc
 50
90.0
 51
178.215404
  0
LINE
  5
136
100
AcDbEntity
  8
0
390
0
  6
Continuous
 62
     7
100
AcDbLine
 10
-13.414903
 20
-6.817682
 30
0.0
 11
-12.914796
 21
-6.817682
 31
0.0
  0
LINE
  5
137
100
AcDbEntity
  8
0
390
0
  6
Continuous
 62
     7
100
AcDbLine
 10
-12.963377
 20
-2.044955
 30
0.0
 11
-13.463423
 21
-2.044955
 31
0.0
  0
LINE
  5
138
100
AcDbEntity
  8
0
390
0
  6
Continuous
 62
     7
100
AcDbLine
 10
-13.447397
 20
-6.817682
 30
0.0
 11
-13.414903
 21
-6.817682
 31
0.0
  0
LINE
  5
139
100
AcDbEntity
  8
0
390
0
  6
Continuous
 62
     7
100
AcDbLine
 10
-13.463423
 20
-2.044955
 30
0.0
 11
-13.493804
 21
-2.044955
 31
0.0
  0
LINE
  5
13A
100
AcDbEntity
  8
0
390
0
  6
Continuous
 62
     7
100
AcDbLine
 10
82.702869
 20
-8.7
 30
0.0
 11
73.302869
 21
-8.7
 31
0.0
  0
ARC
  5
13B
100
AcDbEntity
  8
0
390
0
  6
Continuous
 62
     7
100
AcDbCircle
 10
73.302869
 20
-4.7
 30
0.0
 40
4.0
210
0.0
220
0.0
230
1.0
100
AcDbArc
 50
180.0
 51
270.0
  0
LINE
  5
13C
100
AcDbEntity
  8
0
390
0
  6
Continuous
 62
     7
100
AcDbLine
 10
69.302869
 20
-4.7
 30
0.0
 11
69.302869
 21
4.7
 31
0.0
  0
ARC
  5
13D
100
AcDbEntity
  8
0
390
0
  6
Continuous
 62
     7
100
AcDbCircle
 10
73.302869
 20
4.7
 30
0.0
 40
4.0
210
0.0
220
0.0
230
1.0
100
AcDbArc
 50
90.0
 51
180.0
  0
LINE
  5
13E
100
AcDbEntity
  8
0
390
0
  6
Continuous
 62
     7
100
AcDbLine
 10
73.302869
 20
8.7
 30
0.0
 11
82.702869
 21
8.7
 31
0.0
  0
ARC
  5
13F
100
AcDbEntity
  8
0
390
0
  6
Continuous
 62
     7
100
AcDbCircle
 10
82.702869
 20
4.7
 30
0.0
 40
4.0
210
0.0
220
0.0
230
1.0
100
AcDbArc
 50
0.0
 51
90.0
  0
LINE
  5
140
100
AcDbEntity
  8
0
390
0
  6
Continuous
 62
     7
100
AcDbLine
 10
86.702869
 20
4.7
 30
0.0
 11
86.702869
 21
-4.7
 31
0.0
  0
ARC
  5
141
100
AcDbEntity
  8
0
390
0
  6
Continuous
 62
     7
100
AcDbCircle
 10
82.702869
 20
-4.7
 30
0.0
 40
4.0
210
0.0
220
0.0
230
1.0
100
AcDbArc
 50
270.0
 51
360.0
  0
ARC
  5
142
100
AcDbEntity
  8
0
390
0
  6
Continuous
 62
     7
100
AcDbCircle
 10
82.702869
 20
4.7
 30
0.0
 40
2.0
210
0.0
220
0.0
230
1.0
100
AcDbArc
 50
0.0
 51
90.0
  0
LINE
  5
143
100
AcDbEntity
  8
0
390
0
  6
Continuous
 62
     7
100
AcDbLine
 10
73.302869
 20
6.7
 30
0.0
 11
82.702869
 21
6.7
 31
0.0
  0
ARC
  5
144
100
AcDbEntity
  8
0
390
0
  6
Continuous
 62
     7
100
AcDbCircle
 10
73.302869
 20
4.7
 30
0.0
 40
2.0
210
0.0
220
0.0
230
1.0
100
AcDbArc
 50
90.0
 51
180.0
  0
LINE
  5
145
100
AcDbEntity
  8
0
390
0
  6
Continuous
 62
     7
100
AcDbLine
 10
71.302869
 20
-4.7
 30
0.0
 11
71.302869
 21
4.7
 31
0.0
  0
ARC
  5
146
100
AcDbEntity
  8
0
390
0
  6
Continuous
 62
     7
100
AcDbCircle
 10
73.302869
 20
-4.7
 30
0.0
 40
2.0
210
0.0
220
0.0
230
1.0
100
AcDbArc
 50
180.0
 51
270.0
  0
LINE
  5
147
100
AcDbEntity
  8
0
390
0
  6
Continuous
 62
     7
100
AcDbLine
 10
82.702869
 20
-6.7
 30
0.0
 11
73.302869
 21
-6.7
 31
0.0
  0
ARC
  5
148
100
AcDbEntity
  8
0
390
0
  6
Continuous
 62
     7
100
AcDbCircle
 10
82.702869
 20
-4.7
 30
0.0
 40
2.0
210
0.0
220
0.0
230
1.0
100
AcDbArc
 50
270.0
 51
360.0
  0
LINE
  5
149
100
AcDbEntity
  8
0
390
0
  6
Continuous
 62
     7
100
AcDbLine
 10
84.702869
 20
4.7
 30
0.0
 11
84.702869
 21
-4.7
 31
0.0
  0
LINE
  5
14A
100
AcDbEntity
  8
0
390
0
  6
Continuous
 62
     7
100
AcDbLine
 10
69.302869
 20
4.7
 30
0.0
 11
69.302869
 21
7.0
 31
0.0
  0
LINE
  5
14B
100
AcDbEntity
  8
0
390
0
  6
Continuous
 62
     7
100
AcDbLine
 10
69.302869
 20
-7.0
 30
0.0
 11
69.302869
 21
-4.7
 31
0.0
  0
LINE
  5
14C
100
AcDbEntity
  8
0
390
0
  6
Continuous
 62
     7
100
AcDbLine
 10
69.302869
 20
-7.0
 30
0.0
 11
67.202869
 21
-7.0
 31
0.0
  0
ARC
  5
14D
100
AcDbEntity
  8
0
390
0
  6
Continuous
 62
     7
100
AcDbCircle
 10
67.202869
 20
-6.0
 30
0.0
 40
1.0
210
0.0
220
0.0
230
1.0
100
AcDbArc
 50
180.0
 51
270.0
  0
LINE
  5
14E
100
AcDbEntity
  8
0
390
0
  6
Continuous
 62
     7
100
AcDbLine
 10
66.202869
 20
-6.0
 30
0.0
 11
66.202869
 21
6.0
 31
0.0
  0
ARC
  5
14F
100
AcDbEntity
  8
0
390
0
  6
Continuous
 62
     7
100
AcDbCircle
 10
67.202869
 20
6.0
 30
0.0
 40
1.0
210
0.0
220
0.0
230
1.0
100
AcDbArc
 50
90.0
 51
180.0
  0
LINE
  5
150
100
AcDbEntity
  8
0
390
0
  6
Continuous
 62
     7
100
AcDbLine
 10
69.302869
 20
7.0
 30
0.0
 11
67.202869
 21
7.0
 31
0.0
  0
LINE
  5
151
100
AcDbEntity
  8
0
390
0
  6
Continuous
 62
     7
100
AcDbLine
 10
71.002869
 20
7.972613
 30
0.0
 11
71.002869
 21
8.7
 31
0.0
  0
LINE
  5
152
100
AcDbEntity
  8
0
390
0
  6
Continuous
 62
     7
100
AcDbLine
 10
71.002869
 20
8.7
 30
0.0
 11
73.302869
 21
8.7
 31
0.0
  0
LINE
  5
153
100
AcDbEntity
  8
0
390
0
  6
Continuous
 62
     7
100
AcDbLine
 10
82.702869
 20
8.7
 30
0.0
 11
85.002869
 21
8.7
 31
0.0
  0
ARC
  5
154
100
AcDbEntity
  8
0
390
0
  6
Continuous
 62
     7
100
AcDbCircle
 10
72.002869
 20
10.8
 30
0.0
 40
1.0
210
0.0
220
0.0
230
1.0
100
AcDbArc
 50
90.0
 51
180.0
  0
LINE
  5
155
100
AcDbEntity
  8
0
390
0
  6
Continuous
 62
     7
100
AcDbLine
 10
72.002869
 20
11.8
 30
0.0
 11
84.002869
 21
11.8
 31
0.0
  0
ARC
  5
156
100
AcDbEntity
  8
0
390
0
  6
Continuous
 62
     7
100
AcDbCircle
 10
84.002869
 20
10.8
 30
0.0
 40
1.0
210
0.0
220
0.0
230
1.0
100
AcDbArc
 50
0.0
 51
90.0
  0
LINE
  5
157
100
AcDbEntity
  8
0
390
0
  6
Continuous
 62
     7
100
AcDbLine
 10
85.002869
 20
8.7
 30
0.0
 11
85.002869
 21
10.8
 31
0.0
  0
LINE
  5
158
100
AcDbEntity
  8
0
390
0
  6
Continuous
 62
     7
100
AcDbLine
 10
71.002869
 20
8.7
 30
0.0
 11
71.002869
 21
10.8
 31
0.0
  0
LINE
  5
159
100
AcDbEntity
  8
0
390
0
  6
Continuous
 62
     7
100
AcDbLine
 10
73.302869
 20
-8.7
 30
0.0
 11
71.002869
 21
-8.7
 31
0.0
  0
LINE
  5
15A
100
AcDbEntity
  8
0
390
0
  6
Continuous
 62
     7
100
AcDbLine
 10
85.002869
 20
-8.7
 30
0.0
 11
82.702869
 21
-8.7
 31
0.0
  0
LINE
  5
15B
100
AcDbEntity
  8
0
390
0
  6
Continuous
 62
     7
100
AcDbLine
 10
85.002869
 20
-8.7
 30
0.0
 11
85.002869
 21
-10.8
 31
0.0
  0
ARC
  5
15C
100
AcDbEntity
  8
0
390
0
  6
Continuous
 62
     7
100
AcDbCircle
 10
84.002869
 20
-10.8
 30
0.0
 40
1.0
210
0.0
220
0.0
230
1.0
100
AcDbArc
 50
270.0
 51
360.0
  0
LINE
  5
15D
100
AcDbEntity
  8
0
390
0
  6
Continuous
 62
     7
100
AcDbLine
 10
84.002869
 20
-11.8
 30
0.0
 11
72.002869
 21
-11.8
 31
0.0
  0
ARC
  5
15E
100
AcDbEntity
  8
0
390
0
  6
Continuous
 62
     7
100
AcDbCircle
 10
72.002869
 20
-10.8
 30
0.0
 40
1.0
210
0.0
220
0.0
230
1.0
100
AcDbArc
 50
180.0
 51
270.0
  0
LINE
  5
15F
100
AcDbEntity
  8
0
390
0
  6
Continuous
 62
     7
100
AcDbLine
 10
71.002869
 20
-8.7
 30
0.0
 11
71.002869
 21
-10.8
 31
0.0
  0
LINE
  5
160
100
AcDbEntity
  8
0
390
0
  6
Continuous
 62
     7
100
AcDbLine
 10
70.030256
 20
-7.0
 30
0.0
 11
69.302869
 21
-7.0
 31
0.0
  0
LINE
  5
161
100
AcDbEntity
  8
0
390
0
  6
Continuous
 62
     7
100
AcDbLine
 10
70.030256
 20
7.0
 30
0.0
 11
69.302869
 21
7.0
 31
0.0
  0
LINE
  5
162
100
AcDbEntity
  8
0
390
0
  6
Continuous
 62
     7
100
AcDbLine
 10
71.002869
 20
-7.972614
 30
0.0
 11
71.002869
 21
-8.7
 31
0.0
  0
LINE
  5
163
100
AcDbEntity
  8
0
390
0
  6
Continuous
 62
     7
100
AcDbLine
 10
85.002869
 20
-7.972614
 30
0.0
 11
85.002869
 21
-8.7
 31
0.0
  0
LINE
  5
164
100
AcDbEntity
  8
0
390
0
  6
Continuous
 62
     7
100
AcDbLine
 10
85.002869
 20
7.972613
 30
0.0
 11
85.002869
 21
8.7
 31
0.0
  0
LINE
  5
165
100
AcDbEntity
  8
0
390
0
  6
Continuous
 62
     7
100
AcDbLine
 10
86.702869
 20
-4.7
 30
0.0
 11
86.702869
 21
-7.0
 31
0.0
  0
LINE
  5
166
100
AcDbEntity
  8
0
390
0
  6
Continuous
 62
     7
100
AcDbLine
 10
85.975483
 20
-7.0
 30
0.0
 11
86.702869
 21
-7.0
 31
0.0
  0
LINE
  5
167
100
AcDbEntity
  8
0
390
0
  6
Continuous
 62
     7
100
AcDbLine
 10
86.702869
 20
7.0
 30
0.0
 11
86.702869
 21
4.7
 31
0.0
  0
LINE
  5
168
100
AcDbEntity
  8
0
390
0
  6
Continuous
 62
     7
100
AcDbLine
 10
85.975483
 20
7.0
 30
0.0
 11
86.702869
 21
7.0
 31
0.0
  0
ARC
  5
169
100
AcDbEntity
  8
0
390
0
  6
Continuous
 62
     7
100
AcDbCircle
 10
88.802869
 20
6.0
 30
0.0
 40
1.0
210
0.0
220
0.0
230
1.0
100
AcDbArc
 50
0.0
 51
90.0
  0
LINE
  5
16A
100
AcDbEntity
  8
0
390
0
  6
Continuous
 62
     7
100
AcDbLine
 10
89.802869
 20
6.0
 30
0.0
 11
89.802869
 21
-6.0
 31
0.0
  0
ARC
  5
16B
100
AcDbEntity
  8
0
390
0
  6
Continuous
 62
     7
100
AcDbCircle
 10
88.802869
 20
-6.0
 30
0.0
 40
1.0
210
0.0
220
0.0
230
1.0
100
AcDbArc
 50
270.0
 51
360.0
  0
LINE
  5
16C
100
AcDbEntity
  8
0
390
0
  6
Continuous
 62
     7
100
AcDbLine
 10
86.702869
 20
-7.0
 30
0.0
 11
88.802869
 21
-7.0
 31
0.0
  0
LINE
  5
16D
100
AcDbEntity
  8
0
390
0
  6
Continuous
 62
     7
100
AcDbLine
 10
86.702869
 20
7.0
 30
0.0
 11
88.802869
 21
7.0
 31
0.0
  0
LINE
  5
16E
100
AcDbEntity
  8
0
390
0
  6
Continuous
 62
     7
100
AcDbLine
 10
72.349742
 20
-4.7
 30
0.0
 11
71.302869
 21
-4.7
 31
0.0
  0
POLYLINE
  5
16F
100
AcDbEntity
  8
0
390
0
  6
Continuous
 62
     7
100
AcDb2dPolyline
 66
     1
 10
0.0
 20
0.0
 30
0.0
 40
0.1
 41
0.1
  0
VERTEX
  5
170
100
AcDbEntity
  8
0
390
0
 62
     7
100
AcDbVertex
100
AcDb2dVertex
 10
73.302869
 20
-5.653127
 30
0.0
  0
VERTEX
  5
171
100
AcDbEntity
  8
0
390
0
 62
     7
100
AcDbVertex
100
AcDb2dVertex
 10
73.263306
 20
-5.652313
 30
0.0
  0
VERTEX
  5
172
100
AcDbEntity
  8
0
390
0
 62
     7
100
AcDbVertex
100
AcDb2dVertex
 10
73.223775
 20
-5.649855
 30
0.0
  0
VERTEX
  5
173
100
AcDbEntity
  8
0
390
0
 62
     7
100
AcDbVertex
100
AcDb2dVertex
 10
73.184381
 20
-5.645761
 30
0.0
  0
VERTEX
  5
174
100
AcDbEntity
  8
0
390
0
 62
     7
100
AcDbVertex
100
AcDb2dVertex
 10
73.145224
 20
-5.640039
 30
0.0
  0
VERTEX
  5
175
100
AcDbEntity
  8
0
390
0
 62
     7
100
AcDbVertex
100
AcDb2dVertex
 10
73.105217
 20
-5.632453
 30
0.0
  0
VERTEX
  5
176
100
AcDbEntity
  8
0
390
0
 62
     7
100
AcDbVertex
100
AcDb2dVertex
 10
73.065533
 20
-5.623156
 30
0.0
  0
VERTEX
  5
177
100
AcDbEntity
  8
0
390
0
 62
     7
100
AcDbVertex
100
AcDb2dVertex
 10
73.026282
 20
-5.612176
 30
0.0
  0
VERTEX
  5
178
100
AcDbEntity
  8
0
390
0
 62
     7
100
AcDbVertex
100
AcDb2dVertex
 10
72.987571
 20
-5.599541
 30
0.0
  0
VERTEX
  5
179
100
AcDbEntity
  8
0
390
0
 62
     7
100
AcDbVertex
100
AcDb2dVertex
 10
72.950506
 20
-5.585682
 30
0.0
  0
VERTEX
  5
17A
100
AcDbEntity
  8
0
390
0
 62
     7
100
AcDbVertex
100
AcDb2dVertex
 10
72.914017
 20
-5.570283
 30
0.0
  0
VERTEX
  5
17B
100
AcDbEntity
  8
0
390
0
 62
     7
100
AcDbVertex
100
AcDb2dVertex
 10
72.878197
 20
-5.553385
 30
0.0
  0
VERTEX
  5
17C
100
AcDbEntity
  8
0
390
0
 62
     7
100
AcDbVertex
100
AcDb2dVertex
 10
72.84314
 20
-5.535031
 30
0.0
  0
VERTEX
  5
17D
100
AcDbEntity
  8
0
390
0
 62
     7
100
AcDbVertex
100
AcDb2dVertex
 10
72.807897
 20
-5.514635
 30
0.0
  0
VERTEX
  5
17E
100
AcDbEntity
  8
0
390
0
 62
     7
100
AcDbVertex
100
AcDb2dVertex
 10
72.773525
 20
-5.492732
 30
0.0
  0
VERTEX
  5
17F
100
AcDbEntity
  8
0
390
0
 62
     7
100
AcDbVertex
100
AcDb2dVertex
 10
72.740119
 20
-5.469384
 30
0.0
  0
VERTEX
  5
180
100
AcDbEntity
  8
0
390
0
 62
     7
100
AcDbVertex
100
AcDb2dVertex
 10
72.70777
 20
-5.444653
 30
0.0
  0
VERTEX
  5
181
100
AcDbEntity
  8
0
390
0
 62
     7
100
AcDbVertex
100
AcDb2dVertex
 10
72.67738
 20
-5.419313
 30
0.0
  0
VERTEX
  5
182
100
AcDbEntity
  8
0
390
0
 62
     7
100
AcDbVertex
100
AcDb2dVertex
 10
72.648043
 20
-5.39271
 30
0.0
  0
VERTEX
  5
183
100
AcDbEntity
  8
0
390
0
 62
     7
100
AcDbVertex
100
AcDb2dVertex
 10
72.619834
 20
-5.364914
 30
0.0
  0
VERTEX
  5
184
100
AcDbEntity
  8
0
390
0
 62
     7
100
AcDbVertex
100
AcDb2dVertex
 10
72.592826
 20
-5.335997
 30
0.0
  0
VERTEX
  5
185
100
AcDbEntity
  8
0
390
0
 62
     7
100
AcDbVertex
100
AcDb2dVertex
 10
72.566318
 20
-5.305092
 30
0.0
  0
VERTEX
  5
186
100
AcDbEntity
  8
0
390
0
 62
     7
100
AcDbVertex
100
AcDb2dVertex
 10
72.541131
 20
-5.273053
 30
0.0
  0
VERTEX
  5
187
100
AcDbEntity
  8
0
390
0
 62
     7
100
AcDbVertex
100
AcDb2dVertex
 10
72.517332
 20
-5.23997
 30
0.0
  0
VERTEX
  5
188
100
AcDbEntity
  8
0
390
0
 62
     7
100
AcDbVertex
100
AcDb2dVertex
 10
72.494989
 20
-5.205932
 30
0.0
  0
VERTEX
  5
189
100
AcDbEntity
  8
0
390
0
 62
     7
100
AcDbVertex
100
AcDb2dVertex
 10
72.474695
 20
-5.171965
 30
0.0
  0
VERTEX
  5
18A
100
AcDbEntity
  8
0
390
0
 62
     7
100
AcDbVertex
100
AcDb2dVertex
 10
72.455812
 20
-5.137155
 30
0.0
  0
VERTEX
  5
18B
100
AcDbEntity
  8
0
390
0
 62
     7
100
AcDbVertex
100
AcDb2dVertex
 10
72.438387
 20
-5.101592
 30
0.0
  0
VERTEX
  5
18C
100
AcDbEntity
  8
0
390
0
 62
     7
100
AcDbVertex
100
AcDb2dVertex
 10
72.422467
 20
-5.065368
 30
0.0
  0
VERTEX
  5
18D
100
AcDbEntity
  8
0
390
0
 62
     7
100
AcDbVertex
100
AcDb2dVertex
 10
72.407677
 20
-5.027434
 30
0.0
  0
VERTEX
  5
18E
100
AcDbEntity
  8
0
390
0
 62
     7
100
AcDbVertex
100
AcDb2dVertex
 10
72.394508
 20
-4.988867
 30
0.0
  0
VERTEX
  5
18F
100
AcDbEntity
  8
0
390
0
 62
     7
100
AcDbVertex
100
AcDb2dVertex
 10
72.382995
 20
-4.949774
 30
0.0
  0
VERTEX
  5
190
100
AcDbEntity
  8
0
390
0
 62
     7
100
AcDbVertex
100
AcDb2dVertex
 10
72.373172
 20
-4.910262
 30
0.0
  0
VERTEX
  5
191
100
AcDbEntity
  8
0
390
0
 62
     7
100
AcDbVertex
100
AcDb2dVertex
 10
72.366067
 20
-4.87588
 30
0.0
  0
VERTEX
  5
192
100
AcDbEntity
  8
0
390
0
 62
     7
100
AcDbVertex
100
AcDb2dVertex
 10
72.360232
 20
-4.841248
 30
0.0
  0
VERTEX
  5
193
100
AcDbEntity
  8
0
390
0
 62
     7
100
AcDbVertex
100
AcDb2dVertex
 10
72.355677
 20
-4.806437
 30
0.0
  0
VERTEX
  5
194
100
AcDbEntity
  8
0
390
0
 62
     7
100
AcDbVertex
100
AcDb2dVertex
 10
72.352376
 20
-4.771044
 30
0.0
  0
VERTEX
  5
195
100
AcDbEntity
  8
0
390
0
 62
     7
100
AcDbVertex
100
AcDb2dVertex
 10
72.350397
 20
-4.735541
 30
0.0
  0
VERTEX
  5
196
100
AcDbEntity
  8
0
390
0
 62
     7
100
AcDbVertex
100
AcDb2dVertex
 10
72.349742
 20
-4.7
 30
0.0
  0
SEQEND
  5
197
100
AcDbEntity
  8
0
390
0
  0
LINE
  5
198
100
AcDbEntity
  8
0
390
0
  6
Continuous
 62
     7
100
AcDbLine
 10
73.302869
 20
-5.653127
 30
0.0
 11
73.302869
 21
-6.7
 31
0.0
  0
LINE
  5
199
100
AcDbEntity
  8
0
390
0
  6
Continuous
 62
     7
100
AcDbLine
 10
73.302869
 20
5.653127
 30
0.0
 11
73.302869
 21
6.7
 31
0.0
  0
POLYLINE
  5
19A
100
AcDbEntity
  8
0
390
0
  6
Continuous
 62
     7
100
AcDb2dPolyline
 66
     1
 10
0.0
 20
0.0
 30
0.0
 40
0.1
 41
0.1
  0
VERTEX
  5
19B
100
AcDbEntity
  8
0
390
0
 62
     7
100
AcDbVertex
100
AcDb2dVertex
 10
72.349742
 20
4.7
 30
0.0
  0
VERTEX
  5
19C
100
AcDbEntity
  8
0
390
0
 62
     7
100
AcDbVertex
100
AcDb2dVertex
 10
72.350557
 20
4.739564
 30
0.0
  0
VERTEX
  5
19D
100
AcDbEntity
  8
0
390
0
 62
     7
100
AcDbVertex
100
AcDb2dVertex
 10
72.353015
 20
4.779094
 30
0.0
  0
VERTEX
  5
19E
100
AcDbEntity
  8
0
390
0
 62
     7
100
AcDbVertex
100
AcDb2dVertex
 10
72.357109
 20
4.818488
 30
0.0
  0
VERTEX
  5
19F
100
AcDbEntity
  8
0
390
0
 62
     7
100
AcDbVertex
100
AcDb2dVertex
 10
72.36283
 20
4.857645
 30
0.0
  0
VERTEX
  5
1A0
100
AcDbEntity
  8
0
390
0
 62
     7
100
AcDbVertex
100
AcDb2dVertex
 10
72.370416
 20
4.897653
 30
0.0
  0
VERTEX
  5
1A1
100
AcDbEntity
  8
0
390
0
 62
     7
100
AcDbVertex
100
AcDb2dVertex
 10
72.379713
 20
4.937336
 30
0.0
  0
VERTEX
  5
1A2
100
AcDbEntity
  8
0
390
0
 62
     7
100
AcDbVertex
100
AcDb2dVertex
 10
72.390693
 20
4.976587
 30
0.0
  0
VERTEX
  5
1A3
100
AcDbEntity
  8
0
390
0
 62
     7
100
AcDbVertex
100
AcDb2dVertex
 10
72.403329
 20
5.015298
 30
0.0
  0
VERTEX
  5
1A4
100
AcDbEntity
  8
0
390
0
 62
     7
100
AcDbVertex
100
AcDb2dVertex
 10
72.417188
 20
5.052363
 30
0.0
  0
VERTEX
  5
1A5
100
AcDbEntity
  8
0
390
0
 62
     7
100
AcDbVertex
100
AcDb2dVertex
 10
72.432587
 20
5.088852
 30
0.0
  0
VERTEX
  5
1A6
100
AcDbEntity
  8
0
390
0
 62
     7
100
AcDbVertex
100
AcDb2dVertex
 10
72.449485
 20
5.124672
 30
0.0
  0
VERTEX
  5
1A7
100
AcDbEntity
  8
0
390
0
 62
     7
100
AcDbVertex
100
AcDb2dVertex
 10
72.467839
 20
5.159729
 30
0.0
  0
VERTEX
  5
1A8
100
AcDbEntity
  8
0
390
0
 62
     7
100
AcDbVertex
100
AcDb2dVertex
 10
72.488235
 20
5.194973
 30
0.0
  0
VERTEX
  5
1A9
100
AcDbEntity
  8
0
390
0
 62
     7
100
AcDbVertex
100
AcDb2dVertex
 10
72.510138
 20
5.229344
 30
0.0
  0
VERTEX
  5
1AA
100
AcDbEntity
  8
0
390
0
 62
     7
100
AcDbVertex
100
AcDb2dVertex
 10
72.533486
 20
5.26275
 30
0.0
  0
VERTEX
  5
1AB
100
AcDbEntity
  8
0
390
0
 62
     7
100
AcDbVertex
100
AcDb2dVertex
 10
72.558217
 20
5.295099
 30
0.0
  0
VERTEX
  5
1AC
100
AcDbEntity
  8
0
390
0
 62
     7
100
AcDbVertex
100
AcDb2dVertex
 10
72.583557
 20
5.325489
 30
0.0
  0
VERTEX
  5
1AD
100
AcDbEntity
  8
0
390
0
 62
     7
100
AcDbVertex
100
AcDb2dVertex
 10
72.61016
 20
5.354826
 30
0.0
  0
VERTEX
  5
1AE
100
AcDbEntity
  8
0
390
0
 62
     7
100
AcDbVertex
100
AcDb2dVertex
 10
72.637955
 20
5.383035
 30
0.0
  0
VERTEX
  5
1AF
100
AcDbEntity
  8
0
390
0
 62
     7
100
AcDbVertex
100
AcDb2dVertex
 10
72.666873
 20
5.410043
 30
0.0
  0
VERTEX
  5
1B0
100
AcDbEntity
  8
0
390
0
 62
     7
100
AcDbVertex
100
AcDb2dVertex
 10
72.697778
 20
5.436552
 30
0.0
  0
VERTEX
  5
1B1
100
AcDbEntity
  8
0
390
0
 62
     7
100
AcDbVertex
100
AcDb2dVertex
 10
72.729817
 20
5.461739
 30
0.0
  0
VERTEX
  5
1B2
100
AcDbEntity
  8
0
390
0
 62
     7
100
AcDbVertex
100
AcDb2dVertex
 10
72.7629
 20
5.485537
 30
0.0
  0
VERTEX
  5
1B3
100
AcDbEntity
  8
0
390
0
 62
     7
100
AcDbVertex
100
AcDb2dVertex
 10
72.796938
 20
5.50788
 30
0.0
  0
VERTEX
  5
1B4
100
AcDbEntity
  8
0
390
0
 62
     7
100
AcDbVertex
100
AcDb2dVertex
 10
72.830905
 20
5.528174
 30
0.0
  0
VERTEX
  5
1B5
100
AcDbEntity
  8
0
390
0
 62
     7
100
AcDbVertex
100
AcDb2dVertex
 10
72.865715
 20
5.547058
 30
0.0
  0
VERTEX
  5
1B6
100
AcDbEntity
  8
0
390
0
 62
     7
100
AcDbVertex
100
AcDb2dVertex
 10
72.901278
 20
5.564482
 30
0.0
  0
VERTEX
  5
1B7
100
AcDbEntity
  8
0
390
0
 62
     7
100
AcDbVertex
100
AcDb2dVertex
 10
72.937502
 20
5.580402
 30
0.0
  0
VERTEX
  5
1B8
100
AcDbEntity
  8
0
390
0
 62
     7
100
AcDbVertex
100
AcDb2dVertex
 10
72.975436
 20
5.595193
 30
0.0
  0
VERTEX
  5
1B9
100
AcDbEntity
  8
0
390
0
 62
     7
100
AcDbVertex
100
AcDb2dVertex
 10
73.014003
 20
5.608361
 30
0.0
  0
VERTEX
  5
1BA
100
AcDbEntity
  8
0
390
0
 62
     7
100
AcDbVertex
100
AcDb2dVertex
 10
73.053095
 20
5.619874
 30
0.0
  0
VERTEX
  5
1BB
100
AcDbEntity
  8
0
390
0
 62
     7
100
AcDbVertex
100
AcDb2dVertex
 10
73.092608
 20
5.629697
 30
0.0
  0
VERTEX
  5
1BC
100
AcDbEntity
  8
0
390
0
 62
     7
100
AcDbVertex
100
AcDb2dVertex
 10
73.12699
 20
5.636802
 30
0.0
  0
VERTEX
  5
1BD
100
AcDbEntity
  8
0
390
0
 62
     7
100
AcDbVertex
100
AcDb2dVertex
 10
73.161622
 20
5.642637
 30
0.0
  0
VERTEX
  5
1BE
100
AcDbEntity
  8
0
390
0
 62
     7
100
AcDbVertex
100
AcDb2dVertex
 10
73.196433
 20
5.647193
 30
0.0
  0
VERTEX
  5
1BF
100
AcDbEntity
  8
0
390
0
 62
     7
100
AcDbVertex
100
AcDb2dVertex
 10
73.231826
 20
5.650493
 30
0.0
  0
VERTEX
  5
1C0
100
AcDbEntity
  8
0
390
0
 62
     7
100
AcDbVertex
100
AcDb2dVertex
 10
73.267329
 20
5.652472
 30
0.0
  0
VERTEX
  5
1C1
100
AcDbEntity
  8
0
390
0
 62
     7
100
AcDbVertex
100
AcDb2dVertex
 10
73.302869
 20
5.653127
 30
0.0
  0
SEQEND
  5
1C2
100
AcDbEntity
  8
0
390
0
  0
LINE
  5
1C3
100
AcDbEntity
  8
0
390
0
  6
Continuous
 62
     7
100
AcDbLine
 10
72.349742
 20
4.7
 30
0.0
 11
71.302869
 21
4.7
 31
0.0
  0
LINE
  5
1C4
100
AcDbEntity
  8
0
390
0
  6
Continuous
 62
     7
100
AcDbLine
 10
72.349742
 20
-4.7
 30
0.0
 11
72.349742
 21
4.7
 31
0.0
  0
LINE
  5
1C5
100
AcDbEntity
  8
0
390
0
  6
Continuous
 62
     7
100
AcDbLine
 10
82.702869
 20
-5.653127
 30
0.0
 11
73.302869
 21
-5.653127
 31
0.0
  0
LINE
  5
1C6
100
AcDbEntity
  8
0
390
0
  6
Continuous
 62
     7
100
AcDbLine
 10
82.702869
 20
-5.653127
 30
0.0
 11
82.702869
 21
-6.7
 31
0.0
  0
LINE
  5
1C7
100
AcDbEntity
  8
0
390
0
  6
Continuous
 62
     7
100
AcDbLine
 10
82.702869
 20
5.653127
 30
0.0
 11
82.702869
 21
6.7
 31
0.0
  0
LINE
  5
1C8
100
AcDbEntity
  8
0
390
0
  6
Continuous
 62
     7
100
AcDbLine
 10
73.302869
 20
5.653127
 30
0.0
 11
82.702869
 21
5.653127
 31
0.0
  0
LINE
  5
1C9
100
AcDbEntity
  8
0
390
0
  6
Continuous
 62
     7
100
AcDbLine
 10
83.655997
 20
4.7
 30
0.0
 11
84.702869
 21
4.7
 31
0.0
  0
POLYLINE
  5
1CA
100
AcDbEntity
  8
0
390
0
  6
Continuous
 62
     7
100
AcDb2dPolyline
 66
     1
 10
0.0
 20
0.0
 30
0.0
 40
0.1
 41
0.1
  0
VERTEX
  5
1CB
100
AcDbEntity
  8
0
390
0
 62
     7
100
AcDbVertex
100
AcDb2dVertex
 10
82.702869
 20
5.653127
 30
0.0
  0
VERTEX
  5
1CC
100
AcDbEntity
  8
0
390
0
 62
     7
100
AcDbVertex
100
AcDb2dVertex
 10
82.742433
 20
5.652313
 30
0.0
  0
VERTEX
  5
1CD
100
AcDbEntity
  8
0
390
0
 62
     7
100
AcDbVertex
100
AcDb2dVertex
 10
82.781964
 20
5.649854
 30
0.0
  0
VERTEX
  5
1CE
100
AcDbEntity
  8
0
390
0
 62
     7
100
AcDbVertex
100
AcDb2dVertex
 10
82.821358
 20
5.64576
 30
0.0
  0
VERTEX
  5
1CF
100
AcDbEntity
  8
0
390
0
 62
     7
100
AcDbVertex
100
AcDb2dVertex
 10
82.860515
 20
5.640039
 30
0.0
  0
VERTEX
  5
1D0
100
AcDbEntity
  8
0
390
0
 62
     7
100
AcDbVertex
100
AcDb2dVertex
 10
82.900522
 20
5.632453
 30
0.0
  0
VERTEX
  5
1D1
100
AcDbEntity
  8
0
390
0
 62
     7
100
AcDbVertex
100
AcDb2dVertex
 10
82.940206
 20
5.623156
 30
0.0
  0
VERTEX
  5
1D2
100
AcDbEntity
  8
0
390
0
 62
     7
100
AcDbVertex
100
AcDb2dVertex
 10
82.979457
 20
5.612176
 30
0.0
  0
VERTEX
  5
1D3
100
AcDbEntity
  8
0
390
0
 62
     7
100
AcDbVertex
100
AcDb2dVertex
 10
83.018168
 20
5.59954
 30
0.0
  0
VERTEX
  5
1D4
100
AcDbEntity
  8
0
390
0
 62
     7
100
AcDbVertex
100
AcDb2dVertex
 10
83.055233
 20
5.585681
 30
0.0
  0
VERTEX
  5
1D5
100
AcDbEntity
  8
0
390
0
 62
     7
100
AcDbVertex
100
AcDb2dVertex
 10
83.091722
 20
5.570282
 30
0.0
  0
VERTEX
  5
1D6
100
AcDbEntity
  8
0
390
0
 62
     7
100
AcDbVertex
100
AcDb2dVertex
 10
83.127542
 20
5.553385
 30
0.0
  0
VERTEX
  5
1D7
100
AcDbEntity
  8
0
390
0
 62
     7
100
AcDbVertex
100
AcDb2dVertex
 10
83.162599
 20
5.53503
 30
0.0
  0
VERTEX
  5
1D8
100
AcDbEntity
  8
0
390
0
 62
     7
100
AcDbVertex
100
AcDb2dVertex
 10
83.197842
 20
5.514634
 30
0.0
  0
VERTEX
  5
1D9
100
AcDbEntity
  8
0
390
0
 62
     7
100
AcDbVertex
100
AcDb2dVertex
 10
83.232214
 20
5.492732
 30
0.0
  0
VERTEX
  5
1DA
100
AcDbEntity
  8
0
390
0
 62
     7
100
AcDbVertex
100
AcDb2dVertex
 10
83.26562
 20
5.469384
 30
0.0
  0
VERTEX
  5
1DB
100
AcDbEntity
  8
0
390
0
 62
     7
100
AcDbVertex
100
AcDb2dVertex
 10
83.297969
 20
5.444652
 30
0.0
  0
VERTEX
  5
1DC
100
AcDbEntity
  8
0
390
0
 62
     7
100
AcDbVertex
100
AcDb2dVertex
 10
83.328359
 20
5.419312
 30
0.0
  0
VERTEX
  5
1DD
100
AcDbEntity
  8
0
390
0
 62
     7
100
AcDbVertex
100
AcDb2dVertex
 10
83.357696
 20
5.392709
 30
0.0
  0
VERTEX
  5
1DE
100
AcDbEntity
  8
0
390
0
 62
     7
100
AcDbVertex
100
AcDb2dVertex
 10
83.385905
 20
5.364914
 30
0.0
  0
VERTEX
  5
1DF
100
AcDbEntity
  8
0
390
0
 62
     7
100
AcDbVertex
100
AcDb2dVertex
 10
83.412913
 20
5.335996
 30
0.0
  0
VERTEX
  5
1E0
100
AcDbEntity
  8
0
390
0
 62
     7
100
AcDbVertex
100
AcDb2dVertex
 10
83.439421
 20
5.305091
 30
0.0
  0
VERTEX
  5
1E1
100
AcDbEntity
  8
0
390
0
 62
     7
100
AcDbVertex
100
AcDb2dVertex
 10
83.464608
 20
5.273053
 30
0.0
  0
VERTEX
  5
1E2
100
AcDbEntity
  8
0
390
0
 62
     7
100
AcDbVertex
100
AcDb2dVertex
 10
83.488407
 20
5.23997
 30
0.0
  0
VERTEX
  5
1E3
100
AcDbEntity
  8
0
390
0
 62
     7
100
AcDbVertex
100
AcDb2dVertex
 10
83.51075
 20
5.205931
 30
0.0
  0
VERTEX
  5
1E4
100
AcDbEntity
  8
0
390
0
 62
     7
100
AcDbVertex
100
AcDb2dVertex
 10
83.531044
 20
5.171964
 30
0.0
  0
VERTEX
  5
1E5
100
AcDbEntity
  8
0
390
0
 62
     7
100
AcDbVertex
100
AcDb2dVertex
 10
83.549927
 20
5.137154
 30
0.0
  0
VERTEX
  5
1E6
100
AcDbEntity
  8
0
390
0
 62
     7
100
AcDbVertex
100
AcDb2dVertex
 10
83.567352
 20
5.101592
 30
0.0
  0
VERTEX
  5
1E7
100
AcDbEntity
  8
0
390
0
 62
     7
100
AcDbVertex
100
AcDb2dVertex
 10
83.583272
 20
5.065368
 30
0.0
  0
VERTEX
  5
1E8
100
AcDbEntity
  8
0
390
0
 62
     7
100
AcDbVertex
100
AcDb2dVertex
 10
83.598062
 20
5.027433
 30
0.0
  0
VERTEX
  5
1E9
100
AcDbEntity
  8
0
390
0
 62
     7
100
AcDbVertex
100
AcDb2dVertex
 10
83.611231
 20
4.988867
 30
0.0
  0
VERTEX
  5
1EA
100
AcDbEntity
  8
0
390
0
 62
     7
100
AcDbVertex
100
AcDb2dVertex
 10
83.622744
 20
4.949774
 30
0.0
  0
VERTEX
  5
1EB
100
AcDbEntity
  8
0
390
0
 62
     7
100
AcDbVertex
100
AcDb2dVertex
 10
83.632567
 20
4.910261
 30
0.0
  0
VERTEX
  5
1EC
100
AcDbEntity
  8
0
390
0
 62
     7
100
AcDbVertex
100
AcDb2dVertex
 10
83.639672
 20
4.875879
 30
0.0
  0
VERTEX
  5
1ED
100
AcDbEntity
  8
0
390
0
 62
     7
100
AcDbVertex
100
AcDb2dVertex
 10
83.645507
 20
4.841248
 30
0.0
  0
VERTEX
  5
1EE
100
AcDbEntity
  8
0
390
0
 62
     7
100
AcDbVertex
100
AcDb2dVertex
 10
83.650062
 20
4.806436
 30
0.0
  0
VERTEX
  5
1EF
100
AcDbEntity
  8
0
390
0
 62
     7
100
AcDbVertex
100
AcDb2dVertex
 10
83.653363
 20
4.771044
 30
0.0
  0
VERTEX
  5
1F0
100
AcDbEntity
  8
0
390
0
 62
     7
100
AcDbVertex
100
AcDb2dVertex
 10
83.655342
 20
4.73554
 30
0.0
  0
VERTEX
  5
1F1
100
AcDbEntity
  8
0
390
0
 62
     7
100
AcDbVertex
100
AcDb2dVertex
 10
83.655997
 20
4.7
 30
0.0
  0
SEQEND
  5
1F2
100
AcDbEntity
  8
0
390
0
  0
POLYLINE
  5
1F3
100
AcDbEntity
  8
0
390
0
  6
Continuous
 62
     7
100
AcDb2dPolyline
 66
     1
 10
0.0
 20
0.0
 30
0.0
 40
0.1
 41
0.1
  0
VERTEX
  5
1F4
100
AcDbEntity
  8
0
390
0
 62
     7
100
AcDbVertex
100
AcDb2dVertex
 10
83.655997
 20
-4.7
 30
0.0
  0
VERTEX
  5
1F5
100
AcDbEntity
  8
0
390
0
 62
     7
100
AcDbVertex
100
AcDb2dVertex
 10
83.655182
 20
-4.739564
 30
0.0
  0
VERTEX
  5
1F6
100
AcDbEntity
  8
0
390
0
 62
     7
100
AcDbVertex
100
AcDb2dVertex
 10
83.652724
 20
-4.779094
 30
0.0
  0
VERTEX
  5
1F7
100
AcDbEntity
  8
0
390
0
 62
     7
100
AcDbVertex
100
AcDb2dVertex
 10
83.64863
 20
-4.818489
 30
0.0
  0
VERTEX
  5
1F8
100
AcDbEntity
  8
0
390
0
 62
     7
100
AcDbVertex
100
AcDb2dVertex
 10
83.642909
 20
-4.857645
 30
0.0
  0
VERTEX
  5
1F9
100
AcDbEntity
  8
0
390
0
 62
     7
100
AcDbVertex
100
AcDb2dVertex
 10
83.635323
 20
-4.897653
 30
0.0
  0
VERTEX
  5
1FA
100
AcDbEntity
  8
0
390
0
 62
     7
100
AcDbVertex
100
AcDb2dVertex
 10
83.626026
 20
-4.937337
 30
0.0
  0
VERTEX
  5
1FB
100
AcDbEntity
  8
0
390
0
 62
     7
100
AcDbVertex
100
AcDb2dVertex
 10
83.615046
 20
-4.976588
 30
0.0
  0
VERTEX
  5
1FC
100
AcDbEntity
  8
0
390
0
 62
     7
100
AcDbVertex
100
AcDb2dVertex
 10
83.60241
 20
-5.015299
 30
0.0
  0
VERTEX
  5
1FD
100
AcDbEntity
  8
0
390
0
 62
     7
100
AcDbVertex
100
AcDb2dVertex
 10
83.588551
 20
-5.052364
 30
0.0
  0
VERTEX
  5
1FE
100
AcDbEntity
  8
0
390
0
 62
     7
100
AcDbVertex
100
AcDb2dVertex
 10
83.573152
 20
-5.088853
 30
0.0
  0
VERTEX
  5
1FF
100
AcDbEntity
  8
0
390
0
 62
     7
100
AcDbVertex
100
AcDb2dVertex
 10
83.556254
 20
-5.124673
 30
0.0
  0
VERTEX
  5
200
100
AcDbEntity
  8
0
390
0
 62
     7
100
AcDbVertex
100
AcDb2dVertex
 10
83.5379
 20
-5.15973
 30
0.0
  0
VERTEX
  5
201
100
AcDbEntity
  8
0
390
0
 62
     7
100
AcDbVertex
100
AcDb2dVertex
 10
83.517504
 20
-5.194973
 30
0.0
  0
VERTEX
  5
202
100
AcDbEntity
  8
0
390
0
 62
     7
100
AcDbVertex
100
AcDb2dVertex
 10
83.495601
 20
-5.229345
 30
0.0
  0
VERTEX
  5
203
100
AcDbEntity
  8
0
390
0
 62
     7
100
AcDbVertex
100
AcDb2dVertex
 10
83.472253
 20
-5.262751
 30
0.0
  0
VERTEX
  5
204
100
AcDbEntity
  8
0
390
0
 62
     7
100
AcDbVertex
100
AcDb2dVertex
 10
83.447522
 20
-5.2951
 30
0.0
  0
VERTEX
  5
205
100
AcDbEntity
  8
0
390
0
 62
     7
100
AcDbVertex
100
AcDb2dVertex
 10
83.422182
 20
-5.325489
 30
0.0
  0
VERTEX
  5
206
100
AcDbEntity
  8
0
390
0
 62
     7
100
AcDbVertex
100
AcDb2dVertex
 10
83.395579
 20
-5.354826
 30
0.0
  0
VERTEX
  5
207
100
AcDbEntity
  8
0
390
0
 62
     7
100
AcDbVertex
100
AcDb2dVertex
 10
83.367784
 20
-5.383036
 30
0.0
  0
VERTEX
  5
208
100
AcDbEntity
  8
0
390
0
 62
     7
100
AcDbVertex
100
AcDb2dVertex
 10
83.338866
 20
-5.410044
 30
0.0
  0
VERTEX
  5
209
100
AcDbEntity
  8
0
390
0
 62
     7
100
AcDbVertex
100
AcDb2dVertex
 10
83.307961
 20
-5.436552
 30
0.0
  0
VERTEX
  5
20A
100
AcDbEntity
  8
0
390
0
 62
     7
100
AcDbVertex
100
AcDb2dVertex
 10
83.275922
 20
-5.461739
 30
0.0
  0
VERTEX
  5
20B
100
AcDbEntity
  8
0
390
0
 62
     7
100
AcDbVertex
100
AcDb2dVertex
 10
83.242839
 20
-5.485538
 30
0.0
  0
VERTEX
  5
20C
100
AcDbEntity
  8
0
390
0
 62
     7
100
AcDbVertex
100
AcDb2dVertex
 10
83.208801
 20
-5.50788
 30
0.0
  0
VERTEX
  5
20D
100
AcDbEntity
  8
0
390
0
 62
     7
100
AcDbVertex
100
AcDb2dVertex
 10
83.174834
 20
-5.528175
 30
0.0
  0
VERTEX
  5
20E
100
AcDbEntity
  8
0
390
0
 62
     7
100
AcDbVertex
100
AcDb2dVertex
 10
83.140024
 20
-5.547058
 30
0.0
  0
VERTEX
  5
20F
100
AcDbEntity
  8
0
390
0
 62
     7
100
AcDbVertex
100
AcDb2dVertex
 10
83.104461
 20
-5.564483
 30
0.0
  0
VERTEX
  5
210
100
AcDbEntity
  8
0
390
0
 62
     7
100
AcDbVertex
100
AcDb2dVertex
 10
83.068237
 20
-5.580403
 30
0.0
  0
VERTEX
  5
211
100
AcDbEntity
  8
0
390
0
 62
     7
100
AcDbVertex
100
AcDb2dVertex
 10
83.030303
 20
-5.595193
 30
0.0
  0
VERTEX
  5
212
100
AcDbEntity
  8
0
390
0
 62
     7
100
AcDbVertex
100
AcDb2dVertex
 10
82.991736
 20
-5.608362
 30
0.0
  0
VERTEX
  5
213
100
AcDbEntity
  8
0
390
0
 62
     7
100
AcDbVertex
100
AcDb2dVertex
 10
82.952644
 20
-5.619875
 30
0.0
  0
VERTEX
  5
214
100
AcDbEntity
  8
0
390
0
 62
     7
100
AcDbVertex
100
AcDb2dVertex
 10
82.913131
 20
-5.629698
 30
0.0
  0
VERTEX
  5
215
100
AcDbEntity
  8
0
390
0
 62
     7
100
AcDbVertex
100
AcDb2dVertex
 10
82.871619
 20
-5.638105
 30
0.0
  0
VERTEX
  5
216
100
AcDbEntity
  8
0
390
0
 62
     7
100
AcDbVertex
100
AcDb2dVertex
 10
82.829713
 20
-5.644665
 30
0.0
  0
VERTEX
  5
217
100
AcDbEntity
  8
0
390
0
 62
     7
100
AcDbVertex
100
AcDb2dVertex
 10
82.787536
 20
-5.649365
 30
0.0
  0
VERTEX
  5
218
100
AcDbEntity
  8
0
390
0
 62
     7
100
AcDbVertex
100
AcDb2dVertex
 10
82.745213
 20
-5.65219
 30
0.0
  0
VERTEX
  5
219
100
AcDbEntity
  8
0
390
0
 62
     7
100
AcDbVertex
100
AcDb2dVertex
 10
82.702869
 20
-5.653127
 30
0.0
  0
SEQEND
  5
21A
100
AcDbEntity
  8
0
390
0
  0
LINE
  5
21B
100
AcDbEntity
  8
0
390
0
  6
Continuous
 62
     7
100
AcDbLine
 10
83.655997
 20
-4.7
 30
0.0
 11
84.702869
 21
-4.7
 31
0.0
  0
LINE
  5
21C
100
AcDbEntity
  8
0
390
0
  6
Continuous
 62
     7
100
AcDbLine
 10
83.655997
 20
4.7
 30
0.0
 11
83.655997
 21
-4.7
 31
0.0
  0
ARC
  5
21D
100
AcDbEntity
  8
0
390
0
  6
Continuous
 62
     7
100
AcDbCircle
 10
72.002869
 20
-12.7
 30
0.0
 40
1.0
210
0.0
220
0.0
230
1.0
100
AcDbArc
 50
180.0
 51
270.0
  0
LINE
  5
21E
100
AcDbEntity
  8
0
390
0
  6
Continuous
 62
     7
100
AcDbLine
 10
71.002869
 20
-10.8
 30
0.0
 11
71.002869
 21
-12.7
 31
0.0
  0
ARC
  5
21F
100
AcDbEntity
  8
0
390
0
  6
Continuous
 62
     7
100
AcDbCircle
 10
84.002869
 20
-12.7
 30
0.0
 40
1.0
210
0.0
220
0.0
230
1.0
100
AcDbArc
 50
270.0
 51
360.0
  0
LINE
  5
220
100
AcDbEntity
  8
0
390
0
  6
Continuous
 62
     7
100
AcDbLine
 10
84.002869
 20
-13.7
 30
0.0
 11
72.002869
 21
-13.7
 31
0.0
  0
LINE
  5
221
100
AcDbEntity
  8
0
390
0
  6
Continuous
 62
     7
100
AcDbLine
 10
85.002869
 20
-10.8
 30
0.0
 11
85.002869
 21
-12.7
 31
0.0
  0
ARC
  5
222
100
AcDbEntity
  8
0
390
0
  6
Continuous
 62
     7
100
AcDbCircle
 10
65.302869
 20
6.0
 30
0.0
 40
1.0
210
0.0
220
0.0
230
1.0
100
AcDbArc
 50
90.0
 51
180.0
  0
ARC
  5
223
100
AcDbEntity
  8
0
390
0
  6
Continuous
 62
     7
100
AcDbCircle
 10
65.302869
 20
-6.0
 30
0.0
 40
1.0
210
0.0
220
0.0
230
1.0
100
AcDbArc
 50
180.0
 51
270.0
  0
LINE
  5
224
100
AcDbEntity
  8
0
390
0
  6
Continuous
 62
     7
100
AcDbLine
 10
64.302869
 20
-6.0
 30
0.0
 11
64.302869
 21
6.0
 31
0.0
  0
LINE
  5
225
100
AcDbEntity
  8
0
390
0
  6
Continuous
 62
     7
100
AcDbLine
 10
67.202869
 20
-7.0
 30
0.0
 11
65.302869
 21
-7.0
 31
0.0
  0
LINE
  5
226
100
AcDbEntity
  8
0
390
0
  6
Continuous
 62
     7
100
AcDbLine
 10
67.202869
 20
7.0
 30
0.0
 11
65.302869
 21
7.0
 31
0.0
  0
ARC
  5
227
100
AcDbEntity
  8
0
390
0
  6
Continuous
 62
     7
100
AcDbCircle
 10
84.002869
 20
12.7
 30
0.0
 40
1.0
210
0.0
220
0.0
230
1.0
100
AcDbArc
 50
0.0
 51
90.0
  0
ARC
  5
228
100
AcDbEntity
  8
0
390
0
  6
Continuous
 62
     7
100
AcDbCircle
 10
72.002869
 20
12.7
 30
0.0
 40
1.0
210
0.0
220
0.0
230
1.0
100
AcDbArc
 50
90.0
 51
180.0
  0
LINE
  5
229
100
AcDbEntity
  8
0
390
0
  6
Continuous
 62
     7
100
AcDbLine
 10
72.002869
 20
13.7
 30
0.0
 11
84.002869
 21
13.7
 31
0.0
  0
LINE
  5
22A
100
AcDbEntity
  8
0
390
0
  6
Continuous
 62
     7
100
AcDbLine
 10
85.002869
 20
10.8
 30
0.0
 11
85.002869
 21
12.7
 31
0.0
  0
LINE
  5
22B
100
AcDbEntity
  8
0
390
0
  6
Continuous
 62
     7
100
AcDbLine
 10
71.002869
 20
10.8
 30
0.0
 11
71.002869
 21
12.7
 31
0.0
  0
ARC
  5
22C
100
AcDbEntity
  8
0
390
0
  6
Continuous
 62
     7
100
AcDbCircle
 10
90.702869
 20
-6.0
 30
0.0
 40
1.0
210
0.0
220
0.0
230
1.0
100
AcDbArc
 50
270.0
 51
360.0
  0
ARC
  5
22D
100
AcDbEntity
  8
0
390
0
  6
Continuous
 62
     7
100
AcDbCircle
 10
90.702869
 20
6.0
 30
0.0
 40
1.0
210
0.0
220
0.0
230
1.0
100
AcDbArc
 50
0.0
 51
90.0
  0
LINE
  5
22E
100
AcDbEntity
  8
0
390
0
  6
Continuous
 62
     7
100
AcDbLine
 10
91.702869
 20
6.0
 30
0.0
 11
91.702869
 21
-6.0
 31
0.0
  0
LINE
  5
22F
100
AcDbEntity
  8
0
390
0
  6
Continuous
 62
     7
100
AcDbLine
 10
88.802869
 20
-7.0
 30
0.0
 11
90.702869
 21
-7.0
 31
0.0
  0
LINE
  5
230
100
AcDbEntity
  8
0
390
0
  6
Continuous
 62
     7
100
AcDbLine
 10
88.802869
 20
7.0
 30
0.0
 11
90.702869
 21
7.0
 31
0.0
  0
LINE
  5
231
100
AcDbEntity
  8
0
390
0
  6
Continuous
 62
     7
100
AcDbLine
 10
90.002869
 20
-15.0
 30
0.0
 11
66.002869
 21
-15.0
 31
0.0
  0
ARC
  5
232
100
AcDbEntity
  8
0
390
0
  6
Continuous
 62
     7
100
AcDbCircle
 10
66.002869
 20
-12.0
 30
0.0
 40
3.0
210
0.0
220
0.0
230
1.0
100
AcDbArc
 50
180.0
 51
270.0
  0
LINE
  5
233
100
AcDbEntity
  8
0
390
0
  6
Continuous
 62
     7
100
AcDbLine
 10
63.002869
 20
-12.0
 30
0.0
 11
63.002869
 21
12.0
 31
0.0
  0
ARC
  5
234
100
AcDbEntity
  8
0
390
0
  6
Continuous
 62
     7
100
AcDbCircle
 10
66.002869
 20
12.0
 30
0.0
 40
3.0
210
0.0
220
0.0
230
1.0
100
AcDbArc
 50
90.0
 51
180.0
  0
LINE
  5
235
100
AcDbEntity
  8
0
390
0
  6
Continuous
 62
     7
100
AcDbLine
 10
66.002869
 20
15.0
 30
0.0
 11
90.002869
 21
15.0
 31
0.0
  0
ARC
  5
236
100
AcDbEntity
  8
0
390
0
  6
Continuous
 62
     7
100
AcDbCircle
 10
90.002869
 20
12.0
 30
0.0
 40
3.0
210
0.0
220
0.0
230
1.0
100
AcDbArc
 50
0.0
 51
90.0
  0
LINE
  5
237
100
AcDbEntity
  8
0
390
0
  6
Continuous
 62
     7
100
AcDbLine
 10
93.002869
 20
12.0
 30
0.0
 11
93.002869
 21
-12.0
 31
0.0
  0
ARC
  5
238
100
AcDbEntity
  8
0
390
0
  6
Continuous
 62
     7
100
AcDbCircle
 10
90.002869
 20
-12.0
 30
0.0
 40
3.0
210
0.0
220
0.0
230
1.0
100
AcDbArc
 50
270.0
 51
360.0
  0
LINE
  5
239
100
AcDbEntity
  8
0
390
0
  6
Continuous
 62
     7
100
AcDbLine
 10
72.84313
 20
4.705405
 30
0.0
 11
72.84313
 21
-4.705406
 31
0.0
  0
ELLIPSE
  5
23A
100
AcDbEntity
  8
0
390
0
  6
Continuous
 62
     7
100
AcDbEllipse
 10
72.849057
 20
-4.7
 30
0.0
 11
-0.4999999196241278
 21
0.0002835063594442
 31
0.0
210
0.0
220
0.0
230
1.0
 40
0.010819
 41
0.0523629447957235
 42
1.5589471692152486
  0
ELLIPSE
  5
23B
100
AcDbEntity
  8
0
390
0
  6
Continuous
 62
     7
100
AcDbEllipse
 10
72.849057
 20
4.7
 30
0.0
 11
-0.4999999196241278
 21
-0.0002835063594442
 31
0.0
210
0.0
220
0.0
230
1.0
 40
0.010819
 41
4.7242381379642655
 42
6.2308223623839192
  0
ELLIPSE
  5
23C
100
AcDbEntity
  8
0
390
0
  6
Continuous
 62
     7
100
AcDbEllipse
 10
83.156682
 20
-4.7
 30
0.0
 11
-0.4999999196241278
 21
-0.0002835063594442
 31
0.0
210
0.0
220
0.0
230
1.0
 40
0.010819
 41
1.5826454843745976
 42
3.0892297087941194
  0
LINE
  5
23D
100
AcDbEntity
  8
0
390
0
  6
Continuous
 62
     7
100
AcDbLine
 10
83.162609
 20
-4.705406
 30
0.0
 11
83.162609
 21
4.705405
 31
0.0
  0
ELLIPSE
  5
23E
100
AcDbEntity
  8
0
390
0
  6
Continuous
 62
     7
100
AcDbEllipse
 10
83.156682
 20
4.7
 30
0.0
 11
-0.4999999196241278
 21
0.0002835063594442
 31
0.0
210
0.0
220
0.0
230
1.0
 40
0.010819
 41
3.193955598385354
 42
4.7005398228051147
  0
LINE
  5
23F
100
AcDbEntity
  8
0
390
0
  6
Continuous
 62
     7
100
AcDbLine
 10
82.708275
 20
5.15974
 30
0.0
 11
73.297464
 21
5.15974
 31
0.0
  0
ELLIPSE
  5
240
100
AcDbEntity
  8
0
390
0
  6
Continuous
 62
     7
100
AcDbEllipse
 10
73.302869
 20
5.153812
 30
0.0
 11
0.0002835063594442
 21
0.4999999196241833
 31
0.0
210
0.0
220
0.0
230
1.0
 40
0.010819
 41
0.0523629447955043
 42
1.5589471692150818
  0
ELLIPSE
  5
241
100
AcDbEntity
  8
0
390
0
  6
Continuous
 62
     7
100
AcDbEllipse
 10
82.702869
 20
5.153812
 30
0.0
 11
-0.0002835063594442
 21
0.4999999196241833
 31
0.0
210
0.0
220
0.0
230
1.0
 40
0.010819
 41
4.7242381379644476
 42
6.2308223623838597
  0
ELLIPSE
  5
242
100
AcDbEntity
  8
0
390
0
  6
Continuous
 62
     7
100
AcDbEllipse
 10
73.302869
 20
-5.153813
 30
0.0
 11
-0.0002835063594442
 21
0.4999999196241278
 31
0.0
210
0.0
220
0.0
230
0.9999999999999999
 40
0.010819
 41
1.5826454843745954
 42
3.0892297087941194
  0
LINE
  5
243
100
AcDbEntity
  8
0
390
0
  6
Continuous
 62
     7
100
AcDbLine
 10
73.297464
 20
-5.15974
 30
0.0
 11
82.708275
 21
-5.15974
 31
0.0
  0
ELLIPSE
  5
244
100
AcDbEntity
  8
0
390
0
  6
Continuous
 62
     7
100
AcDbEllipse
 10
82.702869
 20
-5.153813
 30
0.0
 11
0.0002835063594442
 21
0.4999999196241278
 31
0.0
210
0.0
220
0.0
230
0.9999999999999999
 40
0.010819
 41
3.1939555983854664
 42
4.7005398228049886
  0
POLYLINE
  5
245
100
AcDbEntity
  8
0
390
0
  6
Continuous
 62
     7
100
AcDb2dPolyline
 66
     1
 10
0.0
 20
0.0
 30
0.0
 40
0.1
 41
0.1
  0
VERTEX
  5
246
100
AcDbEntity
  8
0
390
0
 62
     7
100
AcDbVertex
100
AcDb2dVertex
 10
72.84313
 20
-4.705406
 30
0.0
  0
VERTEX
  5
247
100
AcDbEntity
  8
0
390
0
 62
     7
100
AcDbVertex
100
AcDb2dVertex
 10
72.84357
 20
-4.725591
 30
0.0
  0
VERTEX
  5
248
100
AcDbEntity
  8
0
390
0
 62
     7
100
AcDbVertex
100
AcDb2dVertex
 10
72.84491
 20
-4.745767
 30
0.0
  0
VERTEX
  5
249
100
AcDbEntity
  8
0
390
0
 62
     7
100
AcDbVertex
100
AcDb2dVertex
 10
72.847144
 20
-4.765874
 30
0.0
  0
VERTEX
  5
24A
100
AcDbEntity
  8
0
390
0
 62
     7
100
AcDbVertex
100
AcDb2dVertex
 10
72.850265
 20
-4.785853
 30
0.0
  0
VERTEX
  5
24B
100
AcDbEntity
  8
0
390
0
 62
     7
100
AcDbVertex
100
AcDb2dVertex
 10
72.854267
 20
-4.805643
 30
0.0
  0
VERTEX
  5
24C
100
AcDbEntity
  8
0
390
0
 62
     7
100
AcDbVertex
100
AcDb2dVertex
 10
72.858802
 20
-4.823952
 30
0.0
  0
VERTEX
  5
24D
100
AcDbEntity
  8
0
390
0
 62
     7
100
AcDbVertex
100
AcDb2dVertex
 10
72.864098
 20
-4.842073
 30
0.0
  0
VERTEX
  5
24E
100
AcDbEntity
  8
0
390
0
 62
     7
100
AcDbVertex
100
AcDb2dVertex
 10
72.870141
 20
-4.859959
 30
0.0
  0
VERTEX
  5
24F
100
AcDbEntity
  8
0
390
0
 62
     7
100
AcDbVertex
100
AcDb2dVertex
 10
72.876915
 20
-4.877563
 30
0.0
  0
VERTEX
  5
250
100
AcDbEntity
  8
0
390
0
 62
     7
100
AcDbVertex
100
AcDb2dVertex
 10
72.884646
 20
-4.895368
 30
0.0
  0
VERTEX
  5
251
100
AcDbEntity
  8
0
390
0
 62
     7
100
AcDbVertex
100
AcDb2dVertex
 10
72.893139
 20
-4.912842
 30
0.0
  0
VERTEX
  5
252
100
AcDbEntity
  8
0
390
0
 62
     7
100
AcDbVertex
100
AcDb2dVertex
 10
72.90237
 20
-4.929937
 30
0.0
  0
VERTEX
  5
253
100
AcDbEntity
  8
0
390
0
 62
     7
100
AcDbVertex
100
AcDb2dVertex
 10
72.912313
 20
-4.946608
 30
0.0
  0
VERTEX
  5
254
100
AcDbEntity
  8
0
390
0
 62
     7
100
AcDbVertex
100
AcDb2dVertex
 10
72.922653
 20
-4.962385
 30
0.0
  0
VERTEX
  5
255
100
AcDbEntity
  8
0
390
0
 62
     7
100
AcDbVertex
100
AcDb2dVertex
 10
72.933649
 20
-4.977732
 30
0.0
  0
VERTEX
  5
256
100
AcDbEntity
  8
0
390
0
 62
     7
100
AcDbVertex
100
AcDb2dVertex
 10
72.945271
 20
-4.99261
 30
0.0
  0
VERTEX
  5
257
100
AcDbEntity
  8
0
390
0
 62
     7
100
AcDbVertex
100
AcDb2dVertex
 10
72.957491
 20
-5.00698
 30
0.0
  0
VERTEX
  5
258
100
AcDbEntity
  8
0
390
0
 62
     7
100
AcDbVertex
100
AcDb2dVertex
 10
72.97068
 20
-5.021223
 30
0.0
  0
VERTEX
  5
259
100
AcDbEntity
  8
0
390
0
 62
     7
100
AcDbVertex
100
AcDb2dVertex
 10
72.984479
 20
-5.034901
 30
0.0
  0
VERTEX
  5
25A
100
AcDbEntity
  8
0
390
0
 62
     7
100
AcDbVertex
100
AcDb2dVertex
 10
72.998848
 20
-5.047978
 30
0.0
  0
VERTEX
  5
25B
100
AcDbEntity
  8
0
390
0
 62
     7
100
AcDbVertex
100
AcDb2dVertex
 10
73.01375
 20
-5.060417
 30
0.0
  0
VERTEX
  5
25C
100
AcDbEntity
  8
0
390
0
 62
     7
100
AcDbVertex
100
AcDb2dVertex
 10
73.02873
 20
-5.071883
 30
0.0
  0
VERTEX
  5
25D
100
AcDbEntity
  8
0
390
0
 62
     7
100
AcDbVertex
100
AcDb2dVertex
 10
73.044187
 20
-5.082726
 30
0.0
  0
VERTEX
  5
25E
100
AcDbEntity
  8
0
390
0
 62
     7
100
AcDbVertex
100
AcDb2dVertex
 10
73.060081
 20
-5.092919
 30
0.0
  0
VERTEX
  5
25F
100
AcDbEntity
  8
0
390
0
 62
     7
100
AcDbVertex
100
AcDb2dVertex
 10
73.07637
 20
-5.102435
 30
0.0
  0
VERTEX
  5
260
100
AcDbEntity
  8
0
390
0
 62
     7
100
AcDbVertex
100
AcDb2dVertex
 10
73.093531
 20
-5.111509
 30
0.0
  0
VERTEX
  5
261
100
AcDbEntity
  8
0
390
0
 62
     7
100
AcDbVertex
100
AcDb2dVertex
 10
73.11108
 20
-5.119849
 30
0.0
  0
VERTEX
  5
262
100
AcDbEntity
  8
0
390
0
 62
     7
100
AcDbVertex
100
AcDb2dVertex
 10
73.12897
 20
-5.127432
 30
0.0
  0
VERTEX
  5
263
100
AcDbEntity
  8
0
390
0
 62
     7
100
AcDbVertex
100
AcDb2dVertex
 10
73.14715
 20
-5.134238
 30
0.0
  0
VERTEX
  5
264
100
AcDbEntity
  8
0
390
0
 62
     7
100
AcDbVertex
100
AcDb2dVertex
 10
73.165081
 20
-5.140099
 30
0.0
  0
VERTEX
  5
265
100
AcDbEntity
  8
0
390
0
 62
     7
100
AcDbVertex
100
AcDb2dVertex
 10
73.183256
 20
-5.145214
 30
0.0
  0
VERTEX
  5
266
100
AcDbEntity
  8
0
390
0
 62
     7
100
AcDbVertex
100
AcDb2dVertex
 10
73.201628
 20
-5.149571
 30
0.0
  0
VERTEX
  5
267
100
AcDbEntity
  8
0
390
0
 62
     7
100
AcDbVertex
100
AcDb2dVertex
 10
73.220148
 20
-5.153158
 30
0.0
  0
VERTEX
  5
268
100
AcDbEntity
  8
0
390
0
 62
     7
100
AcDbVertex
100
AcDb2dVertex
 10
73.239345
 20
-5.15604
 30
0.0
  0
VERTEX
  5
269
100
AcDbEntity
  8
0
390
0
 62
     7
100
AcDbVertex
100
AcDb2dVertex
 10
73.258665
 20
-5.158101
 30
0.0
  0
VERTEX
  5
26A
100
AcDbEntity
  8
0
390
0
 62
     7
100
AcDbVertex
100
AcDb2dVertex
 10
73.278056
 20
-5.159336
 30
0.0
  0
VERTEX
  5
26B
100
AcDbEntity
  8
0
390
0
 62
     7
100
AcDbVertex
100
AcDb2dVertex
 10
73.297464
 20
-5.15974
 30
0.0
  0
SEQEND
  5
26C
100
AcDbEntity
  8
0
390
0
  0
POLYLINE
  5
26D
100
AcDbEntity
  8
0
390
0
  6
Continuous
 62
     7
100
AcDb2dPolyline
 66
     1
 10
0.0
 20
0.0
 30
0.0
 40
0.1
 41
0.1
  0
VERTEX
  5
26E
100
AcDbEntity
  8
0
390
0
 62
     7
100
AcDbVertex
100
AcDb2dVertex
 10
73.297464
 20
5.15974
 30
0.0
  0
VERTEX
  5
26F
100
AcDbEntity
  8
0
390
0
 62
     7
100
AcDbVertex
100
AcDb2dVertex
 10
73.277278
 20
5.1593
 30
0.0
  0
VERTEX
  5
270
100
AcDbEntity
  8
0
390
0
 62
     7
100
AcDbVertex
100
AcDb2dVertex
 10
73.257102
 20
5.157959
 30
0.0
  0
VERTEX
  5
271
100
AcDbEntity
  8
0
390
0
 62
     7
100
AcDbVertex
100
AcDb2dVertex
 10
73.236995
 20
5.155725
 30
0.0
  0
VERTEX
  5
272
100
AcDbEntity
  8
0
390
0
 62
     7
100
AcDbVertex
100
AcDb2dVertex
 10
73.217017
 20
5.152604
 30
0.0
  0
VERTEX
  5
273
100
AcDbEntity
  8
0
390
0
 62
     7
100
AcDbVertex
100
AcDb2dVertex
 10
73.197227
 20
5.148602
 30
0.0
  0
VERTEX
  5
274
100
AcDbEntity
  8
0
390
0
 62
     7
100
AcDbVertex
100
AcDb2dVertex
 10
73.178917
 20
5.144067
 30
0.0
  0
VERTEX
  5
275
100
AcDbEntity
  8
0
390
0
 62
     7
100
AcDbVertex
100
AcDb2dVertex
 10
73.160797
 20
5.138771
 30
0.0
  0
VERTEX
  5
276
100
AcDbEntity
  8
0
390
0
 62
     7
100
AcDbVertex
100
AcDb2dVertex
 10
73.142911
 20
5.132728
 30
0.0
  0
VERTEX
  5
277
100
AcDbEntity
  8
0
390
0
 62
     7
100
AcDbVertex
100
AcDb2dVertex
 10
73.125306
 20
5.125954
 30
0.0
  0
VERTEX
  5
278
100
AcDbEntity
  8
0
390
0
 62
     7
100
AcDbVertex
100
AcDb2dVertex
 10
73.107502
 20
5.118223
 30
0.0
  0
VERTEX
  5
279
100
AcDbEntity
  8
0
390
0
 62
     7
100
AcDbVertex
100
AcDb2dVertex
 10
73.090028
 20
5.10973
 30
0.0
  0
VERTEX
  5
27A
100
AcDbEntity
  8
0
390
0
 62
     7
100
AcDbVertex
100
AcDb2dVertex
 10
73.072932
 20
5.100499
 30
0.0
  0
VERTEX
  5
27B
100
AcDbEntity
  8
0
390
0
 62
     7
100
AcDbVertex
100
AcDb2dVertex
 10
73.056262
 20
5.090556
 30
0.0
  0
VERTEX
  5
27C
100
AcDbEntity
  8
0
390
0
 62
     7
100
AcDbVertex
100
AcDb2dVertex
 10
73.040485
 20
5.080216
 30
0.0
  0
VERTEX
  5
27D
100
AcDbEntity
  8
0
390
0
 62
     7
100
AcDbVertex
100
AcDb2dVertex
 10
73.025138
 20
5.06922
 30
0.0
  0
VERTEX
  5
27E
100
AcDbEntity
  8
0
390
0
 62
     7
100
AcDbVertex
100
AcDb2dVertex
 10
73.01026
 20
5.057598
 30
0.0
  0
VERTEX
  5
27F
100
AcDbEntity
  8
0
390
0
 62
     7
100
AcDbVertex
100
AcDb2dVertex
 10
72.99589
 20
5.045378
 30
0.0
  0
VERTEX
  5
280
100
AcDbEntity
  8
0
390
0
 62
     7
100
AcDbVertex
100
AcDb2dVertex
 10
72.981647
 20
5.032189
 30
0.0
  0
VERTEX
  5
281
100
AcDbEntity
  8
0
390
0
 62
     7
100
AcDbVertex
100
AcDb2dVertex
 10
72.967969
 20
5.01839
 30
0.0
  0
VERTEX
  5
282
100
AcDbEntity
  8
0
390
0
 62
     7
100
AcDbVertex
100
AcDb2dVertex
 10
72.954892
 20
5.004021
 30
0.0
  0
VERTEX
  5
283
100
AcDbEntity
  8
0
390
0
 62
     7
100
AcDbVertex
100
AcDb2dVertex
 10
72.942452
 20
4.989119
 30
0.0
  0
VERTEX
  5
284
100
AcDbEntity
  8
0
390
0
 62
     7
100
AcDbVertex
100
AcDb2dVertex
 10
72.930987
 20
4.974139
 30
0.0
  0
VERTEX
  5
285
100
AcDbEntity
  8
0
390
0
 62
     7
100
AcDbVertex
100
AcDb2dVertex
 10
72.920144
 20
4.958682
 30
0.0
  0
VERTEX
  5
286
100
AcDbEntity
  8
0
390
0
 62
     7
100
AcDbVertex
100
AcDb2dVertex
 10
72.909951
 20
4.942788
 30
0.0
  0
VERTEX
  5
287
100
AcDbEntity
  8
0
390
0
 62
     7
100
AcDbVertex
100
AcDb2dVertex
 10
72.900435
 20
4.9265
 30
0.0
  0
VERTEX
  5
288
100
AcDbEntity
  8
0
390
0
 62
     7
100
AcDbVertex
100
AcDb2dVertex
 10
72.891361
 20
4.909338
 30
0.0
  0
VERTEX
  5
289
100
AcDbEntity
  8
0
390
0
 62
     7
100
AcDbVertex
100
AcDb2dVertex
 10
72.883021
 20
4.891789
 30
0.0
  0
VERTEX
  5
28A
100
AcDbEntity
  8
0
390
0
 62
     7
100
AcDbVertex
100
AcDb2dVertex
 10
72.875437
 20
4.8739
 30
0.0
  0
VERTEX
  5
28B
100
AcDbEntity
  8
0
390
0
 62
     7
100
AcDbVertex
100
AcDb2dVertex
 10
72.868632
 20
4.855719
 30
0.0
  0
VERTEX
  5
28C
100
AcDbEntity
  8
0
390
0
 62
     7
100
AcDbVertex
100
AcDb2dVertex
 10
72.862771
 20
4.837788
 30
0.0
  0
VERTEX
  5
28D
100
AcDbEntity
  8
0
390
0
 62
     7
100
AcDbVertex
100
AcDb2dVertex
 10
72.857656
 20
4.819613
 30
0.0
  0
VERTEX
  5
28E
100
AcDbEntity
  8
0
390
0
 62
     7
100
AcDbVertex
100
AcDb2dVertex
 10
72.853299
 20
4.801242
 30
0.0
  0
VERTEX
  5
28F
100
AcDbEntity
  8
0
390
0
 62
     7
100
AcDbVertex
100
AcDb2dVertex
 10
72.849711
 20
4.782721
 30
0.0
  0
VERTEX
  5
290
100
AcDbEntity
  8
0
390
0
 62
     7
100
AcDbVertex
100
AcDb2dVertex
 10
72.84683
 20
4.763524
 30
0.0
  0
VERTEX
  5
291
100
AcDbEntity
  8
0
390
0
 62
     7
100
AcDbVertex
100
AcDb2dVertex
 10
72.844769
 20
4.744204
 30
0.0
  0
VERTEX
  5
292
100
AcDbEntity
  8
0
390
0
 62
     7
100
AcDbVertex
100
AcDb2dVertex
 10
72.843534
 20
4.724813
 30
0.0
  0
VERTEX
  5
293
100
AcDbEntity
  8
0
390
0
 62
     7
100
AcDbVertex
100
AcDb2dVertex
 10
72.84313
 20
4.705405
 30
0.0
  0
SEQEND
  5
294
100
AcDbEntity
  8
0
390
0
  0
POLYLINE
  5
295
100
AcDbEntity
  8
0
390
0
  6
Continuous
 62
     7
100
AcDb2dPolyline
 66
     1
 10
0.0
 20
0.0
 30
0.0
 40
0.1
 41
0.1
  0
VERTEX
  5
296
100
AcDbEntity
  8
0
390
0
 62
     7
100
AcDbVertex
100
AcDb2dVertex
 10
83.162609
 20
4.705405
 30
0.0
  0
VERTEX
  5
297
100
AcDbEntity
  8
0
390
0
 62
     7
100
AcDbVertex
100
AcDb2dVertex
 10
83.162169
 20
4.725591
 30
0.0
  0
VERTEX
  5
298
100
AcDbEntity
  8
0
390
0
 62
     7
100
AcDbVertex
100
AcDb2dVertex
 10
83.160829
 20
4.745767
 30
0.0
  0
VERTEX
  5
299
100
AcDbEntity
  8
0
390
0
 62
     7
100
AcDbVertex
100
AcDb2dVertex
 10
83.158595
 20
4.765874
 30
0.0
  0
VERTEX
  5
29A
100
AcDbEntity
  8
0
390
0
 62
     7
100
AcDbVertex
100
AcDb2dVertex
 10
83.155474
 20
4.785852
 30
0.0
  0
VERTEX
  5
29B
100
AcDbEntity
  8
0
390
0
 62
     7
100
AcDbVertex
100
AcDb2dVertex
 10
83.151472
 20
4.805642
 30
0.0
  0
VERTEX
  5
29C
100
AcDbEntity
  8
0
390
0
 62
     7
100
AcDbVertex
100
AcDb2dVertex
 10
83.146937
 20
4.823952
 30
0.0
  0
VERTEX
  5
29D
100
AcDbEntity
  8
0
390
0
 62
     7
100
AcDbVertex
100
AcDb2dVertex
 10
83.141641
 20
4.842073
 30
0.0
  0
VERTEX
  5
29E
100
AcDbEntity
  8
0
390
0
 62
     7
100
AcDbVertex
100
AcDb2dVertex
 10
83.135598
 20
4.859959
 30
0.0
  0
VERTEX
  5
29F
100
AcDbEntity
  8
0
390
0
 62
     7
100
AcDbVertex
100
AcDb2dVertex
 10
83.128824
 20
4.877563
 30
0.0
  0
VERTEX
  5
2A0
100
AcDbEntity
  8
0
390
0
 62
     7
100
AcDbVertex
100
AcDb2dVertex
 10
83.121093
 20
4.895367
 30
0.0
  0
VERTEX
  5
2A1
100
AcDbEntity
  8
0
390
0
 62
     7
100
AcDbVertex
100
AcDb2dVertex
 10
83.1126
 20
4.912841
 30
0.0
  0
VERTEX
  5
2A2
100
AcDbEntity
  8
0
390
0
 62
     7
100
AcDbVertex
100
AcDb2dVertex
 10
83.103369
 20
4.929937
 30
0.0
  0
VERTEX
  5
2A3
100
AcDbEntity
  8
0
390
0
 62
     7
100
AcDbVertex
100
AcDb2dVertex
 10
83.093426
 20
4.946607
 30
0.0
  0
VERTEX
  5
2A4
100
AcDbEntity
  8
0
390
0
 62
     7
100
AcDbVertex
100
AcDb2dVertex
 10
83.083086
 20
4.962384
 30
0.0
  0
VERTEX
  5
2A5
100
AcDbEntity
  8
0
390
0
 62
     7
100
AcDbVertex
100
AcDb2dVertex
 10
83.07209
 20
4.977731
 30
0.0
  0
VERTEX
  5
2A6
100
AcDbEntity
  8
0
390
0
 62
     7
100
AcDbVertex
100
AcDb2dVertex
 10
83.060468
 20
4.99261
 30
0.0
  0
VERTEX
  5
2A7
100
AcDbEntity
  8
0
390
0
 62
     7
100
AcDbVertex
100
AcDb2dVertex
 10
83.048248
 20
5.00698
 30
0.0
  0
VERTEX
  5
2A8
100
AcDbEntity
  8
0
390
0
 62
     7
100
AcDbVertex
100
AcDb2dVertex
 10
83.035059
 20
5.021222
 30
0.0
  0
VERTEX
  5
2A9
100
AcDbEntity
  8
0
390
0
 62
     7
100
AcDbVertex
100
AcDb2dVertex
 10
83.02126
 20
5.0349
 30
0.0
  0
VERTEX
  5
2AA
100
AcDbEntity
  8
0
390
0
 62
     7
100
AcDbVertex
100
AcDb2dVertex
 10
83.006891
 20
5.047977
 30
0.0
  0
VERTEX
  5
2AB
100
AcDbEntity
  8
0
390
0
 62
     7
100
AcDbVertex
100
AcDb2dVertex
 10
82.991989
 20
5.060417
 30
0.0
  0
VERTEX
  5
2AC
100
AcDbEntity
  8
0
390
0
 62
     7
100
AcDbVertex
100
AcDb2dVertex
 10
82.977009
 20
5.071883
 30
0.0
  0
VERTEX
  5
2AD
100
AcDbEntity
  8
0
390
0
 62
     7
100
AcDbVertex
100
AcDb2dVertex
 10
82.961552
 20
5.082725
 30
0.0
  0
VERTEX
  5
2AE
100
AcDbEntity
  8
0
390
0
 62
     7
100
AcDbVertex
100
AcDb2dVertex
 10
82.945658
 20
5.092918
 30
0.0
  0
VERTEX
  5
2AF
100
AcDbEntity
  8
0
390
0
 62
     7
100
AcDbVertex
100
AcDb2dVertex
 10
82.929369
 20
5.102434
 30
0.0
  0
VERTEX
  5
2B0
100
AcDbEntity
  8
0
390
0
 62
     7
100
AcDbVertex
100
AcDb2dVertex
 10
82.912208
 20
5.111508
 30
0.0
  0
VERTEX
  5
2B1
100
AcDbEntity
  8
0
390
0
 62
     7
100
AcDbVertex
100
AcDb2dVertex
 10
82.894659
 20
5.119848
 30
0.0
  0
VERTEX
  5
2B2
100
AcDbEntity
  8
0
390
0
 62
     7
100
AcDbVertex
100
AcDb2dVertex
 10
82.876769
 20
5.127432
 30
0.0
  0
VERTEX
  5
2B3
100
AcDbEntity
  8
0
390
0
 62
     7
100
AcDbVertex
100
AcDb2dVertex
 10
82.858589
 20
5.134238
 30
0.0
  0
VERTEX
  5
2B4
100
AcDbEntity
  8
0
390
0
 62
     7
100
AcDbVertex
100
AcDb2dVertex
 10
82.840658
 20
5.140098
 30
0.0
  0
VERTEX
  5
2B5
100
AcDbEntity
  8
0
390
0
 62
     7
100
AcDbVertex
100
AcDb2dVertex
 10
82.822483
 20
5.145213
 30
0.0
  0
VERTEX
  5
2B6
100
AcDbEntity
  8
0
390
0
 62
     7
100
AcDbVertex
100
AcDb2dVertex
 10
82.804111
 20
5.14957
 30
0.0
  0
VERTEX
  5
2B7
100
AcDbEntity
  8
0
390
0
 62
     7
100
AcDbVertex
100
AcDb2dVertex
 10
82.785591
 20
5.153158
 30
0.0
  0
VERTEX
  5
2B8
100
AcDbEntity
  8
0
390
0
 62
     7
100
AcDbVertex
100
AcDb2dVertex
 10
82.766394
 20
5.15604
 30
0.0
  0
VERTEX
  5
2B9
100
AcDbEntity
  8
0
390
0
 62
     7
100
AcDbVertex
100
AcDb2dVertex
 10
82.747074
 20
5.1581
 30
0.0
  0
VERTEX
  5
2BA
100
AcDbEntity
  8
0
390
0
 62
     7
100
AcDbVertex
100
AcDb2dVertex
 10
82.727683
 20
5.159335
 30
0.0
  0
VERTEX
  5
2BB
100
AcDbEntity
  8
0
390
0
 62
     7
100
AcDbVertex
100
AcDb2dVertex
 10
82.708275
 20
5.15974
 30
0.0
  0
SEQEND
  5
2BC
100
AcDbEntity
  8
0
390
0
  0
POLYLINE
  5
2BD
100
AcDbEntity
  8
0
390
0
  6
Continuous
 62
     7
100
AcDb2dPolyline
 66
     1
 10
0.0
 20
0.0
 30
0.0
 40
0.1
 41
0.1
  0
VERTEX
  5
2BE
100
AcDbEntity
  8
0
390
0
 62
     7
100
AcDbVertex
100
AcDb2dVertex
 10
82.708275
 20
-5.15974
 30
0.0
  0
VERTEX
  5
2BF
100
AcDbEntity
  8
0
390
0
 62
     7
100
AcDbVertex
100
AcDb2dVertex
 10
82.728461
 20
-5.1593
 30
0.0
  0
VERTEX
  5
2C0
100
AcDbEntity
  8
0
390
0
 62
     7
100
AcDbVertex
100
AcDb2dVertex
 10
82.748637
 20
-5.15796
 30
0.0
  0
VERTEX
  5
2C1
100
AcDbEntity
  8
0
390
0
 62
     7
100
AcDbVertex
100
AcDb2dVertex
 10
82.768744
 20
-5.155726
 30
0.0
  0
VERTEX
  5
2C2
100
AcDbEntity
  8
0
390
0
 62
     7
100
AcDbVertex
100
AcDb2dVertex
 10
82.788722
 20
-5.152604
 30
0.0
  0
VERTEX
  5
2C3
100
AcDbEntity
  8
0
390
0
 62
     7
100
AcDbVertex
100
AcDb2dVertex
 10
82.808512
 20
-5.148602
 30
0.0
  0
VERTEX
  5
2C4
100
AcDbEntity
  8
0
390
0
 62
     7
100
AcDbVertex
100
AcDb2dVertex
 10
82.826822
 20
-5.144067
 30
0.0
  0
VERTEX
  5
2C5
100
AcDbEntity
  8
0
390
0
 62
     7
100
AcDbVertex
100
AcDb2dVertex
 10
82.844942
 20
-5.138771
 30
0.0
  0
VERTEX
  5
2C6
100
AcDbEntity
  8
0
390
0
 62
     7
100
AcDbVertex
100
AcDb2dVertex
 10
82.862828
 20
-5.132729
 30
0.0
  0
VERTEX
  5
2C7
100
AcDbEntity
  8
0
390
0
 62
     7
100
AcDbVertex
100
AcDb2dVertex
 10
82.880433
 20
-5.125955
 30
0.0
  0
VERTEX
  5
2C8
100
AcDbEntity
  8
0
390
0
 62
     7
100
AcDbVertex
100
AcDb2dVertex
 10
82.898237
 20
-5.118223
 30
0.0
  0
VERTEX
  5
2C9
100
AcDbEntity
  8
0
390
0
 62
     7
100
AcDbVertex
100
AcDb2dVertex
 10
82.915711
 20
-5.10973
 30
0.0
  0
VERTEX
  5
2CA
100
AcDbEntity
  8
0
390
0
 62
     7
100
AcDbVertex
100
AcDb2dVertex
 10
82.932807
 20
-5.1005
 30
0.0
  0
VERTEX
  5
2CB
100
AcDbEntity
  8
0
390
0
 62
     7
100
AcDbVertex
100
AcDb2dVertex
 10
82.949477
 20
-5.090556
 30
0.0
  0
VERTEX
  5
2CC
100
AcDbEntity
  8
0
390
0
 62
     7
100
AcDbVertex
100
AcDb2dVertex
 10
82.965254
 20
-5.080217
 30
0.0
  0
VERTEX
  5
2CD
100
AcDbEntity
  8
0
390
0
 62
     7
100
AcDbVertex
100
AcDb2dVertex
 10
82.980601
 20
-5.069221
 30
0.0
  0
VERTEX
  5
2CE
100
AcDbEntity
  8
0
390
0
 62
     7
100
AcDbVertex
100
AcDb2dVertex
 10
82.995479
 20
-5.057598
 30
0.0
  0
VERTEX
  5
2CF
100
AcDbEntity
  8
0
390
0
 62
     7
100
AcDbVertex
100
AcDb2dVertex
 10
83.009849
 20
-5.045378
 30
0.0
  0
VERTEX
  5
2D0
100
AcDbEntity
  8
0
390
0
 62
     7
100
AcDbVertex
100
AcDb2dVertex
 10
83.024092
 20
-5.032189
 30
0.0
  0
VERTEX
  5
2D1
100
AcDbEntity
  8
0
390
0
 62
     7
100
AcDbVertex
100
AcDb2dVertex
 10
83.03777
 20
-5.018391
 30
0.0
  0
VERTEX
  5
2D2
100
AcDbEntity
  8
0
390
0
 62
     7
100
AcDbVertex
100
AcDb2dVertex
 10
83.050847
 20
-5.004021
 30
0.0
  0
VERTEX
  5
2D3
100
AcDbEntity
  8
0
390
0
 62
     7
100
AcDbVertex
100
AcDb2dVertex
 10
83.063286
 20
-4.98912
 30
0.0
  0
VERTEX
  5
2D4
100
AcDbEntity
  8
0
390
0
 62
     7
100
AcDbVertex
100
AcDb2dVertex
 10
83.074752
 20
-4.97414
 30
0.0
  0
VERTEX
  5
2D5
100
AcDbEntity
  8
0
390
0
 62
     7
100
AcDbVertex
100
AcDb2dVertex
 10
83.085595
 20
-4.958682
 30
0.0
  0
VERTEX
  5
2D6
100
AcDbEntity
  8
0
390
0
 62
     7
100
AcDbVertex
100
AcDb2dVertex
 10
83.095788
 20
-4.942789
 30
0.0
  0
VERTEX
  5
2D7
100
AcDbEntity
  8
0
390
0
 62
     7
100
AcDbVertex
100
AcDb2dVertex
 10
83.105304
 20
-4.9265
 30
0.0
  0
VERTEX
  5
2D8
100
AcDbEntity
  8
0
390
0
 62
     7
100
AcDbVertex
100
AcDb2dVertex
 10
83.114378
 20
-4.909339
 30
0.0
  0
VERTEX
  5
2D9
100
AcDbEntity
  8
0
390
0
 62
     7
100
AcDbVertex
100
AcDb2dVertex
 10
83.122718
 20
-4.891789
 30
0.0
  0
VERTEX
  5
2DA
100
AcDbEntity
  8
0
390
0
 62
     7
100
AcDbVertex
100
AcDb2dVertex
 10
83.130301
 20
-4.8739
 30
0.0
  0
VERTEX
  5
2DB
100
AcDbEntity
  8
0
390
0
 62
     7
100
AcDbVertex
100
AcDb2dVertex
 10
83.137107
 20
-4.85572
 30
0.0
  0
VERTEX
  5
2DC
100
AcDbEntity
  8
0
390
0
 62
     7
100
AcDbVertex
100
AcDb2dVertex
 10
83.142968
 20
-4.837789
 30
0.0
  0
VERTEX
  5
2DD
100
AcDbEntity
  8
0
390
0
 62
     7
100
AcDbVertex
100
AcDb2dVertex
 10
83.148083
 20
-4.819614
 30
0.0
  0
VERTEX
  5
2DE
100
AcDbEntity
  8
0
390
0
 62
     7
100
AcDbVertex
100
AcDb2dVertex
 10
83.15244
 20
-4.801242
 30
0.0
  0
VERTEX
  5
2DF
100
AcDbEntity
  8
0
390
0
 62
     7
100
AcDbVertex
100
AcDb2dVertex
 10
83.156028
 20
-4.782722
 30
0.0
  0
VERTEX
  5
2E0
100
AcDbEntity
  8
0
390
0
 62
     7
100
AcDbVertex
100
AcDb2dVertex
 10
83.158909
 20
-4.763525
 30
0.0
  0
VERTEX
  5
2E1
100
AcDbEntity
  8
0
390
0
 62
     7
100
AcDbVertex
100
AcDb2dVertex
 10
83.16097
 20
-4.744204
 30
0.0
  0
VERTEX
  5
2E2
100
AcDbEntity
  8
0
390
0
 62
     7
100
AcDbVertex
100
AcDb2dVertex
 10
83.162205
 20
-4.724814
 30
0.0
  0
VERTEX
  5
2E3
100
AcDbEntity
  8
0
390
0
 62
     7
100
AcDbVertex
100
AcDb2dVertex
 10
83.162609
 20
-4.705406
 30
0.0
  0
SEQEND
  5
2E4
100
AcDbEntity
  8
0
390
0
  0
POLYLINE
  5
2E5
100
AcDbEntity
  8
0
390
0
  6
Continuous
 62
     7
100
AcDb2dPolyline
 66
     1
 10
0.0
 20
0.0
 30
0.0
 70
     1
 40
0.1
 41
0.1
  0
VERTEX
  5
2E6
100
AcDbEntity
  8
0
390
0
 62
     7
100
AcDbVertex
100
AcDb2dVertex
 10
-73.006331
 20
-5.476773
 30
0.0
 42
1.027973
  0
VERTEX
  5
2E7
100
AcDbEntity
  8
0
390
0
 62
     7
100
AcDbVertex
100
AcDb2dVertex
 10
-71.610767
 20
-5.267934
 30
0.0
 42
0.309627
  0
VERTEX
  5
2E8
100
AcDbEntity
  8
0
390
0
 62
     7
100
AcDbVertex
100
AcDb2dVertex
 10
-72.068147
 20
-2.821705
 30
0.0
 42
0.60677
  0
VERTEX
  5
2E9
100
AcDbEntity
  8
0
390
0
 62
     7
100
AcDbVertex
100
AcDb2dVertex
 10
-73.111579
 20
-3.740184
 30
0.0
 42
0.128705
  0
SEQEND
  5
2EA
100
AcDbEntity
  8
0
390
0
  0
POLYLINE
  5
2EB
100
AcDbEntity
  8
0
390
0
  6
Continuous
 62
     7
100
AcDb2dPolyline
 66
     1
 10
0.0
 20
0.0
 30
0.0
 70
     1
 40
0.1
 41
0.1
  0
VERTEX
  5
2EC
100
AcDbEntity
  8
0
390
0
 62
     7
100
AcDbVertex
100
AcDb2dVertex
 10
-73.417109
 20
-6.25079
 30
0.0
 42
-0.454906
  0
VERTEX
  5
2ED
100
AcDbEntity
  8
0
390
0
 62
     7
100
AcDbVertex
100
AcDb2dVertex
 10
-72.611892
 20
-2.076602
 30
0.0
 42
-0.499388
  0
VERTEX
  5
2EE
100
AcDbEntity
  8
0
390
0
 62
     7
100
AcDbVertex
100
AcDb2dVertex
 10
-70.842037
 20
-3.795433
 30
0.0
 42
-0.359847
  0
VERTEX
  5
2EF
100
AcDbEntity
  8
0
390
0
 62
     7
100
AcDbVertex
100
AcDb2dVertex
 10
-71.940981
 20
-6.75559
 30
0.0
 42
-0.330192
  0
SEQEND
  5
2F0
100
AcDbEntity
  8
0
390
0
  0
LINE
  5
2F1
100
AcDbEntity
  8
0
390
0
  6
Continuous
 62
     7
100
AcDbLine
 10
-76.279058
 20
-3.9995
 30
0.0
 11
-76.279058
 21
-4.704046
 31
0.0
  0
POLYLINE
  5
2F2
100
AcDbEntity
  8
0
390
0
  6
Continuous
 62
     7
100
AcDb2dPolyline
 66
     1
 10
0.0
 20
0.0
 30
0.0
 40
0.1
 41
0.1
  0
VERTEX
  5
2F3
100
AcDbEntity
  8
0
390
0
 62
     7
100
AcDbVertex
100
AcDb2dVertex
 10
-76.710876
 20
-3.544955
 30
0.0
 42
-0.093089
  0
VERTEX
  5
2F4
100
AcDbEntity
  8
0
390
0
 62
     7
100
AcDbVertex
100
AcDb2dVertex
 10
-76.574391
 20
-3.100904
 30
0.0
  0
VERTEX
  5
2F5
100
AcDbEntity
  8
0
390
0
 62
     7
100
AcDbVertex
100
AcDb2dVertex
 10
-76.497494
 20
-2.977942
 30
0.0
  0
VERTEX
  5
2F6
100
AcDbEntity
  8
0
390
0
 62
     7
100
AcDbVertex
100
AcDb2dVertex
 10
-76.416273
 20
-2.882142
 30
0.0
  0
VERTEX
  5
2F7
100
AcDbEntity
  8
0
390
0
 62
     7
100
AcDbVertex
100
AcDb2dVertex
 10
-76.336862
 20
-2.816756
 30
0.0
  0
VERTEX
  5
2F8
100
AcDbEntity
  8
0
390
0
 62
     7
100
AcDbVertex
100
AcDb2dVertex
 10
-76.239141
 20
-2.76586
 30
0.0
  0
VERTEX
  5
2F9
100
AcDbEntity
  8
0
390
0
 62
     7
100
AcDbVertex
100
AcDb2dVertex
 10
-76.130721
 20
-2.737739
 30
0.0
  0
VERTEX
  5
2FA
100
AcDbEntity
  8
0
390
0
 62
     7
100
AcDbVertex
100
AcDb2dVertex
 10
-76.026377
 20
-2.732162
 30
0.0
  0
VERTEX
  5
2FB
100
AcDbEntity
  8
0
390
0
 62
     7
100
AcDbVertex
100
AcDb2dVertex
 10
-75.919538
 20
-2.743703
 30
0.0
  0
VERTEX
  5
2FC
100
AcDbEntity
  8
0
390
0
 62
     7
100
AcDbVertex
100
AcDb2dVertex
 10
-75.8117
 20
-2.773495
 30
0.0
  0
VERTEX
  5
2FD
100
AcDbEntity
  8
0
390
0
 62
     7
100
AcDbVertex
100
AcDb2dVertex
 10
-75.711513
 20
-2.826007
 30
0.0
  0
VERTEX
  5
2FE
100
AcDbEntity
  8
0
390
0
 62
     7
100
AcDbVertex
100
AcDb2dVertex
 10
-75.625536
 20
-2.900541
 30
0.0
  0
VERTEX
  5
2FF
100
AcDbEntity
  8
0
390
0
 62
     7
100
AcDbVertex
100
AcDb2dVertex
 10
-75.563783
 20
-2.981585
 30
0.0
  0
VERTEX
  5
300
100
AcDbEntity
  8
0
390
0
 62
     7
100
AcDbVertex
100
AcDb2dVertex
 10
-75.513766
 20
-3.076608
 30
0.0
  0
VERTEX
  5
301
100
AcDbEntity
  8
0
390
0
 62
     7
100
AcDbVertex
100
AcDb2dVertex
 10
-75.480368
 20
-3.177229
 30
0.0
  0
VERTEX
  5
302
100
AcDbEntity
  8
0
390
0
 62
     7
100
AcDbVertex
100
AcDb2dVertex
 10
-75.46506
 20
-3.28401
 30
0.0
  0
VERTEX
  5
303
100
AcDbEntity
  8
0
390
0
 62
     7
100
AcDbVertex
100
AcDb2dVertex
 10
-75.471115
 20
-3.412459
 30
0.0
  0
VERTEX
  5
304
100
AcDbEntity
  8
0
390
0
 62
     7
100
AcDbVertex
100
AcDb2dVertex
 10
-75.492121
 20
-3.511861
 30
0.0
  0
VERTEX
  5
305
100
AcDbEntity
  8
0
390
0
 62
     7
100
AcDbVertex
100
AcDb2dVertex
 10
-75.531049
 20
-3.62637
 30
0.0
  0
VERTEX
  5
306
100
AcDbEntity
  8
0
390
0
 62
     7
100
AcDbVertex
100
AcDb2dVertex
 10
-75.586779
 20
-3.733259
 30
0.0
  0
VERTEX
  5
307
100
AcDbEntity
  8
0
390
0
 62
     7
100
AcDbVertex
100
AcDb2dVertex
 10
-75.654675
 20
-3.814848
 30
0.0
  0
VERTEX
  5
308
100
AcDbEntity
  8
0
390
0
 62
     7
100
AcDbVertex
100
AcDb2dVertex
 10
-75.752441
 20
-3.8879
 30
0.0
  0
VERTEX
  5
309
100
AcDbEntity
  8
0
390
0
 62
     7
100
AcDbVertex
100
AcDb2dVertex
 10
-75.855317
 20
-3.936085
 30
0.0
  0
VERTEX
  5
30A
100
AcDbEntity
  8
0
390
0
 62
     7
100
AcDbVertex
100
AcDb2dVertex
 10
-75.958729
 20
-3.96702
 30
0.0
  0
VERTEX
  5
30B
100
AcDbEntity
  8
0
390
0
 62
     7
100
AcDbVertex
100
AcDb2dVertex
 10
-76.065364
 20
-3.986377
 30
0.0
  0
VERTEX
  5
30C
100
AcDbEntity
  8
0
390
0
 62
     7
100
AcDbVertex
100
AcDb2dVertex
 10
-76.173141
 20
-3.996511
 30
0.0
  0
VERTEX
  5
30D
100
AcDbEntity
  8
0
390
0
 62
     7
100
AcDbVertex
100
AcDb2dVertex
 10
-76.279058
 20
-3.9995
 30
0.0
  0
SEQEND
  5
30E
100
AcDbEntity
  8
0
390
0
  0
LINE
  5
30F
100
AcDbEntity
  8
0
390
0
  6
Continuous
 62
     7
100
AcDbLine
 10
-77.324513
 20
-3.544955
 30
0.0
 11
-76.710876
 21
-3.544955
 31
0.0
  0
POLYLINE
  5
310
100
AcDbEntity
  8
0
390
0
  6
Continuous
 62
     7
100
AcDb2dPolyline
 66
     1
 10
0.0
 20
0.0
 30
0.0
 40
0.1
 41
0.1
  0
VERTEX
  5
311
100
AcDbEntity
  8
0
390
0
 62
     7
100
AcDbVertex
100
AcDb2dVertex
 10
-75.301785
 20
-4.272228
 30
0.0
  0
VERTEX
  5
312
100
AcDbEntity
  8
0
390
0
 62
     7
100
AcDbVertex
100
AcDb2dVertex
 10
-75.211252
 20
-4.206651
 30
0.0
  0
VERTEX
  5
313
100
AcDbEntity
  8
0
390
0
 62
     7
100
AcDbVertex
100
AcDb2dVertex
 10
-75.107057
 20
-4.110335
 30
0.0
  0
VERTEX
  5
314
100
AcDbEntity
  8
0
390
0
 62
     7
100
AcDbVertex
100
AcDb2dVertex
 10
-75.025807
 20
-4.011453
 30
0.0
  0
VERTEX
  5
315
100
AcDbEntity
  8
0
390
0
 62
     7
100
AcDbVertex
100
AcDb2dVertex
 10
-74.959461
 20
-3.904452
 30
0.0
  0
VERTEX
  5
316
100
AcDbEntity
  8
0
390
0
 62
     7
100
AcDbVertex
100
AcDb2dVertex
 10
-74.906017
 20
-3.786147
 30
0.0
  0
VERTEX
  5
317
100
AcDbEntity
  8
0
390
0
 62
     7
100
AcDbVertex
100
AcDb2dVertex
 10
-74.862935
 20
-3.643017
 30
0.0
  0
VERTEX
  5
318
100
AcDbEntity
  8
0
390
0
 62
     7
100
AcDbVertex
100
AcDb2dVertex
 10
-74.843432
 20
-3.538525
 30
0.0
 42
0.109999
  0
VERTEX
  5
319
100
AcDbEntity
  8
0
390
0
 62
     7
100
AcDbVertex
100
AcDb2dVertex
 10
-74.902464
 20
-2.829384
 30
0.0
  0
VERTEX
  5
31A
100
AcDbEntity
  8
0
390
0
 62
     7
100
AcDbVertex
100
AcDb2dVertex
 10
-74.956919
 20
-2.695557
 30
0.0
  0
VERTEX
  5
31B
100
AcDbEntity
  8
0
390
0
 62
     7
100
AcDbVertex
100
AcDb2dVertex
 10
-75.029913
 20
-2.566139
 30
0.0
  0
VERTEX
  5
31C
100
AcDbEntity
  8
0
390
0
 62
     7
100
AcDbVertex
100
AcDb2dVertex
 10
-75.117521
 20
-2.449531
 30
0.0
  0
VERTEX
  5
31D
100
AcDbEntity
  8
0
390
0
 62
     7
100
AcDbVertex
100
AcDb2dVertex
 10
-75.231281
 20
-2.333776
 30
0.0
  0
VERTEX
  5
31E
100
AcDbEntity
  8
0
390
0
 62
     7
100
AcDbVertex
100
AcDb2dVertex
 10
-75.334126
 20
-2.251103
 30
0.0
  0
VERTEX
  5
31F
100
AcDbEntity
  8
0
390
0
 62
     7
100
AcDbVertex
100
AcDb2dVertex
 10
-75.461766
 20
-2.171573
 30
0.0
  0
VERTEX
  5
320
100
AcDbEntity
  8
0
390
0
 62
     7
100
AcDbVertex
100
AcDb2dVertex
 10
-75.553995
 20
-2.127934
 30
0.0
  0
VERTEX
  5
321
100
AcDbEntity
  8
0
390
0
 62
     7
100
AcDbVertex
100
AcDb2dVertex
 10
-75.651846
 20
-2.092795
 30
0.0
  0
VERTEX
  5
322
100
AcDbEntity
  8
0
390
0
 62
     7
100
AcDbVertex
100
AcDb2dVertex
 10
-75.761177
 20
-2.06583
 30
0.0
 42
0.13021
  0
VERTEX
  5
323
100
AcDbEntity
  8
0
390
0
 62
     7
100
AcDbVertex
100
AcDb2dVertex
 10
-76.521797
 20
-2.1376
 30
0.0
  0
VERTEX
  5
324
100
AcDbEntity
  8
0
390
0
 62
     7
100
AcDbVertex
100
AcDb2dVertex
 10
-76.649876
 20
-2.196748
 30
0.0
  0
VERTEX
  5
325
100
AcDbEntity
  8
0
390
0
 62
     7
100
AcDbVertex
100
AcDb2dVertex
 10
-76.772819
 20
-2.273876
 30
0.0
  0
VERTEX
  5
326
100
AcDbEntity
  8
0
390
0
 62
     7
100
AcDbVertex
100
AcDb2dVertex
 10
-76.882631
 20
-2.364552
 30
0.0
  0
VERTEX
  5
327
100
AcDbEntity
  8
0
390
0
 62
     7
100
AcDbVertex
100
AcDb2dVertex
 10
-76.980301
 20
-2.468131
 30
0.0
  0
VERTEX
  5
328
100
AcDbEntity
  8
0
390
0
 62
     7
100
AcDbVertex
100
AcDb2dVertex
 10
-77.066404
 20
-2.584751
 30
0.0
  0
VERTEX
  5
329
100
AcDbEntity
  8
0
390
0
 62
     7
100
AcDbVertex
100
AcDb2dVertex
 10
-77.126853
 20
-2.687776
 30
0.0
  0
VERTEX
  5
32A
100
AcDbEntity
  8
0
390
0
 62
     7
100
AcDbVertex
100
AcDb2dVertex
 10
-77.17803
 20
-2.795734
 30
0.0
  0
VERTEX
  5
32B
100
AcDbEntity
  8
0
390
0
 62
     7
100
AcDbVertex
100
AcDb2dVertex
 10
-77.2339
 20
-2.949713
 30
0.0
 42
0.066846
  0
VERTEX
  5
32C
100
AcDbEntity
  8
0
390
0
 62
     7
100
AcDbVertex
100
AcDb2dVertex
 10
-77.324513
 20
-3.544955
 30
0.0
  0
SEQEND
  5
32D
100
AcDbEntity
  8
0
390
0
  0
POLYLINE
  5
32E
100
AcDbEntity
  8
0
390
0
  6
Continuous
 62
     7
100
AcDb2dPolyline
 66
     1
 10
0.0
 20
0.0
 30
0.0
 40
0.1
 41
0.1
  0
VERTEX
  5
32F
100
AcDbEntity
  8
0
390
0
 62
     7
100
AcDbVertex
100
AcDb2dVertex
 10
-76.967324
 20
-6.437596
 30
0.0
 42
0.090622
  0
VERTEX
  5
330
100
AcDbEntity
  8
0
390
0
 62
     7
100
AcDbVertex
100
AcDb2dVertex
 10
-76.617234
 20
-6.688067
 30
0.0
 42
0.224531
  0
VERTEX
  5
331
100
AcDbEntity
  8
0
390
0
 62
     7
100
AcDbVertex
100
AcDb2dVertex
 10
-75.391427
 20
-6.675904
 30
0.0
  0
VERTEX
  5
332
100
AcDbEntity
  8
0
390
0
 62
     7
100
AcDbVertex
100
AcDb2dVertex
 10
-75.275511
 20
-6.605612
 30
0.0
 42
0.21388
  0
VERTEX
  5
333
100
AcDbEntity
  8
0
390
0
 62
     7
100
AcDbVertex
100
AcDb2dVertex
 10
-74.622959
 20
-5.507006
 30
0.0
 42
0.11071
  0
VERTEX
  5
334
100
AcDbEntity
  8
0
390
0
 62
     7
100
AcDbVertex
100
AcDb2dVertex
 10
-74.728285
 20
-4.788963
 30
0.0
  0
VERTEX
  5
335
100
AcDbEntity
  8
0
390
0
 62
     7
100
AcDbVertex
100
AcDb2dVertex
 10
-74.783927
 20
-4.670832
 30
0.0
  0
VERTEX
  5
336
100
AcDbEntity
  8
0
390
0
 62
     7
100
AcDbVertex
100
AcDb2dVertex
 10
-74.856793
 20
-4.558152
 30
0.0
  0
VERTEX
  5
337
100
AcDbEntity
  8
0
390
0
 62
     7
100
AcDbVertex
100
AcDb2dVertex
 10
-74.924432
 20
-4.480112
 30
0.0
  0
VERTEX
  5
338
100
AcDbEntity
  8
0
390
0
 62
     7
100
AcDbVertex
100
AcDb2dVertex
 10
-75.000611
 20
-4.412836
 30
0.0
  0
VERTEX
  5
339
100
AcDbEntity
  8
0
390
0
 62
     7
100
AcDbVertex
100
AcDb2dVertex
 10
-75.085568
 20
-4.356418
 30
0.0
  0
VERTEX
  5
33A
100
AcDbEntity
  8
0
390
0
 62
     7
100
AcDbVertex
100
AcDb2dVertex
 10
-75.179528
 20
-4.311067
 30
0.0
  0
VERTEX
  5
33B
100
AcDbEntity
  8
0
390
0
 62
     7
100
AcDbVertex
100
AcDb2dVertex
 10
-75.301785
 20
-4.272228
 30
0.0
  0
SEQEND
  5
33C
100
AcDbEntity
  8
0
390
0
  0
ARC
  5
33D
100
AcDbEntity
  8
0
390
0
  6
Continuous
 62
     7
100
AcDbCircle
 10
-75.677851
 20
-5.236755
 30
0.0
 40
1.762032
210
0.0
220
0.0
230
1.0
100
AcDbArc
 50
177.457511
 51
222.961679
  0
LINE
  5
33E
100
AcDbEntity
  8
0
390
0
  6
Continuous
 62
     7
100
AcDbLine
 10
-76.756331
 20
-5.158591
 30
0.0
 11
-77.438149
 21
-5.158591
 31
0.0
  0
POLYLINE
  5
33F
100
AcDbEntity
  8
0
390
0
  6
Continuous
 62
     7
100
AcDb2dPolyline
 66
     1
 10
0.0
 20
0.0
 30
0.0
 40
0.1
 41
0.1
  0
VERTEX
  5
340
100
AcDbEntity
  8
0
390
0
 62
     7
100
AcDbVertex
100
AcDb2dVertex
 10
-76.279058
 20
-4.704046
 30
0.0
 42
-0.056368
  0
VERTEX
  5
341
100
AcDbEntity
  8
0
390
0
 62
     7
100
AcDbVertex
100
AcDb2dVertex
 10
-75.764551
 20
-4.749
 30
0.0
  0
VERTEX
  5
342
100
AcDbEntity
  8
0
390
0
 62
     7
100
AcDbVertex
100
AcDb2dVertex
 10
-75.665109
 20
-4.78113
 30
0.0
  0
VERTEX
  5
343
100
AcDbEntity
  8
0
390
0
 62
     7
100
AcDbVertex
100
AcDb2dVertex
 10
-75.560574
 20
-4.838773
 30
0.0
  0
VERTEX
  5
344
100
AcDbEntity
  8
0
390
0
 62
     7
100
AcDbVertex
100
AcDb2dVertex
 10
-75.471057
 20
-4.920249
 30
0.0
  0
VERTEX
  5
345
100
AcDbEntity
  8
0
390
0
 62
     7
100
AcDbVertex
100
AcDb2dVertex
 10
-75.404411
 20
-5.021892
 30
0.0
  0
VERTEX
  5
346
100
AcDbEntity
  8
0
390
0
 62
     7
100
AcDbVertex
100
AcDb2dVertex
 10
-75.366581
 20
-5.120867
 30
0.0
  0
VERTEX
  5
347
100
AcDbEntity
  8
0
390
0
 62
     7
100
AcDbVertex
100
AcDb2dVertex
 10
-75.345948
 20
-5.220066
 30
0.0
  0
VERTEX
  5
348
100
AcDbEntity
  8
0
390
0
 62
     7
100
AcDbVertex
100
AcDb2dVertex
 10
-75.337193
 20
-5.345869
 30
0.0
  0
VERTEX
  5
349
100
AcDbEntity
  8
0
390
0
 62
     7
100
AcDbVertex
100
AcDb2dVertex
 10
-75.342985
 20
-5.471623
 30
0.0
  0
VERTEX
  5
34A
100
AcDbEntity
  8
0
390
0
 62
     7
100
AcDbVertex
100
AcDb2dVertex
 10
-75.361981
 20
-5.580639
 30
0.0
  0
VERTEX
  5
34B
100
AcDbEntity
  8
0
390
0
 62
     7
100
AcDbVertex
100
AcDb2dVertex
 10
-75.40174
 20
-5.693431
 30
0.0
  0
VERTEX
  5
34C
100
AcDbEntity
  8
0
390
0
 62
     7
100
AcDbVertex
100
AcDb2dVertex
 10
-75.457718
 20
-5.791526
 30
0.0
  0
VERTEX
  5
34D
100
AcDbEntity
  8
0
390
0
 62
     7
100
AcDbVertex
100
AcDb2dVertex
 10
-75.522501
 20
-5.871308
 30
0.0
  0
VERTEX
  5
34E
100
AcDbEntity
  8
0
390
0
 62
     7
100
AcDbVertex
100
AcDb2dVertex
 10
-75.604884
 20
-5.94689
 30
0.0
  0
VERTEX
  5
34F
100
AcDbEntity
  8
0
390
0
 62
     7
100
AcDbVertex
100
AcDb2dVertex
 10
-75.692999
 20
-6.008972
 30
0.0
  0
VERTEX
  5
350
100
AcDbEntity
  8
0
390
0
 62
     7
100
AcDbVertex
100
AcDb2dVertex
 10
-75.797047
 20
-6.061415
 30
0.0
  0
VERTEX
  5
351
100
AcDbEntity
  8
0
390
0
 62
     7
100
AcDbVertex
100
AcDb2dVertex
 10
-75.910152
 20
-6.090082
 30
0.0
  0
VERTEX
  5
352
100
AcDbEntity
  8
0
390
0
 62
     7
100
AcDbVertex
100
AcDb2dVertex
 10
-76.030861
 20
-6.092937
 30
0.0
  0
VERTEX
  5
353
100
AcDbEntity
  8
0
390
0
 62
     7
100
AcDbVertex
100
AcDb2dVertex
 10
-76.15288
 20
-6.07116
 30
0.0
  0
VERTEX
  5
354
100
AcDbEntity
  8
0
390
0
 62
     7
100
AcDbVertex
100
AcDb2dVertex
 10
-76.263761
 20
-6.03282
 30
0.0
  0
VERTEX
  5
355
100
AcDbEntity
  8
0
390
0
 62
     7
100
AcDbVertex
100
AcDb2dVertex
 10
-76.357018
 20
-5.988246
 30
0.0
  0
VERTEX
  5
356
100
AcDbEntity
  8
0
390
0
 62
     7
100
AcDbVertex
100
AcDb2dVertex
 10
-76.46102
 20
-5.914108
 30
0.0
  0
VERTEX
  5
357
100
AcDbEntity
  8
0
390
0
 62
     7
100
AcDbVertex
100
AcDb2dVertex
 10
-76.54431
 20
-5.82163
 30
0.0
  0
VERTEX
  5
358
100
AcDbEntity
  8
0
390
0
 62
     7
100
AcDbVertex
100
AcDb2dVertex
 10
-76.623954
 20
-5.687841
 30
0.0
 42
-0.085329
  0
VERTEX
  5
359
100
AcDbEntity
  8
0
390
0
 62
     7
100
AcDbVertex
100
AcDb2dVertex
 10
-76.756331
 20
-5.158591
 30
0.0
  0
SEQEND
  5
35A
100
AcDbEntity
  8
0
390
0
  0
LINE
  5
35B
100
AcDbEntity
  8
0
390
0
  6
Continuous
 62
     7
100
AcDbLine
 10
-74.397197
 20
2.497999
 30
0.0
 11
-72.642008
 21
2.497999
 31
0.0
  0
LINE
  5
35C
100
AcDbEntity
  8
0
390
0
  6
Continuous
 62
     7
100
AcDbLine
 10
-74.103353
 20
3.225289
 30
0.0
 11
-74.397197
 21
2.497999
 31
0.0
  0
LINE
  5
35D
100
AcDbEntity
  8
0
390
0
  6
Continuous
 62
     7
100
AcDbLine
 10
-73.392951
 20
3.225289
 30
0.0
 11
-74.103353
 21
3.225289
 31
0.0
  0
POLYLINE
  5
35E
100
AcDbEntity
  8
0
390
0
  6
Continuous
 62
     7
100
AcDb2dPolyline
 66
     1
 10
0.0
 20
0.0
 30
0.0
 40
0.1
 41
0.1
  0
VERTEX
  5
35F
100
AcDbEntity
  8
0
390
0
 62
     7
100
AcDbVertex
100
AcDb2dVertex
 10
-72.280728
 20
4.337511
 30
0.0
  0
VERTEX
  5
360
100
AcDbEntity
  8
0
390
0
 62
     7
100
AcDbVertex
100
AcDb2dVertex
 10
-72.285632
 20
4.233643
 30
0.0
  0
VERTEX
  5
361
100
AcDbEntity
  8
0
390
0
 62
     7
100
AcDbVertex
100
AcDb2dVertex
 10
-72.300214
 20
4.130457
 30
0.0
  0
VERTEX
  5
362
100
AcDbEntity
  8
0
390
0
 62
     7
100
AcDbVertex
100
AcDb2dVertex
 10
-72.324286
 20
4.0293
 30
0.0
  0
VERTEX
  5
363
100
AcDbEntity
  8
0
390
0
 62
     7
100
AcDbVertex
100
AcDb2dVertex
 10
-72.370931
 20
3.898756
 30
0.0
  0
VERTEX
  5
364
100
AcDbEntity
  8
0
390
0
 62
     7
100
AcDbVertex
100
AcDb2dVertex
 10
-72.434794
 20
3.772747
 30
0.0
  0
VERTEX
  5
365
100
AcDbEntity
  8
0
390
0
 62
     7
100
AcDbVertex
100
AcDb2dVertex
 10
-72.51411
 20
3.655844
 30
0.0
  0
VERTEX
  5
366
100
AcDbEntity
  8
0
390
0
 62
     7
100
AcDbVertex
100
AcDb2dVertex
 10
-72.605737
 20
3.551806
 30
0.0
  0
VERTEX
  5
367
100
AcDbEntity
  8
0
390
0
 62
     7
100
AcDbVertex
100
AcDb2dVertex
 10
-72.712786
 20
3.457508
 30
0.0
  0
VERTEX
  5
368
100
AcDbEntity
  8
0
390
0
 62
     7
100
AcDbVertex
100
AcDb2dVertex
 10
-72.828672
 20
3.379068
 30
0.0
  0
VERTEX
  5
369
100
AcDbEntity
  8
0
390
0
 62
     7
100
AcDbVertex
100
AcDb2dVertex
 10
-72.95349
 20
3.315795
 30
0.0
 42
-0.101726
  0
VERTEX
  5
36A
100
AcDbEntity
  8
0
390
0
 62
     7
100
AcDbVertex
100
AcDb2dVertex
 10
-73.392951
 20
3.225289
 30
0.0
  0
SEQEND
  5
36B
100
AcDbEntity
  8
0
390
0
  0
LINE
  5
36C
100
AcDbEntity
  8
0
390
0
  6
Continuous
 62
     7
100
AcDbLine
 10
-72.280728
 20
7.499339
 30
0.0
 11
-72.280728
 21
4.337511
 31
0.0
  0
LINE
  5
36D
100
AcDbEntity
  8
0
390
0
  6
Continuous
 62
     7
100
AcDbLine
 10
-70.973674
 20
7.499339
 30
0.0
 11
-72.280728
 21
7.499339
 31
0.0
  0
LINE
  5
36E
100
AcDbEntity
  8
0
390
0
  6
Continuous
 62
     7
100
AcDbLine
 10
-70.973674
 20
4.166333
 30
0.0
 11
-70.973674
 21
7.499339
 31
0.0
  0
ARC
  5
36F
100
AcDbEntity
  8
0
390
0
  6
Continuous
 62
     7
100
AcDbCircle
 10
-72.642008
 20
4.166333
 30
0.0
 40
1.668334
210
0.0
220
0.0
230
1.0
100
AcDbArc
 50
270.0
 51
360.0
  0
LINE
  5
370
100
AcDbEntity
  8
0
390
0
  6
Continuous
 62
     7
100
AcDbLine
 10
-77.623208
 20
2.497999
 30
0.0
 11
-79.644097
 21
7.499339
 31
0.0
  0
LINE
  5
371
100
AcDbEntity
  8
0
390
0
  6
Continuous
 62
     7
100
AcDbLine
 10
-78.915589
 20
2.497999
 30
0.0
 11
-77.623208
 21
2.497999
 31
0.0
  0
LINE
  5
372
100
AcDbEntity
  8
0
390
0
  6
Continuous
 62
     7
100
AcDbLine
 10
-80.936477
 20
7.499339
 30
0.0
 11
-78.915589
 21
2.497999
 31
0.0
  0
LINE
  5
373
100
AcDbEntity
  8
0
390
0
  6
Continuous
 62
     7
100
AcDbLine
 10
-79.644097
 20
7.499339
 30
0.0
 11
-80.936477
 21
7.499339
 31
0.0
  0
LINE
  5
374
100
AcDbEntity
  8
0
390
0
  6
Continuous
 62
     7
100
AcDbLine
 10
-77.076752
 20
6.645719
 30
0.0
 11
-77.72295
 21
5.046041
 31
0.0
  0
LINE
  5
375
100
AcDbEntity
  8
0
390
0
  6
Continuous
 62
     7
100
AcDbLine
 10
-76.010345
 20
4.006391
 30
0.0
 11
-77.076752
 21
6.645719
 31
0.0
  0
LINE
  5
376
100
AcDbEntity
  8
0
390
0
  6
Continuous
 62
     7
100
AcDbLine
 10
-74.598937
 20
7.499339
 30
0.0
 11
-76.010345
 21
4.006391
 31
0.0
  0
LINE
  5
377
100
AcDbEntity
  8
0
390
0
  6
Continuous
 62
     7
100
AcDbLine
 10
-73.30654
 20
7.499339
 30
0.0
 11
-74.598937
 21
7.499339
 31
0.0
  0
LINE
  5
378
100
AcDbEntity
  8
0
390
0
  6
Continuous
 62
     7
100
AcDbLine
 10
-75.327111
 20
2.497999
 30
0.0
 11
-73.30654
 21
7.499339
 31
0.0
  0
LINE
  5
379
100
AcDbEntity
  8
0
390
0
  6
Continuous
 62
     7
100
AcDbLine
 10
-76.693295
 20
2.497999
 30
0.0
 11
-75.327111
 21
2.497999
 31
0.0
  0
LINE
  5
37A
100
AcDbEntity
  8
0
390
0
  6
Continuous
 62
     7
100
AcDbLine
 10
-77.72295
 20
5.046041
 30
0.0
 11
-76.693295
 21
2.497999
 31
0.0
  0
LINE
  5
37B
100
AcDbEntity
  8
0
390
0
  6
Continuous
 62
     7
100
AcDbLine
 10
-85.188149
 20
-6.976773
 30
0.0
 11
-80.210876
 21
-6.976773
 31
0.0
  0
LINE
  5
37C
100
AcDbEntity
  8
0
390
0
  6
Continuous
 62
     7
100
AcDbLine
 10
-85.188149
 20
-2.022228
 30
0.0
 11
-85.188149
 21
-6.976773
 31
0.0
  0
LINE
  5
37D
100
AcDbEntity
  8
0
390
0
  6
Continuous
 62
     7
100
AcDbLine
 10
-80.210876
 20
-2.022228
 30
0.0
 11
-85.188149
 21
-2.022228
 31
0.0
  0
LINE
  5
37E
100
AcDbEntity
  8
0
390
0
  6
Continuous
 62
     7
100
AcDbLine
 10
-80.210876
 20
-6.976773
 30
0.0
 11
-80.210876
 21
-2.022228
 31
0.0
  0
LINE
  5
37F
100
AcDbEntity
  8
0
390
0
  6
Continuous
 62
     7
100
AcDbLine
 10
-84.506331
 20
-6.294955
 30
0.0
 11
-84.506331
 21
-2.681318
 31
0.0
  0
LINE
  5
380
100
AcDbEntity
  8
0
390
0
  6
Continuous
 62
     7
100
AcDbLine
 10
-80.892694
 20
-6.294955
 30
0.0
 11
-84.506331
 21
-6.294955
 31
0.0
  0
LINE
  5
381
100
AcDbEntity
  8
0
390
0
  6
Continuous
 62
     7
100
AcDbLine
 10
-80.892694
 20
-2.681318
 30
0.0
 11
-80.892694
 21
-6.294955
 31
0.0
  0
LINE
  5
382
100
AcDbEntity
  8
0
390
0
  6
Continuous
 62
     7
100
AcDbLine
 10
-84.506331
 20
-2.681318
 30
0.0
 11
-80.892694
 21
-2.681318
 31
0.0
  0
LINE
  5
383
100
AcDbEntity
  8
0
390
0
  6
Continuous
 62
     7
100
AcDbLine
 10
-79.845536
 20
2.497999
 30
0.0
 11
-81.866425
 21
7.499339
 31
0.0
  0
LINE
  5
384
100
AcDbEntity
  8
0
390
0
  6
Continuous
 62
     7
100
AcDbLine
 10
-81.137824
 20
2.497999
 30
0.0
 11
-79.845536
 21
2.497999
 31
0.0
  0
LINE
  5
385
100
AcDbEntity
  8
0
390
0
  6
Continuous
 62
     7
100
AcDbLine
 10
-83.158428
 20
7.499339
 30
0.0
 11
-81.137824
 21
2.497999
 31
0.0
  0
LINE
  5
386
100
AcDbEntity
  8
0
390
0
  6
Continuous
 62
     7
100
AcDbLine
 10
-81.866425
 20
7.499339
 30
0.0
 11
-83.158428
 21
7.499339
 31
0.0
  0
LINE
  5
387
100
AcDbEntity
  8
0
390
0
  6
Continuous
 62
     7
100
AcDbLine
 10
-83.776549
 20
2.497999
 30
0.0
 11
-83.309512
 21
3.653118
 31
0.0
  0
LINE
  5
388
100
AcDbEntity
  8
0
390
0
  6
Continuous
 62
     7
100
AcDbLine
 10
-85.068553
 20
2.497999
 30
0.0
 11
-83.776549
 21
2.497999
 31
0.0
  0
LINE
  5
389
100
AcDbEntity
  8
0
390
0
  6
Continuous
 62
     7
100
AcDbLine
 10
-83.553702
 20
6.247872
 30
0.0
 11
-85.068553
 21
2.497999
 31
0.0
  0
LINE
  5
38A
100
AcDbEntity
  8
0
390
0
  6
Continuous
 62
     7
100
AcDbLine
 10
-82.505837
 20
3.653118
 30
0.0
 11
-83.553702
 21
6.247872
 31
0.0
  0
LINE
  5
38B
100
AcDbEntity
  8
0
390
0
  6
Continuous
 62
     7
100
AcDbLine
 10
-83.309512
 20
3.653118
 30
0.0
 11
-82.505837
 21
3.653118
 31
0.0
  0
LINE
  5
38C
100
AcDbEntity
  8
0
390
0
  6
Continuous
 62
     7
100
AcDbLine
 10
-65.944154
 20
13.063091
 30
0.0
 11
-90.06063
 21
13.063091
 31
0.0
  0
POLYLINE
  5
38D
100
AcDbEntity
  8
0
390
0
  6
Continuous
 62
     7
100
AcDb2dPolyline
 66
     1
 10
0.0
 20
0.0
 30
0.0
 40
0.1
 41
0.1
  0
VERTEX
  5
38E
100
AcDbEntity
  8
0
390
0
 62
     7
100
AcDbVertex
100
AcDb2dVertex
 10
-64.939301
 20
12.058238
 30
0.0
  0
VERTEX
  5
38F
100
AcDbEntity
  8
0
390
0
 62
     7
100
AcDbVertex
100
AcDb2dVertex
 10
-64.940167
 20
12.099954
 30
0.0
  0
VERTEX
  5
390
100
AcDbEntity
  8
0
390
0
 62
     7
100
AcDbVertex
100
AcDb2dVertex
 10
-64.942766
 20
12.141636
 30
0.0
  0
VERTEX
  5
391
100
AcDbEntity
  8
0
390
0
 62
     7
100
AcDbVertex
100
AcDb2dVertex
 10
-64.947091
 20
12.183176
 30
0.0
  0
VERTEX
  5
392
100
AcDbEntity
  8
0
390
0
 62
     7
100
AcDbVertex
100
AcDb2dVertex
 10
-64.953131
 20
12.224466
 30
0.0
  0
VERTEX
  5
393
100
AcDbEntity
  8
0
390
0
 62
     7
100
AcDbVertex
100
AcDb2dVertex
 10
-64.961138
 20
12.266656
 30
0.0
  0
VERTEX
  5
394
100
AcDbEntity
  8
0
390
0
 62
     7
100
AcDbVertex
100
AcDb2dVertex
 10
-64.970949
 20
12.308504
 30
0.0
  0
VERTEX
  5
395
100
AcDbEntity
  8
0
390
0
 62
     7
100
AcDbVertex
100
AcDb2dVertex
 10
-64.982537
 20
12.349898
 30
0.0
  0
VERTEX
  5
396
100
AcDbEntity
  8
0
390
0
 62
     7
100
AcDbVertex
100
AcDb2dVertex
 10
-64.99587
 20
12.390722
 30
0.0
  0
VERTEX
  5
397
100
AcDbEntity
  8
0
390
0
 62
     7
100
AcDbVertex
100
AcDb2dVertex
 10
-65.010494
 20
12.429811
 30
0.0
  0
VERTEX
  5
398
100
AcDbEntity
  8
0
390
0
 62
     7
100
AcDbVertex
100
AcDb2dVertex
 10
-65.026743
 20
12.468293
 30
0.0
  0
VERTEX
  5
399
100
AcDbEntity
  8
0
390
0
 62
     7
100
AcDbVertex
100
AcDb2dVertex
 10
-65.044573
 20
12.50607
 30
0.0
  0
VERTEX
  5
39A
100
AcDbEntity
  8
0
390
0
 62
     7
100
AcDbVertex
100
AcDb2dVertex
 10
-65.063941
 20
12.543042
 30
0.0
  0
VERTEX
  5
39B
100
AcDbEntity
  8
0
390
0
 62
     7
100
AcDbVertex
100
AcDb2dVertex
 10
-65.085464
 20
12.580212
 30
0.0
  0
VERTEX
  5
39C
100
AcDbEntity
  8
0
390
0
 62
     7
100
AcDbVertex
100
AcDb2dVertex
 10
-65.108577
 20
12.616463
 30
0.0
  0
VERTEX
  5
39D
100
AcDbEntity
  8
0
390
0
 62
     7
100
AcDbVertex
100
AcDb2dVertex
 10
-65.133215
 20
12.651696
 30
0.0
  0
VERTEX
  5
39E
100
AcDbEntity
  8
0
390
0
 62
     7
100
AcDbVertex
100
AcDb2dVertex
 10
-65.159314
 20
12.685812
 30
0.0
  0
VERTEX
  5
39F
100
AcDbEntity
  8
0
390
0
 62
     7
100
AcDbVertex
100
AcDb2dVertex
 10
-65.186042
 20
12.717847
 30
0.0
  0
VERTEX
  5
3A0
100
AcDbEntity
  8
0
390
0
 62
     7
100
AcDbVertex
100
AcDb2dVertex
 10
-65.214101
 20
12.748771
 30
0.0
  0
VERTEX
  5
3A1
100
AcDbEntity
  8
0
390
0
 62
     7
100
AcDbVertex
100
AcDb2dVertex
 10
-65.243418
 20
12.778507
 30
0.0
  0
VERTEX
  5
3A2
100
AcDbEntity
  8
0
390
0
 62
     7
100
AcDbVertex
100
AcDb2dVertex
 10
-65.273917
 20
12.806975
 30
0.0
  0
VERTEX
  5
3A3
100
AcDbEntity
  8
0
390
0
 62
     7
100
AcDbVertex
100
AcDb2dVertex
 10
-65.306514
 20
12.834917
 30
0.0
  0
VERTEX
  5
3A4
100
AcDbEntity
  8
0
390
0
 62
     7
100
AcDbVertex
100
AcDb2dVertex
 10
-65.340305
 20
12.861465
 30
0.0
  0
VERTEX
  5
3A5
100
AcDbEntity
  8
0
390
0
 62
     7
100
AcDbVertex
100
AcDb2dVertex
 10
-65.375196
 20
12.886548
 30
0.0
  0
VERTEX
  5
3A6
100
AcDbEntity
  8
0
390
0
 62
     7
100
AcDbVertex
100
AcDb2dVertex
 10
-65.411094
 20
12.910096
 30
0.0
  0
VERTEX
  5
3A7
100
AcDbEntity
  8
0
390
0
 62
     7
100
AcDbVertex
100
AcDb2dVertex
 10
-65.446908
 20
12.93148
 30
0.0
  0
VERTEX
  5
3A8
100
AcDbEntity
  8
0
390
0
 62
     7
100
AcDbVertex
100
AcDb2dVertex
 10
-65.48361
 20
12.951375
 30
0.0
  0
VERTEX
  5
3A9
100
AcDbEntity
  8
0
390
0
 62
     7
100
AcDbVertex
100
AcDb2dVertex
 10
-65.521104
 20
12.969733
 30
0.0
  0
VERTEX
  5
3AA
100
AcDbEntity
  8
0
390
0
 62
     7
100
AcDbVertex
100
AcDb2dVertex
 10
-65.559293
 20
12.986504
 30
0.0
  0
VERTEX
  5
3AB
100
AcDbEntity
  8
0
390
0
 62
     7
100
AcDbVertex
100
AcDb2dVertex
 10
-65.599284
 20
13.002085
 30
0.0
  0
VERTEX
  5
3AC
100
AcDbEntity
  8
0
390
0
 62
     7
100
AcDbVertex
100
AcDb2dVertex
 10
-65.63994
 20
13.015956
 30
0.0
  0
VERTEX
  5
3AD
100
AcDbEntity
  8
0
390
0
 62
     7
100
AcDbVertex
100
AcDb2dVertex
 10
-65.681149
 20
13.028081
 30
0.0
  0
VERTEX
  5
3AE
100
AcDbEntity
  8
0
390
0
 62
     7
100
AcDbVertex
100
AcDb2dVertex
 10
-65.722799
 20
13.038427
 30
0.0
  0
VERTEX
  5
3AF
100
AcDbEntity
  8
0
390
0
 62
     7
100
AcDbVertex
100
AcDb2dVertex
 10
-65.766505
 20
13.047271
 30
0.0
  0
VERTEX
  5
3B0
100
AcDbEntity
  8
0
390
0
 62
     7
100
AcDbVertex
100
AcDb2dVertex
 10
-65.810624
 20
13.054173
 30
0.0
  0
VERTEX
  5
3B1
100
AcDbEntity
  8
0
390
0
 62
     7
100
AcDbVertex
100
AcDb2dVertex
 10
-65.855026
 20
13.05912
 30
0.0
  0
VERTEX
  5
3B2
100
AcDbEntity
  8
0
390
0
 62
     7
100
AcDbVertex
100
AcDb2dVertex
 10
-65.89958
 20
13.062098
 30
0.0
  0
VERTEX
  5
3B3
100
AcDbEntity
  8
0
390
0
 62
     7
100
AcDbVertex
100
AcDb2dVertex
 10
-65.944154
 20
13.063091
 30
0.0
  0
SEQEND
  5
3B4
100
AcDbEntity
  8
0
390
0
  0
LINE
  5
3B5
100
AcDbEntity
  8
0
390
0
  6
Continuous
 62
     7
100
AcDbLine
 10
-64.939301
 20
-12.058238
 30
0.0
 11
-64.939301
 21
12.058238
 31
0.0
  0
POLYLINE
  5
3B6
100
AcDbEntity
  8
0
390
0
  6
Continuous
 62
     7
100
AcDb2dPolyline
 66
     1
 10
0.0
 20
0.0
 30
0.0
 40
0.1
 41
0.1
  0
VERTEX
  5
3B7
100
AcDbEntity
  8
0
390
0
 62
     7
100
AcDbVertex
100
AcDb2dVertex
 10
-65.944154
 20
-13.063091
 30
0.0
  0
VERTEX
  5
3B8
100
AcDbEntity
  8
0
390
0
 62
     7
100
AcDbVertex
100
AcDb2dVertex
 10
-65.902438
 20
-13.062225
 30
0.0
  0
VERTEX
  5
3B9
100
AcDbEntity
  8
0
390
0
 62
     7
100
AcDbVertex
100
AcDb2dVertex
 10
-65.860756
 20
-13.059626
 30
0.0
  0
VERTEX
  5
3BA
100
AcDbEntity
  8
0
390
0
 62
     7
100
AcDbVertex
100
AcDb2dVertex
 10
-65.819216
 20
-13.055302
 30
0.0
  0
VERTEX
  5
3BB
100
AcDbEntity
  8
0
390
0
 62
     7
100
AcDbVertex
100
AcDb2dVertex
 10
-65.777925
 20
-13.049261
 30
0.0
  0
VERTEX
  5
3BC
100
AcDbEntity
  8
0
390
0
 62
     7
100
AcDbVertex
100
AcDb2dVertex
 10
-65.735736
 20
-13.041254
 30
0.0
  0
VERTEX
  5
3BD
100
AcDbEntity
  8
0
390
0
 62
     7
100
AcDbVertex
100
AcDb2dVertex
 10
-65.693887
 20
-13.031443
 30
0.0
  0
VERTEX
  5
3BE
100
AcDbEntity
  8
0
390
0
 62
     7
100
AcDbVertex
100
AcDb2dVertex
 10
-65.652494
 20
-13.019856
 30
0.0
  0
VERTEX
  5
3BF
100
AcDbEntity
  8
0
390
0
 62
     7
100
AcDbVertex
100
AcDb2dVertex
 10
-65.61167
 20
-13.006522
 30
0.0
  0
VERTEX
  5
3C0
100
AcDbEntity
  8
0
390
0
 62
     7
100
AcDbVertex
100
AcDb2dVertex
 10
-65.572581
 20
-12.991898
 30
0.0
  0
VERTEX
  5
3C1
100
AcDbEntity
  8
0
390
0
 62
     7
100
AcDbVertex
100
AcDb2dVertex
 10
-65.534099
 20
-12.975649
 30
0.0
  0
VERTEX
  5
3C2
100
AcDbEntity
  8
0
390
0
 62
     7
100
AcDbVertex
100
AcDb2dVertex
 10
-65.496322
 20
-12.957819
 30
0.0
  0
VERTEX
  5
3C3
100
AcDbEntity
  8
0
390
0
 62
     7
100
AcDbVertex
100
AcDb2dVertex
 10
-65.45935
 20
-12.938451
 30
0.0
  0
VERTEX
  5
3C4
100
AcDbEntity
  8
0
390
0
 62
     7
100
AcDbVertex
100
AcDb2dVertex
 10
-65.422179
 20
-12.916928
 30
0.0
  0
VERTEX
  5
3C5
100
AcDbEntity
  8
0
390
0
 62
     7
100
AcDbVertex
100
AcDb2dVertex
 10
-65.385928
 20
-12.893815
 30
0.0
  0
VERTEX
  5
3C6
100
AcDbEntity
  8
0
390
0
 62
     7
100
AcDbVertex
100
AcDb2dVertex
 10
-65.350696
 20
-12.869177
 30
0.0
  0
VERTEX
  5
3C7
100
AcDbEntity
  8
0
390
0
 62
     7
100
AcDbVertex
100
AcDb2dVertex
 10
-65.31658
 20
-12.843078
 30
0.0
  0
VERTEX
  5
3C8
100
AcDbEntity
  8
0
390
0
 62
     7
100
AcDbVertex
100
AcDb2dVertex
 10
-65.284545
 20
-12.81635
 30
0.0
  0
VERTEX
  5
3C9
100
AcDbEntity
  8
0
390
0
 62
     7
100
AcDbVertex
100
AcDb2dVertex
 10
-65.25362
 20
-12.788291
 30
0.0
  0
VERTEX
  5
3CA
100
AcDbEntity
  8
0
390
0
 62
     7
100
AcDbVertex
100
AcDb2dVertex
 10
-65.223885
 20
-12.758974
 30
0.0
  0
VERTEX
  5
3CB
100
AcDbEntity
  8
0
390
0
 62
     7
100
AcDbVertex
100
AcDb2dVertex
 10
-65.195416
 20
-12.728475
 30
0.0
  0
VERTEX
  5
3CC
100
AcDbEntity
  8
0
390
0
 62
     7
100
AcDbVertex
100
AcDb2dVertex
 10
-65.167474
 20
-12.695879
 30
0.0
  0
VERTEX
  5
3CD
100
AcDbEntity
  8
0
390
0
 62
     7
100
AcDbVertex
100
AcDb2dVertex
 10
-65.140926
 20
-12.662088
 30
0.0
  0
VERTEX
  5
3CE
100
AcDbEntity
  8
0
390
0
 62
     7
100
AcDbVertex
100
AcDb2dVertex
 10
-65.115843
 20
-12.627196
 30
0.0
  0
VERTEX
  5
3CF
100
AcDbEntity
  8
0
390
0
 62
     7
100
AcDbVertex
100
AcDb2dVertex
 10
-65.092295
 20
-12.591298
 30
0.0
  0
VERTEX
  5
3D0
100
AcDbEntity
  8
0
390
0
 62
     7
100
AcDbVertex
100
AcDb2dVertex
 10
-65.070912
 20
-12.555484
 30
0.0
  0
VERTEX
  5
3D1
100
AcDbEntity
  8
0
390
0
 62
     7
100
AcDbVertex
100
AcDb2dVertex
 10
-65.051017
 20
-12.518782
 30
0.0
  0
VERTEX
  5
3D2
100
AcDbEntity
  8
0
390
0
 62
     7
100
AcDbVertex
100
AcDb2dVertex
 10
-65.032659
 20
-12.481289
 30
0.0
  0
VERTEX
  5
3D3
100
AcDbEntity
  8
0
390
0
 62
     7
100
AcDbVertex
100
AcDb2dVertex
 10
-65.015888
 20
-12.443099
 30
0.0
  0
VERTEX
  5
3D4
100
AcDbEntity
  8
0
390
0
 62
     7
100
AcDbVertex
100
AcDb2dVertex
 10
-65.000307
 20
-12.403108
 30
0.0
  0
VERTEX
  5
3D5
100
AcDbEntity
  8
0
390
0
 62
     7
100
AcDbVertex
100
AcDb2dVertex
 10
-64.986436
 20
-12.362452
 30
0.0
  0
VERTEX
  5
3D6
100
AcDbEntity
  8
0
390
0
 62
     7
100
AcDbVertex
100
AcDb2dVertex
 10
-64.97431
 20
-12.321243
 30
0.0
  0
VERTEX
  5
3D7
100
AcDbEntity
  8
0
390
0
 62
     7
100
AcDbVertex
100
AcDb2dVertex
 10
-64.963965
 20
-12.279593
 30
0.0
  0
VERTEX
  5
3D8
100
AcDbEntity
  8
0
390
0
 62
     7
100
AcDbVertex
100
AcDb2dVertex
 10
-64.955121
 20
-12.235887
 30
0.0
  0
VERTEX
  5
3D9
100
AcDbEntity
  8
0
390
0
 62
     7
100
AcDbVertex
100
AcDb2dVertex
 10
-64.948218
 20
-12.191768
 30
0.0
  0
VERTEX
  5
3DA
100
AcDbEntity
  8
0
390
0
 62
     7
100
AcDbVertex
100
AcDb2dVertex
 10
-64.943271
 20
-12.147366
 30
0.0
  0
VERTEX
  5
3DB
100
AcDbEntity
  8
0
390
0
 62
     7
100
AcDbVertex
100
AcDb2dVertex
 10
-64.940294
 20
-12.102812
 30
0.0
  0
VERTEX
  5
3DC
100
AcDbEntity
  8
0
390
0
 62
     7
100
AcDbVertex
100
AcDb2dVertex
 10
-64.939301
 20
-12.058238
 30
0.0
  0
SEQEND
  5
3DD
100
AcDbEntity
  8
0
390
0
  0
LINE
  5
3DE
100
AcDbEntity
  8
0
390
0
  6
Continuous
 62
     7
100
AcDbLine
 10
-90.06063
 20
-13.063091
 30
0.0
 11
-65.944154
 21
-13.063091
 31
0.0
  0
POLYLINE
  5
3DF
100
AcDbEntity
  8
0
390
0
  6
Continuous
 62
     7
100
AcDb2dPolyline
 66
     1
 10
0.0
 20
0.0
 30
0.0
 40
0.1
 41
0.1
  0
VERTEX
  5
3E0
100
AcDbEntity
  8
0
390
0
 62
     7
100
AcDbVertex
100
AcDb2dVertex
 10
-91.065483
 20
-12.058238
 30
0.0
  0
VERTEX
  5
3E1
100
AcDbEntity
  8
0
390
0
 62
     7
100
AcDbVertex
100
AcDb2dVertex
 10
-91.064617
 20
-12.099955
 30
0.0
  0
VERTEX
  5
3E2
100
AcDbEntity
  8
0
390
0
 62
     7
100
AcDbVertex
100
AcDb2dVertex
 10
-91.062017
 20
-12.141637
 30
0.0
  0
VERTEX
  5
3E3
100
AcDbEntity
  8
0
390
0
 62
     7
100
AcDbVertex
100
AcDb2dVertex
 10
-91.057693
 20
-12.183176
 30
0.0
  0
VERTEX
  5
3E4
100
AcDbEntity
  8
0
390
0
 62
     7
100
AcDbVertex
100
AcDb2dVertex
 10
-91.051653
 20
-12.224467
 30
0.0
  0
VERTEX
  5
3E5
100
AcDbEntity
  8
0
390
0
 62
     7
100
AcDbVertex
100
AcDb2dVertex
 10
-91.043646
 20
-12.266656
 30
0.0
  0
VERTEX
  5
3E6
100
AcDbEntity
  8
0
390
0
 62
     7
100
AcDbVertex
100
AcDb2dVertex
 10
-91.033834
 20
-12.308505
 30
0.0
  0
VERTEX
  5
3E7
100
AcDbEntity
  8
0
390
0
 62
     7
100
AcDbVertex
100
AcDb2dVertex
 10
-91.022247
 20
-12.349898
 30
0.0
  0
VERTEX
  5
3E8
100
AcDbEntity
  8
0
390
0
 62
     7
100
AcDbVertex
100
AcDb2dVertex
 10
-91.008914
 20
-12.390723
 30
0.0
  0
VERTEX
  5
3E9
100
AcDbEntity
  8
0
390
0
 62
     7
100
AcDbVertex
100
AcDb2dVertex
 10
-90.99429
 20
-12.429811
 30
0.0
  0
VERTEX
  5
3EA
100
AcDbEntity
  8
0
390
0
 62
     7
100
AcDbVertex
100
AcDb2dVertex
 10
-90.978041
 20
-12.468294
 30
0.0
  0
VERTEX
  5
3EB
100
AcDbEntity
  8
0
390
0
 62
     7
100
AcDbVertex
100
AcDb2dVertex
 10
-90.96021
 20
-12.50607
 30
0.0
  0
VERTEX
  5
3EC
100
AcDbEntity
  8
0
390
0
 62
     7
100
AcDbVertex
100
AcDb2dVertex
 10
-90.940843
 20
-12.543042
 30
0.0
  0
VERTEX
  5
3ED
100
AcDbEntity
  8
0
390
0
 62
     7
100
AcDbVertex
100
AcDb2dVertex
 10
-90.91932
 20
-12.580213
 30
0.0
  0
VERTEX
  5
3EE
100
AcDbEntity
  8
0
390
0
 62
     7
100
AcDbVertex
100
AcDb2dVertex
 10
-90.896207
 20
-12.616464
 30
0.0
  0
VERTEX
  5
3EF
100
AcDbEntity
  8
0
390
0
 62
     7
100
AcDbVertex
100
AcDb2dVertex
 10
-90.871568
 20
-12.651696
 30
0.0
  0
VERTEX
  5
3F0
100
AcDbEntity
  8
0
390
0
 62
     7
100
AcDbVertex
100
AcDb2dVertex
 10
-90.84547
 20
-12.685812
 30
0.0
  0
VERTEX
  5
3F1
100
AcDbEntity
  8
0
390
0
 62
     7
100
AcDbVertex
100
AcDb2dVertex
 10
-90.818742
 20
-12.717847
 30
0.0
  0
VERTEX
  5
3F2
100
AcDbEntity
  8
0
390
0
 62
     7
100
AcDbVertex
100
AcDb2dVertex
 10
-90.790682
 20
-12.748772
 30
0.0
  0
VERTEX
  5
3F3
100
AcDbEntity
  8
0
390
0
 62
     7
100
AcDbVertex
100
AcDb2dVertex
 10
-90.761366
 20
-12.778508
 30
0.0
  0
VERTEX
  5
3F4
100
AcDbEntity
  8
0
390
0
 62
     7
100
AcDbVertex
100
AcDb2dVertex
 10
-90.730866
 20
-12.806976
 30
0.0
  0
VERTEX
  5
3F5
100
AcDbEntity
  8
0
390
0
 62
     7
100
AcDbVertex
100
AcDb2dVertex
 10
-90.69827
 20
-12.834918
 30
0.0
  0
VERTEX
  5
3F6
100
AcDbEntity
  8
0
390
0
 62
     7
100
AcDbVertex
100
AcDb2dVertex
 10
-90.664479
 20
-12.861466
 30
0.0
  0
VERTEX
  5
3F7
100
AcDbEntity
  8
0
390
0
 62
     7
100
AcDbVertex
100
AcDb2dVertex
 10
-90.629587
 20
-12.886549
 30
0.0
  0
VERTEX
  5
3F8
100
AcDbEntity
  8
0
390
0
 62
     7
100
AcDbVertex
100
AcDb2dVertex
 10
-90.59369
 20
-12.910097
 30
0.0
  0
VERTEX
  5
3F9
100
AcDbEntity
  8
0
390
0
 62
     7
100
AcDbVertex
100
AcDb2dVertex
 10
-90.557875
 20
-12.93148
 30
0.0
  0
VERTEX
  5
3FA
100
AcDbEntity
  8
0
390
0
 62
     7
100
AcDbVertex
100
AcDb2dVertex
 10
-90.521174
 20
-12.951375
 30
0.0
  0
VERTEX
  5
3FB
100
AcDbEntity
  8
0
390
0
 62
     7
100
AcDbVertex
100
AcDb2dVertex
 10
-90.48368
 20
-12.969733
 30
0.0
  0
VERTEX
  5
3FC
100
AcDbEntity
  8
0
390
0
 62
     7
100
AcDbVertex
100
AcDb2dVertex
 10
-90.445491
 20
-12.986504
 30
0.0
  0
VERTEX
  5
3FD
100
AcDbEntity
  8
0
390
0
 62
     7
100
AcDbVertex
100
AcDb2dVertex
 10
-90.4055
 20
-13.002085
 30
0.0
  0
VERTEX
  5
3FE
100
AcDbEntity
  8
0
390
0
 62
     7
100
AcDbVertex
100
AcDb2dVertex
 10
-90.364844
 20
-13.015956
 30
0.0
  0
VERTEX
  5
3FF
100
AcDbEntity
  8
0
390
0
 62
     7
100
AcDbVertex
100
AcDb2dVertex
 10
-90.323635
 20
-13.028082
 30
0.0
  0
VERTEX
  5
400
100
AcDbEntity
  8
0
390
0
 62
     7
100
AcDbVertex
100
AcDb2dVertex
 10
-90.281985
 20
-13.038427
 30
0.0
  0
VERTEX
  5
401
100
AcDbEntity
  8
0
390
0
 62
     7
100
AcDbVertex
100
AcDb2dVertex
 10
-90.238279
 20
-13.047271
 30
0.0
  0
VERTEX
  5
402
100
AcDbEntity
  8
0
390
0
 62
     7
100
AcDbVertex
100
AcDb2dVertex
 10
-90.19416
 20
-13.054174
 30
0.0
  0
VERTEX
  5
403
100
AcDbEntity
  8
0
390
0
 62
     7
100
AcDbVertex
100
AcDb2dVertex
 10
-90.149757
 20
-13.059121
 30
0.0
  0
VERTEX
  5
404
100
AcDbEntity
  8
0
390
0
 62
     7
100
AcDbVertex
100
AcDb2dVertex
 10
-90.105204
 20
-13.062098
 30
0.0
  0
VERTEX
  5
405
100
AcDbEntity
  8
0
390
0
 62
     7
100
AcDbVertex
100
AcDb2dVertex
 10
-90.06063
 20
-13.063091
 30
0.0
  0
SEQEND
  5
406
100
AcDbEntity
  8
0
390
0
  0
LINE
  5
407
100
AcDbEntity
  8
0
390
0
  6
Continuous
 62
     7
100
AcDbLine
 10
-91.065483
 20
12.058238
 30
0.0
 11
-91.065483
 21
-12.058238
 31
0.0
  0
POLYLINE
  5
408
100
AcDbEntity
  8
0
390
0
  6
Continuous
 62
     7
100
AcDb2dPolyline
 66
     1
 10
0.0
 20
0.0
 30
0.0
 40
0.1
 41
0.1
  0
VERTEX
  5
409
100
AcDbEntity
  8
0
390
0
 62
     7
100
AcDbVertex
100
AcDb2dVertex
 10
-90.06063
 20
13.063091
 30
0.0
  0
VERTEX
  5
40A
100
AcDbEntity
  8
0
390
0
 62
     7
100
AcDbVertex
100
AcDb2dVertex
 10
-90.102346
 20
13.062225
 30
0.0
  0
VERTEX
  5
40B
100
AcDbEntity
  8
0
390
0
 62
     7
100
AcDbVertex
100
AcDb2dVertex
 10
-90.144028
 20
13.059625
 30
0.0
  0
VERTEX
  5
40C
100
AcDbEntity
  8
0
390
0
 62
     7
100
AcDbVertex
100
AcDb2dVertex
 10
-90.185568
 20
13.055301
 30
0.0
  0
VERTEX
  5
40D
100
AcDbEntity
  8
0
390
0
 62
     7
100
AcDbVertex
100
AcDb2dVertex
 10
-90.226858
 20
13.049261
 30
0.0
  0
VERTEX
  5
40E
100
AcDbEntity
  8
0
390
0
 62
     7
100
AcDbVertex
100
AcDb2dVertex
 10
-90.269048
 20
13.041254
 30
0.0
  0
VERTEX
  5
40F
100
AcDbEntity
  8
0
390
0
 62
     7
100
AcDbVertex
100
AcDb2dVertex
 10
-90.310896
 20
13.031442
 30
0.0
  0
VERTEX
  5
410
100
AcDbEntity
  8
0
390
0
 62
     7
100
AcDbVertex
100
AcDb2dVertex
 10
-90.35229
 20
13.019855
 30
0.0
  0
VERTEX
  5
411
100
AcDbEntity
  8
0
390
0
 62
     7
100
AcDbVertex
100
AcDb2dVertex
 10
-90.393114
 20
13.006521
 30
0.0
  0
VERTEX
  5
412
100
AcDbEntity
  8
0
390
0
 62
     7
100
AcDbVertex
100
AcDb2dVertex
 10
-90.432203
 20
12.991897
 30
0.0
  0
VERTEX
  5
413
100
AcDbEntity
  8
0
390
0
 62
     7
100
AcDbVertex
100
AcDb2dVertex
 10
-90.470685
 20
12.975648
 30
0.0
  0
VERTEX
  5
414
100
AcDbEntity
  8
0
390
0
 62
     7
100
AcDbVertex
100
AcDb2dVertex
 10
-90.508462
 20
12.957818
 30
0.0
  0
VERTEX
  5
415
100
AcDbEntity
  8
0
390
0
 62
     7
100
AcDbVertex
100
AcDb2dVertex
 10
-90.545434
 20
12.938451
 30
0.0
  0
VERTEX
  5
416
100
AcDbEntity
  8
0
390
0
 62
     7
100
AcDbVertex
100
AcDb2dVertex
 10
-90.582605
 20
12.916928
 30
0.0
  0
VERTEX
  5
417
100
AcDbEntity
  8
0
390
0
 62
     7
100
AcDbVertex
100
AcDb2dVertex
 10
-90.618855
 20
12.893815
 30
0.0
  0
VERTEX
  5
418
100
AcDbEntity
  8
0
390
0
 62
     7
100
AcDbVertex
100
AcDb2dVertex
 10
-90.654088
 20
12.869176
 30
0.0
  0
VERTEX
  5
419
100
AcDbEntity
  8
0
390
0
 62
     7
100
AcDbVertex
100
AcDb2dVertex
 10
-90.688204
 20
12.843078
 30
0.0
  0
VERTEX
  5
41A
100
AcDbEntity
  8
0
390
0
 62
     7
100
AcDbVertex
100
AcDb2dVertex
 10
-90.720239
 20
12.81635
 30
0.0
  0
VERTEX
  5
41B
100
AcDbEntity
  8
0
390
0
 62
     7
100
AcDbVertex
100
AcDb2dVertex
 10
-90.751163
 20
12.78829
 30
0.0
  0
VERTEX
  5
41C
100
AcDbEntity
  8
0
390
0
 62
     7
100
AcDbVertex
100
AcDb2dVertex
 10
-90.780899
 20
12.758974
 30
0.0
  0
VERTEX
  5
41D
100
AcDbEntity
  8
0
390
0
 62
     7
100
AcDbVertex
100
AcDb2dVertex
 10
-90.809367
 20
12.728474
 30
0.0
  0
VERTEX
  5
41E
100
AcDbEntity
  8
0
390
0
 62
     7
100
AcDbVertex
100
AcDb2dVertex
 10
-90.837309
 20
12.695878
 30
0.0
  0
VERTEX
  5
41F
100
AcDbEntity
  8
0
390
0
 62
     7
100
AcDbVertex
100
AcDb2dVertex
 10
-90.863857
 20
12.662087
 30
0.0
  0
VERTEX
  5
420
100
AcDbEntity
  8
0
390
0
 62
     7
100
AcDbVertex
100
AcDb2dVertex
 10
-90.88894
 20
12.627195
 30
0.0
  0
VERTEX
  5
421
100
AcDbEntity
  8
0
390
0
 62
     7
100
AcDbVertex
100
AcDb2dVertex
 10
-90.912488
 20
12.591297
 30
0.0
  0
VERTEX
  5
422
100
AcDbEntity
  8
0
390
0
 62
     7
100
AcDbVertex
100
AcDb2dVertex
 10
-90.933872
 20
12.555483
 30
0.0
  0
VERTEX
  5
423
100
AcDbEntity
  8
0
390
0
 62
     7
100
AcDbVertex
100
AcDb2dVertex
 10
-90.953767
 20
12.518782
 30
0.0
  0
VERTEX
  5
424
100
AcDbEntity
  8
0
390
0
 62
     7
100
AcDbVertex
100
AcDb2dVertex
 10
-90.972125
 20
12.481288
 30
0.0
  0
VERTEX
  5
425
100
AcDbEntity
  8
0
390
0
 62
     7
100
AcDbVertex
100
AcDb2dVertex
 10
-90.988896
 20
12.443099
 30
0.0
  0
VERTEX
  5
426
100
AcDbEntity
  8
0
390
0
 62
     7
100
AcDbVertex
100
AcDb2dVertex
 10
-91.004477
 20
12.403108
 30
0.0
  0
VERTEX
  5
427
100
AcDbEntity
  8
0
390
0
 62
     7
100
AcDbVertex
100
AcDb2dVertex
 10
-91.018348
 20
12.362452
 30
0.0
  0
VERTEX
  5
428
100
AcDbEntity
  8
0
390
0
 62
     7
100
AcDbVertex
100
AcDb2dVertex
 10
-91.030474
 20
12.321243
 30
0.0
  0
VERTEX
  5
429
100
AcDbEntity
  8
0
390
0
 62
     7
100
AcDbVertex
100
AcDb2dVertex
 10
-91.040819
 20
12.279593
 30
0.0
  0
VERTEX
  5
42A
100
AcDbEntity
  8
0
390
0
 62
     7
100
AcDbVertex
100
AcDb2dVertex
 10
-91.049663
 20
12.235887
 30
0.0
  0
VERTEX
  5
42B
100
AcDbEntity
  8
0
390
0
 62
     7
100
AcDbVertex
100
AcDb2dVertex
 10
-91.056565
 20
12.191767
 30
0.0
  0
VERTEX
  5
42C
100
AcDbEntity
  8
0
390
0
 62
     7
100
AcDbVertex
100
AcDb2dVertex
 10
-91.061512
 20
12.147365
 30
0.0
  0
VERTEX
  5
42D
100
AcDbEntity
  8
0
390
0
 62
     7
100
AcDbVertex
100
AcDb2dVertex
 10
-91.06449
 20
12.102812
 30
0.0
  0
VERTEX
  5
42E
100
AcDbEntity
  8
0
390
0
 62
     7
100
AcDbVertex
100
AcDb2dVertex
 10
-91.065483
 20
12.058238
 30
0.0
  0
SEQEND
  5
42F
100
AcDbEntity
  8
0
390
0
  0
ELLIPSE
  5
430
100
AcDbEntity
  8
0
390
0
  6
Continuous
 62
     7
100
AcDbEllipse
 10
-90.002392
 20
13.0
 30
0.0
 11
0.0
 21
-2.0000000000000018
 31
0.0
210
0.0
220
0.0
230
1.0
 40
0.029133
 41
3.1415926535897931
 42
4.6808382656878091
  0
LINE
  5
431
100
AcDbEntity
  8
0
390
0
  6
Continuous
 62
     7
100
AcDbLine
 10
-90.002392
 20
15.0
 30
0.0
 11
-66.002392
 21
15.0
 31
0.0
  0
ELLIPSE
  5
432
100
AcDbEntity
  8
0
390
0
  6
Continuous
 62
     7
100
AcDbEllipse
 10
-66.002392
 20
13.0
 30
0.0
 11
0.0
 21
-2.0000000000000018
 31
0.0
210
0.0
220
0.0
230
1.0
 40
0.029133
 41
1.6023470414917778
 42
3.1415926535897931
  0
LINE
  5
433
100
AcDbEntity
  8
0
390
0
  6
Continuous
 62
     7
100
AcDbLine
 10
-63.002392
 20
12.0
 30
0.0
 11
-63.002392
 21
-12.0
 31
0.0
  0
ELLIPSE
  5
434
100
AcDbEntity
  8
0
390
0
  6
Continuous
 62
     7
100
AcDbEllipse
 10
-65.002392
 20
-12.0
 30
0.0
 11
2.0000000000000018
 21
0.0
 31
0.0
210
0.0
220
0.0
230
1.0
 40
0.029133
 41
4.743939695081572
 42
6.2831853071795862
  0
ELLIPSE
  5
435
100
AcDbEntity
  8
0
390
0
  6
Continuous
 62
     7
100
AcDbEllipse
 10
-65.002392
 20
12.0
 30
0.0
 11
-2.0000000000000018
 21
0.0
 31
0.0
210
0.0
220
0.0
230
1.0
 40
0.029133
 41
3.1415926535897931
 42
4.6808382656878091
  0
LINE
  5
436
100
AcDbEntity
  8
0
390
0
  6
Continuous
 62
     7
100
AcDbLine
 10
-66.002392
 20
-15.0
 30
0.0
 11
-90.002392
 21
-15.0
 31
0.0
  0
ELLIPSE
  5
437
100
AcDbEntity
  8
0
390
0
  6
Continuous
 62
     7
100
AcDbEllipse
 10
-90.002392
 20
-13.0
 30
0.0
 11
0.0
 21
-2.0000000000000018
 31
0.0
210
0.0
220
0.0
230
1.0
 40
0.029133
 41
4.743939695081572
 42
6.2831853071795862
  0
ELLIPSE
  5
438
100
AcDbEntity
  8
0
390
0
  6
Continuous
 62
     7
100
AcDbEllipse
 10
-66.002392
 20
-13.0
 30
0.0
 11
0.0
 21
-2.0000000000000018
 31
0.0
210
0.0
220
0.0
230
1.0
 40
0.029133
 41
0.0
 42
1.5392456120980156
  0
LINE
  5
439
100
AcDbEntity
  8
0
390
0
  6
Continuous
 62
     7
100
AcDbLine
 10
-93.002392
 20
-12.0
 30
0.0
 11
-93.002392
 21
12.0
 31
0.0
  0
ELLIPSE
  5
43A
100
AcDbEntity
  8
0
390
0
  6
Continuous
 62
     7
100
AcDbEllipse
 10
-91.002392
 20
12.0
 30
0.0
 11
2.0000000000000018
 21
0.0
 31
0.0
210
0.0
220
0.0
230
1.0
 40
0.029133
 41
1.6023470414917778
 42
3.1415926535897931
  0
ELLIPSE
  5
43B
100
AcDbEntity
  8
0
390
0
  6
Continuous
 62
     7
100
AcDbEllipse
 10
-91.002392
 20
-12.0
 30
0.0
 11
-2.0000000000000018
 21
0.0
 31
0.0
210
0.0
220
0.0
230
1.0
 40
0.029133
 41
0.0
 42
1.5392456120980156
  0
ARC
  5
43C
100
AcDbEntity
  8
0
390
0
  6
Continuous
 62
     7
100
AcDbCircle
 10
-66.002392
 20
-12.0
 30
0.0
 40
3.0
210
0.0
220
0.0
230
1.0
100
AcDbArc
 50
270.0
 51
360.0
  0
ARC
  5
43D
100
AcDbEntity
  8
0
390
0
  6
Continuous
 62
     7
100
AcDbCircle
 10
-66.002392
 20
12.0
 30
0.0
 40
3.0
210
0.0
220
0.0
230
1.0
100
AcDbArc
 50
0.0
 51
90.0
  0
ARC
  5
43E
100
AcDbEntity
  8
0
390
0
  6
Continuous
 62
     7
100
AcDbCircle
 10
-90.002392
 20
12.0
 30
0.0
 40
3.0
210
0.0
220
0.0
230
1.0
100
AcDbArc
 50
90.0
 51
180.0
  0
ARC
  5
43F
100
AcDbEntity
  8
0
390
0
  6
Continuous
 62
     7
100
AcDbCircle
 10
-90.002389
 20
-11.999997
 30
0.0
 40
3.000003
210
0.0
220
0.0
230
1.0
100
AcDbArc
 50
180.000057
 51
269.999943
  0
POINT
  5
440
100
AcDbEntity
  8
0
390
0
 62
     7
100
AcDbPoint
 10
0.0
 20
0.0
 30
0.0
  0
ENDSEC
  0
SECTION
  2
OBJECTS
  0
DICTIONARY
  5
19
100
AcDbDictionary
280
     0
281
     1
  3
ACAD_GROUP
350
1A
  3
ACAD_MLINESTYLE
350
1B
  3
ACAD_LAYOUT
350
1E
  3
ACAD_PLOTSETTINGS
350
22
  3
ACAD_PLOTSTYLENAME
350
1F
  3
ACAD_WIPEOUT_VARS
350
23
  0
DICTIONARY
  5
1A
102
{ACAD_REACTORS
330
19
102
}
100
AcDbDictionary
280
     0
281
     1
  0
DICTIONARY
  5
1B
102
{ACAD_REACTORS
330
19
102
}
100
AcDbDictionary
280
     0
281
     1
  3
Standard
350
1C
  0
MLINESTYLE
  5
1C
102
{ACAD_REACTORS
330
1B
102
}
100
AcDbMlineStyle
  2
Standard
 70
     0
  3

 62
     0
 51
90.0
 52
90.0
 71
     2
 49
0.5
 62
   256
  6
ByLayer
 49
-0.5
 62
   256
  6
ByLayer
  0
ACDBDICTIONARYWDFLT
  5
1F
102
{ACAD_REACTORS
330
19
102
}
100
AcDbDictionary
281
     1
  3
Normal
350
1D
100
AcDbDictionaryWithDefault
340
1D
  0
ACDBPLACEHOLDER
  5
1D
102
{ACAD_REACTORS
330
1F
102
}
  0
LAYOUT
  5
20
102
{ACAD_REACTORS
330
1E
102
}
100
AcDbPlotSettings
  1

  2

  4

  6

 40
0.0
 41
0.0
 42
0.0
 43
0.0
 44
0.0
 45
0.0
 46
0.0
 47
0.0
 48
0.0
 49
0.0
140
0.0
141
0.0
142
1.0
143
1.0
 70
  1024
 72
     0
 73
     0
 74
     0
  7

 75
     0
147
1.0
148
0.0
149
0.0
100
AcDbLayout
  1
Model
 70
     0
 71
     1
 10
0.0
 20
0.0
 11
0.0
 21
0.0
 12
0.0
 22
0.0
 32
0.0
 14
0.0
 24
0.0
 34
0.0
 15
0.0
 25
0.0
 35
0.0
146
0.0
 13
0.0
 23
0.0
 33
0.0
 16
0.0
 26
0.0
 36
0.0
 17
0.0
 27
0.0
 37
0.0
 76
     0
330
A
331
0
345
0
346
0
  0
LAYOUT
  5
21
102
{ACAD_REACTORS
330
1E
102
}
100
AcDbPlotSettings
  1

  2

  4

  6

 40
0.0
 41
0.0
 42
0.0
 43
0.0
 44
0.0
 45
0.0
 46
0.0
 47
0.0
 48
0.0
 49
0.0
140
0.0
141
0.0
142
1.0
143
1.0
 70
     0
 72
     0
 73
     0
 74
     0
  7

 75
     0
147
1.0
148
0.0
149
0.0
100
AcDbLayout
  1
Layout1
 70
     0
 71
     2
 10
0.0
 20
0.0
 11
0.0
 21
0.0
 12
0.0
 22
0.0
 32
0.0
 14
0.0
 24
0.0
 34
0.0
 15
0.0
 25
0.0
 35
0.0
146
0.0
 13
0.0
 23
0.0
 33
0.0
 16
0.0
 26
0.0
 36
0.0
 17
0.0
 27
0.0
 37
0.0
 76
     0
330
B
331
0
345
0
346
0
  0
DICTIONARY
  5
1E
102
{ACAD_REACTORS
330
19
102
}
100
AcDbDictionary
280
     0
281
     1
  3
Layout1
350
21
  3
Model
350
20
  0
DICTIONARY
  5
22
102
{ACAD_REACTORS
330
19
102
}
100
AcDbDictionary
280
     0
281
     1
  0
WIPEOUTVARIABLES
  5
23
100
AcDbWipeoutVariables
 70
     1
  0
ENDSEC
  0
EOF
