  0
SECTION
  2
HEADER
  9
$ACADVER
  1
AC1015
  9
$ACADMAINTVER
 70
     6
  9
$DWGCODEPAGE
  3
DOS932
  9
$INSBASE
 10
0.0
 20
0.0
 30
0.0
  9
$EXTMIN
 10
-183.997125
 20
-50.000001
 30
0.0
  9
$EXTMAX
 10
473.895387
 20
369.423258
 30
9.906
  9
$LIMMIN
 10
-183.997125
 20
-50.000001
  9
$LIMMAX
 10
473.895387
 20
369.423258
  9
$ORTHOMODE
 70
     0
  9
$REGENMODE
 70
     1
  9
$FILLMODE
 70
     1
  9
$QTEXTMODE
 70
     0
  9
$MIRRTEXT
 70
     1
  9
$LTSCALE
 40
10.0
  9
$ATTMODE
 70
     1
  9
$TEXTSIZE
 40
0.2
  9
$TRACEWID
 40
0.05
  9
$TEXTSTYLE
  7
Standard
  9
$CLAYER
  8
0
  9
$CELTYPE
  6
Continuous
  9
$CECOLOR
 62
   256
  9
$CELTSCALE
 40
1.0
  9
$DISPSILH
 70
     0
  9
$DIMSCALE
 40
1.0
  9
$DIMASZ
 40
1.40208
  9
$DIMEXO
 40
1.40208
  9
$DIMDLI
 40
0.38
  9
$DIMRND
 40
0.0
  9
$DIMDLE
 40
0.0
  9
$DIMEXE
 40
1.05156
  9
$DIMTP
 40
0.0
  9
$DIMTM
 40
0.0
  9
$DIMTXT
 40
3.5052
  9
$DIMCEN
 40
0.09
  9
$DIMTSZ
 40
0.0
  9
$DIMTOL
 70
     0
  9
$DIMLIM
 70
     0
  9
$DIMTIH
 70
     0
  9
$DIMTOH
 70
     0
  9
$DIMSE1
 70
     0
  9
$DIMSE2
 70
     0
  9
$DIMTAD
 70
     1
  9
$DIMZIN
 70
     0
  9
$DIMBLK
  1

  9
$DIMASO
 70
     1
  9
$DIMSHO
 70
     1
  9
$DIMPOST
  1

  9
$DIMAPOST
  1

  9
$DIMALT
 70
     0
  9
$DIMALTD
 70
     2
  9
$DIMALTF
 40
25.4
  9
$DIMLFAC
 40
1.0
  9
$DIMTOFL
 70
     0
  9
$DIMTVP
 40
0.0
  9
$DIMTIX
 70
     0
  9
$DIMSOXD
 70
     0
  9
$DIMSAH
 70
     0
  9
$DIMBLK1
  1

  9
$DIMBLK2
  1

  9
$DIMSTYLE
  2
Standard
  9
$DIMCLRD
 70
     7
  9
$DIMCLRE
 70
     7
  9
$DIMCLRT
 70
     7
  9
$DIMTFAC
 40
0.5
  9
$DIMGAP
 40
1.7526
  9
$DIMJUST
 70
     0
  9
$DIMSD1
 70
     0
  9
$DIMSD2
 70
     0
  9
$DIMTOLJ
 70
     1
  9
$DIMTZIN
 70
     0
  9
$DIMALTZ
 70
     0
  9
$DIMALTTZ
 70
     0
  9
$DIMUPT
 70
     0
  9
$DIMDEC
 70
     2
  9
$DIMTDEC
 70
     4
  9
$DIMALTU
 70
     2
  9
$DIMALTTD
 70
     2
  9
$DIMTXSTY
  7
Standard
  9
$DIMAUNIT
 70
     0
  9
$DIMADEC
 70
     0
  9
$DIMALTRND
 40
0.0
  9
$DIMAZIN
 70
     0
  9
$DIMDSEP
 70
     0
  9
$DIMATFIT
 70
     3
  9
$DIMFRAC
 70
     0
  9
$DIMLDRBLK
  1

  9
$DIMLUNIT
 70
     2
  9
$DIMLWD
 70
     0
  9
$DIMLWE
 70
     0
  9
$DIMTMOVE
 70
     0
  9
$LUNITS
 70
     2
  9
$LUPREC
 70
     4
  9
$SKETCHINC
 40
0.1
  9
$FILLETRAD
 40
0.0
  9
$AUNITS
 70
     0
  9
$AUPREC
 70
     0
  9
$MENU
  1
acad
  9
$ELEVATION
 40
0.0
  9
$PELEVATION
 40
0.0
  9
$THICKNESS
 40
0.0
  9
$LIMCHECK
 70
     0
  9
$CHAMFERA
 40
0.0
  9
$CHAMFERB
 40
0.0
  9
$CHAMFERC
 40
0.0
  9
$CHAMFERD
 40
0.0
  9
$SKPOLY
 70
     0
  9
$TDCREATE
 40
2459786.666516204
  9
$TDUCREATE
 40
0.000000000
  9
$TDUPDATE
 40
2459786.291412037
  9
$TDUUPDATE
 40
0.000000000
  9
$TDINDWG
 40
0.0000000000
  9
$TDUSRTIMER
 40
0.0000000000
  9
$USRTIMER
 70
     1
  9
$ANGBASE
 50
0.0
  9
$ANGDIR
 70
     0
  9
$PDMODE
 70
     0
  9
$PDSIZE
 40
0.0
  9
$PLINEWID
 40
0.0
  9
$SPLFRAME
 70
     0
  9
$SPLINETYPE
 70
     6
  9
$SPLINESEGS
 70
     8
  9
$HANDSEED
  5
291
  9
$SURFTAB1
 70
     6
  9
$SURFTAB2
 70
     6
  9
$SURFTYPE
 70
     6
  9
$SURFU
 70
     6
  9
$SURFV
 70
     6
  9
$UCSBASE
  2

  9
$UCSNAME
  2

  9
$UCSORG
 10
0.0
 20
0.0
 30
0.0
  9
$UCSXDIR
 10
1.0
 20
0.0
 30
0.0
  9
$UCSYDIR
 10
0.0
 20
1.0
 30
0.0
  9
$UCSORTHOREF
  2

  9
$UCSORTHOVIEW
 70
     0
  9
$UCSORGTOP
 10
0.0
 20
0.0
 30
0.0
  9
$UCSORGBOTTOM
 10
0.0
 20
0.0
 30
0.0
  9
$UCSORGLEFT
 10
0.0
 20
0.0
 30
0.0
  9
$UCSORGRIGHT
 10
0.0
 20
0.0
 30
0.0
  9
$UCSORGFRONT
 10
0.0
 20
0.0
 30
0.0
  9
$UCSORGBACK
 10
0.0
 20
0.0
 30
0.0
  9
$PUCSBASE
  2

  9
$PUCSNAME
  2

  9
$PUCSORG
 10
0.0
 20
0.0
 30
0.0
  9
$PUCSXDIR
 10
1.0
 20
0.0
 30
0.0
  9
$PUCSYDIR
 10
0.0
 20
1.0
 30
0.0
  9
$PUCSORTHOREF
  2

  9
$PUCSORTHOVIEW
 70
     0
  9
$PUCSORGTOP
 10
0.0
 20
0.0
 30
0.0
  9
$PUCSORGBOTTOM
 10
0.0
 20
0.0
 30
0.0
  9
$PUCSORGLEFT
 10
0.0
 20
0.0
 30
0.0
  9
$PUCSORGRIGHT
 10
0.0
 20
0.0
 30
0.0
  9
$PUCSORGFRONT
 10
0.0
 20
0.0
 30
0.0
  9
$PUCSORGBACK
 10
0.0
 20
0.0
 30
0.0
  9
$USERI1
 70
     0
  9
$USERI2
 70
     0
  9
$USERI3
 70
     0
  9
$USERI4
 70
     0
  9
$USERI5
 70
     0
  9
$USERR1
 40
0.0
  9
$USERR2
 40
0.0
  9
$USERR3
 40
0.0
  9
$USERR4
 40
0.0
  9
$USERR5
 40
0.0
  9
$WORLDVIEW
 70
     1
  9
$SHADEDGE
 70
     3
  9
$SHADEDIF
 70
    70
  9
$TILEMODE
 70
     1
  9
$MAXACTVP
 70
    16
  9
$PINSBASE
 10
0.0
 20
0.0
 30
0.0
  9
$PLIMCHECK
 70
     0
  9
$PEXTMIN
 10
1.000000E+20
 20
1.000000E+20
 30
1.000000E+20
  9
$PEXTMAX
 10
-1.000000E+20
 20
-1.000000E+20
 30
-1.000000E+20
  9
$PLIMMIN
 10
0.0
 20
0.0
  9
$PLIMMAX
 10
12.0
 20
9.0
  9
$UNITMODE
 70
     0
  9
$VISRETAIN
 70
     0
  9
$PLINEGEN
 70
     1
  9
$PSLTSCALE
 70
     0
  9
$TREEDEPTH
 70
  3020
  9
$CMLSTYLE
  2
Standard
  9
$CMLJUST
 70
     0
  9
$CMLSCALE
 40
1.0
  9
$PROXYGRAPHICS
 70
     0
  9
$MEASUREMENT
 70
     0
  9
$CELWEIGHT
370
     0
  9
$ENDCAPS
280
     0
  9
$JOINSTYLE
280
     0
  9
$LWDISPLAY
290
     0
  9
$INSUNITS
 70
     0
  9
$HYPERLINKBASE
  1

  9
$STYLESHEET
  1

  9
$XEDIT
290
     1
  9
$CEPSNTYPE
380
     0
  9
$PSTYLEMODE
290
     1
  9
$FINGERPRINTGUID
  2

  9
$VERSIONGUID
  2

  9
$EXTNAMES
290
     1
  9
$PSVPSCALE
 40
0.0
  0
ENDSEC
  0
SECTION
  2
CLASSES
  0
CLASS
  1
LWPOLYLINE
  2
AcDbPolyline
  3
AutoCAD 2000
 90
        0
280
     0
281
     1
  0
CLASS
  1
IMAGE
  2
AcDbRasterImage
  3
ISM
 90
      127
280
     0
281
     1
  0
CLASS
  1
OLE2FRAME
  2
AcDbOle2Frame
  3
AutoCAD 2000
 90
        0
280
     0
281
     1
  0
CLASS
  1
HATCH
  2
AcDbHatch
  3
AutoCAD 2000
 90
        0
280
     0
281
     1
  0
CLASS
  1
DICTIONARYVAR
  2
AcDbDictionaryVar
  3
AutoCAD 2000
 90
        0
280
     0
281
     0
  0
CLASS
  1
RASTERVARIABLES
  2
AcDbRasterVariables
  3
ISM
 90
        0
280
     0
281
     0
  0
CLASS
  1
IMAGEDEF
  2
AcDbRasterImageDef
  3
ISM
 90
        0
280
     0
281
     0
  0
CLASS
  1
IMAGEDEF_REACTOR
  2
AcDbRasterImageDefReactor
  3
ISM
 90
        1
280
     0
281
     0
  0
CLASS
  1
IDBUFFER
  2
AcDbIdBuffer
  3
AutoCAD 2000
 90
        0
280
     0
281
     0
  0
CLASS
  1
SPATIAL_FILTER
  2
AcDbSpatialFilter
  3
AutoCAD 2000
 90
        0
280
     0
281
     0
  0
CLASS
  1
XRECORD
  2
AcDbXrecord
  3
AutoCAD 2000
 90
        0
280
     0
281
     0
  0
CLASS
  1
SORTENTSTABLE
  2
AcDbSortentsTable
  3
AutoCAD 2000
 90
        0
280
     0
281
     0
  0
CLASS
  1
LAYER_INDEX
  2
AcDbLayerIndex
  3
AutoCAD 2000
 90
        0
280
     0
281
     0
  0
CLASS
  1
SPATIAL_INDEX
  2
AcDbSpatialIndex
  3
AutoCAD 2000
 90
        0
280
     0
281
     0
  0
CLASS
  1
OBJECT_PTR
  2
CAseDLPNTableRecord
  3
"ASE-LPNTableRecord"
 90
        1
280
     0
281
     0
  0
CLASS
  1
LAYOUT
  2
AcDbLayout
  3
AutoCAD 2000
 90
        0
280
     0
281
     0
  0
CLASS
  1
PLOTSETTINGS
  2
AcDbPlotSettings
  3
AutoCAD 2000
 90
        0
280
     0
281
     0
  0
CLASS
  1
ACDBDICTIONARYWDFLT
  2
AcDbDictionaryWithDefault
  3
AutoCAD 2000
 90
        0
280
     0
281
     0
  0
CLASS
  1
ACDBPLACEHOLDER
  2
AcDbPlaceHolder
  3
AutoCAD 2000
 90
        0
280
     0
281
     0
  0
CLASS
  1
VBA_PROJECT
  2
AcDbVbaProject
  3
acadvba
 90
        0
280
     0
281
     0
  0
CLASS
  1
WIPEOUT
  2
AcDbWipeout
  3
WipeOut|AutoCAD Express Tool|expresstools@autodesk.com
 90
      127
280
     0
281
     1
  0
CLASS
  1
WIPEOUTVARIABLES
  2
AcDbWipeoutVariables
  3
WipeOut|AutoCAD Express Tool|expresstools@autodesk.com
 90
        0
280
     0
281
     0
  0
CLASS
  1
RTEXT
  2
RText
  3
RText|AutoCAD Express Tool|expresstools@autodesk.com
 90
        0
280
     0
281
     1
  0
CLASS
  1
ARCALIGNEDTEXT
  2
AcDbArcAlignedText
  3
ATEXT|AutoCAD Express Tool|expresstools@autodesk.com
 90
        0
280
     0
281
     1
  0
ENDSEC
  0
SECTION
  2
TABLES
  0
TABLE
  2
VPORT
  5
7
100
AcDbSymbolTable
 70
     1
  0
VPORT
  5
15
100
AcDbSymbolTableRecord
100
AcDbViewportTableRecord
  2
*ACTIVE
 70
     0
 10
0.0
 20
0.0
 11
1.0
 21
1.0
 12
6.591288
 22
4.579184
 13
0.0
 23
0.0
 14
1.0
 24
1.0
 15
0.0
 25
0.0
 16
0.0
 26
0.0
 36
1.0
 17
0.0
 27
0.0
 37
0.0
 40
9.158369
 41
0.688564
 42
50.0
 43
0.0
 44
0.0
 50
0.0
 51
0.0
 71
     0
 72
   100
 73
     1
 74
     1
 75
     0
 76
     0
 77
     0
 78
     0
281
     0
 65
     0
110
0.0
120
0.0
130
0.0
111
1.0
121
0.0
131
0.0
112
0.0
122
1.0
132
0.0
345
0
346
0
 79
     0
146
0.0
  0
ENDTAB
  0
TABLE
  2
LTYPE
  5
4
100
AcDbSymbolTable
 70
     3
  0
LTYPE
  5
11
100
AcDbSymbolTableRecord
100
AcDbLinetypeTableRecord
  2
ByBlock
 70
    64
  3

 72
    65
 73
     0
 40
0.0
  0
LTYPE
  5
12
100
AcDbSymbolTableRecord
100
AcDbLinetypeTableRecord
  2
ByLayer
 70
    64
  3

 72
    65
 73
     0
 40
0.0
  0
LTYPE
  5
13
100
AcDbSymbolTableRecord
100
AcDbLinetypeTableRecord
  2
Continuous
 70
    64
  3
Solid line
 72
    65
 73
     0
 40
0.0
  0
ENDTAB
  0
TABLE
  2
LAYER
  5
2
100
AcDbSymbolTable
 70
     1
  0
LAYER
  5
14
100
AcDbSymbolTableRecord
100
AcDbLayerTableRecord
  2
0
 70
     0
 62
     7
  6
Continuous
290
     1
370
    -3
390
1D
  0
ENDTAB
  0
TABLE
  2
STYLE
  5
3
100
AcDbSymbolTable
 70
     1
  0
STYLE
  5
17
100
AcDbSymbolTableRecord
100
AcDbTextStyleTableRecord
  2
Standard
 70
     0
 40
0.0
 41
1.0
 50
0.0
 71
     0
 42
0.0
  3
FG教科書体NT-M
  4

1001
ACAD
1000
FG教科書体NT-M
1071
        0
  0
ENDTAB
  0
TABLE
  2
VIEW
  5
5
100
AcDbSymbolTable
 70
     0
  0
ENDTAB
  0
TABLE
  2
UCS
  5
6
100
AcDbSymbolTable
 70
     0
  0
ENDTAB
  0
TABLE
  2
APPID
  5
8
100
AcDbSymbolTable
 70
     2
  0
APPID
  5
16
100
AcDbSymbolTableRecord
100
AcDbRegAppTableRecord
  2
ACAD
 70
     0
  0
APPID
  5
26
100
AcDbSymbolTableRecord
100
AcDbRegAppTableRecord
  2
TOPsolid_Design
 70
     0
  0
ENDTAB
  0
TABLE
  2
DIMSTYLE
  5
9
100
AcDbSymbolTable
 70
     1
100
AcDbDimStyleTable
 71
     0
  0
DIMSTYLE
105
18
100
AcDbSymbolTableRecord
100
AcDbDimStyleTableRecord
  2
Standard
 70
     0
  3

  4

 40
1.0
 41
1.40208
 42
1.40208
 43
0.38
 44
1.05156
 45
0.0
 46
0.0
 47
0.0
 48
0.0
 71
     0
 72
     0
 73
     0
 74
     0
 75
     0
 76
     0
 77
     1
 78
     0
 79
     0
140
3.5052
141
0.09
142
0.0
143
25.4
144
1.0
145
0.0
146
0.5
147
1.7526
148
0.0
170
     0
171
     2
172
     0
173
     0
174
     0
175
     0
176
     7
177
     7
178
     7
179
     0
271
     2
272
     4
273
     2
274
     2
275
     0
276
     0
277
     2
278
    46
279
     0
280
     0
281
     0
282
     0
283
     1
284
     0
285
     0
286
     0
288
     0
289
     3
340
17
341
0
342
0
343
0
344
0
371
    -2
372
    -2
  0
ENDTAB
  0
TABLE
  2
BLOCK_RECORD
  5
1
100
AcDbSymbolTable
 70
     0
  0
BLOCK_RECORD
  5
A
100
AcDbSymbolTableRecord
100
AcDbBlockTableRecord
  2
*MODEL_SPACE
340
20
  0
BLOCK_RECORD
  5
B
100
AcDbSymbolTableRecord
100
AcDbBlockTableRecord
  2
*PAPER_SPACE
340
21
  0
ENDTAB
  0
ENDSEC
  0
SECTION
  2
BLOCKS
  0
BLOCK
  5
D
100
AcDbEntity
  8
0
390
0
100
AcDbBlockBegin
  2
*MODEL_SPACE
 70
     0
 10
0.0
 20
0.0
 30
0.0
  3
*MODEL_SPACE
  1

  0
ENDBLK
  5
E
100
AcDbEntity
  8
0
390
0
100
AcDbBlockEnd
  0
BLOCK
  5
F
100
AcDbEntity
 67
     1
  8
0
390
0
100
AcDbBlockBegin
  2
*PAPER_SPACE
 70
     0
 10
0.0
 20
0.0
 30
0.0
  3
*PAPER_SPACE
  1

  0
ENDBLK
  5
10
100
AcDbEntity
 67
     1
  8
0
390
0
100
AcDbBlockEnd
  0
ENDSEC
  0
SECTION
  2
ENTITIES
  0
ARC
  5
27
100
AcDbEntity
  8
0
390
0
  6
Continuous
 62
     7
100
AcDbCircle
 10
780.940739
 20
-0.000001
 30
0.0
 40
791.473578
210
0.0
220
0.0
230
1.0
100
AcDbArc
 50
176.70438
 51
183.29562
  0
LINE
  5
28
100
AcDbEntity
  8
0
390
0
  6
Continuous
 62
     7
100
AcDbLine
 10
-9.223911
 20
-45.500001
 30
0.0
 11
-11.216953
 21
-45.614671
 31
0.0
  0
ARC
  5
29
100
AcDbEntity
  8
0
390
0
  6
Continuous
 62
     7
100
AcDbCircle
 10
780.94997
 20
-0.000001
 30
0.0
 40
793.479132
210
0.0
220
0.0
230
1.0
100
AcDbArc
 50
176.704425
 51
183.295575
  0
LINE
  5
2A
100
AcDbEntity
  8
0
390
0
  6
Continuous
 62
     7
100
AcDbLine
 10
-11.216953
 20
45.614669
 30
0.0
 11
-9.223911
 21
45.499999
 31
0.0
  0
LINE
  5
2B
100
AcDbEntity
  8
0
390
0
  6
Continuous
 62
     7
100
AcDbLine
 10
-12.529228
 20
-48.121224
 30
0.0
 11
-11.216953
 21
-48.120971
 31
0.0
  0
LINE
  5
2C
100
AcDbEntity
  8
0
390
0
  6
Continuous
 62
     7
100
AcDbLine
 10
-13.795184
 20
7.498749
 30
0.0
 11
-13.613318
 21
12.501249
 31
0.0
  0
LINE
  5
2D
100
AcDbEntity
  8
0
390
0
  6
Continuous
 62
     7
100
AcDbLine
 10
-13.613318
 20
12.501249
 30
0.0
 11
-13.391675
 21
22.49527
 31
0.0
  0
LINE
  5
2E
100
AcDbEntity
  8
0
390
0
  6
Continuous
 62
     7
100
AcDbLine
 10
-11.216953
 20
48.120969
 30
0.0
 11
-12.529228
 21
48.121222
 31
0.0
  0
POLYLINE
  5
2F
100
AcDbEntity
  8
0
390
0
  6
Continuous
 62
     7
100
AcDb2dPolyline
 66
     1
 10
0.0
 20
0.0
 30
0.0
 40
0.1
 41
0.1
  0
VERTEX
  5
30
100
AcDbEntity
  8
0
390
0
 62
     7
100
AcDbVertex
100
AcDb2dVertex
 10
-11.216953
 20
45.614669
 30
0.0
 42
0.027465
  0
VERTEX
  5
31
100
AcDbEntity
  8
0
390
0
 62
     7
100
AcDbVertex
100
AcDb2dVertex
 10
-11.183502
 20
48.02865
 30
0.0
  0
VERTEX
  5
32
100
AcDbEntity
  8
0
390
0
 62
     7
100
AcDbVertex
100
AcDb2dVertex
 10
-11.216953
 20
48.120969
 30
0.0
  0
SEQEND
  5
33
100
AcDbEntity
  8
0
390
0
  0
POLYLINE
  5
34
100
AcDbEntity
  8
0
390
0
  6
Continuous
 62
     7
100
AcDb2dPolyline
 66
     1
 10
0.0
 20
0.0
 30
0.0
 40
0.1
 41
0.1
  0
VERTEX
  5
35
100
AcDbEntity
  8
0
390
0
 62
     7
100
AcDbVertex
100
AcDb2dVertex
 10
-11.216953
 20
-48.120971
 30
0.0
  0
VERTEX
  5
36
100
AcDbEntity
  8
0
390
0
 62
     7
100
AcDbVertex
100
AcDb2dVertex
 10
-11.181864
 20
-48.017136
 30
0.0
 42
0.027506
  0
VERTEX
  5
37
100
AcDbEntity
  8
0
390
0
 62
     7
100
AcDbVertex
100
AcDb2dVertex
 10
-11.216953
 20
-45.614671
 30
0.0
  0
SEQEND
  5
38
100
AcDbEntity
  8
0
390
0
  0
POLYLINE
  5
39
100
AcDbEntity
  8
0
390
0
  6
Continuous
 62
     7
100
AcDb2dPolyline
 66
     1
 10
0.0
 20
0.0
 30
0.0
 40
0.1
 41
0.1
  0
VERTEX
  5
3A
100
AcDbEntity
  8
0
390
0
 62
     7
100
AcDbVertex
100
AcDb2dVertex
 10
-9.223911
 20
-45.500001
 30
0.0
 42
-0.019517
  0
VERTEX
  5
3B
100
AcDbEntity
  8
0
390
0
 62
     7
100
AcDbVertex
100
AcDb2dVertex
 10
-9.199069
 20
-49.916477
 30
0.0
  0
VERTEX
  5
3C
100
AcDbEntity
  8
0
390
0
 62
     7
100
AcDbVertex
100
AcDb2dVertex
 10
-9.223911
 20
-50.000001
 30
0.0
  0
SEQEND
  5
3D
100
AcDbEntity
  8
0
390
0
  0
ELLIPSE
  5
3E
100
AcDbEntity
  8
0
390
0
  6
Continuous
 62
     7
100
AcDbEllipse
 10
-9.223911
 20
-48.000001
 30
0.0
 11
0.0
 21
-2.0000000000000018
 31
0.0
210
0.0
220
0.0
230
1.0
 40
0.998349
 41
4.7729110033504041
 42
6.2831853071795862
  0
LINE
  5
3F
100
AcDbEntity
  8
0
390
0
  6
Continuous
 62
     7
100
AcDbLine
 10
-8.0
 20
45.499999
 30
0.0
 11
-8.0
 21
49.999999
 31
0.0
  0
LINE
  5
40
100
AcDbEntity
  8
0
390
0
  6
Continuous
 62
     7
100
AcDbLine
 10
-8.0
 20
45.499999
 30
0.0
 11
-9.223911
 21
45.499999
 31
0.0
  0
POLYLINE
  5
41
100
AcDbEntity
  8
0
390
0
  6
Continuous
 62
     7
100
AcDb2dPolyline
 66
     1
 10
0.0
 20
0.0
 30
0.0
 40
0.1
 41
0.1
  0
VERTEX
  5
42
100
AcDbEntity
  8
0
390
0
 62
     7
100
AcDbVertex
100
AcDb2dVertex
 10
-9.223911
 20
49.999999
 30
0.0
  0
VERTEX
  5
43
100
AcDbEntity
  8
0
390
0
 62
     7
100
AcDbVertex
100
AcDb2dVertex
 10
-9.19552
 20
49.887262
 30
0.0
 42
-0.018389
  0
VERTEX
  5
44
100
AcDbEntity
  8
0
390
0
 62
     7
100
AcDbVertex
100
AcDb2dVertex
 10
-9.223911
 20
45.499999
 30
0.0
  0
SEQEND
  5
45
100
AcDbEntity
  8
0
390
0
  0
LINE
  5
46
100
AcDbEntity
  8
0
390
0
  6
Continuous
 62
     7
100
AcDbLine
 10
-8.0
 20
49.999999
 30
0.0
 11
-9.223911
 21
49.999999
 31
0.0
  0
ELLIPSE
  5
47
100
AcDbEntity
  8
0
390
0
  6
Continuous
 62
     7
100
AcDbEllipse
 10
-9.223911
 20
47.999999
 30
0.0
 11
0.0
 21
-2.0000000000000018
 31
0.0
210
0.0
220
0.0
230
1.0
 40
0.998349
 41
3.1415926535897931
 42
4.6518669574189788
  0
LINE
  5
48
100
AcDbEntity
  8
0
390
0
  6
Continuous
 62
     7
100
AcDbLine
 10
-8.0
 20
-45.500001
 30
0.0
 11
-9.223911
 21
-45.500001
 31
0.0
  0
LINE
  5
49
100
AcDbEntity
  8
0
390
0
  6
Continuous
 62
     7
100
AcDbLine
 10
-8.0
 20
-45.500001
 30
0.0
 11
-8.0
 21
45.499999
 31
0.0
  0
LINE
  5
4A
100
AcDbEntity
  8
0
390
0
  6
Continuous
 62
     7
100
AcDbLine
 10
-8.0
 20
-50.000001
 30
0.0
 11
-9.223911
 21
-50.000001
 31
0.0
  0
LINE
  5
4B
100
AcDbEntity
  8
0
390
0
  6
Continuous
 62
     7
100
AcDbLine
 10
-8.0
 20
-50.000001
 30
0.0
 11
-8.0
 21
-45.500001
 31
0.0
  0
ELLIPSE
  5
4C
100
AcDbEntity
  8
0
390
0
  6
Continuous
 62
     7
100
AcDbEllipse
 10
-2.591911
 20
18.999999
 30
0.0
 11
0.0
 21
-2.0000000000000018
 31
0.0
210
0.0
220
0.0
230
1.0
 40
0.36397
 41
3.1415926535897931
 42
4.7123889803846968
  0
LINE
  5
4D
100
AcDbEntity
  8
0
390
0
  6
Continuous
 62
     7
100
AcDbLine
 10
-1.5
 20
20.999999
 30
0.0
 11
-2.591911
 21
20.999999
 31
0.0
  0
LINE
  5
4E
100
AcDbEntity
  8
0
390
0
  6
Continuous
 62
     7
100
AcDbLine
 10
-1.5
 20
-21.000001
 30
0.0
 11
-1.5
 21
20.999999
 31
0.0
  0
LINE
  5
4F
100
AcDbEntity
  8
0
390
0
  6
Continuous
 62
     7
100
AcDbLine
 10
-1.5
 20
-21.000001
 30
0.0
 11
-2.591911
 21
-21.000001
 31
0.0
  0
ELLIPSE
  5
50
100
AcDbEntity
  8
0
390
0
  6
Continuous
 62
     7
100
AcDbEllipse
 10
-2.591911
 20
-19.000001
 30
0.0
 11
0.0
 21
2.0000000000000018
 31
0.0
210
0.0
220
0.0
230
1.0
 40
0.36397
 41
1.5707963267948966
 42
3.1415926535897931
  0
LINE
  5
51
100
AcDbEntity
  8
0
390
0
  6
Continuous
 62
     7
100
AcDbLine
 10
-3.319852
 20
-19.000001
 30
0.0
 11
-3.319852
 21
18.999999
 31
0.0
  0
LINE
  5
52
100
AcDbEntity
  8
0
390
0
  6
Continuous
 62
     7
100
AcDbLine
 10
-3.319852
 20
18.999999
 30
0.0
 11
-4.0
 21
18.999999
 31
0.0
  0
LINE
  5
53
100
AcDbEntity
  8
0
390
0
  6
Continuous
 62
     7
100
AcDbLine
 10
-4.0
 20
-19.000001
 30
0.0
 11
-3.319852
 21
-19.000001
 31
0.0
  0
LINE
  5
54
100
AcDbEntity
  8
0
390
0
  6
Continuous
 62
     7
100
AcDbLine
 10
-4.0
 20
-19.000001
 30
0.0
 11
-4.0
 21
18.999999
 31
0.0
  0
LINE
  5
55
100
AcDbEntity
  8
0
390
0
  6
Continuous
 62
     7
100
AcDbLine
 10
-4.0
 20
18.999999
 30
0.0
 11
-4.0
 21
20.999999
 31
0.0
  0
LINE
  5
56
100
AcDbEntity
  8
0
390
0
  6
Continuous
 62
     7
100
AcDbLine
 10
-4.0
 20
20.999999
 30
0.0
 11
-2.591911
 21
20.999999
 31
0.0
  0
LINE
  5
57
100
AcDbEntity
  8
0
390
0
  6
Continuous
 62
     7
100
AcDbLine
 10
-2.591911
 20
-21.000001
 30
0.0
 11
-4.0
 21
-21.000001
 31
0.0
  0
LINE
  5
58
100
AcDbEntity
  8
0
390
0
  6
Continuous
 62
     7
100
AcDbLine
 10
-4.0
 20
-21.000001
 30
0.0
 11
-4.0
 21
-19.000001
 31
0.0
  0
LINE
  5
59
100
AcDbEntity
  8
0
390
0
  6
Continuous
 62
     7
100
AcDbLine
 10
5.680148
 20
18.999999
 30
0.0
 11
5.0
 21
18.999999
 31
0.0
  0
LINE
  5
5A
100
AcDbEntity
  8
0
390
0
  6
Continuous
 62
     7
100
AcDbLine
 10
5.680148
 20
-19.000001
 30
0.0
 11
5.680148
 21
18.999999
 31
0.0
  0
LINE
  5
5B
100
AcDbEntity
  8
0
390
0
  6
Continuous
 62
     7
100
AcDbLine
 10
5.0
 20
-19.000001
 30
0.0
 11
5.680148
 21
-19.000001
 31
0.0
  0
LINE
  5
5C
100
AcDbEntity
  8
0
390
0
  6
Continuous
 62
     7
100
AcDbLine
 10
5.0
 20
-19.000001
 30
0.0
 11
5.0
 21
18.999999
 31
0.0
  0
LINE
  5
5D
100
AcDbEntity
  8
0
390
0
  6
Continuous
 62
     7
100
AcDbLine
 10
5.0
 20
18.999999
 30
0.0
 11
5.0
 21
20.999999
 31
0.0
  0
LINE
  5
5E
100
AcDbEntity
  8
0
390
0
  6
Continuous
 62
     7
100
AcDbLine
 10
5.0
 20
20.999999
 30
0.0
 11
6.408089
 21
20.999999
 31
0.0
  0
ELLIPSE
  5
5F
100
AcDbEntity
  8
0
390
0
  6
Continuous
 62
     7
100
AcDbEllipse
 10
6.408089
 20
18.999999
 30
0.0
 11
0.0
 21
-2.0000000000000018
 31
0.0
210
0.0
220
0.0
230
1.0
 40
0.36397
 41
3.1415926535897931
 42
4.7123889803846968
  0
LINE
  5
60
100
AcDbEntity
  8
0
390
0
  6
Continuous
 62
     7
100
AcDbLine
 10
7.5
 20
20.999999
 30
0.0
 11
6.408089
 21
20.999999
 31
0.0
  0
LINE
  5
61
100
AcDbEntity
  8
0
390
0
  6
Continuous
 62
     7
100
AcDbLine
 10
7.5
 20
-21.000001
 30
0.0
 11
7.5
 21
20.999999
 31
0.0
  0
LINE
  5
62
100
AcDbEntity
  8
0
390
0
  6
Continuous
 62
     7
100
AcDbLine
 10
7.5
 20
-21.000001
 30
0.0
 11
6.408089
 21
-21.000001
 31
0.0
  0
ELLIPSE
  5
63
100
AcDbEntity
  8
0
390
0
  6
Continuous
 62
     7
100
AcDbEllipse
 10
6.408089
 20
-19.000001
 30
0.0
 11
0.0
 21
2.0000000000000018
 31
0.0
210
0.0
220
0.0
230
1.0
 40
0.36397
 41
1.5707963267948966
 42
3.1415926535897931
  0
LINE
  5
64
100
AcDbEntity
  8
0
390
0
  6
Continuous
 62
     7
100
AcDbLine
 10
6.408089
 20
-21.000001
 30
0.0
 11
5.0
 21
-21.000001
 31
0.0
  0
LINE
  5
65
100
AcDbEntity
  8
0
390
0
  6
Continuous
 62
     7
100
AcDbLine
 10
5.0
 20
-21.000001
 30
0.0
 11
5.0
 21
-19.000001
 31
0.0
  0
LINE
  5
66
100
AcDbEntity
  8
0
390
0
  6
Continuous
 62
     7
100
AcDbLine
 10
0.5
 20
-19.000001
 30
0.0
 11
1.180148
 21
-19.000001
 31
0.0
  0
LINE
  5
67
100
AcDbEntity
  8
0
390
0
  6
Continuous
 62
     7
100
AcDbLine
 10
0.5
 20
-19.000001
 30
0.0
 11
0.5
 21
18.999999
 31
0.0
  0
LINE
  5
68
100
AcDbEntity
  8
0
390
0
  6
Continuous
 62
     7
100
AcDbLine
 10
1.180148
 20
18.999999
 30
0.0
 11
0.5
 21
18.999999
 31
0.0
  0
LINE
  5
69
100
AcDbEntity
  8
0
390
0
  6
Continuous
 62
     7
100
AcDbLine
 10
1.180148
 20
-19.000001
 30
0.0
 11
1.180148
 21
18.999999
 31
0.0
  0
LINE
  5
6A
100
AcDbEntity
  8
0
390
0
  6
Continuous
 62
     7
100
AcDbLine
 10
3.0
 20
-21.000001
 30
0.0
 11
3.0
 21
20.999999
 31
0.0
  0
LINE
  5
6B
100
AcDbEntity
  8
0
390
0
  6
Continuous
 62
     7
100
AcDbLine
 10
3.0
 20
-21.000001
 30
0.0
 11
1.908089
 21
-21.000001
 31
0.0
  0
ELLIPSE
  5
6C
100
AcDbEntity
  8
0
390
0
  6
Continuous
 62
     7
100
AcDbEllipse
 10
1.908089
 20
-19.000001
 30
0.0
 11
0.0
 21
2.0000000000000018
 31
0.0
210
0.0
220
0.0
230
1.0
 40
0.36397
 41
1.5707963267948966
 42
3.1415926535897931
  0
ELLIPSE
  5
6D
100
AcDbEntity
  8
0
390
0
  6
Continuous
 62
     7
100
AcDbEllipse
 10
1.908089
 20
18.999999
 30
0.0
 11
0.0
 21
-2.0000000000000018
 31
0.0
210
0.0
220
0.0
230
1.0
 40
0.36397
 41
3.1415926535897931
 42
4.7123889803846968
  0
LINE
  5
6E
100
AcDbEntity
  8
0
390
0
  6
Continuous
 62
     7
100
AcDbLine
 10
3.0
 20
20.999999
 30
0.0
 11
1.908089
 21
20.999999
 31
0.0
  0
LINE
  5
6F
100
AcDbEntity
  8
0
390
0
  6
Continuous
 62
     7
100
AcDbLine
 10
0.5
 20
18.999999
 30
0.0
 11
0.5
 21
20.999999
 31
0.0
  0
LINE
  5
70
100
AcDbEntity
  8
0
390
0
  6
Continuous
 62
     7
100
AcDbLine
 10
0.5
 20
20.999999
 30
0.0
 11
1.908089
 21
20.999999
 31
0.0
  0
LINE
  5
71
100
AcDbEntity
  8
0
390
0
  6
Continuous
 62
     7
100
AcDbLine
 10
1.908089
 20
-21.000001
 30
0.0
 11
0.5
 21
-21.000001
 31
0.0
  0
LINE
  5
72
100
AcDbEntity
  8
0
390
0
  6
Continuous
 62
     7
100
AcDbLine
 10
0.5
 20
-21.000001
 30
0.0
 11
0.5
 21
-19.000001
 31
0.0
  0
LINE
  5
73
100
AcDbEntity
  8
0
390
0
  6
Continuous
 62
     7
100
AcDbLine
 10
11.2
 20
-21.000001
 30
0.0
 11
11.2
 21
20.999999
 31
0.0
  0
LINE
  5
74
100
AcDbEntity
  8
0
390
0
  6
Continuous
 62
     7
100
AcDbLine
 10
11.2
 20
-21.000001
 30
0.0
 11
10.842588
 21
-21.000001
 31
0.0
  0
ELLIPSE
  5
75
100
AcDbEntity
  8
0
390
0
  6
Continuous
 62
     7
100
AcDbEllipse
 10
10.842588
 20
-19.000001
 30
0.0
 11
0.0
 21
2.0000000000000018
 31
0.0
210
0.0
220
0.0
230
1.0
 40
0.32492
 41
1.5707963267948966
 42
3.1415926535897931
  0
LINE
  5
76
100
AcDbEntity
  8
0
390
0
  6
Continuous
 62
     7
100
AcDbLine
 10
10.192749
 20
-19.000001
 30
0.0
 11
10.192749
 21
18.999999
 31
0.0
  0
ELLIPSE
  5
77
100
AcDbEntity
  8
0
390
0
  6
Continuous
 62
     7
100
AcDbEllipse
 10
10.842588
 20
18.999999
 30
0.0
 11
0.0
 21
-2.0000000000000018
 31
0.0
210
0.0
220
0.0
230
1.0
 40
0.32492
 41
3.1415926535897931
 42
4.7123889803846968
  0
LINE
  5
78
100
AcDbEntity
  8
0
390
0
  6
Continuous
 62
     7
100
AcDbLine
 10
11.2
 20
20.999999
 30
0.0
 11
10.842588
 21
20.999999
 31
0.0
  0
LINE
  5
79
100
AcDbEntity
  8
0
390
0
  6
Continuous
 62
     7
100
AcDbLine
 10
10.842588
 20
-21.000001
 30
0.0
 11
9.5
 21
-21.000001
 31
0.0
  0
LINE
  5
7A
100
AcDbEntity
  8
0
390
0
  6
Continuous
 62
     7
100
AcDbLine
 10
9.5
 20
-19.000001
 30
0.0
 11
10.192749
 21
-19.000001
 31
0.0
  0
LINE
  5
7B
100
AcDbEntity
  8
0
390
0
  6
Continuous
 62
     7
100
AcDbLine
 10
9.5
 20
-21.000001
 30
0.0
 11
9.5
 21
-19.000001
 31
0.0
  0
LINE
  5
7C
100
AcDbEntity
  8
0
390
0
  6
Continuous
 62
     7
100
AcDbLine
 10
10.192749
 20
18.999999
 30
0.0
 11
9.5
 21
18.999999
 31
0.0
  0
LINE
  5
7D
100
AcDbEntity
  8
0
390
0
  6
Continuous
 62
     7
100
AcDbLine
 10
9.5
 20
20.999999
 30
0.0
 11
10.842588
 21
20.999999
 31
0.0
  0
LINE
  5
7E
100
AcDbEntity
  8
0
390
0
  6
Continuous
 62
     7
100
AcDbLine
 10
9.5
 20
18.999999
 30
0.0
 11
9.5
 21
20.999999
 31
0.0
  0
LINE
  5
7F
100
AcDbEntity
  8
0
390
0
  6
Continuous
 62
     7
100
AcDbLine
 10
9.5
 20
-19.000001
 30
0.0
 11
9.5
 21
18.999999
 31
0.0
  0
LINE
  5
80
100
AcDbEntity
  8
0
390
0
  6
Continuous
 62
     7
100
AcDbLine
 10
-10.532906
 20
49.999999
 30
0.0
 11
-9.223911
 21
49.999999
 31
0.0
  0
LINE
  5
81
100
AcDbEntity
  8
0
390
0
  6
Continuous
 62
     7
100
AcDbLine
 10
-9.223911
 20
-50.000001
 30
0.0
 11
-10.532906
 21
-50.000001
 31
0.0
  0
LINE
  5
82
100
AcDbEntity
  8
0
390
0
  6
Continuous
 62
     7
100
AcDbLine
 10
14.0
 20
-21.000001
 30
0.0
 11
14.0
 21
20.999999
 31
0.0
  0
LINE
  5
83
100
AcDbEntity
  8
0
390
0
  6
Continuous
 62
     7
100
AcDbLine
 10
11.2
 20
-21.000001
 30
0.0
 11
14.0
 21
-21.000001
 31
0.0
  0
LINE
  5
84
100
AcDbEntity
  8
0
390
0
  6
Continuous
 62
     7
100
AcDbLine
 10
11.2
 20
20.999999
 30
0.0
 11
14.0
 21
20.999999
 31
0.0
  0
LINE
  5
85
100
AcDbEntity
  8
0
390
0
  6
Continuous
 62
     7
100
AcDbLine
 10
3.0
 20
-21.000001
 30
0.0
 11
5.0
 21
-21.000001
 31
0.0
  0
LINE
  5
86
100
AcDbEntity
  8
0
390
0
  6
Continuous
 62
     7
100
AcDbLine
 10
3.0
 20
20.999999
 30
0.0
 11
5.0
 21
20.999999
 31
0.0
  0
LINE
  5
87
100
AcDbEntity
  8
0
390
0
  6
Continuous
 62
     7
100
AcDbLine
 10
7.5
 20
-21.000001
 30
0.0
 11
9.5
 21
-21.000001
 31
0.0
  0
LINE
  5
88
100
AcDbEntity
  8
0
390
0
  6
Continuous
 62
     7
100
AcDbLine
 10
7.5
 20
20.999999
 30
0.0
 11
9.5
 21
20.999999
 31
0.0
  0
LINE
  5
89
100
AcDbEntity
  8
0
390
0
  6
Continuous
 62
     7
100
AcDbLine
 10
-1.5
 20
-21.000001
 30
0.0
 11
0.5
 21
-21.000001
 31
0.0
  0
LINE
  5
8A
100
AcDbEntity
  8
0
390
0
  6
Continuous
 62
     7
100
AcDbLine
 10
-1.5
 20
20.999999
 30
0.0
 11
0.5
 21
20.999999
 31
0.0
  0
LINE
  5
8B
100
AcDbEntity
  8
0
390
0
  6
Continuous
 62
     7
100
AcDbLine
 10
-8.0
 20
-21.000001
 30
0.0
 11
-4.0
 21
-21.000001
 31
0.0
  0
LINE
  5
8C
100
AcDbEntity
  8
0
390
0
  6
Continuous
 62
     7
100
AcDbLine
 10
-8.0
 20
20.999999
 30
0.0
 11
-4.0
 21
20.999999
 31
0.0
  0
LINE
  5
8D
100
AcDbEntity
  8
0
390
0
  6
Continuous
 62
     7
100
AcDbLine
 10
-8.0
 20
-40.097917
 30
0.0
 11
14.0
 21
-40.097917
 31
0.0
  0
LINE
  5
8E
100
AcDbEntity
  8
0
390
0
  6
Continuous
 62
     7
100
AcDbLine
 10
14.0
 20
-40.097917
 30
0.0
 11
14.0
 21
-21.000001
 31
0.0
  0
LINE
  5
8F
100
AcDbEntity
  8
0
390
0
  6
Continuous
 62
     7
100
AcDbLine
 10
-4.0
 20
43.699999
 30
0.0
 11
-8.0
 21
43.699999
 31
0.0
  0
LINE
  5
90
100
AcDbEntity
  8
0
390
0
  6
Continuous
 62
     7
100
AcDbLine
 10
-4.0
 20
43.24166
 30
0.0
 11
-1.5
 21
43.24166
 31
0.0
  0
LINE
  5
91
100
AcDbEntity
  8
0
390
0
  6
Continuous
 62
     7
100
AcDbLine
 10
0.5
 20
43.699999
 30
0.0
 11
-1.5
 21
43.699999
 31
0.0
  0
LINE
  5
92
100
AcDbEntity
  8
0
390
0
  6
Continuous
 62
     7
100
AcDbLine
 10
0.5
 20
43.24166
 30
0.0
 11
3.0
 21
43.24166
 31
0.0
  0
LINE
  5
93
100
AcDbEntity
  8
0
390
0
  6
Continuous
 62
     7
100
AcDbLine
 10
5.0
 20
43.699999
 30
0.0
 11
3.0
 21
43.699999
 31
0.0
  0
LINE
  5
94
100
AcDbEntity
  8
0
390
0
  6
Continuous
 62
     7
100
AcDbLine
 10
5.0
 20
43.24166
 30
0.0
 11
7.5
 21
43.24166
 31
0.0
  0
LINE
  5
95
100
AcDbEntity
  8
0
390
0
  6
Continuous
 62
     7
100
AcDbLine
 10
9.5
 20
43.699999
 30
0.0
 11
7.5
 21
43.699999
 31
0.0
  0
LINE
  5
96
100
AcDbEntity
  8
0
390
0
  6
Continuous
 62
     7
100
AcDbLine
 10
9.5
 20
43.24166
 30
0.0
 11
11.2
 21
43.24166
 31
0.0
  0
LINE
  5
97
100
AcDbEntity
  8
0
390
0
  6
Continuous
 62
     7
100
AcDbLine
 10
14.0
 20
43.699999
 30
0.0
 11
11.2
 21
43.699999
 31
0.0
  0
LINE
  5
98
100
AcDbEntity
  8
0
390
0
  6
Continuous
 62
     7
100
AcDbLine
 10
-8.0
 20
40.097915
 30
0.0
 11
14.0
 21
40.097915
 31
0.0
  0
LINE
  5
99
100
AcDbEntity
  8
0
390
0
  6
Continuous
 62
     7
100
AcDbLine
 10
14.0
 20
40.097915
 30
0.0
 11
14.0
 21
43.699999
 31
0.0
  0
LINE
  5
9A
100
AcDbEntity
  8
0
390
0
  6
Continuous
 62
     7
100
AcDbLine
 10
14.0
 20
20.999999
 30
0.0
 11
14.0
 21
40.097915
 31
0.0
  0
LINE
  5
9B
100
AcDbEntity
  8
0
390
0
  6
Continuous
 62
     7
100
AcDbLine
 10
14.0
 20
-43.700001
 30
0.0
 11
11.2
 21
-43.700001
 31
0.0
  0
LINE
  5
9C
100
AcDbEntity
  8
0
390
0
  6
Continuous
 62
     7
100
AcDbLine
 10
9.5
 20
-43.241661
 30
0.0
 11
11.2
 21
-43.241661
 31
0.0
  0
LINE
  5
9D
100
AcDbEntity
  8
0
390
0
  6
Continuous
 62
     7
100
AcDbLine
 10
9.5
 20
-43.700001
 30
0.0
 11
7.5
 21
-43.700001
 31
0.0
  0
LINE
  5
9E
100
AcDbEntity
  8
0
390
0
  6
Continuous
 62
     7
100
AcDbLine
 10
5.0
 20
-43.241661
 30
0.0
 11
7.5
 21
-43.241661
 31
0.0
  0
LINE
  5
9F
100
AcDbEntity
  8
0
390
0
  6
Continuous
 62
     7
100
AcDbLine
 10
5.0
 20
-43.700001
 30
0.0
 11
3.0
 21
-43.700001
 31
0.0
  0
LINE
  5
A0
100
AcDbEntity
  8
0
390
0
  6
Continuous
 62
     7
100
AcDbLine
 10
0.5
 20
-43.241661
 30
0.0
 11
3.0
 21
-43.241661
 31
0.0
  0
LINE
  5
A1
100
AcDbEntity
  8
0
390
0
  6
Continuous
 62
     7
100
AcDbLine
 10
0.5
 20
-43.700001
 30
0.0
 11
-1.5
 21
-43.700001
 31
0.0
  0
LINE
  5
A2
100
AcDbEntity
  8
0
390
0
  6
Continuous
 62
     7
100
AcDbLine
 10
-4.0
 20
-43.241661
 30
0.0
 11
-1.5
 21
-43.241661
 31
0.0
  0
LINE
  5
A3
100
AcDbEntity
  8
0
390
0
  6
Continuous
 62
     7
100
AcDbLine
 10
-4.0
 20
-43.700001
 30
0.0
 11
-8.0
 21
-43.700001
 31
0.0
  0
LINE
  5
A4
100
AcDbEntity
  8
0
390
0
  6
Continuous
 62
     7
100
AcDbLine
 10
14.0
 20
-43.700001
 30
0.0
 11
14.0
 21
-40.097917
 31
0.0
  0
LINE
  5
A5
100
AcDbEntity
  8
0
390
0
  6
Continuous
 62
     7
100
AcDbLine
 10
1.908089
 20
46.699999
 30
0.0
 11
0.5
 21
46.699999
 31
0.0
  0
LINE
  5
A6
100
AcDbEntity
  8
0
390
0
  6
Continuous
 62
     7
100
AcDbLine
 10
0.5
 20
46.699999
 30
0.0
 11
0.5
 21
48.699999
 31
0.0
  0
LINE
  5
A7
100
AcDbEntity
  8
0
390
0
  6
Continuous
 62
     7
100
AcDbLine
 10
0.5
 20
48.699999
 30
0.0
 11
1.180148
 21
48.699999
 31
0.0
  0
LINE
  5
A8
100
AcDbEntity
  8
0
390
0
  6
Continuous
 62
     7
100
AcDbLine
 10
1.180148
 20
48.699999
 30
0.0
 11
1.908089
 21
46.699999
 31
0.0
  0
LINE
  5
A9
100
AcDbEntity
  8
0
390
0
  6
Continuous
 62
     7
100
AcDbLine
 10
6.408089
 20
46.699999
 30
0.0
 11
5.0
 21
46.699999
 31
0.0
  0
LINE
  5
AA
100
AcDbEntity
  8
0
390
0
  6
Continuous
 62
     7
100
AcDbLine
 10
5.0
 20
46.699999
 30
0.0
 11
5.0
 21
48.699999
 31
0.0
  0
LINE
  5
AB
100
AcDbEntity
  8
0
390
0
  6
Continuous
 62
     7
100
AcDbLine
 10
5.0
 20
48.699999
 30
0.0
 11
5.680148
 21
48.699999
 31
0.0
  0
LINE
  5
AC
100
AcDbEntity
  8
0
390
0
  6
Continuous
 62
     7
100
AcDbLine
 10
5.680148
 20
48.699999
 30
0.0
 11
6.408089
 21
46.699999
 31
0.0
  0
LINE
  5
AD
100
AcDbEntity
  8
0
390
0
  6
Continuous
 62
     7
100
AcDbLine
 10
3.0
 20
43.699999
 30
0.0
 11
1.908089
 21
46.699999
 31
0.0
  0
LINE
  5
AE
100
AcDbEntity
  8
0
390
0
  6
Continuous
 62
     7
100
AcDbLine
 10
3.0
 20
43.24166
 30
0.0
 11
3.0
 21
43.699999
 31
0.0
  0
LINE
  5
AF
100
AcDbEntity
  8
0
390
0
  6
Continuous
 62
     7
100
AcDbLine
 10
0.5
 20
46.699999
 30
0.0
 11
0.5
 21
43.24166
 31
0.0
  0
LINE
  5
B0
100
AcDbEntity
  8
0
390
0
  6
Continuous
 62
     7
100
AcDbLine
 10
-2.591911
 20
46.699999
 30
0.0
 11
-4.0
 21
46.699999
 31
0.0
  0
LINE
  5
B1
100
AcDbEntity
  8
0
390
0
  6
Continuous
 62
     7
100
AcDbLine
 10
-4.0
 20
48.699999
 30
0.0
 11
-3.319852
 21
48.699999
 31
0.0
  0
LINE
  5
B2
100
AcDbEntity
  8
0
390
0
  6
Continuous
 62
     7
100
AcDbLine
 10
-3.319852
 20
48.699999
 30
0.0
 11
-2.591911
 21
46.699999
 31
0.0
  0
LINE
  5
B3
100
AcDbEntity
  8
0
390
0
  6
Continuous
 62
     7
100
AcDbLine
 10
-4.0
 20
46.699999
 30
0.0
 11
-4.0
 21
48.699999
 31
0.0
  0
LINE
  5
B4
100
AcDbEntity
  8
0
390
0
  6
Continuous
 62
     7
100
AcDbLine
 10
-1.5
 20
43.699999
 30
0.0
 11
-2.591911
 21
46.699999
 31
0.0
  0
LINE
  5
B5
100
AcDbEntity
  8
0
390
0
  6
Continuous
 62
     7
100
AcDbLine
 10
-1.5
 20
43.24166
 30
0.0
 11
-1.5
 21
43.699999
 31
0.0
  0
LINE
  5
B6
100
AcDbEntity
  8
0
390
0
  6
Continuous
 62
     7
100
AcDbLine
 10
-4.0
 20
46.699999
 30
0.0
 11
-4.0
 21
43.24166
 31
0.0
  0
LINE
  5
B7
100
AcDbEntity
  8
0
390
0
  6
Continuous
 62
     7
100
AcDbLine
 10
10.842588
 20
44.799999
 30
0.0
 11
9.5
 21
44.799999
 31
0.0
  0
LINE
  5
B8
100
AcDbEntity
  8
0
390
0
  6
Continuous
 62
     7
100
AcDbLine
 10
9.5
 20
46.799999
 30
0.0
 11
10.192749
 21
46.799999
 31
0.0
  0
LINE
  5
B9
100
AcDbEntity
  8
0
390
0
  6
Continuous
 62
     7
100
AcDbLine
 10
10.192749
 20
46.799999
 30
0.0
 11
10.842588
 21
44.799999
 31
0.0
  0
LINE
  5
BA
100
AcDbEntity
  8
0
390
0
  6
Continuous
 62
     7
100
AcDbLine
 10
9.5
 20
44.799999
 30
0.0
 11
9.5
 21
46.799999
 31
0.0
  0
LINE
  5
BB
100
AcDbEntity
  8
0
390
0
  6
Continuous
 62
     7
100
AcDbLine
 10
11.2
 20
43.24166
 30
0.0
 11
11.2
 21
43.699999
 31
0.0
  0
LINE
  5
BC
100
AcDbEntity
  8
0
390
0
  6
Continuous
 62
     7
100
AcDbLine
 10
11.2
 20
43.699999
 30
0.0
 11
10.842588
 21
44.799999
 31
0.0
  0
LINE
  5
BD
100
AcDbEntity
  8
0
390
0
  6
Continuous
 62
     7
100
AcDbLine
 10
9.5
 20
44.799999
 30
0.0
 11
9.5
 21
43.24166
 31
0.0
  0
LINE
  5
BE
100
AcDbEntity
  8
0
390
0
  6
Continuous
 62
     7
100
AcDbLine
 10
7.5
 20
43.699999
 30
0.0
 11
6.408089
 21
46.699999
 31
0.0
  0
LINE
  5
BF
100
AcDbEntity
  8
0
390
0
  6
Continuous
 62
     7
100
AcDbLine
 10
5.0
 20
46.699999
 30
0.0
 11
5.0
 21
43.24166
 31
0.0
  0
LINE
  5
C0
100
AcDbEntity
  8
0
390
0
  6
Continuous
 62
     7
100
AcDbLine
 10
7.5
 20
43.24166
 30
0.0
 11
7.5
 21
43.699999
 31
0.0
  0
LINE
  5
C1
100
AcDbEntity
  8
0
390
0
  6
Continuous
 62
     7
100
AcDbLine
 10
-3.319852
 20
-48.700001
 30
0.0
 11
-4.0
 21
-48.700001
 31
0.0
  0
LINE
  5
C2
100
AcDbEntity
  8
0
390
0
  6
Continuous
 62
     7
100
AcDbLine
 10
-4.0
 20
-48.700001
 30
0.0
 11
-4.0
 21
-46.700001
 31
0.0
  0
LINE
  5
C3
100
AcDbEntity
  8
0
390
0
  6
Continuous
 62
     7
100
AcDbLine
 10
-4.0
 20
-46.700001
 30
0.0
 11
-2.591911
 21
-46.700001
 31
0.0
  0
LINE
  5
C4
100
AcDbEntity
  8
0
390
0
  6
Continuous
 62
     7
100
AcDbLine
 10
-2.591911
 20
-46.700001
 30
0.0
 11
-3.319852
 21
-48.700001
 31
0.0
  0
LINE
  5
C5
100
AcDbEntity
  8
0
390
0
  6
Continuous
 62
     7
100
AcDbLine
 10
5.680148
 20
-48.700001
 30
0.0
 11
5.0
 21
-48.700001
 31
0.0
  0
LINE
  5
C6
100
AcDbEntity
  8
0
390
0
  6
Continuous
 62
     7
100
AcDbLine
 10
5.0
 20
-48.700001
 30
0.0
 11
5.0
 21
-46.700001
 31
0.0
  0
LINE
  5
C7
100
AcDbEntity
  8
0
390
0
  6
Continuous
 62
     7
100
AcDbLine
 10
5.0
 20
-46.700001
 30
0.0
 11
6.408089
 21
-46.700001
 31
0.0
  0
LINE
  5
C8
100
AcDbEntity
  8
0
390
0
  6
Continuous
 62
     7
100
AcDbLine
 10
6.408089
 20
-46.700001
 30
0.0
 11
5.680148
 21
-48.700001
 31
0.0
  0
LINE
  5
C9
100
AcDbEntity
  8
0
390
0
  6
Continuous
 62
     7
100
AcDbLine
 10
-4.0
 20
-46.700001
 30
0.0
 11
-4.0
 21
-43.241661
 31
0.0
  0
LINE
  5
CA
100
AcDbEntity
  8
0
390
0
  6
Continuous
 62
     7
100
AcDbLine
 10
-1.5
 20
-43.241661
 30
0.0
 11
-1.5
 21
-43.700001
 31
0.0
  0
LINE
  5
CB
100
AcDbEntity
  8
0
390
0
  6
Continuous
 62
     7
100
AcDbLine
 10
-1.5
 20
-43.700001
 30
0.0
 11
-2.591911
 21
-46.700001
 31
0.0
  0
LINE
  5
CC
100
AcDbEntity
  8
0
390
0
  6
Continuous
 62
     7
100
AcDbLine
 10
7.5
 20
-43.241661
 30
0.0
 11
7.5
 21
-43.700001
 31
0.0
  0
LINE
  5
CD
100
AcDbEntity
  8
0
390
0
  6
Continuous
 62
     7
100
AcDbLine
 10
7.5
 20
-43.700001
 30
0.0
 11
6.408089
 21
-46.700001
 31
0.0
  0
LINE
  5
CE
100
AcDbEntity
  8
0
390
0
  6
Continuous
 62
     7
100
AcDbLine
 10
5.0
 20
-46.700001
 30
0.0
 11
5.0
 21
-43.241661
 31
0.0
  0
LINE
  5
CF
100
AcDbEntity
  8
0
390
0
  6
Continuous
 62
     7
100
AcDbLine
 10
1.180148
 20
-48.700001
 30
0.0
 11
0.5
 21
-48.700001
 31
0.0
  0
LINE
  5
D0
100
AcDbEntity
  8
0
390
0
  6
Continuous
 62
     7
100
AcDbLine
 10
0.5
 20
-48.700001
 30
0.0
 11
0.5
 21
-46.700001
 31
0.0
  0
LINE
  5
D1
100
AcDbEntity
  8
0
390
0
  6
Continuous
 62
     7
100
AcDbLine
 10
0.5
 20
-46.700001
 30
0.0
 11
1.908089
 21
-46.700001
 31
0.0
  0
LINE
  5
D2
100
AcDbEntity
  8
0
390
0
  6
Continuous
 62
     7
100
AcDbLine
 10
1.908089
 20
-46.700001
 30
0.0
 11
1.180148
 21
-48.700001
 31
0.0
  0
LINE
  5
D3
100
AcDbEntity
  8
0
390
0
  6
Continuous
 62
     7
100
AcDbLine
 10
3.0
 20
-43.700001
 30
0.0
 11
1.908089
 21
-46.700001
 31
0.0
  0
LINE
  5
D4
100
AcDbEntity
  8
0
390
0
  6
Continuous
 62
     7
100
AcDbLine
 10
0.5
 20
-46.700001
 30
0.0
 11
0.5
 21
-43.241661
 31
0.0
  0
LINE
  5
D5
100
AcDbEntity
  8
0
390
0
  6
Continuous
 62
     7
100
AcDbLine
 10
3.0
 20
-43.241661
 30
0.0
 11
3.0
 21
-43.700001
 31
0.0
  0
LINE
  5
D6
100
AcDbEntity
  8
0
390
0
  6
Continuous
 62
     7
100
AcDbLine
 10
10.192749
 20
-46.800001
 30
0.0
 11
9.5
 21
-46.800001
 31
0.0
  0
LINE
  5
D7
100
AcDbEntity
  8
0
390
0
  6
Continuous
 62
     7
100
AcDbLine
 10
9.5
 20
-44.800001
 30
0.0
 11
10.842588
 21
-44.800001
 31
0.0
  0
LINE
  5
D8
100
AcDbEntity
  8
0
390
0
  6
Continuous
 62
     7
100
AcDbLine
 10
10.842588
 20
-44.800001
 30
0.0
 11
10.192749
 21
-46.800001
 31
0.0
  0
LINE
  5
D9
100
AcDbEntity
  8
0
390
0
  6
Continuous
 62
     7
100
AcDbLine
 10
9.5
 20
-46.800001
 30
0.0
 11
9.5
 21
-44.800001
 31
0.0
  0
LINE
  5
DA
100
AcDbEntity
  8
0
390
0
  6
Continuous
 62
     7
100
AcDbLine
 10
11.2
 20
-43.700001
 30
0.0
 11
10.842588
 21
-44.800001
 31
0.0
  0
LINE
  5
DB
100
AcDbEntity
  8
0
390
0
  6
Continuous
 62
     7
100
AcDbLine
 10
11.2
 20
-43.241661
 30
0.0
 11
11.2
 21
-43.700001
 31
0.0
  0
LINE
  5
DC
100
AcDbEntity
  8
0
390
0
  6
Continuous
 62
     7
100
AcDbLine
 10
9.5
 20
-44.800001
 30
0.0
 11
9.5
 21
-43.241661
 31
0.0
  0
LINE
  5
DD
100
AcDbEntity
  8
0
390
0
  6
Continuous
 62
     7
100
AcDbLine
 10
-14.094525
 20
-17.929319
 30
0.0
 11
-14.002788
 21
-19.790391
 31
0.0
  0
POLYLINE
  5
DE
100
AcDbEntity
  8
0
390
0
  6
Continuous
 62
     7
100
AcDb2dPolyline
 66
     1
 10
0.0
 20
0.0
 30
0.0
 40
0.1
 41
0.1
  0
VERTEX
  5
DF
100
AcDbEntity
  8
0
390
0
 62
     7
100
AcDbVertex
100
AcDb2dVertex
 10
-14.064827
 20
-20.251371
 30
0.0
 42
-0.014789
  0
VERTEX
  5
E0
100
AcDbEntity
  8
0
390
0
 62
     7
100
AcDbVertex
100
AcDb2dVertex
 10
-14.228084
 20
-7.682653
 30
0.0
  0
VERTEX
  5
E1
100
AcDbEntity
  8
0
390
0
 62
     7
100
AcDbVertex
100
AcDb2dVertex
 10
-14.213292
 20
-7.633865
 30
0.0
  0
SEQEND
  5
E2
100
AcDbEntity
  8
0
390
0
  0
LINE
  5
E3
100
AcDbEntity
  8
0
390
0
  6
Continuous
 62
     7
100
AcDbLine
 10
-13.9447
 20
-21.952046
 30
0.0
 11
-14.064827
 21
-20.251371
 31
0.0
  0
POLYLINE
  5
E4
100
AcDbEntity
  8
0
390
0
  6
Continuous
 62
     7
100
AcDb2dPolyline
 66
     1
 10
0.0
 20
0.0
 30
0.0
 40
0.1
 41
0.1
  0
VERTEX
  5
E5
100
AcDbEntity
  8
0
390
0
 62
     7
100
AcDbVertex
100
AcDb2dVertex
 10
-14.213292
 20
-7.633865
 30
0.0
  0
VERTEX
  5
E6
100
AcDbEntity
  8
0
390
0
 62
     7
100
AcDbVertex
100
AcDb2dVertex
 10
-14.187845
 20
-7.745873
 30
0.0
 42
-0.010544
  0
VERTEX
  5
E7
100
AcDbEntity
  8
0
390
0
 62
     7
100
AcDbVertex
100
AcDb2dVertex
 10
-13.929029
 20
-21.887387
 30
0.0
  0
VERTEX
  5
E8
100
AcDbEntity
  8
0
390
0
 62
     7
100
AcDbVertex
100
AcDb2dVertex
 10
-13.9447
 20
-21.952046
 30
0.0
  0
SEQEND
  5
E9
100
AcDbEntity
  8
0
390
0
  0
POLYLINE
  5
EA
100
AcDbEntity
  8
0
390
0
  6
Continuous
 62
     7
100
AcDb2dPolyline
 66
     1
 10
0.0
 20
0.0
 30
0.0
 40
0.1
 41
0.1
  0
VERTEX
  5
EB
100
AcDbEntity
  8
0
390
0
 62
     7
100
AcDbVertex
100
AcDb2dVertex
 10
-13.713113
 20
-7.633865
 30
0.0
  0
VERTEX
  5
EC
100
AcDbEntity
  8
0
390
0
 62
     7
100
AcDbVertex
100
AcDb2dVertex
 10
-13.68765
 20
-7.745872
 30
0.0
 42
-0.010551
  0
VERTEX
  5
ED
100
AcDbEntity
  8
0
390
0
 62
     7
100
AcDbVertex
100
AcDb2dVertex
 10
-13.428671
 20
-21.887387
 30
0.0
  0
VERTEX
  5
EE
100
AcDbEntity
  8
0
390
0
 62
     7
100
AcDbVertex
100
AcDb2dVertex
 10
-13.444352
 20
-21.952046
 30
0.0
  0
SEQEND
  5
EF
100
AcDbEntity
  8
0
390
0
  0
LINE
  5
F0
100
AcDbEntity
  8
0
390
0
  6
Continuous
 62
     7
100
AcDbLine
 10
-14.191357
 20
-9.771171
 30
0.0
 11
-14.094525
 21
-17.929319
 31
0.0
  0
LINE
  5
F1
100
AcDbEntity
  8
0
390
0
  6
Continuous
 62
     7
100
AcDbLine
 10
-14.000662
 20
-19.792514
 30
0.0
 11
-14.191357
 21
-9.771171
 31
0.0
  0
LINE
  5
F2
100
AcDbEntity
  8
0
390
0
  6
Continuous
 62
     7
100
AcDbLine
 10
-13.892055
 20
22.49527
 30
0.0
 11
-13.391675
 21
22.49527
 31
0.0
  0
LINE
  5
F3
100
AcDbEntity
  8
0
390
0
  6
Continuous
 62
     7
100
AcDbLine
 10
-14.11356
 20
12.501249
 30
0.0
 11
-13.613318
 21
12.501249
 31
0.0
  0
LINE
  5
F4
100
AcDbEntity
  8
0
390
0
  6
Continuous
 62
     7
100
AcDbLine
 10
-14.11356
 20
12.501249
 30
0.0
 11
-13.892055
 21
22.49527
 31
0.0
  0
LINE
  5
F5
100
AcDbEntity
  8
0
390
0
  6
Continuous
 62
     7
100
AcDbLine
 10
-14.385815
 20
7.498749
 30
0.0
 11
-14.295312
 21
7.498749
 31
0.0
  0
LINE
  5
F6
100
AcDbEntity
  8
0
390
0
  6
Continuous
 62
     7
100
AcDbLine
 10
-14.349096
 20
9.679527
 30
0.0
 11
-14.385815
 21
7.498749
 31
0.0
  0
LINE
  5
F7
100
AcDbEntity
  8
0
390
0
  6
Continuous
 62
     7
100
AcDbLine
 10
-14.314362
 20
9.679527
 30
0.0
 11
-14.349096
 21
9.679527
 31
0.0
  0
LINE
  5
F8
100
AcDbEntity
  8
0
390
0
  6
Continuous
 62
     7
100
AcDbLine
 10
-14.200378
 20
13.014527
 30
0.0
 11
-14.314362
 21
9.679527
 31
0.0
  0
LINE
  5
F9
100
AcDbEntity
  8
0
390
0
  6
Continuous
 62
     7
100
AcDbLine
 10
-13.986883
 20
22.49527
 30
0.0
 11
-14.200378
 21
13.014527
 31
0.0
  0
LINE
  5
FA
100
AcDbEntity
  8
0
390
0
  6
Continuous
 62
     7
100
AcDbLine
 10
-14.295312
 20
7.498749
 30
0.0
 11
-14.11356
 21
12.501249
 31
0.0
  0
LINE
  5
FB
100
AcDbEntity
  8
0
390
0
  6
Continuous
 62
     7
100
AcDbLine
 10
-13.892055
 20
22.49527
 30
0.0
 11
-13.986883
 21
22.49527
 31
0.0
  0
LINE
  5
FC
100
AcDbEntity
  8
0
390
0
  6
Continuous
 62
     7
100
AcDbLine
 10
-14.295312
 20
7.498749
 30
0.0
 11
-13.795184
 21
7.498749
 31
0.0
  0
LINE
  5
FD
100
AcDbEntity
  8
0
390
0
  6
Continuous
 62
     7
100
AcDbLine
 10
-14.142886
 20
-21.950045
 30
0.0
 11
-14.216139
 21
-20.251371
 31
0.0
  0
LINE
  5
FE
100
AcDbEntity
  8
0
390
0
  6
Continuous
 62
     7
100
AcDbLine
 10
-14.411576
 20
-7.633865
 30
0.0
 11
-14.147465
 21
-20.228648
 31
0.0
  0
LINE
  5
FF
100
AcDbEntity
  8
0
390
0
  6
Continuous
 62
     7
100
AcDbLine
 10
-14.147465
 20
-20.228648
 30
0.0
 11
-14.145998
 21
-20.32792
 31
0.0
  0
LINE
  5
100
100
AcDbEntity
  8
0
390
0
  6
Continuous
 62
     7
100
AcDbLine
 10
-14.145998
 20
-20.32792
 30
0.0
 11
-14.141362
 21
-21.952046
 31
0.0
  0
LINE
  5
101
100
AcDbEntity
  8
0
390
0
  6
Continuous
 62
     7
100
AcDbLine
 10
-14.216139
 20
-20.251371
 30
0.0
 11
-14.41267
 21
-7.635045
 31
0.0
  0
LINE
  5
102
100
AcDbEntity
  8
0
390
0
  6
Continuous
 62
     7
100
AcDbLine
 10
-14.263163
 20
-17.929319
 30
0.0
 11
-14.199099
 21
-19.790357
 31
0.0
  0
LINE
  5
103
100
AcDbEntity
  8
0
390
0
  6
Continuous
 62
     7
100
AcDbLine
 10
-14.047742
 20
22.49527
 30
0.0
 11
-14.036893
 21
22.49527
 31
0.0
  0
LINE
  5
104
100
AcDbEntity
  8
0
390
0
  6
Continuous
 62
     7
100
AcDbLine
 10
-14.419621
 20
7.498749
 30
0.0
 11
-14.385902
 21
9.679714
 31
0.0
  0
LINE
  5
105
100
AcDbEntity
  8
0
390
0
  6
Continuous
 62
     7
100
AcDbLine
 10
-14.385902
 20
9.679714
 30
0.0
 11
-14.047742
 21
22.49527
 31
0.0
  0
LINE
  5
106
100
AcDbEntity
  8
0
390
0
  6
Continuous
 62
     7
100
AcDbLine
 10
-14.237649
 20
19.935689
 30
0.0
 11
-14.349421
 21
15.139056
 31
0.0
  0
LINE
  5
107
100
AcDbEntity
  8
0
390
0
  6
Continuous
 62
     7
100
AcDbLine
 10
-14.381258
 20
12.021664
 30
0.0
 11
-14.237649
 21
19.935689
 31
0.0
  0
LINE
  5
108
100
AcDbEntity
  8
0
390
0
  6
Continuous
 62
     7
100
AcDbLine
 10
-14.107407
 20
22.49527
 30
0.0
 11
-14.381258
 21
12.021664
 31
0.0
  0
LINE
  5
109
100
AcDbEntity
  8
0
390
0
  6
Continuous
 62
     7
100
AcDbLine
 10
-14.349421
 20
15.139056
 30
0.0
 11
-14.431018
 21
9.67961
 31
0.0
  0
LINE
  5
10A
100
AcDbEntity
  8
0
390
0
  6
Continuous
 62
     7
100
AcDbLine
 10
-14.431018
 20
9.67961
 30
0.0
 11
-14.451356
 21
7.498749
 31
0.0
  0
LINE
  5
10B
100
AcDbEntity
  8
0
390
0
  6
Continuous
 62
     7
100
AcDbLine
 10
-14.047742
 20
22.49527
 30
0.0
 11
-14.107407
 21
22.49527
 31
0.0
  0
LINE
  5
10C
100
AcDbEntity
  8
0
390
0
  6
Continuous
 62
     7
100
AcDbLine
 10
-14.388401
 20
-9.771171
 30
0.0
 11
-14.263163
 21
-17.929319
 31
0.0
  0
LINE
  5
10D
100
AcDbEntity
  8
0
390
0
  6
Continuous
 62
     7
100
AcDbLine
 10
-14.198121
 20
-19.792516
 30
0.0
 11
-14.267574
 21
-15.372397
 31
0.0
  0
LINE
  5
10E
100
AcDbEntity
  8
0
390
0
  6
Continuous
 62
     7
100
AcDbLine
 10
-14.267574
 20
-15.372397
 30
0.0
 11
-14.388401
 21
-9.771171
 31
0.0
  0
LINE
  5
10F
100
AcDbEntity
  8
0
390
0
  6
Continuous
 62
     7
100
AcDbLine
 10
-14.237649
 20
19.935689
 30
0.0
 11
-14.174332
 21
19.935689
 31
0.0
  0
LINE
  5
110
100
AcDbEntity
  8
0
390
0
  6
Continuous
 62
     7
100
AcDbLine
 10
-14.158135
 20
22.49527
 30
0.0
 11
-14.107407
 21
22.49527
 31
0.0
  0
LINE
  5
111
100
AcDbEntity
  8
0
390
0
  6
Continuous
 62
     7
100
AcDbLine
 10
-14.460581
 20
7.498749
 30
0.0
 11
-14.436982
 21
9.67961
 31
0.0
  0
LINE
  5
112
100
AcDbEntity
  8
0
390
0
  6
Continuous
 62
     7
100
AcDbLine
 10
-14.436982
 20
9.67961
 30
0.0
 11
-14.428799
 21
10.314857
 31
0.0
  0
LINE
  5
113
100
AcDbEntity
  8
0
390
0
  6
Continuous
 62
     7
100
AcDbLine
 10
-14.428799
 20
10.314857
 30
0.0
 11
-14.356238
 21
14.700474
 31
0.0
  0
LINE
  5
114
100
AcDbEntity
  8
0
390
0
  6
Continuous
 62
     7
100
AcDbLine
 10
-14.232933
 20
19.935926
 30
0.0
 11
-14.158135
 21
22.49527
 31
0.0
  0
LINE
  5
115
100
AcDbEntity
  8
0
390
0
  6
Continuous
 62
     7
100
AcDbLine
 10
-14.192448
 20
-21.815683
 30
0.0
 11
-14.435875
 21
-9.754973
 31
0.0
  0
LINE
  5
116
100
AcDbEntity
  8
0
390
0
  6
Continuous
 62
     7
100
AcDbLine
 10
-14.435875
 20
-9.754973
 30
0.0
 11
-14.458513
 21
-7.770228
 31
0.0
  0
LINE
  5
117
100
AcDbEntity
  8
0
390
0
  6
Continuous
 62
     7
100
AcDbLine
 10
-14.405717
 20
-7.565683
 30
0.0
 11
-13.960744
 21
-7.565683
 31
0.0
  0
LINE
  5
118
100
AcDbEntity
  8
0
390
0
  6
Continuous
 62
     7
100
AcDbLine
 10
-14.121494
 20
-22.429319
 30
0.0
 11
-13.675195
 21
-22.429319
 31
0.0
  0
LINE
  5
119
100
AcDbEntity
  8
0
390
0
  6
Continuous
 62
     7
100
AcDbLine
 10
-14.121494
 20
-22.429319
 30
0.0
 11
-14.134806
 21
-21.956619
 31
0.0
  0
ARC
  5
11A
100
AcDbEntity
  8
0
390
0
  6
Continuous
 62
     7
100
AcDbCircle
 10
785.999915
 20
0.368024
 30
0.0
 40
800.0
210
0.0
220
0.0
230
1.0
100
AcDbArc
 50
180.026358
 51
180.573103
  0
ARC
  5
11B
100
AcDbEntity
  8
0
390
0
  6
Continuous
 62
     7
100
AcDbCircle
 10
785.999915
 20
0.368024
 30
0.0
 40
800.0
210
0.0
220
0.0
230
1.0
100
AcDbArc
 50
181.598765
 51
183.475053
  0
ARC
  5
11C
100
AcDbEntity
  8
0
390
0
  6
Continuous
 62
     7
100
AcDbCircle
 10
785.999915
 20
-0.368026
 30
0.0
 40
800.0
210
0.0
220
0.0
230
1.0
100
AcDbArc
 50
179.436574
 51
179.973642
  0
ARC
  5
11D
100
AcDbEntity
  8
0
390
0
  6
Continuous
 62
     7
100
AcDbCircle
 10
785.999915
 20
-0.368026
 30
0.0
 40
800.0
210
0.0
220
0.0
230
1.0
100
AcDbArc
 50
176.524932
 51
178.362314
  0
ARC
  5
11E
100
AcDbEntity
  8
0
390
0
  6
Continuous
 62
     7
100
AcDbCircle
 10
-10.532906
 20
47.999999
 30
0.0
 40
2.0
210
0.0
220
0.0
230
1.0
100
AcDbArc
 50
90.0
 51
176.525084
  0
ARC
  5
11F
100
AcDbEntity
  8
0
390
0
  6
Continuous
 62
     7
100
AcDbCircle
 10
-10.532906
 20
-48.000001
 30
0.0
 40
2.0
210
0.0
220
0.0
230
1.0
100
AcDbArc
 50
183.474916
 51
270.0
  0
LINE
  5
120
100
AcDbEntity
  8
0
390
0
  6
Continuous
 62
     7
100
AcDbLine
 10
-13.944717
 20
-21.952046
 30
0.0
 11
-13.444369
 21
-21.952046
 31
0.0
  0
LINE
  5
121
100
AcDbEntity
  8
0
390
0
  6
Continuous
 62
     7
100
AcDbLine
 10
-13.713099
 20
-7.633865
 30
0.0
 11
-14.213279
 21
-7.633865
 31
0.0
  0
LINE
  5
122
100
AcDbEntity
  8
0
390
0
  6
Continuous
 62
     7
100
AcDbLine
 10
-14.141386
 20
-21.952046
 30
0.0
 11
-13.946891
 21
-21.952046
 31
0.0
  0
LINE
  5
123
100
AcDbEntity
  8
0
390
0
  6
Continuous
 62
     7
100
AcDbLine
 10
-14.21468
 20
-7.633865
 30
0.0
 11
-14.411558
 21
-7.633865
 31
0.0
  0
ARC
  5
124
100
AcDbEntity
  8
0
390
0
  6
Continuous
 62
     7
100
AcDbCircle
 10
785.999915
 20
-0.368026
 30
0.0
 40
800.5
210
0.0
220
0.0
230
1.0
100
AcDbArc
 50
179.235346
 51
179.280815
  0
ARC
  5
125
100
AcDbEntity
  8
0
390
0
  6
Continuous
 62
     7
100
AcDbCircle
 10
785.999915
 20
-0.368026
 30
0.0
 40
800.5
210
0.0
220
0.0
230
1.0
100
AcDbArc
 50
179.280815
 51
179.436926
  0
LINE
  5
126
100
AcDbEntity
  8
0
390
0
  6
Continuous
 62
     7
100
AcDbLine
 10
177.198264
 20
20.999999
 30
0.0
 11
177.698264
 21
20.999999
 31
0.0
  0
LINE
  5
127
100
AcDbEntity
  8
0
390
0
  6
Continuous
 62
     7
100
AcDbLine
 10
177.698264
 20
20.999999
 30
0.0
 11
177.698264
 21
-21.000001
 31
0.0
  0
LINE
  5
128
100
AcDbEntity
  8
0
390
0
  6
Continuous
 62
     7
100
AcDbLine
 10
177.698264
 20
-21.000001
 30
0.0
 11
177.198264
 21
-21.000001
 31
0.0
  0
LINE
  5
129
100
AcDbEntity
  8
0
390
0
  6
Continuous
 62
     7
100
AcDbLine
 10
177.198264
 20
-21.000001
 30
0.0
 11
177.198264
 21
-40.097917
 31
0.0
  0
ARC
  5
12A
100
AcDbEntity
  8
0
390
0
  6
Continuous
 62
     7
100
AcDbCircle
 10
171.698264
 20
-37.700001
 30
0.0
 40
6.0
210
0.0
220
0.0
230
1.0
100
AcDbArc
 50
270.0
 51
336.443536
  0
LINE
  5
12B
100
AcDbEntity
  8
0
390
0
  6
Continuous
 62
     7
100
AcDbLine
 10
171.698264
 20
-43.700001
 30
0.0
 11
96.298264
 21
-43.700001
 31
0.0
  0
ARC
  5
12C
100
AcDbEntity
  8
0
390
0
  6
Continuous
 62
     7
100
AcDbCircle
 10
96.298264
 20
-37.700001
 30
0.0
 40
6.0
210
0.0
220
0.0
230
1.0
100
AcDbArc
 50
203.556464
 51
270.0
  0
LINE
  5
12D
100
AcDbEntity
  8
0
390
0
  6
Continuous
 62
     7
100
AcDbLine
 10
90.798264
 20
-40.097917
 30
0.0
 11
90.798264
 21
-21.000001
 31
0.0
  0
LINE
  5
12E
100
AcDbEntity
  8
0
390
0
  6
Continuous
 62
     7
100
AcDbLine
 10
90.798264
 20
-21.000001
 30
0.0
 11
90.298264
 21
-21.000001
 31
0.0
  0
LINE
  5
12F
100
AcDbEntity
  8
0
390
0
  6
Continuous
 62
     7
100
AcDbLine
 10
90.298264
 20
-21.000001
 30
0.0
 11
90.298264
 21
20.999999
 31
0.0
  0
LINE
  5
130
100
AcDbEntity
  8
0
390
0
  6
Continuous
 62
     7
100
AcDbLine
 10
90.298264
 20
20.999999
 30
0.0
 11
90.798264
 21
20.999999
 31
0.0
  0
LINE
  5
131
100
AcDbEntity
  8
0
390
0
  6
Continuous
 62
     7
100
AcDbLine
 10
90.798264
 20
20.999999
 30
0.0
 11
90.798264
 21
40.097915
 31
0.0
  0
ARC
  5
132
100
AcDbEntity
  8
0
390
0
  6
Continuous
 62
     7
100
AcDbCircle
 10
96.298264
 20
37.699999
 30
0.0
 40
6.0
210
0.0
220
0.0
230
1.0
100
AcDbArc
 50
90.0
 51
156.443536
  0
LINE
  5
133
100
AcDbEntity
  8
0
390
0
  6
Continuous
 62
     7
100
AcDbLine
 10
96.298264
 20
43.699999
 30
0.0
 11
171.698264
 21
43.699999
 31
0.0
  0
ARC
  5
134
100
AcDbEntity
  8
0
390
0
  6
Continuous
 62
     7
100
AcDbCircle
 10
171.698264
 20
37.699999
 30
0.0
 40
6.0
210
0.0
220
0.0
230
1.0
100
AcDbArc
 50
23.556464
 51
90.0
  0
LINE
  5
135
100
AcDbEntity
  8
0
390
0
  6
Continuous
 62
     7
100
AcDbLine
 10
177.198264
 20
40.097915
 30
0.0
 11
177.198264
 21
20.999999
 31
0.0
  0
ARC
  5
136
100
AcDbEntity
  8
0
390
0
  6
Continuous
 62
     7
100
AcDbCircle
 10
171.698264
 20
37.699999
 30
0.0
 40
3.0
210
0.0
220
0.0
230
1.0
100
AcDbArc
 50
0.0
 51
90.0
  0
LINE
  5
137
100
AcDbEntity
  8
0
390
0
  6
Continuous
 62
     7
100
AcDbLine
 10
96.298264
 20
40.699999
 30
0.0
 11
171.698264
 21
40.699999
 31
0.0
  0
ARC
  5
138
100
AcDbEntity
  8
0
390
0
  6
Continuous
 62
     7
100
AcDbCircle
 10
96.298264
 20
37.699999
 30
0.0
 40
3.0
210
0.0
220
0.0
230
1.0
100
AcDbArc
 50
90.0
 51
180.0
  0
LINE
  5
139
100
AcDbEntity
  8
0
390
0
  6
Continuous
 62
     7
100
AcDbLine
 10
93.298264
 20
-37.700001
 30
0.0
 11
93.298264
 21
37.699999
 31
0.0
  0
ARC
  5
13A
100
AcDbEntity
  8
0
390
0
  6
Continuous
 62
     7
100
AcDbCircle
 10
96.298264
 20
-37.700001
 30
0.0
 40
3.0
210
0.0
220
0.0
230
1.0
100
AcDbArc
 50
180.0
 51
270.0
  0
LINE
  5
13B
100
AcDbEntity
  8
0
390
0
  6
Continuous
 62
     7
100
AcDbLine
 10
171.698264
 20
-40.700001
 30
0.0
 11
96.298264
 21
-40.700001
 31
0.0
  0
ARC
  5
13C
100
AcDbEntity
  8
0
390
0
  6
Continuous
 62
     7
100
AcDbCircle
 10
171.698264
 20
-37.700001
 30
0.0
 40
3.0
210
0.0
220
0.0
230
1.0
100
AcDbArc
 50
270.0
 51
360.0
  0
LINE
  5
13D
100
AcDbEntity
  8
0
390
0
  6
Continuous
 62
     7
100
AcDbLine
 10
174.698264
 20
37.699999
 30
0.0
 11
174.698264
 21
-37.700001
 31
0.0
  0
ARC
  5
13E
100
AcDbEntity
  8
0
390
0
  6
Continuous
 62
     7
100
AcDbCircle
 10
89.198264
 20
-19.000001
 30
0.0
 40
2.0
210
0.0
220
0.0
230
1.0
100
AcDbArc
 50
180.0
 51
270.0
  0
LINE
  5
13F
100
AcDbEntity
  8
0
390
0
  6
Continuous
 62
     7
100
AcDbLine
 10
87.198264
 20
-19.000001
 30
0.0
 11
87.198264
 21
18.999999
 31
0.0
  0
ARC
  5
140
100
AcDbEntity
  8
0
390
0
  6
Continuous
 62
     7
100
AcDbCircle
 10
89.198264
 20
18.999999
 30
0.0
 40
2.0
210
0.0
220
0.0
230
1.0
100
AcDbArc
 50
90.0
 51
180.0
  0
LINE
  5
141
100
AcDbEntity
  8
0
390
0
  6
Continuous
 62
     7
100
AcDbLine
 10
90.298264
 20
-21.000001
 30
0.0
 11
89.198264
 21
-21.000001
 31
0.0
  0
LINE
  5
142
100
AcDbEntity
  8
0
390
0
  6
Continuous
 62
     7
100
AcDbLine
 10
90.298264
 20
20.999999
 30
0.0
 11
89.198264
 21
20.999999
 31
0.0
  0
LINE
  5
143
100
AcDbEntity
  8
0
390
0
  6
Continuous
 62
     7
100
AcDbLine
 10
93.998264
 20
43.699999
 30
0.0
 11
96.298264
 21
43.699999
 31
0.0
  0
LINE
  5
144
100
AcDbEntity
  8
0
390
0
  6
Continuous
 62
     7
100
AcDbLine
 10
93.998264
 20
43.24166
 30
0.0
 11
93.998264
 21
43.699999
 31
0.0
  0
ARC
  5
145
100
AcDbEntity
  8
0
390
0
  6
Continuous
 62
     7
100
AcDbCircle
 10
171.998264
 20
44.799999
 30
0.0
 40
2.0
210
0.0
220
0.0
230
1.0
100
AcDbArc
 50
0.0
 51
90.0
  0
LINE
  5
146
100
AcDbEntity
  8
0
390
0
  6
Continuous
 62
     7
100
AcDbLine
 10
173.998264
 20
43.699999
 30
0.0
 11
173.998264
 21
44.799999
 31
0.0
  0
LINE
  5
147
100
AcDbEntity
  8
0
390
0
  6
Continuous
 62
     7
100
AcDbLine
 10
171.698264
 20
43.699999
 30
0.0
 11
173.998264
 21
43.699999
 31
0.0
  0
ARC
  5
148
100
AcDbEntity
  8
0
390
0
  6
Continuous
 62
     7
100
AcDbCircle
 10
95.998264
 20
44.799999
 30
0.0
 40
2.0
210
0.0
220
0.0
230
1.0
100
AcDbArc
 50
90.0
 51
180.0
  0
LINE
  5
149
100
AcDbEntity
  8
0
390
0
  6
Continuous
 62
     7
100
AcDbLine
 10
95.998264
 20
46.799999
 30
0.0
 11
171.998264
 21
46.799999
 31
0.0
  0
LINE
  5
14A
100
AcDbEntity
  8
0
390
0
  6
Continuous
 62
     7
100
AcDbLine
 10
93.998264
 20
43.699999
 30
0.0
 11
93.998264
 21
44.799999
 31
0.0
  0
LINE
  5
14B
100
AcDbEntity
  8
0
390
0
  6
Continuous
 62
     7
100
AcDbLine
 10
173.998264
 20
43.24166
 30
0.0
 11
173.998264
 21
43.699999
 31
0.0
  0
ARC
  5
14C
100
AcDbEntity
  8
0
390
0
  6
Continuous
 62
     7
100
AcDbCircle
 10
95.998264
 20
-44.800001
 30
0.0
 40
2.0
210
0.0
220
0.0
230
1.0
100
AcDbArc
 50
180.0
 51
270.0
  0
LINE
  5
14D
100
AcDbEntity
  8
0
390
0
  6
Continuous
 62
     7
100
AcDbLine
 10
93.998264
 20
-43.700001
 30
0.0
 11
93.998264
 21
-44.800001
 31
0.0
  0
LINE
  5
14E
100
AcDbEntity
  8
0
390
0
  6
Continuous
 62
     7
100
AcDbLine
 10
96.298264
 20
-43.700001
 30
0.0
 11
93.998264
 21
-43.700001
 31
0.0
  0
LINE
  5
14F
100
AcDbEntity
  8
0
390
0
  6
Continuous
 62
     7
100
AcDbLine
 10
173.998264
 20
-43.700001
 30
0.0
 11
171.698264
 21
-43.700001
 31
0.0
  0
LINE
  5
150
100
AcDbEntity
  8
0
390
0
  6
Continuous
 62
     7
100
AcDbLine
 10
173.998264
 20
-43.700001
 30
0.0
 11
173.998264
 21
-44.800001
 31
0.0
  0
ARC
  5
151
100
AcDbEntity
  8
0
390
0
  6
Continuous
 62
     7
100
AcDbCircle
 10
171.998264
 20
-44.800001
 30
0.0
 40
2.0
210
0.0
220
0.0
230
1.0
100
AcDbArc
 50
270.0
 51
360.0
  0
LINE
  5
152
100
AcDbEntity
  8
0
390
0
  6
Continuous
 62
     7
100
AcDbLine
 10
171.998264
 20
-46.800001
 30
0.0
 11
95.998264
 21
-46.800001
 31
0.0
  0
LINE
  5
153
100
AcDbEntity
  8
0
390
0
  6
Continuous
 62
     7
100
AcDbLine
 10
93.998264
 20
-43.241661
 30
0.0
 11
93.998264
 21
-43.700001
 31
0.0
  0
LINE
  5
154
100
AcDbEntity
  8
0
390
0
  6
Continuous
 62
     7
100
AcDbLine
 10
173.998264
 20
-43.241661
 30
0.0
 11
173.998264
 21
-43.700001
 31
0.0
  0
ARC
  5
155
100
AcDbEntity
  8
0
390
0
  6
Continuous
 62
     7
100
AcDbCircle
 10
178.798264
 20
18.999999
 30
0.0
 40
2.0
210
0.0
220
0.0
230
1.0
100
AcDbArc
 50
0.0
 51
90.0
  0
LINE
  5
156
100
AcDbEntity
  8
0
390
0
  6
Continuous
 62
     7
100
AcDbLine
 10
180.798264
 20
18.999999
 30
0.0
 11
180.798264
 21
-19.000001
 31
0.0
  0
ARC
  5
157
100
AcDbEntity
  8
0
390
0
  6
Continuous
 62
     7
100
AcDbCircle
 10
178.798264
 20
-19.000001
 30
0.0
 40
2.0
210
0.0
220
0.0
230
1.0
100
AcDbArc
 50
270.0
 51
360.0
  0
LINE
  5
158
100
AcDbEntity
  8
0
390
0
  6
Continuous
 62
     7
100
AcDbLine
 10
177.698264
 20
-21.000001
 30
0.0
 11
178.798264
 21
-21.000001
 31
0.0
  0
LINE
  5
159
100
AcDbEntity
  8
0
390
0
  6
Continuous
 62
     7
100
AcDbLine
 10
177.698264
 20
20.999999
 30
0.0
 11
178.798264
 21
20.999999
 31
0.0
  0
LINE
  5
15A
100
AcDbEntity
  8
0
390
0
  6
Continuous
 62
     7
100
AcDbLine
 10
94.304067
 20
37.699999
 30
0.0
 11
93.298264
 21
37.699999
 31
0.0
  0
LINE
  5
15B
100
AcDbEntity
  8
0
390
0
  6
Continuous
 62
     7
100
AcDbLine
 10
94.304067
 20
-37.700001
 30
0.0
 11
94.304067
 21
37.699999
 31
0.0
  0
LINE
  5
15C
100
AcDbEntity
  8
0
390
0
  6
Continuous
 62
     7
100
AcDbLine
 10
94.304067
 20
-37.700001
 30
0.0
 11
93.298264
 21
-37.700001
 31
0.0
  0
LINE
  5
15D
100
AcDbEntity
  8
0
390
0
  6
Continuous
 62
     7
100
AcDbLine
 10
96.298264
 20
39.694196
 30
0.0
 11
96.298264
 21
40.699999
 31
0.0
  0
ARC
  5
15E
100
AcDbEntity
  8
0
390
0
  6
Continuous
 62
     7
100
AcDbCircle
 10
96.295793
 20
37.70247
 30
0.0
 40
1.991728
210
0.0
220
0.0
230
1.0
100
AcDbArc
 50
89.928926
 51
180.071074
  0
ARC
  5
15F
100
AcDbEntity
  8
0
390
0
  6
Continuous
 62
     7
100
AcDbCircle
 10
96.295793
 20
-37.702472
 30
0.0
 40
1.991728
210
0.0
220
0.0
230
1.0
100
AcDbArc
 50
179.928926
 51
270.071074
  0
LINE
  5
160
100
AcDbEntity
  8
0
390
0
  6
Continuous
 62
     7
100
AcDbLine
 10
96.298264
 20
-39.694198
 30
0.0
 11
96.298264
 21
-40.700001
 31
0.0
  0
LINE
  5
161
100
AcDbEntity
  8
0
390
0
  6
Continuous
 62
     7
100
AcDbLine
 10
171.698264
 20
-39.694198
 30
0.0
 11
96.298264
 21
-39.694198
 31
0.0
  0
LINE
  5
162
100
AcDbEntity
  8
0
390
0
  6
Continuous
 62
     7
100
AcDbLine
 10
171.698264
 20
-39.694198
 30
0.0
 11
171.698264
 21
-40.700001
 31
0.0
  0
LINE
  5
163
100
AcDbEntity
  8
0
390
0
  6
Continuous
 62
     7
100
AcDbLine
 10
171.698264
 20
39.694196
 30
0.0
 11
171.698264
 21
40.699999
 31
0.0
  0
LINE
  5
164
100
AcDbEntity
  8
0
390
0
  6
Continuous
 62
     7
100
AcDbLine
 10
96.298264
 20
39.694196
 30
0.0
 11
171.698264
 21
39.694196
 31
0.0
  0
LINE
  5
165
100
AcDbEntity
  8
0
390
0
  6
Continuous
 62
     7
100
AcDbLine
 10
173.69246
 20
37.699999
 30
0.0
 11
174.698264
 21
37.699999
 31
0.0
  0
ARC
  5
166
100
AcDbEntity
  8
0
390
0
  6
Continuous
 62
     7
100
AcDbCircle
 10
171.700734
 20
37.70247
 30
0.0
 40
1.991728
210
0.0
220
0.0
230
1.0
100
AcDbArc
 50
359.928926
 51
90.071074
  0
LINE
  5
167
100
AcDbEntity
  8
0
390
0
  6
Continuous
 62
     7
100
AcDbLine
 10
173.69246
 20
-37.700001
 30
0.0
 11
174.698264
 21
-37.700001
 31
0.0
  0
LINE
  5
168
100
AcDbEntity
  8
0
390
0
  6
Continuous
 62
     7
100
AcDbLine
 10
173.69246
 20
37.699999
 30
0.0
 11
173.69246
 21
-37.700001
 31
0.0
  0
ARC
  5
169
100
AcDbEntity
  8
0
390
0
  6
Continuous
 62
     7
100
AcDbCircle
 10
171.700734
 20
-37.702472
 30
0.0
 40
1.991728
210
0.0
220
0.0
230
1.0
100
AcDbArc
 50
269.928926
 51
0.071074
  0
ARC
  5
16A
100
AcDbEntity
  8
0
390
0
  6
Continuous
 62
     7
100
AcDbCircle
 10
87.298264
 20
18.999999
 30
0.0
 40
2.0
210
0.0
220
0.0
230
1.0
100
AcDbArc
 50
90.0
 51
180.0
  0
ARC
  5
16B
100
AcDbEntity
  8
0
390
0
  6
Continuous
 62
     7
100
AcDbCircle
 10
87.298264
 20
-19.000001
 30
0.0
 40
2.0
210
0.0
220
0.0
230
1.0
100
AcDbArc
 50
180.0
 51
270.0
  0
LINE
  5
16C
100
AcDbEntity
  8
0
390
0
  6
Continuous
 62
     7
100
AcDbLine
 10
85.298264
 20
-19.000001
 30
0.0
 11
85.298264
 21
18.999999
 31
0.0
  0
LINE
  5
16D
100
AcDbEntity
  8
0
390
0
  6
Continuous
 62
     7
100
AcDbLine
 10
89.198264
 20
-21.000001
 30
0.0
 11
87.298264
 21
-21.000001
 31
0.0
  0
LINE
  5
16E
100
AcDbEntity
  8
0
390
0
  6
Continuous
 62
     7
100
AcDbLine
 10
89.198264
 20
20.999999
 30
0.0
 11
87.298264
 21
20.999999
 31
0.0
  0
ARC
  5
16F
100
AcDbEntity
  8
0
390
0
  6
Continuous
 62
     7
100
AcDbCircle
 10
171.998264
 20
46.699999
 30
0.0
 40
2.0
210
0.0
220
0.0
230
1.0
100
AcDbArc
 50
0.0
 51
90.0
  0
LINE
  5
170
100
AcDbEntity
  8
0
390
0
  6
Continuous
 62
     7
100
AcDbLine
 10
173.998264
 20
44.799999
 30
0.0
 11
173.998264
 21
46.699999
 31
0.0
  0
ARC
  5
171
100
AcDbEntity
  8
0
390
0
  6
Continuous
 62
     7
100
AcDbCircle
 10
95.998264
 20
46.699999
 30
0.0
 40
2.0
210
0.0
220
0.0
230
1.0
100
AcDbArc
 50
90.0
 51
180.0
  0
LINE
  5
172
100
AcDbEntity
  8
0
390
0
  6
Continuous
 62
     7
100
AcDbLine
 10
95.998264
 20
48.699999
 30
0.0
 11
171.998264
 21
48.699999
 31
0.0
  0
LINE
  5
173
100
AcDbEntity
  8
0
390
0
  6
Continuous
 62
     7
100
AcDbLine
 10
93.998264
 20
44.799999
 30
0.0
 11
93.998264
 21
46.699999
 31
0.0
  0
ARC
  5
174
100
AcDbEntity
  8
0
390
0
  6
Continuous
 62
     7
100
AcDbCircle
 10
95.998264
 20
-46.700001
 30
0.0
 40
2.0
210
0.0
220
0.0
230
1.0
100
AcDbArc
 50
180.0
 51
270.0
  0
LINE
  5
175
100
AcDbEntity
  8
0
390
0
  6
Continuous
 62
     7
100
AcDbLine
 10
173.998264
 20
-44.800001
 30
0.0
 11
173.998264
 21
-46.700001
 31
0.0
  0
ARC
  5
176
100
AcDbEntity
  8
0
390
0
  6
Continuous
 62
     7
100
AcDbCircle
 10
171.998264
 20
-46.700001
 30
0.0
 40
2.0
210
0.0
220
0.0
230
1.0
100
AcDbArc
 50
270.0
 51
360.0
  0
LINE
  5
177
100
AcDbEntity
  8
0
390
0
  6
Continuous
 62
     7
100
AcDbLine
 10
171.998264
 20
-48.700001
 30
0.0
 11
95.998264
 21
-48.700001
 31
0.0
  0
LINE
  5
178
100
AcDbEntity
  8
0
390
0
  6
Continuous
 62
     7
100
AcDbLine
 10
93.998264
 20
-44.800001
 30
0.0
 11
93.998264
 21
-46.700001
 31
0.0
  0
ARC
  5
179
100
AcDbEntity
  8
0
390
0
  6
Continuous
 62
     7
100
AcDbCircle
 10
180.698264
 20
-19.000001
 30
0.0
 40
2.0
210
0.0
220
0.0
230
1.0
100
AcDbArc
 50
270.0
 51
360.0
  0
ARC
  5
17A
100
AcDbEntity
  8
0
390
0
  6
Continuous
 62
     7
100
AcDbCircle
 10
180.698264
 20
18.999999
 30
0.0
 40
2.0
210
0.0
220
0.0
230
1.0
100
AcDbArc
 50
0.0
 51
90.0
  0
LINE
  5
17B
100
AcDbEntity
  8
0
390
0
  6
Continuous
 62
     7
100
AcDbLine
 10
182.698264
 20
18.999999
 30
0.0
 11
182.698264
 21
-19.000001
 31
0.0
  0
LINE
  5
17C
100
AcDbEntity
  8
0
390
0
  6
Continuous
 62
     7
100
AcDbLine
 10
178.798264
 20
-21.000001
 30
0.0
 11
180.698264
 21
-21.000001
 31
0.0
  0
LINE
  5
17D
100
AcDbEntity
  8
0
390
0
  6
Continuous
 62
     7
100
AcDbLine
 10
178.798264
 20
20.999999
 30
0.0
 11
180.698264
 21
20.999999
 31
0.0
  0
ELLIPSE
  5
17E
100
AcDbEntity
  8
0
390
0
  6
Continuous
 62
     7
100
AcDbEllipse
 10
96.298264
 20
-38.695568
 30
0.0
 11
-0.0025113396882048
 21
0.9999968465815301
 31
0.0
210
0.0
220
0.0
230
1.0
 40
0.047864
 41
1.6196395182921821
 42
3.0891726397230541
  0
LINE
  5
17F
100
AcDbEntity
  8
0
390
0
  6
Continuous
 62
     7
100
AcDbLine
 10
96.250579
 20
-38.744512
 30
0.0
 11
171.745948
 21
-38.744512
 31
0.0
  0
ELLIPSE
  5
180
100
AcDbEntity
  8
0
390
0
  6
Continuous
 62
     7
100
AcDbEllipse
 10
171.698264
 20
-38.695568
 30
0.0
 11
0.0025113396882048
 21
0.9999968465815301
 31
0.0
210
0.0
220
0.0
230
1.0
 40
0.047864
 41
3.1940126674565326
 42
4.6635457888873448
  0
LINE
  5
181
100
AcDbEntity
  8
0
390
0
  6
Continuous
 62
     7
100
AcDbLine
 10
95.253753
 20
37.747684
 30
0.0
 11
95.253753
 21
-37.747685
 31
0.0
  0
ELLIPSE
  5
182
100
AcDbEntity
  8
0
390
0
  6
Continuous
 62
     7
100
AcDbEllipse
 10
95.302696
 20
-37.700001
 30
0.0
 11
-0.9999968465815301
 21
0.0025113396882048
 31
0.0
210
0.0
220
0.0
230
1.0
 40
0.047864
 41
0.0524200138669042
 42
1.5219531352975528
  0
ELLIPSE
  5
183
100
AcDbEntity
  8
0
390
0
  6
Continuous
 62
     7
100
AcDbEllipse
 10
95.302696
 20
37.699999
 30
0.0
 11
-0.9999968465814746
 21
-0.0025113396882048
 31
0.0
210
0.0
220
0.0
230
1.0
 40
0.047864
 41
4.7612321718820336
 42
6.230765293312845
  0
LINE
  5
184
100
AcDbEntity
  8
0
390
0
  6
Continuous
 62
     7
100
AcDbLine
 10
171.745948
 20
38.74451
 30
0.0
 11
96.250579
 21
38.74451
 31
0.0
  0
ELLIPSE
  5
185
100
AcDbEntity
  8
0
390
0
  6
Continuous
 62
     7
100
AcDbEllipse
 10
96.298264
 20
38.695566
 30
0.0
 11
0.0025113396882048
 21
0.9999968465815301
 31
0.0
210
0.0
220
0.0
230
1.0
 40
0.047864
 41
0.052420013865796
 42
1.5219531352976083
  0
ELLIPSE
  5
186
100
AcDbEntity
  8
0
390
0
  6
Continuous
 62
     7
100
AcDbEllipse
 10
171.698264
 20
38.695566
 30
0.0
 11
-0.0025113396882048
 21
0.9999968465815301
 31
0.0
210
0.0
220
0.0
230
1.0
 40
0.047864
 41
4.7612321718820336
 42
6.2307652933128477
  0
ELLIPSE
  5
187
100
AcDbEntity
  8
0
390
0
  6
Continuous
 62
     7
100
AcDbEllipse
 10
172.693831
 20
-37.700001
 30
0.0
 11
-0.9999968465815301
 21
-0.0025113396882048
 31
0.0
210
0.0
220
0.0
230
0.9999999999999999
 40
0.047864
 41
1.6196395182922414
 42
3.0891726397230541
  0
LINE
  5
188
100
AcDbEntity
  8
0
390
0
  6
Continuous
 62
     7
100
AcDbLine
 10
172.742775
 20
-37.747685
 30
0.0
 11
172.742775
 21
37.747684
 31
0.0
  0
ELLIPSE
  5
189
100
AcDbEntity
  8
0
390
0
  6
Continuous
 62
     7
100
AcDbEllipse
 10
172.693831
 20
37.699999
 30
0.0
 11
-0.9999968465815301
 21
0.0025113396882048
 31
0.0
210
0.0
220
0.0
230
0.9999999999999999
 40
0.047864
 41
3.1940126674567018
 42
4.6635457888873466
  0
ARC
  5
18A
100
AcDbEntity
  8
0
390
0
  6
Continuous
 62
     7
100
AcDbCircle
 10
88.498264
 20
-45.500001
 30
0.0
 40
4.5
210
0.0
220
0.0
230
1.0
100
AcDbArc
 50
180.0
 51
270.0
  0
ARC
  5
18B
100
AcDbEntity
  8
0
390
0
  6
Continuous
 62
     7
100
AcDbCircle
 10
179.498264
 20
45.499999
 30
0.0
 40
4.5
210
0.0
220
0.0
230
1.0
100
AcDbArc
 50
0.0
 51
90.0
  0
ARC
  5
18C
100
AcDbEntity
  8
0
390
0
  6
Continuous
 62
     7
100
AcDbCircle
 10
179.498264
 20
-45.500001
 30
0.0
 40
4.5
210
0.0
220
0.0
230
1.0
100
AcDbArc
 50
270.0
 51
360.0
  0
ARC
  5
18D
100
AcDbEntity
  8
0
390
0
  6
Continuous
 62
     7
100
AcDbCircle
 10
88.498264
 20
45.499999
 30
0.0
 40
4.5
210
0.0
220
0.0
230
1.0
100
AcDbArc
 50
90.0
 51
180.0
  0
LINE
  5
18E
100
AcDbEntity
  8
0
390
0
  6
Continuous
 62
     7
100
AcDbLine
 10
179.498264
 20
-50.000001
 30
0.0
 11
88.498264
 21
-50.000001
 31
0.0
  0
LINE
  5
18F
100
AcDbEntity
  8
0
390
0
  6
Continuous
 62
     7
100
AcDbLine
 10
88.498264
 20
49.999999
 30
0.0
 11
179.498264
 21
49.999999
 31
0.0
  0
LINE
  5
190
100
AcDbEntity
  8
0
390
0
  6
Continuous
 62
     7
100
AcDbLine
 10
83.998264
 20
-45.500001
 30
0.0
 11
83.998264
 21
45.499999
 31
0.0
  0
LINE
  5
191
100
AcDbEntity
  8
0
390
0
  6
Continuous
 62
     7
100
AcDbLine
 10
183.998264
 20
45.499999
 30
0.0
 11
183.998264
 21
-45.500001
 31
0.0
  0
POLYLINE
  5
192
100
AcDbEntity
  8
0
390
0
  6
Continuous
 62
     7
100
AcDb2dPolyline
 66
     1
 10
0.0
 20
0.0
 30
0.0
 40
0.1
 41
0.1
  0
VERTEX
  5
193
100
AcDbEntity
  8
0
390
0
 62
     7
100
AcDbVertex
100
AcDb2dVertex
 10
95.253753
 20
-37.747685
 30
0.0
  0
VERTEX
  5
194
100
AcDbEntity
  8
0
390
0
 62
     7
100
AcDbVertex
100
AcDb2dVertex
 10
95.254682
 20
-37.793027
 30
0.0
  0
VERTEX
  5
195
100
AcDbEntity
  8
0
390
0
 62
     7
100
AcDbVertex
100
AcDb2dVertex
 10
95.257686
 20
-37.838354
 30
0.0
  0
VERTEX
  5
196
100
AcDbEntity
  8
0
390
0
 62
     7
100
AcDbVertex
100
AcDb2dVertex
 10
95.262751
 20
-37.883526
 30
0.0
  0
VERTEX
  5
197
100
AcDbEntity
  8
0
390
0
 62
     7
100
AcDbVertex
100
AcDb2dVertex
 10
95.269861
 20
-37.928403
 30
0.0
  0
VERTEX
  5
198
100
AcDbEntity
  8
0
390
0
 62
     7
100
AcDbVertex
100
AcDb2dVertex
 10
95.279001
 20
-37.972842
 30
0.0
  0
VERTEX
  5
199
100
AcDbEntity
  8
0
390
0
 62
     7
100
AcDbVertex
100
AcDb2dVertex
 10
95.289059
 20
-38.01279
 30
0.0
  0
VERTEX
  5
19A
100
AcDbEntity
  8
0
390
0
 62
     7
100
AcDbVertex
100
AcDb2dVertex
 10
95.300774
 20
-38.052325
 30
0.0
  0
VERTEX
  5
19B
100
AcDbEntity
  8
0
390
0
 62
     7
100
AcDbVertex
100
AcDb2dVertex
 10
95.314114
 20
-38.091344
 30
0.0
  0
VERTEX
  5
19C
100
AcDbEntity
  8
0
390
0
 62
     7
100
AcDbVertex
100
AcDb2dVertex
 10
95.329047
 20
-38.129747
 30
0.0
  0
VERTEX
  5
19D
100
AcDbEntity
  8
0
390
0
 62
     7
100
AcDbVertex
100
AcDb2dVertex
 10
95.346069
 20
-38.168582
 30
0.0
  0
VERTEX
  5
19E
100
AcDbEntity
  8
0
390
0
 62
     7
100
AcDbVertex
100
AcDb2dVertex
 10
95.364748
 20
-38.206693
 30
0.0
  0
VERTEX
  5
19F
100
AcDbEntity
  8
0
390
0
 62
     7
100
AcDbVertex
100
AcDb2dVertex
 10
95.385033
 20
-38.243977
 30
0.0
  0
VERTEX
  5
1A0
100
AcDbEntity
  8
0
390
0
 62
     7
100
AcDbVertex
100
AcDb2dVertex
 10
95.406871
 20
-38.280331
 30
0.0
  0
VERTEX
  5
1A1
100
AcDbEntity
  8
0
390
0
 62
     7
100
AcDbVertex
100
AcDb2dVertex
 10
95.429579
 20
-38.314752
 30
0.0
  0
VERTEX
  5
1A2
100
AcDbEntity
  8
0
390
0
 62
     7
100
AcDbVertex
100
AcDb2dVertex
 10
95.453716
 20
-38.348233
 30
0.0
  0
VERTEX
  5
1A3
100
AcDbEntity
  8
0
390
0
 62
     7
100
AcDbVertex
100
AcDb2dVertex
 10
95.479219
 20
-38.380687
 30
0.0
  0
VERTEX
  5
1A4
100
AcDbEntity
  8
0
390
0
 62
     7
100
AcDbVertex
100
AcDb2dVertex
 10
95.506023
 20
-38.412029
 30
0.0
  0
VERTEX
  5
1A5
100
AcDbEntity
  8
0
390
0
 62
     7
100
AcDbVertex
100
AcDb2dVertex
 10
95.534943
 20
-38.443089
 30
0.0
  0
VERTEX
  5
1A6
100
AcDbEntity
  8
0
390
0
 62
     7
100
AcDbVertex
100
AcDb2dVertex
 10
95.565191
 20
-38.472914
 30
0.0
  0
VERTEX
  5
1A7
100
AcDbEntity
  8
0
390
0
 62
     7
100
AcDbVertex
100
AcDb2dVertex
 10
95.596681
 20
-38.501423
 30
0.0
  0
VERTEX
  5
1A8
100
AcDbEntity
  8
0
390
0
 62
     7
100
AcDbVertex
100
AcDb2dVertex
 10
95.629329
 20
-38.528538
 30
0.0
  0
VERTEX
  5
1A9
100
AcDbEntity
  8
0
390
0
 62
     7
100
AcDbVertex
100
AcDb2dVertex
 10
95.662181
 20
-38.553555
 30
0.0
  0
VERTEX
  5
1AA
100
AcDbEntity
  8
0
390
0
 62
     7
100
AcDbVertex
100
AcDb2dVertex
 10
95.696073
 20
-38.577206
 30
0.0
  0
VERTEX
  5
1AB
100
AcDbEntity
  8
0
390
0
 62
     7
100
AcDbVertex
100
AcDb2dVertex
 10
95.730914
 20
-38.599432
 30
0.0
  0
VERTEX
  5
1AC
100
AcDbEntity
  8
0
390
0
 62
     7
100
AcDbVertex
100
AcDb2dVertex
 10
95.766615
 20
-38.620173
 30
0.0
  0
VERTEX
  5
1AD
100
AcDbEntity
  8
0
390
0
 62
     7
100
AcDbVertex
100
AcDb2dVertex
 10
95.804224
 20
-38.639944
 30
0.0
  0
VERTEX
  5
1AE
100
AcDbEntity
  8
0
390
0
 62
     7
100
AcDbVertex
100
AcDb2dVertex
 10
95.842676
 20
-38.658107
 30
0.0
  0
VERTEX
  5
1AF
100
AcDbEntity
  8
0
390
0
 62
     7
100
AcDbVertex
100
AcDb2dVertex
 10
95.881865
 20
-38.674613
 30
0.0
  0
VERTEX
  5
1B0
100
AcDbEntity
  8
0
390
0
 62
     7
100
AcDbVertex
100
AcDb2dVertex
 10
95.921683
 20
-38.689415
 30
0.0
  0
VERTEX
  5
1B1
100
AcDbEntity
  8
0
390
0
 62
     7
100
AcDbVertex
100
AcDb2dVertex
 10
95.960945
 20
-38.702149
 30
0.0
  0
VERTEX
  5
1B2
100
AcDbEntity
  8
0
390
0
 62
     7
100
AcDbVertex
100
AcDb2dVertex
 10
96.000732
 20
-38.713251
 30
0.0
  0
VERTEX
  5
1B3
100
AcDbEntity
  8
0
390
0
 62
     7
100
AcDbVertex
100
AcDb2dVertex
 10
96.040941
 20
-38.722695
 30
0.0
  0
VERTEX
  5
1B4
100
AcDbEntity
  8
0
390
0
 62
     7
100
AcDbVertex
100
AcDb2dVertex
 10
96.08147
 20
-38.730456
 30
0.0
  0
VERTEX
  5
1B5
100
AcDbEntity
  8
0
390
0
 62
     7
100
AcDbVertex
100
AcDb2dVertex
 10
96.12347
 20
-38.736671
 30
0.0
  0
VERTEX
  5
1B6
100
AcDbEntity
  8
0
390
0
 62
     7
100
AcDbVertex
100
AcDb2dVertex
 10
96.165733
 20
-38.741092
 30
0.0
  0
VERTEX
  5
1B7
100
AcDbEntity
  8
0
390
0
 62
     7
100
AcDbVertex
100
AcDb2dVertex
 10
96.208141
 20
-38.743709
 30
0.0
  0
VERTEX
  5
1B8
100
AcDbEntity
  8
0
390
0
 62
     7
100
AcDbVertex
100
AcDb2dVertex
 10
96.250579
 20
-38.744512
 30
0.0
  0
SEQEND
  5
1B9
100
AcDbEntity
  8
0
390
0
  0
POLYLINE
  5
1BA
100
AcDbEntity
  8
0
390
0
  6
Continuous
 62
     7
100
AcDb2dPolyline
 66
     1
 10
0.0
 20
0.0
 30
0.0
 40
0.1
 41
0.1
  0
VERTEX
  5
1BB
100
AcDbEntity
  8
0
390
0
 62
     7
100
AcDbVertex
100
AcDb2dVertex
 10
96.250579
 20
38.74451
 30
0.0
  0
VERTEX
  5
1BC
100
AcDbEntity
  8
0
390
0
 62
     7
100
AcDbVertex
100
AcDb2dVertex
 10
96.205238
 20
38.743581
 30
0.0
  0
VERTEX
  5
1BD
100
AcDbEntity
  8
0
390
0
 62
     7
100
AcDbVertex
100
AcDb2dVertex
 10
96.15991
 20
38.740576
 30
0.0
  0
VERTEX
  5
1BE
100
AcDbEntity
  8
0
390
0
 62
     7
100
AcDbVertex
100
AcDb2dVertex
 10
96.114738
 20
38.735511
 30
0.0
  0
VERTEX
  5
1BF
100
AcDbEntity
  8
0
390
0
 62
     7
100
AcDbVertex
100
AcDb2dVertex
 10
96.069862
 20
38.728402
 30
0.0
  0
VERTEX
  5
1C0
100
AcDbEntity
  8
0
390
0
 62
     7
100
AcDbVertex
100
AcDb2dVertex
 10
96.025423
 20
38.719262
 30
0.0
  0
VERTEX
  5
1C1
100
AcDbEntity
  8
0
390
0
 62
     7
100
AcDbVertex
100
AcDb2dVertex
 10
95.985474
 20
38.709204
 30
0.0
  0
VERTEX
  5
1C2
100
AcDbEntity
  8
0
390
0
 62
     7
100
AcDbVertex
100
AcDb2dVertex
 10
95.94594
 20
38.697489
 30
0.0
  0
VERTEX
  5
1C3
100
AcDbEntity
  8
0
390
0
 62
     7
100
AcDbVertex
100
AcDb2dVertex
 10
95.90692
 20
38.684149
 30
0.0
  0
VERTEX
  5
1C4
100
AcDbEntity
  8
0
390
0
 62
     7
100
AcDbVertex
100
AcDb2dVertex
 10
95.868517
 20
38.669215
 30
0.0
  0
VERTEX
  5
1C5
100
AcDbEntity
  8
0
390
0
 62
     7
100
AcDbVertex
100
AcDb2dVertex
 10
95.829682
 20
38.652194
 30
0.0
  0
VERTEX
  5
1C6
100
AcDbEntity
  8
0
390
0
 62
     7
100
AcDbVertex
100
AcDb2dVertex
 10
95.791571
 20
38.633515
 30
0.0
  0
VERTEX
  5
1C7
100
AcDbEntity
  8
0
390
0
 62
     7
100
AcDbVertex
100
AcDb2dVertex
 10
95.754287
 20
38.613229
 30
0.0
  0
VERTEX
  5
1C8
100
AcDbEntity
  8
0
390
0
 62
     7
100
AcDbVertex
100
AcDb2dVertex
 10
95.717934
 20
38.591392
 30
0.0
  0
VERTEX
  5
1C9
100
AcDbEntity
  8
0
390
0
 62
     7
100
AcDbVertex
100
AcDb2dVertex
 10
95.683512
 20
38.568684
 30
0.0
  0
VERTEX
  5
1CA
100
AcDbEntity
  8
0
390
0
 62
     7
100
AcDbVertex
100
AcDb2dVertex
 10
95.650031
 20
38.544547
 30
0.0
  0
VERTEX
  5
1CB
100
AcDbEntity
  8
0
390
0
 62
     7
100
AcDbVertex
100
AcDb2dVertex
 10
95.617577
 20
38.519044
 30
0.0
  0
VERTEX
  5
1CC
100
AcDbEntity
  8
0
390
0
 62
     7
100
AcDbVertex
100
AcDb2dVertex
 10
95.586235
 20
38.49224
 30
0.0
  0
VERTEX
  5
1CD
100
AcDbEntity
  8
0
390
0
 62
     7
100
AcDbVertex
100
AcDb2dVertex
 10
95.555176
 20
38.463319
 30
0.0
  0
VERTEX
  5
1CE
100
AcDbEntity
  8
0
390
0
 62
     7
100
AcDbVertex
100
AcDb2dVertex
 10
95.525351
 20
38.433071
 30
0.0
  0
VERTEX
  5
1CF
100
AcDbEntity
  8
0
390
0
 62
     7
100
AcDbVertex
100
AcDb2dVertex
 10
95.496841
 20
38.401582
 30
0.0
  0
VERTEX
  5
1D0
100
AcDbEntity
  8
0
390
0
 62
     7
100
AcDbVertex
100
AcDb2dVertex
 10
95.469726
 20
38.368934
 30
0.0
  0
VERTEX
  5
1D1
100
AcDbEntity
  8
0
390
0
 62
     7
100
AcDbVertex
100
AcDb2dVertex
 10
95.44471
 20
38.336081
 30
0.0
  0
VERTEX
  5
1D2
100
AcDbEntity
  8
0
390
0
 62
     7
100
AcDbVertex
100
AcDb2dVertex
 10
95.421059
 20
38.30219
 30
0.0
  0
VERTEX
  5
1D3
100
AcDbEntity
  8
0
390
0
 62
     7
100
AcDbVertex
100
AcDb2dVertex
 10
95.398833
 20
38.267349
 30
0.0
  0
VERTEX
  5
1D4
100
AcDbEntity
  8
0
390
0
 62
     7
100
AcDbVertex
100
AcDb2dVertex
 10
95.378092
 20
38.231648
 30
0.0
  0
VERTEX
  5
1D5
100
AcDbEntity
  8
0
390
0
 62
     7
100
AcDbVertex
100
AcDb2dVertex
 10
95.35832
 20
38.194039
 30
0.0
  0
VERTEX
  5
1D6
100
AcDbEntity
  8
0
390
0
 62
     7
100
AcDbVertex
100
AcDb2dVertex
 10
95.340158
 20
38.155587
 30
0.0
  0
VERTEX
  5
1D7
100
AcDbEntity
  8
0
390
0
 62
     7
100
AcDbVertex
100
AcDb2dVertex
 10
95.323651
 20
38.116398
 30
0.0
  0
VERTEX
  5
1D8
100
AcDbEntity
  8
0
390
0
 62
     7
100
AcDbVertex
100
AcDb2dVertex
 10
95.308849
 20
38.076579
 30
0.0
  0
VERTEX
  5
1D9
100
AcDbEntity
  8
0
390
0
 62
     7
100
AcDbVertex
100
AcDb2dVertex
 10
95.296115
 20
38.037318
 30
0.0
  0
VERTEX
  5
1DA
100
AcDbEntity
  8
0
390
0
 62
     7
100
AcDbVertex
100
AcDb2dVertex
 10
95.285013
 20
37.997531
 30
0.0
  0
VERTEX
  5
1DB
100
AcDbEntity
  8
0
390
0
 62
     7
100
AcDbVertex
100
AcDb2dVertex
 10
95.275569
 20
37.957321
 30
0.0
  0
VERTEX
  5
1DC
100
AcDbEntity
  8
0
390
0
 62
     7
100
AcDbVertex
100
AcDb2dVertex
 10
95.267809
 20
37.916793
 30
0.0
  0
VERTEX
  5
1DD
100
AcDbEntity
  8
0
390
0
 62
     7
100
AcDbVertex
100
AcDb2dVertex
 10
95.261593
 20
37.874792
 30
0.0
  0
VERTEX
  5
1DE
100
AcDbEntity
  8
0
390
0
 62
     7
100
AcDbVertex
100
AcDb2dVertex
 10
95.257172
 20
37.83253
 30
0.0
  0
VERTEX
  5
1DF
100
AcDbEntity
  8
0
390
0
 62
     7
100
AcDbVertex
100
AcDb2dVertex
 10
95.254556
 20
37.790122
 30
0.0
  0
VERTEX
  5
1E0
100
AcDbEntity
  8
0
390
0
 62
     7
100
AcDbVertex
100
AcDb2dVertex
 10
95.253753
 20
37.747684
 30
0.0
  0
SEQEND
  5
1E1
100
AcDbEntity
  8
0
390
0
  0
POLYLINE
  5
1E2
100
AcDbEntity
  8
0
390
0
  6
Continuous
 62
     7
100
AcDb2dPolyline
 66
     1
 10
0.0
 20
0.0
 30
0.0
 40
0.1
 41
0.1
  0
VERTEX
  5
1E3
100
AcDbEntity
  8
0
390
0
 62
     7
100
AcDbVertex
100
AcDb2dVertex
 10
172.742775
 20
37.747684
 30
0.0
  0
VERTEX
  5
1E4
100
AcDbEntity
  8
0
390
0
 62
     7
100
AcDbVertex
100
AcDb2dVertex
 10
172.741845
 20
37.793025
 30
0.0
  0
VERTEX
  5
1E5
100
AcDbEntity
  8
0
390
0
 62
     7
100
AcDbVertex
100
AcDb2dVertex
 10
172.738841
 20
37.838352
 30
0.0
  0
VERTEX
  5
1E6
100
AcDbEntity
  8
0
390
0
 62
     7
100
AcDbVertex
100
AcDb2dVertex
 10
172.733776
 20
37.883525
 30
0.0
  0
VERTEX
  5
1E7
100
AcDbEntity
  8
0
390
0
 62
     7
100
AcDbVertex
100
AcDb2dVertex
 10
172.726666
 20
37.928401
 30
0.0
  0
VERTEX
  5
1E8
100
AcDbEntity
  8
0
390
0
 62
     7
100
AcDbVertex
100
AcDb2dVertex
 10
172.717526
 20
37.97284
 30
0.0
  0
VERTEX
  5
1E9
100
AcDbEntity
  8
0
390
0
 62
     7
100
AcDbVertex
100
AcDb2dVertex
 10
172.707468
 20
38.012788
 30
0.0
  0
VERTEX
  5
1EA
100
AcDbEntity
  8
0
390
0
 62
     7
100
AcDbVertex
100
AcDb2dVertex
 10
172.695754
 20
38.052323
 30
0.0
  0
VERTEX
  5
1EB
100
AcDbEntity
  8
0
390
0
 62
     7
100
AcDbVertex
100
AcDb2dVertex
 10
172.682413
 20
38.091343
 30
0.0
  0
VERTEX
  5
1EC
100
AcDbEntity
  8
0
390
0
 62
     7
100
AcDbVertex
100
AcDb2dVertex
 10
172.66748
 20
38.129746
 30
0.0
  0
VERTEX
  5
1ED
100
AcDbEntity
  8
0
390
0
 62
     7
100
AcDbVertex
100
AcDb2dVertex
 10
172.650459
 20
38.16858
 30
0.0
  0
VERTEX
  5
1EE
100
AcDbEntity
  8
0
390
0
 62
     7
100
AcDbVertex
100
AcDb2dVertex
 10
172.631779
 20
38.206691
 30
0.0
  0
VERTEX
  5
1EF
100
AcDbEntity
  8
0
390
0
 62
     7
100
AcDbVertex
100
AcDb2dVertex
 10
172.611494
 20
38.243975
 30
0.0
  0
VERTEX
  5
1F0
100
AcDbEntity
  8
0
390
0
 62
     7
100
AcDbVertex
100
AcDb2dVertex
 10
172.589656
 20
38.280329
 30
0.0
  0
VERTEX
  5
1F1
100
AcDbEntity
  8
0
390
0
 62
     7
100
AcDbVertex
100
AcDb2dVertex
 10
172.566948
 20
38.314751
 30
0.0
  0
VERTEX
  5
1F2
100
AcDbEntity
  8
0
390
0
 62
     7
100
AcDbVertex
100
AcDb2dVertex
 10
172.542811
 20
38.348231
 30
0.0
  0
VERTEX
  5
1F3
100
AcDbEntity
  8
0
390
0
 62
     7
100
AcDbVertex
100
AcDb2dVertex
 10
172.517308
 20
38.380685
 30
0.0
  0
VERTEX
  5
1F4
100
AcDbEntity
  8
0
390
0
 62
     7
100
AcDbVertex
100
AcDb2dVertex
 10
172.490505
 20
38.412027
 30
0.0
  0
VERTEX
  5
1F5
100
AcDbEntity
  8
0
390
0
 62
     7
100
AcDbVertex
100
AcDb2dVertex
 10
172.461584
 20
38.443087
 30
0.0
  0
VERTEX
  5
1F6
100
AcDbEntity
  8
0
390
0
 62
     7
100
AcDbVertex
100
AcDb2dVertex
 10
172.431336
 20
38.472912
 30
0.0
  0
VERTEX
  5
1F7
100
AcDbEntity
  8
0
390
0
 62
     7
100
AcDbVertex
100
AcDb2dVertex
 10
172.399846
 20
38.501422
 30
0.0
  0
VERTEX
  5
1F8
100
AcDbEntity
  8
0
390
0
 62
     7
100
AcDbVertex
100
AcDb2dVertex
 10
172.367199
 20
38.528536
 30
0.0
  0
VERTEX
  5
1F9
100
AcDbEntity
  8
0
390
0
 62
     7
100
AcDbVertex
100
AcDb2dVertex
 10
172.334346
 20
38.553553
 30
0.0
  0
VERTEX
  5
1FA
100
AcDbEntity
  8
0
390
0
 62
     7
100
AcDbVertex
100
AcDb2dVertex
 10
172.300454
 20
38.577204
 30
0.0
  0
VERTEX
  5
1FB
100
AcDbEntity
  8
0
390
0
 62
     7
100
AcDbVertex
100
AcDb2dVertex
 10
172.265613
 20
38.59943
 30
0.0
  0
VERTEX
  5
1FC
100
AcDbEntity
  8
0
390
0
 62
     7
100
AcDbVertex
100
AcDb2dVertex
 10
172.229912
 20
38.620171
 30
0.0
  0
VERTEX
  5
1FD
100
AcDbEntity
  8
0
390
0
 62
     7
100
AcDbVertex
100
AcDb2dVertex
 10
172.192303
 20
38.639943
 30
0.0
  0
VERTEX
  5
1FE
100
AcDbEntity
  8
0
390
0
 62
     7
100
AcDbVertex
100
AcDb2dVertex
 10
172.153851
 20
38.658105
 30
0.0
  0
VERTEX
  5
1FF
100
AcDbEntity
  8
0
390
0
 62
     7
100
AcDbVertex
100
AcDb2dVertex
 10
172.114662
 20
38.674611
 30
0.0
  0
VERTEX
  5
200
100
AcDbEntity
  8
0
390
0
 62
     7
100
AcDbVertex
100
AcDb2dVertex
 10
172.074844
 20
38.689414
 30
0.0
  0
VERTEX
  5
201
100
AcDbEntity
  8
0
390
0
 62
     7
100
AcDbVertex
100
AcDb2dVertex
 10
172.035582
 20
38.702147
 30
0.0
  0
VERTEX
  5
202
100
AcDbEntity
  8
0
390
0
 62
     7
100
AcDbVertex
100
AcDb2dVertex
 10
171.995795
 20
38.713249
 30
0.0
  0
VERTEX
  5
203
100
AcDbEntity
  8
0
390
0
 62
     7
100
AcDbVertex
100
AcDb2dVertex
 10
171.955586
 20
38.722694
 30
0.0
  0
VERTEX
  5
204
100
AcDbEntity
  8
0
390
0
 62
     7
100
AcDbVertex
100
AcDb2dVertex
 10
171.915058
 20
38.730454
 30
0.0
  0
VERTEX
  5
205
100
AcDbEntity
  8
0
390
0
 62
     7
100
AcDbVertex
100
AcDb2dVertex
 10
171.873057
 20
38.73667
 30
0.0
  0
VERTEX
  5
206
100
AcDbEntity
  8
0
390
0
 62
     7
100
AcDbVertex
100
AcDb2dVertex
 10
171.830795
 20
38.74109
 30
0.0
  0
VERTEX
  5
207
100
AcDbEntity
  8
0
390
0
 62
     7
100
AcDbVertex
100
AcDb2dVertex
 10
171.788386
 20
38.743707
 30
0.0
  0
VERTEX
  5
208
100
AcDbEntity
  8
0
390
0
 62
     7
100
AcDbVertex
100
AcDb2dVertex
 10
171.745948
 20
38.74451
 30
0.0
  0
SEQEND
  5
209
100
AcDbEntity
  8
0
390
0
  0
POLYLINE
  5
20A
100
AcDbEntity
  8
0
390
0
  6
Continuous
 62
     7
100
AcDb2dPolyline
 66
     1
 10
0.0
 20
0.0
 30
0.0
 40
0.1
 41
0.1
  0
VERTEX
  5
20B
100
AcDbEntity
  8
0
390
0
 62
     7
100
AcDbVertex
100
AcDb2dVertex
 10
171.745948
 20
-38.744512
 30
0.0
  0
VERTEX
  5
20C
100
AcDbEntity
  8
0
390
0
 62
     7
100
AcDbVertex
100
AcDb2dVertex
 10
171.79129
 20
-38.743583
 30
0.0
  0
VERTEX
  5
20D
100
AcDbEntity
  8
0
390
0
 62
     7
100
AcDbVertex
100
AcDb2dVertex
 10
171.836617
 20
-38.740578
 30
0.0
  0
VERTEX
  5
20E
100
AcDbEntity
  8
0
390
0
 62
     7
100
AcDbVertex
100
AcDb2dVertex
 10
171.881789
 20
-38.735513
 30
0.0
  0
VERTEX
  5
20F
100
AcDbEntity
  8
0
390
0
 62
     7
100
AcDbVertex
100
AcDb2dVertex
 10
171.926665
 20
-38.728403
 30
0.0
  0
VERTEX
  5
210
100
AcDbEntity
  8
0
390
0
 62
     7
100
AcDbVertex
100
AcDb2dVertex
 10
171.971104
 20
-38.719264
 30
0.0
  0
VERTEX
  5
211
100
AcDbEntity
  8
0
390
0
 62
     7
100
AcDbVertex
100
AcDb2dVertex
 10
172.011053
 20
-38.709206
 30
0.0
  0
VERTEX
  5
212
100
AcDbEntity
  8
0
390
0
 62
     7
100
AcDbVertex
100
AcDb2dVertex
 10
172.050587
 20
-38.697491
 30
0.0
  0
VERTEX
  5
213
100
AcDbEntity
  8
0
390
0
 62
     7
100
AcDbVertex
100
AcDb2dVertex
 10
172.089607
 20
-38.684151
 30
0.0
  0
VERTEX
  5
214
100
AcDbEntity
  8
0
390
0
 62
     7
100
AcDbVertex
100
AcDb2dVertex
 10
172.12801
 20
-38.669217
 30
0.0
  0
VERTEX
  5
215
100
AcDbEntity
  8
0
390
0
 62
     7
100
AcDbVertex
100
AcDb2dVertex
 10
172.166845
 20
-38.652196
 30
0.0
  0
VERTEX
  5
216
100
AcDbEntity
  8
0
390
0
 62
     7
100
AcDbVertex
100
AcDb2dVertex
 10
172.204956
 20
-38.633516
 30
0.0
  0
VERTEX
  5
217
100
AcDbEntity
  8
0
390
0
 62
     7
100
AcDbVertex
100
AcDb2dVertex
 10
172.24224
 20
-38.613231
 30
0.0
  0
VERTEX
  5
218
100
AcDbEntity
  8
0
390
0
 62
     7
100
AcDbVertex
100
AcDb2dVertex
 10
172.278594
 20
-38.591394
 30
0.0
  0
VERTEX
  5
219
100
AcDbEntity
  8
0
390
0
 62
     7
100
AcDbVertex
100
AcDb2dVertex
 10
172.313015
 20
-38.568686
 30
0.0
  0
VERTEX
  5
21A
100
AcDbEntity
  8
0
390
0
 62
     7
100
AcDbVertex
100
AcDb2dVertex
 10
172.346496
 20
-38.544548
 30
0.0
  0
VERTEX
  5
21B
100
AcDbEntity
  8
0
390
0
 62
     7
100
AcDbVertex
100
AcDb2dVertex
 10
172.37895
 20
-38.519046
 30
0.0
  0
VERTEX
  5
21C
100
AcDbEntity
  8
0
390
0
 62
     7
100
AcDbVertex
100
AcDb2dVertex
 10
172.410292
 20
-38.492242
 30
0.0
  0
VERTEX
  5
21D
100
AcDbEntity
  8
0
390
0
 62
     7
100
AcDbVertex
100
AcDb2dVertex
 10
172.441352
 20
-38.463321
 30
0.0
  0
VERTEX
  5
21E
100
AcDbEntity
  8
0
390
0
 62
     7
100
AcDbVertex
100
AcDb2dVertex
 10
172.471176
 20
-38.433073
 30
0.0
  0
VERTEX
  5
21F
100
AcDbEntity
  8
0
390
0
 62
     7
100
AcDbVertex
100
AcDb2dVertex
 10
172.499686
 20
-38.401583
 30
0.0
  0
VERTEX
  5
220
100
AcDbEntity
  8
0
390
0
 62
     7
100
AcDbVertex
100
AcDb2dVertex
 10
172.526801
 20
-38.368936
 30
0.0
  0
VERTEX
  5
221
100
AcDbEntity
  8
0
390
0
 62
     7
100
AcDbVertex
100
AcDb2dVertex
 10
172.551818
 20
-38.336083
 30
0.0
  0
VERTEX
  5
222
100
AcDbEntity
  8
0
390
0
 62
     7
100
AcDbVertex
100
AcDb2dVertex
 10
172.575469
 20
-38.302192
 30
0.0
  0
VERTEX
  5
223
100
AcDbEntity
  8
0
390
0
 62
     7
100
AcDbVertex
100
AcDb2dVertex
 10
172.597694
 20
-38.267351
 30
0.0
  0
VERTEX
  5
224
100
AcDbEntity
  8
0
390
0
 62
     7
100
AcDbVertex
100
AcDb2dVertex
 10
172.618436
 20
-38.231649
 30
0.0
  0
VERTEX
  5
225
100
AcDbEntity
  8
0
390
0
 62
     7
100
AcDbVertex
100
AcDb2dVertex
 10
172.638207
 20
-38.194041
 30
0.0
  0
VERTEX
  5
226
100
AcDbEntity
  8
0
390
0
 62
     7
100
AcDbVertex
100
AcDb2dVertex
 10
172.65637
 20
-38.155588
 30
0.0
  0
VERTEX
  5
227
100
AcDbEntity
  8
0
390
0
 62
     7
100
AcDbVertex
100
AcDb2dVertex
 10
172.672876
 20
-38.1164
 30
0.0
  0
VERTEX
  5
228
100
AcDbEntity
  8
0
390
0
 62
     7
100
AcDbVertex
100
AcDb2dVertex
 10
172.687678
 20
-38.076581
 30
0.0
  0
VERTEX
  5
229
100
AcDbEntity
  8
0
390
0
 62
     7
100
AcDbVertex
100
AcDb2dVertex
 10
172.700412
 20
-38.03732
 30
0.0
  0
VERTEX
  5
22A
100
AcDbEntity
  8
0
390
0
 62
     7
100
AcDbVertex
100
AcDb2dVertex
 10
172.711514
 20
-37.997533
 30
0.0
  0
VERTEX
  5
22B
100
AcDbEntity
  8
0
390
0
 62
     7
100
AcDbVertex
100
AcDb2dVertex
 10
172.720958
 20
-37.957323
 30
0.0
  0
VERTEX
  5
22C
100
AcDbEntity
  8
0
390
0
 62
     7
100
AcDbVertex
100
AcDb2dVertex
 10
172.728719
 20
-37.916795
 30
0.0
  0
VERTEX
  5
22D
100
AcDbEntity
  8
0
390
0
 62
     7
100
AcDbVertex
100
AcDb2dVertex
 10
172.734934
 20
-37.874794
 30
0.0
  0
VERTEX
  5
22E
100
AcDbEntity
  8
0
390
0
 62
     7
100
AcDbVertex
100
AcDb2dVertex
 10
172.739355
 20
-37.832532
 30
0.0
  0
VERTEX
  5
22F
100
AcDbEntity
  8
0
390
0
 62
     7
100
AcDbVertex
100
AcDb2dVertex
 10
172.741971
 20
-37.790124
 30
0.0
  0
VERTEX
  5
230
100
AcDbEntity
  8
0
390
0
 62
     7
100
AcDbVertex
100
AcDb2dVertex
 10
172.742775
 20
-37.747685
 30
0.0
  0
SEQEND
  5
231
100
AcDbEntity
  8
0
390
0
  0
POLYLINE
  5
232
100
AcDbEntity
  8
0
390
0
  6
Continuous
 62
     7
100
AcDb2dPolyline
 66
     1
 10
0.0
 20
0.0
 30
0.0
 70
     1
 40
0.1
 41
0.1
  0
VERTEX
  5
233
100
AcDbEntity
  8
0
390
0
 62
     7
100
AcDbVertex
100
AcDb2dVertex
 10
-127.394306
 20
-17.929319
 30
0.0
 42
0.502891
  0
VERTEX
  5
234
100
AcDbEntity
  8
0
390
0
 62
     7
100
AcDbVertex
100
AcDb2dVertex
 10
-124.571767
 20
-19.608105
 30
0.0
 42
0.23923
  0
VERTEX
  5
235
100
AcDbEntity
  8
0
390
0
 62
     7
100
AcDbVertex
100
AcDb2dVertex
 10
-123.094601
 20
-16.738729
 30
0.0
 42
0.205161
  0
VERTEX
  5
236
100
AcDbEntity
  8
0
390
0
 62
     7
100
AcDbVertex
100
AcDb2dVertex
 10
-124.079892
 20
-10.387917
 30
0.0
 42
0.622482
  0
VERTEX
  5
237
100
AcDbEntity
  8
0
390
0
 62
     7
100
AcDbVertex
100
AcDb2dVertex
 10
-127.302639
 20
-11.315854
 30
0.0
 42
0.164115
  0
SEQEND
  5
238
100
AcDbEntity
  8
0
390
0
  0
POLYLINE
  5
239
100
AcDbEntity
  8
0
390
0
  6
Continuous
 62
     7
100
AcDb2dPolyline
 66
     1
 10
0.0
 20
0.0
 30
0.0
 70
     1
 40
0.1
 41
0.1
  0
VERTEX
  5
23A
100
AcDbEntity
  8
0
390
0
 62
     7
100
AcDbVertex
100
AcDb2dVertex
 10
-128.62664
 20
-20.251371
 30
0.0
 42
-0.309287
  0
VERTEX
  5
23B
100
AcDbEntity
  8
0
390
0
 62
     7
100
AcDbVertex
100
AcDb2dVertex
 10
-127.999139
 20
-8.74474
 30
0.0
 42
-0.573248
  0
VERTEX
  5
23C
100
AcDbEntity
  8
0
390
0
 62
     7
100
AcDbVertex
100
AcDb2dVertex
 10
-121.540622
 20
-10.511474
 30
0.0
 42
-0.279253
  0
VERTEX
  5
23D
100
AcDbEntity
  8
0
390
0
 62
     7
100
AcDbVertex
100
AcDb2dVertex
 10
-122.88873
 20
-20.957934
 30
0.0
 42
-0.45771
  0
SEQEND
  5
23E
100
AcDbEntity
  8
0
390
0
  0
POLYLINE
  5
23F
100
AcDbEntity
  8
0
390
0
  6
Continuous
 62
     7
100
AcDb2dPolyline
 66
     1
 10
0.0
 20
0.0
 30
0.0
 70
     1
 40
0.1
 41
0.1
  0
VERTEX
  5
240
100
AcDbEntity
  8
0
390
0
 62
     7
100
AcDbVertex
100
AcDb2dVertex
 10
-116.417033
 20
-17.929319
 30
0.0
 42
0.503078
  0
VERTEX
  5
241
100
AcDbEntity
  8
0
390
0
 62
     7
100
AcDbVertex
100
AcDb2dVertex
 10
-113.593766
 20
-19.607708
 30
0.0
 42
0.239126
  0
VERTEX
  5
242
100
AcDbEntity
  8
0
390
0
 62
     7
100
AcDbVertex
100
AcDb2dVertex
 10
-112.117021
 20
-16.736847
 30
0.0
 42
0.204944
  0
VERTEX
  5
243
100
AcDbEntity
  8
0
390
0
 62
     7
100
AcDbVertex
100
AcDb2dVertex
 10
-113.10097
 20
-10.389867
 30
0.0
 42
0.622408
  0
VERTEX
  5
244
100
AcDbEntity
  8
0
390
0
 62
     7
100
AcDbVertex
100
AcDb2dVertex
 10
-116.323528
 20
-11.311485
 30
0.0
 42
0.164289
  0
SEQEND
  5
245
100
AcDbEntity
  8
0
390
0
  0
POLYLINE
  5
246
100
AcDbEntity
  8
0
390
0
  6
Continuous
 62
     7
100
AcDb2dPolyline
 66
     1
 10
0.0
 20
0.0
 30
0.0
 70
     1
 40
0.1
 41
0.1
  0
VERTEX
  5
247
100
AcDbEntity
  8
0
390
0
 62
     7
100
AcDbVertex
100
AcDb2dVertex
 10
-117.649367
 20
-20.251371
 30
0.0
 42
-0.30923
  0
VERTEX
  5
248
100
AcDbEntity
  8
0
390
0
 62
     7
100
AcDbVertex
100
AcDb2dVertex
 10
-117.022744
 20
-8.745616
 30
0.0
 42
-0.573331
  0
VERTEX
  5
249
100
AcDbEntity
  8
0
390
0
 62
     7
100
AcDbVertex
100
AcDb2dVertex
 10
-110.563519
 20
-10.511082
 30
0.0
 42
-0.282257
  0
VERTEX
  5
24A
100
AcDbEntity
  8
0
390
0
 62
     7
100
AcDbVertex
100
AcDb2dVertex
 10
-111.959033
 20
-21.001792
 30
0.0
 42
-0.452332
  0
SEQEND
  5
24B
100
AcDbEntity
  8
0
390
0
  0
LINE
  5
24C
100
AcDbEntity
  8
0
390
0
  6
Continuous
 62
     7
100
AcDbLine
 10
-183.997125
 20
-45.500001
 30
0.0
 11
-183.997125
 21
45.499999
 31
0.0
  0
ELLIPSE
  5
24D
100
AcDbEntity
  8
0
390
0
  6
Continuous
 62
     7
100
AcDbEllipse
 10
-181.997125
 20
45.499999
 30
0.0
 11
2.0000000000000018
 21
0.0
 31
0.0
210
0.0
220
0.0
230
1.0
 40
0.05744
 41
1.6313183497606205
 42
3.1415926535897931
  0
LINE
  5
24E
100
AcDbEntity
  8
0
390
0
  6
Continuous
 62
     7
100
AcDbLine
 10
-182.118096
 20
45.614669
 30
0.0
 11
-182.118096
 21
-45.614671
 31
0.0
  0
ELLIPSE
  5
24F
100
AcDbEntity
  8
0
390
0
  6
Continuous
 62
     7
100
AcDbEllipse
 10
-181.997125
 20
-45.500001
 30
0.0
 11
-2.0000000000000018
 21
0.0
 31
0.0
210
0.0
220
0.0
230
1.0
 40
0.05744
 41
0.0
 42
1.5102743038291762
  0
LINE
  5
250
100
AcDbEntity
  8
0
390
0
  6
Continuous
 62
     7
100
AcDbLine
 10
-88.382456
 20
48.120969
 30
0.0
 11
-179.611795
 21
48.120969
 31
0.0
  0
ARC
  5
251
100
AcDbEntity
  8
0
390
0
  6
Continuous
 62
     7
100
AcDbCircle
 10
-88.382516
 20
45.614609
 30
0.0
 40
2.506361
210
0.0
220
0.0
230
1.0
100
AcDbArc
 50
0.001374
 51
89.998626
  0
LINE
  5
252
100
AcDbEntity
  8
0
390
0
  6
Continuous
 62
     7
100
AcDbLine
 10
-85.876155
 20
-45.614671
 30
0.0
 11
-85.876155
 21
45.614669
 31
0.0
  0
ARC
  5
253
100
AcDbEntity
  8
0
390
0
  6
Continuous
 62
     7
100
AcDbCircle
 10
-88.382516
 20
-45.61461
 30
0.0
 40
2.506361
210
0.0
220
0.0
230
1.0
100
AcDbArc
 50
270.001374
 51
359.998626
  0
LINE
  5
254
100
AcDbEntity
  8
0
390
0
  6
Continuous
 62
     7
100
AcDbLine
 10
-179.611795
 20
-48.120971
 30
0.0
 11
-88.382456
 21
-48.120971
 31
0.0
  0
ARC
  5
255
100
AcDbEntity
  8
0
390
0
  6
Continuous
 62
     7
100
AcDbCircle
 10
-179.611735
 20
-45.61461
 30
0.0
 40
2.506361
210
0.0
220
0.0
230
1.0
100
AcDbArc
 50
180.001374
 51
269.998626
  0
ARC
  5
256
100
AcDbEntity
  8
0
390
0
  6
Continuous
 62
     7
100
AcDbCircle
 10
-179.611735
 20
45.614609
 30
0.0
 40
2.506361
210
0.0
220
0.0
230
1.0
100
AcDbArc
 50
90.001374
 51
179.998626
  0
LINE
  5
257
100
AcDbEntity
  8
0
390
0
  6
Continuous
 62
     7
100
AcDbLine
 10
-83.997125
 20
45.499999
 30
0.0
 11
-83.997125
 21
-45.500001
 31
0.0
  0
ELLIPSE
  5
258
100
AcDbEntity
  8
0
390
0
  6
Continuous
 62
     7
100
AcDbEllipse
 10
-85.997125
 20
-45.500001
 30
0.0
 11
2.0000000000000018
 21
0.0
 31
0.0
210
0.0
220
0.0
230
1.0
 40
0.05744
 41
4.7729110033504094
 42
6.2831853071795862
  0
ELLIPSE
  5
259
100
AcDbEntity
  8
0
390
0
  6
Continuous
 62
     7
100
AcDbEllipse
 10
-85.997125
 20
45.499999
 30
0.0
 11
-2.0000000000000018
 21
0.0
 31
0.0
210
0.0
220
0.0
230
1.0
 40
0.05744
 41
3.1415926535897931
 42
4.6518669574189655
  0
ELLIPSE
  5
25A
100
AcDbEntity
  8
0
390
0
  6
Continuous
 62
     7
100
AcDbEllipse
 10
-179.497125
 20
47.999999
 30
0.0
 11
0.0
 21
-2.0000000000000018
 31
0.0
210
0.0
220
0.0
230
1.0
 40
0.05744
 41
3.1415926535897931
 42
4.6518669574189699
  0
LINE
  5
25B
100
AcDbEntity
  8
0
390
0
  6
Continuous
 62
     7
100
AcDbLine
 10
-179.497125
 20
49.999999
 30
0.0
 11
-88.497125
 21
49.999999
 31
0.0
  0
ELLIPSE
  5
25C
100
AcDbEntity
  8
0
390
0
  6
Continuous
 62
     7
100
AcDbEllipse
 10
-88.497125
 20
47.999999
 30
0.0
 11
0.0
 21
-2.0000000000000018
 31
0.0
210
0.0
220
0.0
230
0.9999999999999999
 40
0.05744
 41
1.6313183497606205
 42
3.1415926535897931
  0
LINE
  5
25D
100
AcDbEntity
  8
0
390
0
  6
Continuous
 62
     7
100
AcDbLine
 10
-88.497125
 20
-50.000001
 30
0.0
 11
-179.497125
 21
-50.000001
 31
0.0
  0
ELLIPSE
  5
25E
100
AcDbEntity
  8
0
390
0
  6
Continuous
 62
     7
100
AcDbEllipse
 10
-179.497125
 20
-48.000001
 30
0.0
 11
0.0
 21
-2.0000000000000018
 31
0.0
210
0.0
220
0.0
230
1.0
 40
0.05744
 41
4.7729110033504094
 42
6.2831853071795862
  0
ELLIPSE
  5
25F
100
AcDbEntity
  8
0
390
0
  6
Continuous
 62
     7
100
AcDbEllipse
 10
-88.497125
 20
-48.000001
 30
0.0
 11
0.0
 21
-2.0000000000000018
 31
0.0
210
0.0
220
0.0
230
0.9999999999999999
 40
0.05744
 41
0.0
 42
1.510274303829173
  0
LINE
  5
260
100
AcDbEntity
  8
0
390
0
  6
Continuous
 62
     7
100
AcDbLine
 10
-134.553397
 20
-21.815683
 30
0.0
 11
-134.553397
 21
-7.770228
 31
0.0
  0
LINE
  5
261
100
AcDbEntity
  8
0
390
0
  6
Continuous
 62
     7
100
AcDbLine
 10
-136.871579
 20
-21.815683
 30
0.0
 11
-134.553397
 21
-21.815683
 31
0.0
  0
LINE
  5
262
100
AcDbEntity
  8
0
390
0
  6
Continuous
 62
     7
100
AcDbLine
 10
-136.871579
 20
-11.861137
 30
0.0
 11
-136.871579
 21
-21.815683
 31
0.0
  0
LINE
  5
263
100
AcDbEntity
  8
0
390
0
  6
Continuous
 62
     7
100
AcDbLine
 10
-139.530669
 20
-11.861137
 30
0.0
 11
-136.871579
 21
-11.861137
 31
0.0
  0
LINE
  5
264
100
AcDbEntity
  8
0
390
0
  6
Continuous
 62
     7
100
AcDbLine
 10
-139.530669
 20
-10.156592
 30
0.0
 11
-139.530669
 21
-11.861137
 31
0.0
  0
LINE
  5
265
100
AcDbEntity
  8
0
390
0
  6
Continuous
 62
     7
100
AcDbLine
 10
-134.553397
 20
-7.770228
 30
0.0
 11
-136.462488
 21
-7.770228
 31
0.0
  0
ARC
  5
266
100
AcDbEntity
  8
0
390
0
  6
Continuous
 62
     7
100
AcDbCircle
 10
-139.117142
 20
-7.522685
 30
0.0
 40
2.666171
210
0.0
220
0.0
230
1.0
100
AcDbArc
 50
261.07731
 51
354.672657
  0
LINE
  5
267
100
AcDbEntity
  8
0
390
0
  6
Continuous
 62
     7
100
AcDbLine
 10
-123.185945
 20
7.498749
 30
0.0
 11
-117.92301
 21
7.498749
 31
0.0
  0
LINE
  5
268
100
AcDbEntity
  8
0
390
0
  6
Continuous
 62
     7
100
AcDbLine
 10
-122.304855
 20
9.679527
 30
0.0
 11
-123.185945
 21
7.498749
 31
0.0
  0
LINE
  5
269
100
AcDbEntity
  8
0
390
0
  6
Continuous
 62
     7
100
AcDbLine
 10
-120.174712
 20
9.679527
 30
0.0
 11
-122.304855
 21
9.679527
 31
0.0
  0
ARC
  5
26A
100
AcDbEntity
  8
0
390
0
  6
Continuous
 62
     7
100
AcDbCircle
 10
-120.17476
 20
13.014575
 30
0.0
 40
3.335048
210
0.0
220
0.0
230
1.0
100
AcDbArc
 50
270.000826
 51
359.999174
  0
LINE
  5
26B
100
AcDbEntity
  8
0
390
0
  6
Continuous
 62
     7
100
AcDbLine
 10
-116.839712
 20
22.49527
 30
0.0
 11
-116.839712
 21
13.014527
 31
0.0
  0
LINE
  5
26C
100
AcDbEntity
  8
0
390
0
  6
Continuous
 62
     7
100
AcDbLine
 10
-112.92051
 20
22.49527
 30
0.0
 11
-116.839712
 21
22.49527
 31
0.0
  0
LINE
  5
26D
100
AcDbEntity
  8
0
390
0
  6
Continuous
 62
     7
100
AcDbLine
 10
-112.92051
 20
12.501249
 30
0.0
 11
-112.92051
 21
22.49527
 31
0.0
  0
ARC
  5
26E
100
AcDbEntity
  8
0
390
0
  6
Continuous
 62
     7
100
AcDbCircle
 10
-117.923082
 20
12.501321
 30
0.0
 40
5.002572
210
0.0
220
0.0
230
1.0
100
AcDbArc
 50
270.000826
 51
359.999174
  0
LINE
  5
26F
100
AcDbEntity
  8
0
390
0
  6
Continuous
 62
     7
100
AcDbLine
 10
-132.859143
 20
7.498749
 30
0.0
 11
-138.91878
 21
22.49527
 31
0.0
  0
LINE
  5
270
100
AcDbEntity
  8
0
390
0
  6
Continuous
 62
     7
100
AcDbLine
 10
-136.734346
 20
7.498749
 30
0.0
 11
-132.859143
 21
7.498749
 31
0.0
  0
LINE
  5
271
100
AcDbEntity
  8
0
390
0
  6
Continuous
 62
     7
100
AcDbLine
 10
-142.793981
 20
22.49527
 30
0.0
 11
-136.734346
 21
7.498749
 31
0.0
  0
LINE
  5
272
100
AcDbEntity
  8
0
390
0
  6
Continuous
 62
     7
100
AcDbLine
 10
-138.91878
 20
22.49527
 30
0.0
 11
-142.793981
 21
22.49527
 31
0.0
  0
LINE
  5
273
100
AcDbEntity
  8
0
390
0
  6
Continuous
 62
     7
100
AcDbLine
 10
-131.220592
 20
19.935689
 30
0.0
 11
-133.158219
 21
15.139056
 31
0.0
  0
LINE
  5
274
100
AcDbEntity
  8
0
390
0
  6
Continuous
 62
     7
100
AcDbLine
 10
-128.022971
 20
12.021664
 30
0.0
 11
-131.220592
 21
19.935689
 31
0.0
  0
LINE
  5
275
100
AcDbEntity
  8
0
390
0
  6
Continuous
 62
     7
100
AcDbLine
 10
-123.790863
 20
22.49527
 30
0.0
 11
-128.022971
 21
12.021664
 31
0.0
  0
LINE
  5
276
100
AcDbEntity
  8
0
390
0
  6
Continuous
 62
     7
100
AcDbLine
 10
-119.915609
 20
22.49527
 30
0.0
 11
-123.790863
 21
22.49527
 31
0.0
  0
LINE
  5
277
100
AcDbEntity
  8
0
390
0
  6
Continuous
 62
     7
100
AcDbLine
 10
-125.974294
 20
7.498749
 30
0.0
 11
-119.915609
 21
22.49527
 31
0.0
  0
LINE
  5
278
100
AcDbEntity
  8
0
390
0
  6
Continuous
 62
     7
100
AcDbLine
 10
-133.158219
 20
15.139056
 30
0.0
 11
-130.070796
 21
7.498749
 31
0.0
  0
LINE
  5
279
100
AcDbEntity
  8
0
390
0
  6
Continuous
 62
     7
100
AcDbLine
 10
-130.070796
 20
7.498749
 30
0.0
 11
-125.974294
 21
7.498749
 31
0.0
  0
LINE
  5
27A
100
AcDbEntity
  8
0
390
0
  6
Continuous
 62
     7
100
AcDbLine
 10
-149.456504
 20
22.49527
 30
0.0
 11
-143.39772
 21
7.498749
 31
0.0
  0
LINE
  5
27B
100
AcDbEntity
  8
0
390
0
  6
Continuous
 62
     7
100
AcDbLine
 10
-145.58243
 20
22.49527
 30
0.0
 11
-149.456504
 21
22.49527
 31
0.0
  0
LINE
  5
27C
100
AcDbEntity
  8
0
390
0
  6
Continuous
 62
     7
100
AcDbLine
 10
-139.522793
 20
7.498749
 30
0.0
 11
-145.58243
 21
22.49527
 31
0.0
  0
LINE
  5
27D
100
AcDbEntity
  8
0
390
0
  6
Continuous
 62
     7
100
AcDbLine
 10
-143.39772
 20
7.498749
 30
0.0
 11
-139.522793
 21
7.498749
 31
0.0
  0
LINE
  5
27E
100
AcDbEntity
  8
0
390
0
  6
Continuous
 62
     7
100
AcDbLine
 10
-158.144306
 20
-22.429319
 30
0.0
 11
-143.212488
 21
-22.429319
 31
0.0
  0
LINE
  5
27F
100
AcDbEntity
  8
0
390
0
  6
Continuous
 62
     7
100
AcDbLine
 10
-158.144306
 20
-7.565683
 30
0.0
 11
-158.144306
 21
-22.429319
 31
0.0
  0
LINE
  5
280
100
AcDbEntity
  8
0
390
0
  6
Continuous
 62
     7
100
AcDbLine
 10
-143.212488
 20
-7.565683
 30
0.0
 11
-158.144306
 21
-7.565683
 31
0.0
  0
LINE
  5
281
100
AcDbEntity
  8
0
390
0
  6
Continuous
 62
     7
100
AcDbLine
 10
-143.212488
 20
-22.429319
 30
0.0
 11
-143.212488
 21
-7.565683
 31
0.0
  0
LINE
  5
282
100
AcDbEntity
  8
0
390
0
  6
Continuous
 62
     7
100
AcDbLine
 10
-156.098851
 20
-20.383865
 30
0.0
 11
-156.098851
 21
-9.542955
 31
0.0
  0
LINE
  5
283
100
AcDbEntity
  8
0
390
0
  6
Continuous
 62
     7
100
AcDbLine
 10
-145.257942
 20
-20.383865
 30
0.0
 11
-156.098851
 21
-20.383865
 31
0.0
  0
LINE
  5
284
100
AcDbEntity
  8
0
390
0
  6
Continuous
 62
     7
100
AcDbLine
 10
-145.257942
 20
-9.542955
 30
0.0
 11
-145.257942
 21
-20.383865
 31
0.0
  0
LINE
  5
285
100
AcDbEntity
  8
0
390
0
  6
Continuous
 62
     7
100
AcDbLine
 10
-156.098851
 20
-9.542955
 30
0.0
 11
-145.257942
 21
-9.542955
 31
0.0
  0
LINE
  5
286
100
AcDbEntity
  8
0
390
0
  6
Continuous
 62
     7
100
AcDbLine
 10
-151.30994
 20
7.498749
 30
0.0
 11
-149.909527
 21
10.962373
 31
0.0
  0
LINE
  5
287
100
AcDbEntity
  8
0
390
0
  6
Continuous
 62
     7
100
AcDbLine
 10
-155.184015
 20
7.498749
 30
0.0
 11
-151.30994
 21
7.498749
 31
0.0
  0
LINE
  5
288
100
AcDbEntity
  8
0
390
0
  6
Continuous
 62
     7
100
AcDbLine
 10
-150.641731
 20
18.742745
 30
0.0
 11
-155.184015
 21
7.498749
 31
0.0
  0
LINE
  5
289
100
AcDbEntity
  8
0
390
0
  6
Continuous
 62
     7
100
AcDbLine
 10
-147.49971
 20
10.962373
 30
0.0
 11
-150.641731
 21
18.742745
 31
0.0
  0
LINE
  5
28A
100
AcDbEntity
  8
0
390
0
  6
Continuous
 62
     7
100
AcDbLine
 10
-149.909527
 20
10.962373
 30
0.0
 11
-147.49971
 21
10.962373
 31
0.0
  0
ARC
  5
28B
100
AcDbEntity
  8
0
390
0
  6
Continuous
 62
     7
100
AcDbCircle
 10
-179.497125
 20
-45.500001
 30
0.0
 40
4.5
210
0.0
220
0.0
230
1.0
100
AcDbArc
 50
180.0
 51
270.0
  0
ARC
  5
28C
100
AcDbEntity
  8
0
390
0
  6
Continuous
 62
     7
100
AcDbCircle
 10
-88.497125
 20
45.499999
 30
0.0
 40
4.5
210
0.0
220
0.0
230
1.0
100
AcDbArc
 50
0.0
 51
90.0
  0
ARC
  5
28D
100
AcDbEntity
  8
0
390
0
  6
Continuous
 62
     7
100
AcDbCircle
 10
-179.497125
 20
45.499999
 30
0.0
 40
4.5
210
0.0
220
0.0
230
1.0
100
AcDbArc
 50
90.0
 51
180.0
  0
ARC
  5
28E
100
AcDbEntity
  8
0
390
0
  6
Continuous
 62
     7
100
AcDbCircle
 10
-88.49713
 20
-45.499996
 30
0.0
 40
4.500004
210
0.0
220
0.0
230
1.0
100
AcDbArc
 50
270.000057
 51
359.999943
  0
POINT
  5
28F
100
AcDbEntity
  8
0
390
0
 62
     7
100
AcDbPoint
 10
0.0
 20
0.0
 30
0.0
  0
POINT
  5
290
100
AcDbEntity
  8
0
390
0
 62
     7
100
AcDbPoint
 10
0.0
 20
0.0
 30
0.0
  0
ENDSEC
  0
SECTION
  2
OBJECTS
  0
DICTIONARY
  5
19
100
AcDbDictionary
280
     0
281
     1
  3
ACAD_GROUP
350
1A
  3
ACAD_MLINESTYLE
350
1B
  3
ACAD_LAYOUT
350
1E
  3
ACAD_PLOTSETTINGS
350
22
  3
ACAD_PLOTSTYLENAME
350
1F
  3
ACAD_WIPEOUT_VARS
350
23
  0
DICTIONARY
  5
1A
102
{ACAD_REACTORS
330
19
102
}
100
AcDbDictionary
280
     0
281
     1
  0
DICTIONARY
  5
1B
102
{ACAD_REACTORS
330
19
102
}
100
AcDbDictionary
280
     0
281
     1
  3
Standard
350
1C
  0
MLINESTYLE
  5
1C
102
{ACAD_REACTORS
330
1B
102
}
100
AcDbMlineStyle
  2
Standard
 70
     0
  3

 62
     0
 51
90.0
 52
90.0
 71
     2
 49
0.5
 62
   256
  6
ByLayer
 49
-0.5
 62
   256
  6
ByLayer
  0
ACDBDICTIONARYWDFLT
  5
1F
102
{ACAD_REACTORS
330
19
102
}
100
AcDbDictionary
281
     1
  3
Normal
350
1D
100
AcDbDictionaryWithDefault
340
1D
  0
ACDBPLACEHOLDER
  5
1D
102
{ACAD_REACTORS
330
1F
102
}
  0
LAYOUT
  5
20
102
{ACAD_REACTORS
330
1E
102
}
100
AcDbPlotSettings
  1

  2

  4

  6

 40
0.0
 41
0.0
 42
0.0
 43
0.0
 44
0.0
 45
0.0
 46
0.0
 47
0.0
 48
0.0
 49
0.0
140
0.0
141
0.0
142
1.0
143
1.0
 70
  1024
 72
     0
 73
     0
 74
     0
  7

 75
     0
147
1.0
148
0.0
149
0.0
100
AcDbLayout
  1
Model
 70
     0
 71
     1
 10
0.0
 20
0.0
 11
0.0
 21
0.0
 12
0.0
 22
0.0
 32
0.0
 14
0.0
 24
0.0
 34
0.0
 15
0.0
 25
0.0
 35
0.0
146
0.0
 13
0.0
 23
0.0
 33
0.0
 16
0.0
 26
0.0
 36
0.0
 17
0.0
 27
0.0
 37
0.0
 76
     0
330
A
331
0
345
0
346
0
  0
LAYOUT
  5
21
102
{ACAD_REACTORS
330
1E
102
}
100
AcDbPlotSettings
  1

  2

  4

  6

 40
0.0
 41
0.0
 42
0.0
 43
0.0
 44
0.0
 45
0.0
 46
0.0
 47
0.0
 48
0.0
 49
0.0
140
0.0
141
0.0
142
1.0
143
1.0
 70
     0
 72
     0
 73
     0
 74
     0
  7

 75
     0
147
1.0
148
0.0
149
0.0
100
AcDbLayout
  1
Layout1
 70
     0
 71
     2
 10
0.0
 20
0.0
 11
0.0
 21
0.0
 12
0.0
 22
0.0
 32
0.0
 14
0.0
 24
0.0
 34
0.0
 15
0.0
 25
0.0
 35
0.0
146
0.0
 13
0.0
 23
0.0
 33
0.0
 16
0.0
 26
0.0
 36
0.0
 17
0.0
 27
0.0
 37
0.0
 76
     0
330
B
331
0
345
0
346
0
  0
DICTIONARY
  5
1E
102
{ACAD_REACTORS
330
19
102
}
100
AcDbDictionary
280
     0
281
     1
  3
Layout1
350
21
  3
Model
350
20
  0
DICTIONARY
  5
22
102
{ACAD_REACTORS
330
19
102
}
100
AcDbDictionary
280
     0
281
     1
  0
WIPEOUTVARIABLES
  5
23
100
AcDbWipeoutVariables
 70
     1
  0
ENDSEC
  0
EOF
