  0
SECTION
  2
HEADER
  9
$ACADVER
  1
AC1015
  9
$ACADMAINTVER
 70
     6
  9
$DWGCODEPAGE
  3
DOS932
  9
$INSBASE
 10
0.0
 20
0.0
 30
0.0
  9
$EXTMIN
 10
-8.2
 20
-108.606518
 30
0.0
  9
$EXTMAX
 10
283.388993
 20
223.502693
 30
9.906
  9
$LIMMIN
 10
-8.2
 20
-108.606518
  9
$LIMMAX
 10
283.388993
 20
223.502693
  9
$ORTHOMODE
 70
     0
  9
$REGENMODE
 70
     1
  9
$FILLMODE
 70
     1
  9
$QTEXTMODE
 70
     0
  9
$MIRRTEXT
 70
     1
  9
$LTSCALE
 40
10.0
  9
$ATTMODE
 70
     1
  9
$TEXTSIZE
 40
0.2
  9
$TRACEWID
 40
0.05
  9
$TEXTSTYLE
  7
Standard
  9
$CLAYER
  8
0
  9
$CELTYPE
  6
Continuous
  9
$CECOLOR
 62
   256
  9
$CELTSCALE
 40
1.0
  9
$DISPSILH
 70
     0
  9
$DIMSCALE
 40
1.0
  9
$DIMASZ
 40
1.40208
  9
$DIMEXO
 40
1.40208
  9
$DIMDLI
 40
0.38
  9
$DIMRND
 40
0.0
  9
$DIMDLE
 40
0.0
  9
$DIMEXE
 40
1.05156
  9
$DIMTP
 40
0.0
  9
$DIMTM
 40
0.0
  9
$DIMTXT
 40
3.5052
  9
$DIMCEN
 40
0.09
  9
$DIMTSZ
 40
0.0
  9
$DIMTOL
 70
     0
  9
$DIMLIM
 70
     0
  9
$DIMTIH
 70
     0
  9
$DIMTOH
 70
     0
  9
$DIMSE1
 70
     0
  9
$DIMSE2
 70
     0
  9
$DIMTAD
 70
     1
  9
$DIMZIN
 70
     0
  9
$DIMBLK
  1

  9
$DIMASO
 70
     1
  9
$DIMSHO
 70
     1
  9
$DIMPOST
  1

  9
$DIMAPOST
  1

  9
$DIMALT
 70
     0
  9
$DIMALTD
 70
     2
  9
$DIMALTF
 40
25.4
  9
$DIMLFAC
 40
1.0
  9
$DIMTOFL
 70
     0
  9
$DIMTVP
 40
0.0
  9
$DIMTIX
 70
     0
  9
$DIMSOXD
 70
     0
  9
$DIMSAH
 70
     0
  9
$DIMBLK1
  1

  9
$DIMBLK2
  1

  9
$DIMSTYLE
  2
Standard
  9
$DIMCLRD
 70
     7
  9
$DIMCLRE
 70
     7
  9
$DIMCLRT
 70
     7
  9
$DIMTFAC
 40
0.5
  9
$DIMGAP
 40
1.7526
  9
$DIMJUST
 70
     0
  9
$DIMSD1
 70
     0
  9
$DIMSD2
 70
     0
  9
$DIMTOLJ
 70
     1
  9
$DIMTZIN
 70
     0
  9
$DIMALTZ
 70
     0
  9
$DIMALTTZ
 70
     0
  9
$DIMUPT
 70
     0
  9
$DIMDEC
 70
     2
  9
$DIMTDEC
 70
     4
  9
$DIMALTU
 70
     2
  9
$DIMALTTD
 70
     2
  9
$DIMTXSTY
  7
Standard
  9
$DIMAUNIT
 70
     0
  9
$DIMADEC
 70
     0
  9
$DIMALTRND
 40
0.0
  9
$DIMAZIN
 70
     0
  9
$DIMDSEP
 70
     0
  9
$DIMATFIT
 70
     3
  9
$DIMFRAC
 70
     0
  9
$DIMLDRBLK
  1

  9
$DIMLUNIT
 70
     2
  9
$DIMLWD
 70
     0
  9
$DIMLWE
 70
     0
  9
$DIMTMOVE
 70
     0
  9
$LUNITS
 70
     2
  9
$LUPREC
 70
     4
  9
$SKETCHINC
 40
0.1
  9
$FILLETRAD
 40
0.0
  9
$AUNITS
 70
     0
  9
$AUPREC
 70
     0
  9
$MENU
  1
acad
  9
$ELEVATION
 40
0.0
  9
$PELEVATION
 40
0.0
  9
$THICKNESS
 40
0.0
  9
$LIMCHECK
 70
     0
  9
$CHAMFERA
 40
0.0
  9
$CHAMFERB
 40
0.0
  9
$CHAMFERC
 40
0.0
  9
$CHAMFERD
 40
0.0
  9
$SKPOLY
 70
     0
  9
$TDCREATE
 40
2459781.551875000
  9
$TDUCREATE
 40
0.000000000
  9
$TDUPDATE
 40
2459781.176828704
  9
$TDUUPDATE
 40
0.000000000
  9
$TDINDWG
 40
0.0000000000
  9
$TDUSRTIMER
 40
0.0000000000
  9
$USRTIMER
 70
     1
  9
$ANGBASE
 50
0.0
  9
$ANGDIR
 70
     0
  9
$PDMODE
 70
     0
  9
$PDSIZE
 40
0.0
  9
$PLINEWID
 40
0.0
  9
$SPLFRAME
 70
     0
  9
$SPLINETYPE
 70
     6
  9
$SPLINESEGS
 70
     8
  9
$HANDSEED
  5
113
  9
$SURFTAB1
 70
     6
  9
$SURFTAB2
 70
     6
  9
$SURFTYPE
 70
     6
  9
$SURFU
 70
     6
  9
$SURFV
 70
     6
  9
$UCSBASE
  2

  9
$UCSNAME
  2

  9
$UCSORG
 10
0.0
 20
0.0
 30
0.0
  9
$UCSXDIR
 10
1.0
 20
0.0
 30
0.0
  9
$UCSYDIR
 10
0.0
 20
1.0
 30
0.0
  9
$UCSORTHOREF
  2

  9
$UCSORTHOVIEW
 70
     0
  9
$UCSORGTOP
 10
0.0
 20
0.0
 30
0.0
  9
$UCSORGBOTTOM
 10
0.0
 20
0.0
 30
0.0
  9
$UCSORGLEFT
 10
0.0
 20
0.0
 30
0.0
  9
$UCSORGRIGHT
 10
0.0
 20
0.0
 30
0.0
  9
$UCSORGFRONT
 10
0.0
 20
0.0
 30
0.0
  9
$UCSORGBACK
 10
0.0
 20
0.0
 30
0.0
  9
$PUCSBASE
  2

  9
$PUCSNAME
  2

  9
$PUCSORG
 10
0.0
 20
0.0
 30
0.0
  9
$PUCSXDIR
 10
1.0
 20
0.0
 30
0.0
  9
$PUCSYDIR
 10
0.0
 20
1.0
 30
0.0
  9
$PUCSORTHOREF
  2

  9
$PUCSORTHOVIEW
 70
     0
  9
$PUCSORGTOP
 10
0.0
 20
0.0
 30
0.0
  9
$PUCSORGBOTTOM
 10
0.0
 20
0.0
 30
0.0
  9
$PUCSORGLEFT
 10
0.0
 20
0.0
 30
0.0
  9
$PUCSORGRIGHT
 10
0.0
 20
0.0
 30
0.0
  9
$PUCSORGFRONT
 10
0.0
 20
0.0
 30
0.0
  9
$PUCSORGBACK
 10
0.0
 20
0.0
 30
0.0
  9
$USERI1
 70
     0
  9
$USERI2
 70
     0
  9
$USERI3
 70
     0
  9
$USERI4
 70
     0
  9
$USERI5
 70
     0
  9
$USERR1
 40
0.0
  9
$USERR2
 40
0.0
  9
$USERR3
 40
0.0
  9
$USERR4
 40
0.0
  9
$USERR5
 40
0.0
  9
$WORLDVIEW
 70
     1
  9
$SHADEDGE
 70
     3
  9
$SHADEDIF
 70
    70
  9
$TILEMODE
 70
     1
  9
$MAXACTVP
 70
    16
  9
$PINSBASE
 10
0.0
 20
0.0
 30
0.0
  9
$PLIMCHECK
 70
     0
  9
$PEXTMIN
 10
1.000000E+20
 20
1.000000E+20
 30
1.000000E+20
  9
$PEXTMAX
 10
-1.000000E+20
 20
-1.000000E+20
 30
-1.000000E+20
  9
$PLIMMIN
 10
0.0
 20
0.0
  9
$PLIMMAX
 10
12.0
 20
9.0
  9
$UNITMODE
 70
     0
  9
$VISRETAIN
 70
     0
  9
$PLINEGEN
 70
     1
  9
$PSLTSCALE
 70
     0
  9
$TREEDEPTH
 70
  3020
  9
$CMLSTYLE
  2
Standard
  9
$CMLJUST
 70
     0
  9
$CMLSCALE
 40
1.0
  9
$PROXYGRAPHICS
 70
     0
  9
$MEASUREMENT
 70
     0
  9
$CELWEIGHT
370
     0
  9
$ENDCAPS
280
     0
  9
$JOINSTYLE
280
     0
  9
$LWDISPLAY
290
     0
  9
$INSUNITS
 70
     0
  9
$HYPERLINKBASE
  1

  9
$STYLESHEET
  1

  9
$XEDIT
290
     1
  9
$CEPSNTYPE
380
     0
  9
$PSTYLEMODE
290
     1
  9
$FINGERPRINTGUID
  2

  9
$VERSIONGUID
  2

  9
$EXTNAMES
290
     1
  9
$PSVPSCALE
 40
0.0
  0
ENDSEC
  0
SECTION
  2
CLASSES
  0
CLASS
  1
LWPOLYLINE
  2
AcDbPolyline
  3
AutoCAD 2000
 90
        0
280
     0
281
     1
  0
CLASS
  1
IMAGE
  2
AcDbRasterImage
  3
ISM
 90
      127
280
     0
281
     1
  0
CLASS
  1
OLE2FRAME
  2
AcDbOle2Frame
  3
AutoCAD 2000
 90
        0
280
     0
281
     1
  0
CLASS
  1
HATCH
  2
AcDbHatch
  3
AutoCAD 2000
 90
        0
280
     0
281
     1
  0
CLASS
  1
DICTIONARYVAR
  2
AcDbDictionaryVar
  3
AutoCAD 2000
 90
        0
280
     0
281
     0
  0
CLASS
  1
RASTERVARIABLES
  2
AcDbRasterVariables
  3
ISM
 90
        0
280
     0
281
     0
  0
CLASS
  1
IMAGEDEF
  2
AcDbRasterImageDef
  3
ISM
 90
        0
280
     0
281
     0
  0
CLASS
  1
IMAGEDEF_REACTOR
  2
AcDbRasterImageDefReactor
  3
ISM
 90
        1
280
     0
281
     0
  0
CLASS
  1
IDBUFFER
  2
AcDbIdBuffer
  3
AutoCAD 2000
 90
        0
280
     0
281
     0
  0
CLASS
  1
SPATIAL_FILTER
  2
AcDbSpatialFilter
  3
AutoCAD 2000
 90
        0
280
     0
281
     0
  0
CLASS
  1
XRECORD
  2
AcDbXrecord
  3
AutoCAD 2000
 90
        0
280
     0
281
     0
  0
CLASS
  1
SORTENTSTABLE
  2
AcDbSortentsTable
  3
AutoCAD 2000
 90
        0
280
     0
281
     0
  0
CLASS
  1
LAYER_INDEX
  2
AcDbLayerIndex
  3
AutoCAD 2000
 90
        0
280
     0
281
     0
  0
CLASS
  1
SPATIAL_INDEX
  2
AcDbSpatialIndex
  3
AutoCAD 2000
 90
        0
280
     0
281
     0
  0
CLASS
  1
OBJECT_PTR
  2
CAseDLPNTableRecord
  3
"ASE-LPNTableRecord"
 90
        1
280
     0
281
     0
  0
CLASS
  1
LAYOUT
  2
AcDbLayout
  3
AutoCAD 2000
 90
        0
280
     0
281
     0
  0
CLASS
  1
PLOTSETTINGS
  2
AcDbPlotSettings
  3
AutoCAD 2000
 90
        0
280
     0
281
     0
  0
CLASS
  1
ACDBDICTIONARYWDFLT
  2
AcDbDictionaryWithDefault
  3
AutoCAD 2000
 90
        0
280
     0
281
     0
  0
CLASS
  1
ACDBPLACEHOLDER
  2
AcDbPlaceHolder
  3
AutoCAD 2000
 90
        0
280
     0
281
     0
  0
CLASS
  1
VBA_PROJECT
  2
AcDbVbaProject
  3
acadvba
 90
        0
280
     0
281
     0
  0
CLASS
  1
WIPEOUT
  2
AcDbWipeout
  3
WipeOut|AutoCAD Express Tool|expresstools@autodesk.com
 90
      127
280
     0
281
     1
  0
CLASS
  1
WIPEOUTVARIABLES
  2
AcDbWipeoutVariables
  3
WipeOut|AutoCAD Express Tool|expresstools@autodesk.com
 90
        0
280
     0
281
     0
  0
CLASS
  1
RTEXT
  2
RText
  3
RText|AutoCAD Express Tool|expresstools@autodesk.com
 90
        0
280
     0
281
     1
  0
CLASS
  1
ARCALIGNEDTEXT
  2
AcDbArcAlignedText
  3
ATEXT|AutoCAD Express Tool|expresstools@autodesk.com
 90
        0
280
     0
281
     1
  0
ENDSEC
  0
SECTION
  2
TABLES
  0
TABLE
  2
VPORT
  5
7
100
AcDbSymbolTable
 70
     1
  0
VPORT
  5
15
100
AcDbSymbolTableRecord
100
AcDbViewportTableRecord
  2
*ACTIVE
 70
     0
 10
0.0
 20
0.0
 11
1.0
 21
1.0
 12
6.591288
 22
4.579184
 13
0.0
 23
0.0
 14
1.0
 24
1.0
 15
0.0
 25
0.0
 16
0.0
 26
0.0
 36
1.0
 17
0.0
 27
0.0
 37
0.0
 40
9.158369
 41
0.688564
 42
50.0
 43
0.0
 44
0.0
 50
0.0
 51
0.0
 71
     0
 72
   100
 73
     1
 74
     1
 75
     0
 76
     0
 77
     0
 78
     0
281
     0
 65
     0
110
0.0
120
0.0
130
0.0
111
1.0
121
0.0
131
0.0
112
0.0
122
1.0
132
0.0
345
0
346
0
 79
     0
146
0.0
  0
ENDTAB
  0
TABLE
  2
LTYPE
  5
4
100
AcDbSymbolTable
 70
     3
  0
LTYPE
  5
11
100
AcDbSymbolTableRecord
100
AcDbLinetypeTableRecord
  2
ByBlock
 70
    64
  3

 72
    65
 73
     0
 40
0.0
  0
LTYPE
  5
12
100
AcDbSymbolTableRecord
100
AcDbLinetypeTableRecord
  2
ByLayer
 70
    64
  3

 72
    65
 73
     0
 40
0.0
  0
LTYPE
  5
13
100
AcDbSymbolTableRecord
100
AcDbLinetypeTableRecord
  2
Continuous
 70
    64
  3
Solid line
 72
    65
 73
     0
 40
0.0
  0
ENDTAB
  0
TABLE
  2
LAYER
  5
2
100
AcDbSymbolTable
 70
     1
  0
LAYER
  5
14
100
AcDbSymbolTableRecord
100
AcDbLayerTableRecord
  2
0
 70
     0
 62
     7
  6
Continuous
290
     1
370
    -3
390
1D
  0
ENDTAB
  0
TABLE
  2
STYLE
  5
3
100
AcDbSymbolTable
 70
     1
  0
STYLE
  5
17
100
AcDbSymbolTableRecord
100
AcDbTextStyleTableRecord
  2
Standard
 70
     0
 40
0.0
 41
1.0
 50
0.0
 71
     0
 42
0.0
  3
FG教科書体NT-M
  4

1001
ACAD
1000
FG教科書体NT-M
1071
        0
  0
ENDTAB
  0
TABLE
  2
VIEW
  5
5
100
AcDbSymbolTable
 70
     0
  0
ENDTAB
  0
TABLE
  2
UCS
  5
6
100
AcDbSymbolTable
 70
     0
  0
ENDTAB
  0
TABLE
  2
APPID
  5
8
100
AcDbSymbolTable
 70
     2
  0
APPID
  5
16
100
AcDbSymbolTableRecord
100
AcDbRegAppTableRecord
  2
ACAD
 70
     0
  0
APPID
  5
26
100
AcDbSymbolTableRecord
100
AcDbRegAppTableRecord
  2
TOPsolid_Design
 70
     0
  0
ENDTAB
  0
TABLE
  2
DIMSTYLE
  5
9
100
AcDbSymbolTable
 70
     1
100
AcDbDimStyleTable
 71
     0
  0
DIMSTYLE
105
18
100
AcDbSymbolTableRecord
100
AcDbDimStyleTableRecord
  2
Standard
 70
     0
  3

  4

 40
1.0
 41
1.40208
 42
1.40208
 43
0.38
 44
1.05156
 45
0.0
 46
0.0
 47
0.0
 48
0.0
 71
     0
 72
     0
 73
     0
 74
     0
 75
     0
 76
     0
 77
     1
 78
     0
 79
     0
140
3.5052
141
0.09
142
0.0
143
25.4
144
1.0
145
0.0
146
0.5
147
1.7526
148
0.0
170
     0
171
     2
172
     0
173
     0
174
     0
175
     0
176
     7
177
     7
178
     7
179
     0
271
     2
272
     4
273
     2
274
     2
275
     0
276
     0
277
     2
278
    46
279
     0
280
     0
281
     0
282
     0
283
     1
284
     0
285
     0
286
     0
288
     0
289
     3
340
17
341
0
342
0
343
0
344
0
371
    -2
372
    -2
  0
ENDTAB
  0
TABLE
  2
BLOCK_RECORD
  5
1
100
AcDbSymbolTable
 70
     0
  0
BLOCK_RECORD
  5
A
100
AcDbSymbolTableRecord
100
AcDbBlockTableRecord
  2
*MODEL_SPACE
340
20
  0
BLOCK_RECORD
  5
B
100
AcDbSymbolTableRecord
100
AcDbBlockTableRecord
  2
*PAPER_SPACE
340
21
  0
ENDTAB
  0
ENDSEC
  0
SECTION
  2
BLOCKS
  0
BLOCK
  5
D
100
AcDbEntity
  8
0
390
0
100
AcDbBlockBegin
  2
*MODEL_SPACE
 70
     0
 10
0.0
 20
0.0
 30
0.0
  3
*MODEL_SPACE
  1

  0
ENDBLK
  5
E
100
AcDbEntity
  8
0
390
0
100
AcDbBlockEnd
  0
BLOCK
  5
F
100
AcDbEntity
 67
     1
  8
0
390
0
100
AcDbBlockBegin
  2
*PAPER_SPACE
 70
     0
 10
0.0
 20
0.0
 30
0.0
  3
*PAPER_SPACE
  1

  0
ENDBLK
  5
10
100
AcDbEntity
 67
     1
  8
0
390
0
100
AcDbBlockEnd
  0
ENDSEC
  0
SECTION
  2
ENTITIES
  0
LINE
  5
27
100
AcDbEntity
  8
0
390
0
  6
Continuous
 62
     7
100
AcDbLine
 10
6.0
 20
-5.589276
 30
0.0
 11
6.0
 21
0.0
 31
0.0
  0
ARC
  5
28
100
AcDbEntity
  8
0
390
0
  6
Continuous
 62
     7
100
AcDbCircle
 10
0.0
 20
0.0
 30
0.0
 40
8.2
210
0.0
220
0.0
230
1.0
100
AcDbArc
 50
286.842096
 51
317.029716
  0
LINE
  5
29
100
AcDbEntity
  8
0
390
0
  6
Continuous
 62
     7
100
AcDbLine
 10
1.234597
 20
-5.871608
 30
0.0
 11
2.375828
 21
-7.848277
 31
0.0
  0
ARC
  5
2A
100
AcDbEntity
  8
0
390
0
  6
Continuous
 62
     7
100
AcDbCircle
 10
0.0
 20
0.0
 30
0.0
 40
6.0
210
0.0
220
0.0
230
1.0
100
AcDbArc
 50
281.874354
 51
360.0
  0
LINE
  5
2B
100
AcDbEntity
  8
0
390
0
  6
Continuous
 62
     7
100
AcDbLine
 10
-6.0
 20
-5.589276
 30
0.0
 11
-6.0
 21
0.0
 31
0.0
  0
ARC
  5
2C
100
AcDbEntity
  8
0
390
0
  6
Continuous
 62
     7
100
AcDbCircle
 10
0.0
 20
0.0
 30
0.0
 40
6.0
210
0.0
220
0.0
230
1.0
100
AcDbArc
 50
180.0
 51
258.125646
  0
LINE
  5
2D
100
AcDbEntity
  8
0
390
0
  6
Continuous
 62
     7
100
AcDbLine
 10
-2.375827
 20
-7.848277
 30
0.0
 11
-1.234597
 21
-5.871608
 31
0.0
  0
ARC
  5
2E
100
AcDbEntity
  8
0
390
0
  6
Continuous
 62
     7
100
AcDbCircle
 10
0.0
 20
0.0
 30
0.0
 40
8.2
210
0.0
220
0.0
230
1.0
100
AcDbArc
 50
222.970284
 51
253.157904
  0
ARC
  5
2F
100
AcDbEntity
  8
0
390
0
  6
Continuous
 62
     7
100
AcDbCircle
 10
0.0
 20
0.0
 30
0.0
 40
6.0
210
0.0
220
0.0
230
1.0
100
AcDbArc
 50
0.0
 51
180.0
  0
ARC
  5
30
100
AcDbEntity
  8
0
390
0
  6
Continuous
 62
     7
100
AcDbCircle
 10
0.0
 20
0.0
 30
0.0
 40
8.2
210
0.0
220
0.0
230
1.0
100
AcDbArc
 50
317.029716
 51
222.970284
  0
LINE
  5
31
100
AcDbEntity
  8
0
390
0
  6
Continuous
 62
     7
100
AcDbLine
 10
2.152587
 20
-7.912419
 30
0.0
 11
1.0
 21
-5.91608
 31
0.0
  0
LINE
  5
32
100
AcDbEntity
  8
0
390
0
  6
Continuous
 62
     7
100
AcDbLine
 10
1.0
 20
-5.91608
 30
0.0
 11
1.234597
 21
-5.871608
 31
0.0
  0
LINE
  5
33
100
AcDbEntity
  8
0
390
0
  6
Continuous
 62
     7
100
AcDbLine
 10
2.375828
 20
-7.848277
 30
0.0
 11
2.152587
 21
-7.912419
 31
0.0
  0
LINE
  5
34
100
AcDbEntity
  8
0
390
0
  6
Continuous
 62
     7
100
AcDbLine
 10
-1.0
 20
-5.91608
 30
0.0
 11
-2.152587
 21
-7.912419
 31
0.0
  0
LINE
  5
35
100
AcDbEntity
  8
0
390
0
  6
Continuous
 62
     7
100
AcDbLine
 10
-1.234597
 20
-5.871608
 30
0.0
 11
-1.0
 21
-5.91608
 31
0.0
  0
LINE
  5
36
100
AcDbEntity
  8
0
390
0
  6
Continuous
 62
     7
100
AcDbLine
 10
-2.152587
 20
-7.912419
 30
0.0
 11
-2.375827
 21
-7.848277
 31
0.0
  0
LINE
  5
37
100
AcDbEntity
  8
0
390
0
  6
Continuous
 62
     7
100
AcDbLine
 10
8.2
 20
-107.606518
 30
0.0
 11
3.303162
 21
-107.606518
 31
0.0
  0
LINE
  5
38
100
AcDbEntity
  8
0
390
0
  6
Continuous
 62
     7
100
AcDbLine
 10
8.2
 20
-69.606518
 30
0.0
 11
6.518552
 21
-69.606518
 31
0.0
  0
LINE
  5
39
100
AcDbEntity
  8
0
390
0
  6
Continuous
 62
     7
100
AcDbLine
 10
8.2
 20
-108.606518
 30
0.0
 11
2.152587
 21
-108.606518
 31
0.0
  0
LINE
  5
3A
100
AcDbEntity
  8
0
390
0
  6
Continuous
 62
     7
100
AcDbLine
 10
8.2
 20
-68.606518
 30
0.0
 11
6.0
 21
-68.606518
 31
0.0
  0
LINE
  5
3B
100
AcDbEntity
  8
0
390
0
  6
Continuous
 62
     7
100
AcDbLine
 10
3.303162
 20
-107.606518
 30
0.0
 11
3.303162
 21
-75.253058
 31
0.0
  0
LINE
  5
3C
100
AcDbEntity
  8
0
390
0
  6
Continuous
 62
     7
100
AcDbLine
 10
-3.303162
 20
-107.606518
 30
0.0
 11
-8.2
 21
-107.606518
 31
0.0
  0
LINE
  5
3D
100
AcDbEntity
  8
0
390
0
  6
Continuous
 62
     7
100
AcDbLine
 10
-3.303162
 20
-107.606518
 30
0.0
 11
-3.303162
 21
-75.253058
 31
0.0
  0
LINE
  5
3E
100
AcDbEntity
  8
0
390
0
  6
Continuous
 62
     7
100
AcDbLine
 10
-6.518552
 20
-69.606518
 30
0.0
 11
-3.303162
 21
-75.253058
 31
0.0
  0
LINE
  5
3F
100
AcDbEntity
  8
0
390
0
  6
Continuous
 62
     7
100
AcDbLine
 10
-6.518552
 20
-69.606518
 30
0.0
 11
-8.2
 21
-69.606518
 31
0.0
  0
LINE
  5
40
100
AcDbEntity
  8
0
390
0
  6
Continuous
 62
     7
100
AcDbLine
 10
3.303162
 20
-75.253058
 30
0.0
 11
6.518552
 21
-69.606518
 31
0.0
  0
LINE
  5
41
100
AcDbEntity
  8
0
390
0
  6
Continuous
 62
     7
100
AcDbLine
 10
-2.152587
 20
-108.606518
 30
0.0
 11
-8.2
 21
-108.606518
 31
0.0
  0
LINE
  5
42
100
AcDbEntity
  8
0
390
0
  6
Continuous
 62
     7
100
AcDbLine
 10
2.152587
 20
-108.606518
 30
0.0
 11
2.152587
 21
-76.805362
 31
0.0
  0
ARC
  5
43
100
AcDbEntity
  8
0
390
0
  6
Continuous
 62
     7
100
AcDbCircle
 10
4.318689
 20
-76.812643
 30
0.0
 40
2.166114
210
0.0
220
0.0
230
1.0
100
AcDbArc
 50
153.757919
 51
179.807423
  0
LINE
  5
44
100
AcDbEntity
  8
0
390
0
  6
Continuous
 62
     7
100
AcDbLine
 10
2.375828
 20
-75.854863
 30
0.0
 11
6.0
 21
-68.606518
 31
0.0
  0
LINE
  5
45
100
AcDbEntity
  8
0
390
0
  6
Continuous
 62
     7
100
AcDbLine
 10
-6.0
 20
-68.606518
 30
0.0
 11
-8.2
 21
-68.606518
 31
0.0
  0
LINE
  5
46
100
AcDbEntity
  8
0
390
0
  6
Continuous
 62
     7
100
AcDbLine
 10
-6.0
 20
-68.606518
 30
0.0
 11
-2.375827
 21
-75.854863
 31
0.0
  0
ARC
  5
47
100
AcDbEntity
  8
0
390
0
  6
Continuous
 62
     7
100
AcDbCircle
 10
-4.317852
 20
-76.812446
 30
0.0
 40
2.165277
210
0.0
220
0.0
230
1.0
100
AcDbArc
 50
0.187453
 51
26.247205
  0
LINE
  5
48
100
AcDbEntity
  8
0
390
0
  6
Continuous
 62
     7
100
AcDbLine
 10
-2.152587
 20
-108.606518
 30
0.0
 11
-2.152587
 21
-76.805362
 31
0.0
  0
LINE
  5
49
100
AcDbEntity
  8
0
390
0
  6
Continuous
 62
     7
100
AcDbLine
 10
-2.375827
 20
-75.854863
 30
0.0
 11
-1.234597
 21
-78.137324
 31
0.0
  0
ARC
  5
4A
100
AcDbEntity
  8
0
390
0
  6
Continuous
 62
     7
100
AcDbCircle
 10
-3.219843
 20
-79.130758
 30
0.0
 40
2.219935
210
0.0
220
0.0
230
1.0
100
AcDbArc
 50
0.52194
 51
26.583765
  0
LINE
  5
4B
100
AcDbEntity
  8
0
390
0
  6
Continuous
 62
     7
100
AcDbLine
 10
-1.0
 20
-79.110536
 30
0.0
 11
-2.152587
 21
-76.805362
 31
0.0
  0
LINE
  5
4C
100
AcDbEntity
  8
0
390
0
  6
Continuous
 62
     7
100
AcDbLine
 10
1.234597
 20
-78.137324
 30
0.0
 11
2.375828
 21
-75.854863
 31
0.0
  0
LINE
  5
4D
100
AcDbEntity
  8
0
390
0
  6
Continuous
 62
     7
100
AcDbLine
 10
2.152587
 20
-76.805362
 30
0.0
 11
1.0
 21
-79.110536
 31
0.0
  0
ARC
  5
4E
100
AcDbEntity
  8
0
390
0
  6
Continuous
 62
     7
100
AcDbCircle
 10
3.226164
 20
-79.132282
 30
0.0
 40
2.22627
210
0.0
220
0.0
230
1.0
100
AcDbArc
 50
153.453963
 51
179.440332
  0
LINE
  5
4F
100
AcDbEntity
  8
0
390
0
  6
Continuous
 62
     7
100
AcDbLine
 10
2.152587
 20
-108.606518
 30
0.0
 11
1.0
 21
-108.606518
 31
0.0
  0
LINE
  5
50
100
AcDbEntity
  8
0
390
0
  6
Continuous
 62
     7
100
AcDbLine
 10
1.0
 20
-108.606518
 30
0.0
 11
1.0
 21
-79.110536
 31
0.0
  0
LINE
  5
51
100
AcDbEntity
  8
0
390
0
  6
Continuous
 62
     7
100
AcDbLine
 10
-1.0
 20
-108.606518
 30
0.0
 11
-1.0
 21
-79.110536
 31
0.0
  0
LINE
  5
52
100
AcDbEntity
  8
0
390
0
  6
Continuous
 62
     7
100
AcDbLine
 10
-1.0
 20
-108.606518
 30
0.0
 11
-2.152587
 21
-108.606518
 31
0.0
  0
LINE
  5
53
100
AcDbEntity
  8
0
390
0
  6
Continuous
 62
     7
100
AcDbLine
 10
-3.303162
 20
-76.683477
 30
0.0
 11
-6.841641
 21
-69.606518
 31
0.0
  0
LINE
  5
54
100
AcDbEntity
  8
0
390
0
  6
Continuous
 62
     7
100
AcDbLine
 10
6.841641
 20
-69.606518
 30
0.0
 11
3.303162
 21
-76.683477
 31
0.0
  0
ELLIPSE
  5
55
100
AcDbEntity
  8
0
390
0
  6
Continuous
 62
     7
100
AcDbEllipse
 10
0.0
 20
-86.885857
 30
0.0
 11
-7.1999999999999842
 21
0.0
 31
0.0
210
0.0
220
0.0
230
1.0
 40
0.404069
 41
2.8237689496619147
 42
3.1415926535897927
  0
ELLIPSE
  5
56
100
AcDbEntity
  8
0
390
0
  6
Continuous
 62
     7
100
AcDbEllipse
 10
0.0
 20
-84.887972
 30
0.0
 11
-7.2000000000000117
 21
0.0
 31
0.0
210
0.0
220
0.0
230
1.0
 40
0.404013
 41
2.8237689496619147
 42
3.1415926535897927
  0
LINE
  5
57
100
AcDbEntity
  8
0
390
0
  6
Continuous
 62
     7
100
AcDbLine
 10
7.097354
 20
-83.844434
 30
0.0
 11
7.097354
 21
-84.567018
 31
0.0
  0
LINE
  5
58
100
AcDbEntity
  8
0
390
0
  6
Continuous
 62
     7
100
AcDbLine
 10
6.839408
 20
-82.262878
 30
0.0
 11
6.839408
 21
-83.42452
 31
0.0
  0
ELLIPSE
  5
59
100
AcDbEntity
  8
0
390
0
  6
Continuous
 62
     7
100
AcDbEllipse
 10
0.0
 20
-84.334241
 30
0.0
 11
-7.2000000000000117
 21
0.0
 31
0.0
210
0.0
220
0.0
230
1.0
 40
0.40432
 41
3.3106512532930994
 42
3.4594163575176711
  0
LINE
  5
5A
100
AcDbEntity
  8
0
390
0
  6
Continuous
 62
     7
100
AcDbLine
 10
6.839408
 20
-87.795013
 30
0.0
 11
6.839408
 21
-88.956993
 31
0.0
  0
LINE
  5
5B
100
AcDbEntity
  8
0
390
0
  6
Continuous
 62
     7
100
AcDbLine
 10
6.839408
 20
-91.857502
 30
0.0
 11
6.839408
 21
-93.435593
 31
0.0
  0
POLYLINE
  5
5C
100
AcDbEntity
  8
0
390
0
  6
Continuous
 62
     7
100
AcDb2dPolyline
 66
     1
 10
0.0
 20
0.0
 30
0.0
 40
0.1
 41
0.1
  0
VERTEX
  5
5D
100
AcDbEntity
  8
0
390
0
 62
     7
100
AcDbVertex
100
AcDb2dVertex
 10
6.839408
 20
-93.435593
 30
0.0
 42
0.092902
  0
VERTEX
  5
5E
100
AcDbEntity
  8
0
390
0
 62
     7
100
AcDbVertex
100
AcDb2dVertex
 10
7.081134
 20
-94.829957
 30
0.0
  0
VERTEX
  5
5F
100
AcDbEntity
  8
0
390
0
 62
     7
100
AcDbVertex
100
AcDb2dVertex
 10
7.134075
 20
-94.919224
 30
0.0
  0
VERTEX
  5
60
100
AcDbEntity
  8
0
390
0
 62
     7
100
AcDbVertex
100
AcDb2dVertex
 10
7.160831
 20
-94.935593
 30
0.0
  0
SEQEND
  5
61
100
AcDbEntity
  8
0
390
0
  0
ELLIPSE
  5
62
100
AcDbEntity
  8
0
390
0
  6
Continuous
 62
     7
100
AcDbEllipse
 10
0.0
 20
-88.883862
 30
0.0
 11
-7.2000000000000117
 21
0.0
 31
0.0
210
0.0
220
0.0
230
1.0
 40
0.404097
 41
2.8237689496619147
 42
3.1472797675797191
  0
LINE
  5
63
100
AcDbEntity
  8
0
390
0
  6
Continuous
 62
     7
100
AcDbLine
 10
6.839408
 20
-89.793079
 30
0.0
 11
6.839408
 21
-91.021415
 31
0.0
  0
ELLIPSE
  5
64
100
AcDbEntity
  8
0
390
0
  6
Continuous
 62
     7
100
AcDbEllipse
 10
0.0
 20
-91.930429
 30
0.0
 11
-7.2000000000000117
 21
0.0
 31
0.0
210
0.0
220
0.0
230
0.9999999999999999
 40
0.404006
 41
3.1415926535897927
 42
3.4594163575176702
  0
LINE
  5
65
100
AcDbEntity
  8
0
390
0
  6
Continuous
 62
     7
100
AcDbLine
 10
6.839408
 20
-85.797
 30
0.0
 11
6.839408
 21
-86.958897
 31
0.0
  0
LINE
  5
66
100
AcDbEntity
  8
0
390
0
  6
Continuous
 62
     7
100
AcDbLine
 10
-1.0
 20
-108.606518
 30
0.0
 11
1.0
 21
-108.606518
 31
0.0
  0
LINE
  5
67
100
AcDbEntity
  8
0
390
0
  6
Continuous
 62
     7
100
AcDbLine
 10
-6.0
 20
-68.606518
 30
0.0
 11
6.0
 21
-68.606518
 31
0.0
  0
LINE
  5
68
100
AcDbEntity
  8
0
390
0
  6
Continuous
 62
     7
100
AcDbLine
 10
7.4
 20
-94.935593
 30
0.0
 11
7.361895
 21
-94.935593
 31
0.0
  0
ELLIPSE
  5
69
100
AcDbEntity
  8
0
390
0
  6
Continuous
 62
     7
100
AcDbEllipse
 10
0.0
 20
-94.941287
 30
0.0
 11
0.0
 21
-8.3561259706630704
 31
0.0
210
0.0
220
0.0
230
1.0
 40
0.885578
 41
1.7512622737754449
 42
1.755721902191834
  0
ELLIPSE
  5
6A
100
AcDbEntity
  8
0
390
0
  6
Continuous
 62
     7
100
AcDbEllipse
 10
0.0
 20
-94.802622
 30
0.0
 11
-0.0000000000000278
 21
-7.5835695876260019
 31
0.0
210
0.0
220
0.0
230
1.0
 40
0.975794
 41
1.7465740392112414
 42
1.751262273775448
  0
ELLIPSE
  5
6B
100
AcDbEntity
  8
0
390
0
  6
Continuous
 62
     7
100
AcDbEllipse
 10
0.0
 20
-94.679805
 30
0.0
 11
-7.4000000000000181
 21
-0.0000000000000139
 31
0.0
210
0.0
220
0.0
230
1.0
 40
0.929899
 41
3.3124699074435551
 42
3.3173703660061324
  0
ELLIPSE
  5
6C
100
AcDbEntity
  8
0
390
0
  6
Continuous
 62
     7
100
AcDbEllipse
 10
0.0
 20
-94.569606
 30
0.0
 11
-7.3999999999999897
 21
0.0
 31
0.0
210
0.0
220
0.0
230
0.9999999999999999
 40
0.842325
 41
3.3073729980756728
 42
3.3124699074435577
  0
ELLIPSE
  5
6D
100
AcDbEntity
  8
0
390
0
  6
Continuous
 62
     7
100
AcDbEllipse
 10
0.0
 20
-94.470862
 30
0.0
 11
-7.3999999999999897
 21
0.0
 31
0.0
210
0.0
220
0.0
230
1.0
 40
0.761464
 41
3.3021522957803509
 42
3.3073729980756723
  0
ELLIPSE
  5
6E
100
AcDbEntity
  8
0
390
0
  6
Continuous
 62
     7
100
AcDbEllipse
 10
0.0
 20
-94.383705
 30
0.0
 11
-7.3999999999999897
 21
0.0
 31
0.0
210
0.0
220
0.0
230
1.0
 40
0.687792
 41
3.2967350740792796
 42
3.3021522957803509
  0
ELLIPSE
  5
6F
100
AcDbEntity
  8
0
390
0
  6
Continuous
 62
     7
100
AcDbEllipse
 10
0.0
 20
-94.305583
 30
0.0
 11
-7.3999999999999897
 21
0.0
 31
0.0
210
0.0
220
0.0
230
1.0
 40
0.619471
 41
3.2911402673939096
 42
3.2967350740792796
  0
ELLIPSE
  5
70
100
AcDbEntity
  8
0
390
0
  6
Continuous
 62
     7
100
AcDbEllipse
 10
0.0
 20
-94.234975
 30
0.0
 11
-7.3999999999999897
 21
0.0
 31
0.0
210
0.0
220
0.0
230
1.0
 40
0.555429
 41
3.2853870006966246
 42
3.2911402673939096
  0
ELLIPSE
  5
71
100
AcDbEntity
  8
0
390
0
  6
Continuous
 62
     7
100
AcDbEllipse
 10
0.0
 20
-94.170573
 30
0.0
 11
-7.3999999999999897
 21
0.0
 31
0.0
210
0.0
220
0.0
230
1.0
 40
0.494696
 41
3.2794940416081819
 42
3.2853870006966241
  0
ELLIPSE
  5
72
100
AcDbEntity
  8
0
390
0
  6
Continuous
 62
     7
100
AcDbEllipse
 10
0.0
 20
-94.111253
 30
0.0
 11
-7.3999999999999897
 21
0.0
 31
0.0
210
0.0
220
0.0
230
0.9999999999999999
 40
0.436382
 41
3.2734800746477086
 42
3.2794940416081824
  0
ELLIPSE
  5
73
100
AcDbEntity
  8
0
390
0
  6
Continuous
 62
     7
100
AcDbEllipse
 10
0.0
 20
-94.056271
 30
0.0
 11
-7.3999999999999897
 21
0.0
 31
0.0
210
0.0
220
0.0
230
0.9999999999999999
 40
0.379882
 41
3.2673638392662827
 42
3.2734800746477086
  0
ELLIPSE
  5
74
100
AcDbEntity
  8
0
390
0
  6
Continuous
 62
     7
100
AcDbEllipse
 10
0.0
 20
-94.00512
 30
0.0
 11
-7.4000000000000181
 21
0.0
 31
0.0
210
0.0
220
0.0
230
1.0
 40
0.324778
 41
3.2611360943974192
 42
3.2673638392662827
  0
ELLIPSE
  5
75
100
AcDbEntity
  8
0
390
0
  6
Continuous
 62
     7
100
AcDbEllipse
 10
0.0
 20
-93.958451
 30
0.0
 11
-7.3999999999999897
 21
0.0
 31
0.0
210
0.0
220
0.0
230
1.0
 40
0.271896
 41
3.2547980792430522
 42
3.2611360943974192
  0
ELLIPSE
  5
76
100
AcDbEntity
  8
0
390
0
  6
Continuous
 62
     7
100
AcDbEllipse
 10
0.0
 20
-93.915807
 30
0.0
 11
-7.4000000000000181
 21
0.0
 31
0.0
210
0.0
220
0.0
230
1.0
 40
0.220882
 41
3.24837207328595
 42
3.2547980792430522
  0
ELLIPSE
  5
77
100
AcDbEntity
  8
0
390
0
  6
Continuous
 62
     7
100
AcDbEllipse
 10
0.0
 20
-93.876623
 30
0.0
 11
-7.4000000000000181
 21
0.0
 31
0.0
210
0.0
220
0.0
230
1.0
 40
0.171198
 41
3.241880408385287
 42
3.24837207328595
  0
ELLIPSE
  5
78
100
AcDbEntity
  8
0
390
0
  6
Continuous
 62
     7
100
AcDbEllipse
 10
0.0
 20
-93.840386
 30
0.0
 11
-7.3999999999999897
 21
0.0
 31
0.0
210
0.0
220
0.0
230
1.0
 40
0.122289
 41
3.2353453395549359
 42
3.241880408385287
  0
ELLIPSE
  5
79
100
AcDbEntity
  8
0
390
0
  6
Continuous
 62
     7
100
AcDbEllipse
 10
0.0
 20
-93.806668
 30
0.0
 11
-7.4000000000000181
 21
0.0
 31
0.0
210
0.0
220
0.0
230
1.0
 40
0.073615
 41
3.2287889173395317
 42
3.2353453395549359
  0
ELLIPSE
  5
7A
100
AcDbEntity
  8
0
390
0
  6
Continuous
 62
     7
100
AcDbEllipse
 10
0.0
 20
-93.775131
 30
0.0
 11
-7.3999999999999897
 21
0.0
 31
0.0
210
0.0
220
0.0
230
1.0
 40
0.024678
 41
3.2222331326034062
 42
3.2287889173395317
  0
LINE
  5
7B
100
AcDbEntity
  8
0
390
0
  6
Continuous
 62
     7
100
AcDbLine
 10
7.375952
 20
-93.76042
 30
0.0
 11
7.4
 21
-93.76042
 31
0.0
  0
POLYLINE
  5
7C
100
AcDbEntity
  8
0
390
0
  6
Continuous
 62
     7
100
AcDb2dPolyline
 66
     1
 10
0.0
 20
0.0
 30
0.0
 40
0.1
 41
0.1
  0
VERTEX
  5
7D
100
AcDbEntity
  8
0
390
0
 62
     7
100
AcDbVertex
100
AcDb2dVertex
 10
7.361895
 20
-94.935593
 30
0.0
  0
VERTEX
  5
7E
100
AcDbEntity
  8
0
390
0
 62
     7
100
AcDbVertex
100
AcDb2dVertex
 10
7.294323
 20
-94.851189
 30
0.0
 42
-0.093964
  0
VERTEX
  5
7F
100
AcDbEntity
  8
0
390
0
 62
     7
100
AcDbVertex
100
AcDb2dVertex
 10
7.049646
 20
-93.435593
 30
0.0
  0
SEQEND
  5
80
100
AcDbEntity
  8
0
390
0
  0
LINE
  5
81
100
AcDbEntity
  8
0
390
0
  6
Continuous
 62
     7
100
AcDbLine
 10
7.049646
 20
-93.435593
 30
0.0
 11
7.049646
 21
-91.857502
 31
0.0
  0
ELLIPSE
  5
82
100
AcDbEntity
  8
0
390
0
  6
Continuous
 62
     7
100
AcDbEllipse
 10
0.0
 20
-92.76656
 30
0.0
 11
-7.3999999999999897
 21
0.0
 31
0.0
210
0.0
220
0.0
230
0.9999999999999999
 40
0.404025
 41
3.3589892620469799
 42
3.4505379675643613
  0
LINE
  5
83
100
AcDbEntity
  8
0
390
0
  6
Continuous
 62
     7
100
AcDbLine
 10
7.225821
 20
-92.121697
 30
0.0
 11
7.225821
 21
-92.76042
 31
0.0
  0
ELLIPSE
  5
84
100
AcDbEntity
  8
0
390
0
  6
Continuous
 62
     7
100
AcDbEllipse
 10
0.0
 20
-167.846264
 30
0.0
 11
0.0
 21
-348.12209821462534
 31
0.0
210
0.0
220
0.0
230
1.0
 40
0.021257
 41
1.7880689371971901
 42
1.7881929352520796
  0
ELLIPSE
  5
85
100
AcDbEntity
  8
0
390
0
  6
Continuous
 62
     7
100
AcDbEllipse
 10
0.0
 20
-117.897439
 30
0.0
 11
0.0
 21
-116.41321881966051
 31
0.0
210
0.0
220
0.0
230
1.0
 40
0.063567
 41
1.7876983471633727
 42
1.788068937197191
  0
ELLIPSE
  5
86
100
AcDbEntity
  8
0
390
0
  6
Continuous
 62
     7
100
AcDbEllipse
 10
0.0
 20
-107.884083
 30
0.0
 11
0.0
 21
-69.883895636732035
 31
0.0
210
0.0
220
0.0
230
1.0
 40
0.10589
 41
1.7870831625455046
 42
1.7876983471633727
  0
ELLIPSE
  5
87
100
AcDbEntity
  8
0
390
0
  6
Continuous
 62
     7
100
AcDbEllipse
 10
0.0
 20
-103.576143
 30
0.0
 11
0.0
 21
-49.810033876464374
 31
0.0
210
0.0
220
0.0
230
1.0
 40
0.148564
 41
1.7862255573523378
 42
1.7870831625455046
  0
ELLIPSE
  5
88
100
AcDbEntity
  8
0
390
0
  6
Continuous
 62
     7
100
AcDbEllipse
 10
0.0
 20
-101.168428
 30
0.0
 11
0.0
 21
-38.546755701142594
 31
0.0
210
0.0
220
0.0
230
1.0
 40
0.191975
 41
1.7851277420876361
 42
1.7862255573523378
  0
ELLIPSE
  5
89
100
AcDbEntity
  8
0
390
0
  6
Continuous
 62
     7
100
AcDbEllipse
 10
0.0
 20
-99.516686
 30
0.0
 11
0.0
 21
-30.780947386812919
 31
0.0
210
0.0
220
0.0
230
0.9999999999999999
 40
0.240408
 41
1.7835455899212429
 42
1.7851277420876361
  0
ELLIPSE
  5
8A
100
AcDbEntity
  8
0
390
0
  6
Continuous
 62
     7
100
AcDbEllipse
 10
0.0
 20
-98.343617
 30
0.0
 11
0.0
 21
-25.225275202783905
 31
0.0
210
0.0
220
0.0
230
0.9999999999999999
 40
0.293357
 41
1.7816369964785999
 42
1.7835455899212438
  0
ELLIPSE
  5
8B
100
AcDbEntity
  8
0
390
0
  6
Continuous
 62
     7
100
AcDbEllipse
 10
0.0
 20
-97.525516
 30
0.0
 11
0.0
 21
-21.316191540887015
 31
0.0
210
0.0
220
0.0
230
0.9999999999999999
 40
0.347154
 41
1.7794124396127766
 42
1.7816369964785976
  0
ELLIPSE
  5
8C
100
AcDbEntity
  8
0
390
0
  6
Continuous
 62
     7
100
AcDbEllipse
 10
0.0
 20
-96.919595
 30
0.0
 11
0.0
 21
-18.390534934499172
 31
0.0
210
0.0
220
0.0
230
0.9999999999999999
 40
0.402381
 41
1.7768825726562001
 42
1.7794124396127795
  0
ELLIPSE
  5
8D
100
AcDbEntity
  8
0
390
0
  6
Continuous
 62
     7
100
AcDbEllipse
 10
0.0
 20
-96.449978
 30
0.0
 11
0.0
 21
-16.095587588570119
 31
0.0
210
0.0
220
0.0
230
1.0
 40
0.459753
 41
1.7740580763199922
 42
1.7768825726562001
  0
ELLIPSE
  5
8E
100
AcDbEntity
  8
0
390
0
  6
Continuous
 62
     7
100
AcDbEllipse
 10
0.0
 20
-96.073307
 30
0.0
 11
0.0
 21
-14.229632587862973
 31
0.0
210
0.0
220
0.0
230
0.9999999999999999
 40
0.520042
 41
1.7709496491697774
 42
1.7740580763199909
  0
ELLIPSE
  5
8F
100
AcDbEntity
  8
0
390
0
  6
Continuous
 62
     7
100
AcDbEllipse
 10
0.0
 20
-95.762576
 30
0.0
 11
0.0
 21
-12.666753627910325
 31
0.0
210
0.0
220
0.0
230
0.9999999999999999
 40
0.584207
 41
1.7675681362664208
 42
1.7709496491697774
  0
ELLIPSE
  5
90
100
AcDbEntity
  8
0
390
0
  6
Continuous
 62
     7
100
AcDbEllipse
 10
0.0
 20
-95.501711
 30
0.0
 11
0.0
 21
-11.332436785913503
 31
0.0
210
0.0
220
0.0
230
1.0
 40
0.652993
 41
1.7638910601762092
 42
1.76756813626642
  0
ELLIPSE
  5
91
100
AcDbEntity
  8
0
390
0
  6
Continuous
 62
     7
100
AcDbEllipse
 10
0.0
 20
-95.284002
 30
0.0
 11
0.0
 21
-10.19792536897822
 31
0.0
210
0.0
220
0.0
230
1.0
 40
0.725638
 41
1.7599369002889302
 42
1.7638910601762092
  0
ELLIPSE
  5
92
100
AcDbEntity
  8
0
390
0
  6
Continuous
 62
     7
100
AcDbEllipse
 10
0.0
 20
-95.099797
 30
0.0
 11
0.0
 21
-9.2181877508413219
 31
0.0
210
0.0
220
0.0
230
1.0
 40
0.802761
 41
1.7557219021918324
 42
1.7599369002889302
  0
ELLIPSE
  5
93
100
AcDbEntity
  8
0
390
0
  6
Continuous
 62
     7
100
AcDbEllipse
 10
0.0
 20
-88.047837
 30
0.0
 11
-7.4000000000000181
 21
0.0
 31
0.0
210
0.0
220
0.0
230
1.0
 40
0.40407
 41
2.8326473396152236
 42
3.1415926535897927
  0
ELLIPSE
  5
94
100
AcDbEntity
  8
0
390
0
  6
Continuous
 62
     7
100
AcDbEllipse
 10
0.0
 20
-86.885857
 30
0.0
 11
-7.3999999999999897
 21
0.0
 31
0.0
210
0.0
220
0.0
230
1.0
 40
0.404069
 41
3.1415926535897931
 42
3.2818656876721897
  0
LINE
  5
95
100
AcDbEntity
  8
0
390
0
  6
Continuous
 62
     7
100
AcDbLine
 10
7.049646
 20
-88.956993
 30
0.0
 11
7.049646
 21
-87.795013
 31
0.0
  0
ELLIPSE
  5
96
100
AcDbEntity
  8
0
390
0
  6
Continuous
 62
     7
100
AcDbEllipse
 10
0.0
 20
-86.885857
 30
0.0
 11
-7.3999999999999897
 21
0.0
 31
0.0
210
0.0
220
0.0
230
1.0
 40
0.404069
 41
2.832647339615225
 42
3.1415926535897931
  0
LINE
  5
97
100
AcDbEntity
  8
0
390
0
  6
Continuous
 62
     7
100
AcDbLine
 10
7.049646
 20
-87.795013
 30
0.0
 11
6.839408
 21
-87.795013
 31
0.0
  0
LINE
  5
98
100
AcDbEntity
  8
0
390
0
  6
Continuous
 62
     7
100
AcDbLine
 10
7.049646
 20
-88.956993
 30
0.0
 11
6.839408
 21
-88.956993
 31
0.0
  0
ELLIPSE
  5
99
100
AcDbEntity
  8
0
390
0
  6
Continuous
 62
     7
100
AcDbEllipse
 10
0.0
 20
-86.049741
 30
0.0
 11
-7.4000000000000181
 21
0.0
 31
0.0
210
0.0
220
0.0
230
1.0
 40
0.40407
 41
2.8326473396152236
 42
3.1415926535897927
  0
ELLIPSE
  5
9A
100
AcDbEntity
  8
0
390
0
  6
Continuous
 62
     7
100
AcDbEllipse
 10
0.0
 20
-84.887972
 30
0.0
 11
-7.4000000000000181
 21
0.0
 31
0.0
210
0.0
220
0.0
230
1.0
 40
0.404013
 41
3.1415926535897931
 42
3.2775351119136285
  0
LINE
  5
9B
100
AcDbEntity
  8
0
390
0
  6
Continuous
 62
     7
100
AcDbLine
 10
7.049646
 20
-86.958897
 30
0.0
 11
7.049646
 21
-85.797
 31
0.0
  0
ELLIPSE
  5
9C
100
AcDbEntity
  8
0
390
0
  6
Continuous
 62
     7
100
AcDbEllipse
 10
0.0
 20
-84.887972
 30
0.0
 11
-7.4000000000000181
 21
0.0
 31
0.0
210
0.0
220
0.0
230
1.0
 40
0.404013
 41
2.832647339615225
 42
3.1415926535897931
  0
ELLIPSE
  5
9D
100
AcDbEntity
  8
0
390
0
  6
Continuous
 62
     7
100
AcDbEllipse
 10
0.0
 20
-84.077794
 30
0.0
 11
-7.3999999999999897
 21
0.0
 31
0.0
210
0.0
220
0.0
230
1.0
 40
0.40384
 41
2.9771454402372886
 42
3.1415926535897927
  0
LINE
  5
9E
100
AcDbEntity
  8
0
390
0
  6
Continuous
 62
     7
100
AcDbLine
 10
7.049646
 20
-83.42452
 30
0.0
 11
7.049646
 21
-82.262878
 31
0.0
  0
ELLIPSE
  5
9F
100
AcDbEntity
  8
0
390
0
  6
Continuous
 62
     7
100
AcDbEllipse
 10
0.0
 20
-83.17182
 30
0.0
 11
-7.3999999999999897
 21
0.0
 31
0.0
210
0.0
220
0.0
230
1.0
 40
0.403974
 41
3.1415926535897927
 42
3.4505379675643613
  0
LINE
  5
A0
100
AcDbEntity
  8
0
390
0
  6
Continuous
 62
     7
100
AcDbLine
 10
7.300167
 20
-84.567018
 30
0.0
 11
7.300167
 21
-83.844434
 31
0.0
  0
ELLIPSE
  5
A1
100
AcDbEntity
  8
0
390
0
  6
Continuous
 62
     7
100
AcDbEllipse
 10
0.0
 20
-84.334241
 30
0.0
 11
-7.4000000000000181
 21
0.0
 31
0.0
210
0.0
220
0.0
230
1.0
 40
0.40432
 41
3.306039866942295
 42
3.4505379675643613
  0
LINE
  5
A2
100
AcDbEntity
  8
0
390
0
  6
Continuous
 62
     7
100
AcDbLine
 10
7.049646
 20
-85.797
 30
0.0
 11
6.839408
 21
-85.797
 31
0.0
  0
LINE
  5
A3
100
AcDbEntity
  8
0
390
0
  6
Continuous
 62
     7
100
AcDbLine
 10
7.049646
 20
-86.958897
 30
0.0
 11
6.839408
 21
-86.958897
 31
0.0
  0
LINE
  5
A4
100
AcDbEntity
  8
0
390
0
  6
Continuous
 62
     7
100
AcDbLine
 10
7.399887
 20
-88.867315
 30
0.0
 11
7.2
 21
-88.867315
 31
0.0
  0
ELLIPSE
  5
A5
100
AcDbEntity
  8
0
390
0
  6
Continuous
 62
     7
100
AcDbEllipse
 10
0.0
 20
-88.883862
 30
0.0
 11
-7.4000000000000181
 21
0.0
 31
0.0
210
0.0
220
0.0
230
1.0
 40
0.404097
 41
2.8326473396152245
 42
3.1471260602056477
  0
LINE
  5
A6
100
AcDbEntity
  8
0
390
0
  6
Continuous
 62
     7
100
AcDbLine
 10
7.049646
 20
-89.793079
 30
0.0
 11
6.839408
 21
-89.793079
 31
0.0
  0
LINE
  5
A7
100
AcDbEntity
  8
0
390
0
  6
Continuous
 62
     7
100
AcDbLine
 10
7.049646
 20
-91.021415
 30
0.0
 11
7.049646
 21
-89.793079
 31
0.0
  0
LINE
  5
A8
100
AcDbEntity
  8
0
390
0
  6
Continuous
 62
     7
100
AcDbLine
 10
7.049646
 20
-91.021415
 30
0.0
 11
6.839408
 21
-91.021415
 31
0.0
  0
ELLIPSE
  5
A9
100
AcDbEntity
  8
0
390
0
  6
Continuous
 62
     7
100
AcDbEllipse
 10
0.0
 20
-91.930429
 30
0.0
 11
-7.4000000000000181
 21
0.0
 31
0.0
210
0.0
220
0.0
230
1.0
 40
0.404006
 41
3.1415926535897931
 42
3.4505379675643604
  0
ELLIPSE
  5
AA
100
AcDbEntity
  8
0
390
0
  6
Continuous
 62
     7
100
AcDbEllipse
 10
0.0
 20
-90.045983
 30
0.0
 11
-7.4000000000000181
 21
0.0
 31
0.0
210
0.0
220
0.0
230
1.0
 40
0.404045
 41
3.0205128363295319
 42
3.1415926535897927
  0
ELLIPSE
  5
AB
100
AcDbEntity
  8
0
390
0
  6
Continuous
 62
     7
100
AcDbEllipse
 10
0.0
 20
-90.768282
 30
0.0
 11
-7.4000000000000181
 21
0.0
 31
0.0
210
0.0
220
0.0
230
1.0
 40
0.404074
 41
3.1415926535897927
 42
3.2626724708500547
  0
ELLIPSE
  5
AC
100
AcDbEntity
  8
0
390
0
  6
Continuous
 62
     7
100
AcDbEllipse
 10
0.0
 20
-91.930429
 30
0.0
 11
-7.4000000000000181
 21
0.0
 31
0.0
210
0.0
220
0.0
230
1.0
 40
0.404006
 41
2.9241960451326059
 42
3.1415926535897931
  0
LINE
  5
AD
100
AcDbEntity
  8
0
390
0
  6
Continuous
 62
     7
100
AcDbLine
 10
7.049646
 20
-83.42452
 30
0.0
 11
6.839408
 21
-83.42452
 31
0.0
  0
LINE
  5
AE
100
AcDbEntity
  8
0
390
0
  6
Continuous
 62
     7
100
AcDbLine
 10
7.300167
 20
-83.844434
 30
0.0
 11
7.097354
 21
-83.844434
 31
0.0
  0
LINE
  5
AF
100
AcDbEntity
  8
0
390
0
  6
Continuous
 62
     7
100
AcDbLine
 10
7.049646
 20
-82.262878
 30
0.0
 11
6.839408
 21
-82.262878
 31
0.0
  0
LINE
  5
B0
100
AcDbEntity
  8
0
390
0
  6
Continuous
 62
     7
100
AcDbLine
 10
7.049646
 20
-91.857502
 30
0.0
 11
6.839408
 21
-91.857502
 31
0.0
  0
LINE
  5
B1
100
AcDbEntity
  8
0
390
0
  6
Continuous
 62
     7
100
AcDbLine
 10
7.049646
 20
-93.435593
 30
0.0
 11
6.839408
 21
-93.435593
 31
0.0
  0
LINE
  5
B2
100
AcDbEntity
  8
0
390
0
  6
Continuous
 62
     7
100
AcDbLine
 10
7.361895
 20
-94.935593
 30
0.0
 11
7.160831
 21
-94.935593
 31
0.0
  0
LINE
  5
B3
100
AcDbEntity
  8
0
390
0
  6
Continuous
 62
     7
100
AcDbLine
 10
7.300167
 20
-84.567018
 30
0.0
 11
7.097354
 21
-84.567018
 31
0.0
  0
LINE
  5
B4
100
AcDbEntity
  8
0
390
0
  6
Continuous
 62
     7
100
AcDbLine
 10
-8.2
 20
-107.606518
 30
0.0
 11
-8.2
 21
-108.606518
 31
0.0
  0
LINE
  5
B5
100
AcDbEntity
  8
0
390
0
  6
Continuous
 62
     7
100
AcDbLine
 10
-8.2
 20
-68.606518
 30
0.0
 11
-8.2
 21
-69.606518
 31
0.0
  0
LINE
  5
B6
100
AcDbEntity
  8
0
390
0
  6
Continuous
 62
     7
100
AcDbLine
 10
8.2
 20
-69.606518
 30
0.0
 11
8.2
 21
-68.606518
 31
0.0
  0
LINE
  5
B7
100
AcDbEntity
  8
0
390
0
  6
Continuous
 62
     7
100
AcDbLine
 10
8.2
 20
-108.606518
 30
0.0
 11
8.2
 21
-107.606518
 31
0.0
  0
LINE
  5
B8
100
AcDbEntity
  8
0
390
0
  6
Continuous
 62
     7
100
AcDbLine
 10
-7.2
 20
-69.606518
 30
0.0
 11
-7.2
 21
-107.606518
 31
0.0
  0
LINE
  5
B9
100
AcDbEntity
  8
0
390
0
  6
Continuous
 62
     7
100
AcDbLine
 10
7.2
 20
-82.481509
 30
0.0
 11
7.2
 21
-69.606518
 31
0.0
  0
LINE
  5
BA
100
AcDbEntity
  8
0
390
0
  6
Continuous
 62
     7
100
AcDbLine
 10
7.2
 20
-84.887972
 30
0.0
 11
7.2
 21
-84.567018
 31
0.0
  0
LINE
  5
BB
100
AcDbEntity
  8
0
390
0
  6
Continuous
 62
     7
100
AcDbLine
 10
7.2
 20
-86.885857
 30
0.0
 11
7.2
 21
-86.740215
 31
0.0
  0
LINE
  5
BC
100
AcDbEntity
  8
0
390
0
  6
Continuous
 62
     7
100
AcDbLine
 10
7.2
 20
-88.883862
 30
0.0
 11
7.2
 21
-88.738311
 31
0.0
  0
LINE
  5
BD
100
AcDbEntity
  8
0
390
0
  6
Continuous
 62
     7
100
AcDbLine
 10
7.2
 20
-92.076161
 30
0.0
 11
7.2
 21
-91.930429
 31
0.0
  0
LINE
  5
BE
100
AcDbEntity
  8
0
390
0
  6
Continuous
 62
     7
100
AcDbLine
 10
7.2
 20
-107.606518
 30
0.0
 11
7.2
 21
-94.935593
 31
0.0
  0
LINE
  5
BF
100
AcDbEntity
  8
0
390
0
  6
Continuous
 62
     7
100
AcDbLine
 10
7.4
 20
-94.935593
 30
0.0
 11
7.4
 21
-93.76042
 31
0.0
  0
LINE
  5
C0
100
AcDbEntity
  8
0
390
0
  6
Continuous
 62
     7
100
AcDbLine
 10
7.4
 20
-88.047837
 30
0.0
 11
7.4
 21
-86.885857
 31
0.0
  0
LINE
  5
C1
100
AcDbEntity
  8
0
390
0
  6
Continuous
 62
     7
100
AcDbLine
 10
7.4
 20
-86.049741
 30
0.0
 11
7.4
 21
-84.887972
 31
0.0
  0
LINE
  5
C2
100
AcDbEntity
  8
0
390
0
  6
Continuous
 62
     7
100
AcDbLine
 10
7.4
 20
-84.077794
 30
0.0
 11
7.4
 21
-83.17182
 31
0.0
  0
LINE
  5
C3
100
AcDbEntity
  8
0
390
0
  6
Continuous
 62
     7
100
AcDbLine
 10
7.4
 20
-90.045983
 30
0.0
 11
7.4
 21
-88.883862
 31
0.0
  0
LINE
  5
C4
100
AcDbEntity
  8
0
390
0
  6
Continuous
 62
     7
100
AcDbLine
 10
7.4
 20
-91.930429
 30
0.0
 11
7.4
 21
-90.768282
 31
0.0
  0
LINE
  5
C5
100
AcDbEntity
  8
0
390
0
  6
Continuous
 62
     7
100
AcDbLine
 10
123.049236
 20
8.2
 30
0.0
 11
123.049236
 21
-7.505273
 31
0.0
  0
LINE
  5
C6
100
AcDbEntity
  8
0
390
0
  6
Continuous
 62
     7
100
AcDbLine
 10
85.049236
 20
8.2
 30
0.0
 11
85.049236
 21
-4.974785
 31
0.0
  0
LINE
  5
C7
100
AcDbEntity
  8
0
390
0
  6
Continuous
 62
     7
100
AcDbLine
 10
124.049236
 20
8.2
 30
0.0
 11
124.049236
 21
-7.912419
 31
0.0
  0
LINE
  5
C8
100
AcDbEntity
  8
0
390
0
  6
Continuous
 62
     7
100
AcDbLine
 10
84.049236
 20
8.2
 30
0.0
 11
84.049236
 21
-5.589276
 31
0.0
  0
LINE
  5
C9
100
AcDbEntity
  8
0
390
0
  6
Continuous
 62
     7
100
AcDbLine
 10
123.049236
 20
-7.505273
 30
0.0
 11
90.695775
 21
-7.505273
 31
0.0
  0
ELLIPSE
  5
CA
100
AcDbEntity
  8
0
390
0
  6
Continuous
 62
     7
100
AcDbEllipse
 10
96.49645
 20
0.0
 30
0.0
 11
-14.399999999999997
 21
0.0
 31
0.0
210
0.0
220
0.0
230
0.9999999999999999
 40
0.569444
 41
0.6518787693067968
 42
1.1561955036351259
  0
LINE
  5
CB
100
AcDbEntity
  8
0
390
0
  6
Continuous
 62
     7
100
AcDbLine
 10
124.049236
 20
-7.912419
 30
0.0
 11
92.248079
 21
-7.912419
 31
0.0
  0
LINE
  5
CC
100
AcDbEntity
  8
0
390
0
  6
Continuous
 62
     7
100
AcDbLine
 10
91.297581
 20
-7.848277
 30
0.0
 11
92.248079
 21
-7.912419
 31
0.0
  0
ELLIPSE
  5
CD
100
AcDbEntity
  8
0
390
0
  6
Continuous
 62
     7
100
AcDbEllipse
 10
96.049236
 20
0.0
 30
0.0
 11
-16.39999999999997
 21
0.0
 31
0.0
210
0.0
220
0.0
230
1.0
 40
0.5
 41
0.7499729351257344
 42
1.276846298931759
  0
LINE
  5
CE
100
AcDbEntity
  8
0
390
0
  6
Continuous
 62
     7
100
AcDbLine
 10
98.867238
 20
-2.25
 30
0.0
 11
97.705596
 21
-2.25
 31
0.0
  0
LINE
  5
CF
100
AcDbEntity
  8
0
390
0
  6
Continuous
 62
     7
100
AcDbLine
 10
97.705596
 20
-2.25
 30
0.0
 11
99.0676
 21
1.121513
 31
0.0
  0
LINE
  5
D0
100
AcDbEntity
  8
0
390
0
  6
Continuous
 62
     7
100
AcDbLine
 10
99.0676
 20
1.121513
 30
0.0
 11
100.009736
 21
-1.211432
 31
0.0
  0
LINE
  5
D1
100
AcDbEntity
  8
0
390
0
  6
Continuous
 62
     7
100
AcDbLine
 10
100.009736
 20
-1.211432
 30
0.0
 11
99.287152
 21
-1.211432
 31
0.0
  0
LINE
  5
D2
100
AcDbEntity
  8
0
390
0
  6
Continuous
 62
     7
100
AcDbLine
 10
99.287152
 20
-1.211432
 30
0.0
 11
98.867238
 21
-2.25
 31
0.0
  0
LINE
  5
D3
100
AcDbEntity
  8
0
390
0
  6
Continuous
 62
     7
100
AcDbLine
 10
102.401615
 20
-2.25
 30
0.0
 11
101.239718
 21
-2.25
 31
0.0
  0
LINE
  5
D4
100
AcDbEntity
  8
0
390
0
  6
Continuous
 62
     7
100
AcDbLine
 10
99.422991
 20
2.246708
 30
0.0
 11
100.584632
 21
2.246708
 31
0.0
  0
LINE
  5
D5
100
AcDbEntity
  8
0
390
0
  6
Continuous
 62
     7
100
AcDbLine
 10
101.239718
 20
-2.25
 30
0.0
 11
99.422991
 21
2.246708
 31
0.0
  0
LINE
  5
D6
100
AcDbEntity
  8
0
390
0
  6
Continuous
 62
     7
100
AcDbLine
 10
100.584632
 20
2.246708
 30
0.0
 11
102.401615
 21
-2.25
 31
0.0
  0
LINE
  5
D7
100
AcDbEntity
  8
0
390
0
  6
Continuous
 62
     7
100
AcDbLine
 10
107.118835
 20
2.246708
 30
0.0
 11
108.28083
 21
2.246708
 31
0.0
  0
LINE
  5
D8
100
AcDbEntity
  8
0
390
0
  6
Continuous
 62
     7
100
AcDbLine
 10
106.464133
 20
-2.25
 30
0.0
 11
105.235797
 21
-2.25
 31
0.0
  0
LINE
  5
D9
100
AcDbEntity
  8
0
390
0
  6
Continuous
 62
     7
100
AcDbLine
 10
104.310033
 20
0.040947
 30
0.0
 11
104.89103
 21
1.479218
 31
0.0
  0
LINE
  5
DA
100
AcDbEntity
  8
0
390
0
  6
Continuous
 62
     7
100
AcDbLine
 10
105.849837
 20
-0.893803
 30
0.0
 11
107.118835
 21
2.246708
 31
0.0
  0
LINE
  5
DB
100
AcDbEntity
  8
0
390
0
  6
Continuous
 62
     7
100
AcDbLine
 10
108.28083
 20
2.246708
 30
0.0
 11
106.464133
 21
-2.25
 31
0.0
  0
LINE
  5
DC
100
AcDbEntity
  8
0
390
0
  6
Continuous
 62
     7
100
AcDbLine
 10
104.89103
 20
1.479218
 30
0.0
 11
105.849837
 21
-0.893803
 31
0.0
  0
LINE
  5
DD
100
AcDbEntity
  8
0
390
0
  6
Continuous
 62
     7
100
AcDbLine
 10
105.235797
 20
-2.25
 30
0.0
 11
104.310033
 21
0.040947
 31
0.0
  0
LINE
  5
DE
100
AcDbEntity
  8
0
390
0
  6
Continuous
 62
     7
100
AcDbLine
 10
101.420749
 20
2.246708
 30
0.0
 11
102.582728
 21
2.246708
 31
0.0
  0
LINE
  5
DF
100
AcDbEntity
  8
0
390
0
  6
Continuous
 62
     7
100
AcDbLine
 10
104.399711
 20
-2.25
 30
0.0
 11
103.237731
 21
-2.25
 31
0.0
  0
LINE
  5
E0
100
AcDbEntity
  8
0
390
0
  6
Continuous
 62
     7
100
AcDbLine
 10
103.237731
 20
-2.25
 30
0.0
 11
101.420749
 21
2.246708
 31
0.0
  0
LINE
  5
E1
100
AcDbEntity
  8
0
390
0
  6
Continuous
 62
     7
100
AcDbLine
 10
102.582728
 20
2.246708
 30
0.0
 11
104.399711
 21
-2.25
 31
0.0
  0
LINE
  5
E2
100
AcDbEntity
  8
0
390
0
  6
Continuous
 62
     7
100
AcDbLine
 10
108.847535
 20
-1.360663
 30
0.0
 11
108.88418
 21
-1.328211
 31
0.0
  0
LINE
  5
E3
100
AcDbEntity
  8
0
390
0
  6
Continuous
 62
     7
100
AcDbLine
 10
108.88418
 20
-1.328211
 30
0.0
 11
108.919171
 21
-1.294067
 31
0.0
  0
LINE
  5
E4
100
AcDbEntity
  8
0
390
0
  6
Continuous
 62
     7
100
AcDbLine
 10
108.919171
 20
-1.294067
 30
0.0
 11
108.952387
 21
-1.258347
 31
0.0
  0
LINE
  5
E5
100
AcDbEntity
  8
0
390
0
  6
Continuous
 62
     7
100
AcDbLine
 10
108.952387
 20
-1.258347
 30
0.0
 11
108.983708
 21
-1.221163
 31
0.0
  0
LINE
  5
E6
100
AcDbEntity
  8
0
390
0
  6
Continuous
 62
     7
100
AcDbLine
 10
108.983708
 20
-1.221163
 30
0.0
 11
109.012735
 21
-1.183043
 31
0.0
  0
LINE
  5
E7
100
AcDbEntity
  8
0
390
0
  6
Continuous
 62
     7
100
AcDbLine
 10
109.012735
 20
-1.183043
 30
0.0
 11
109.039964
 21
-1.143454
 31
0.0
  0
LINE
  5
E8
100
AcDbEntity
  8
0
390
0
  6
Continuous
 62
     7
100
AcDbLine
 10
109.039964
 20
-1.143454
 30
0.0
 11
109.065314
 21
-1.102532
 31
0.0
  0
LINE
  5
E9
100
AcDbEntity
  8
0
390
0
  6
Continuous
 62
     7
100
AcDbLine
 10
109.065314
 20
-1.102532
 30
0.0
 11
109.088707
 21
-1.060415
 31
0.0
  0
LINE
  5
EA
100
AcDbEntity
  8
0
390
0
  6
Continuous
 62
     7
100
AcDbLine
 10
109.088707
 20
-1.060415
 30
0.0
 11
109.110066
 21
-1.017239
 31
0.0
  0
LINE
  5
EB
100
AcDbEntity
  8
0
390
0
  6
Continuous
 62
     7
100
AcDbLine
 10
109.110066
 20
-1.017239
 30
0.0
 11
109.12931
 21
-0.97314
 31
0.0
  0
LINE
  5
EC
100
AcDbEntity
  8
0
390
0
  6
Continuous
 62
     7
100
AcDbLine
 10
109.12931
 20
-0.97314
 30
0.0
 11
109.146361
 21
-0.928255
 31
0.0
  0
LINE
  5
ED
100
AcDbEntity
  8
0
390
0
  6
Continuous
 62
     7
100
AcDbLine
 10
109.146361
 20
-0.928255
 30
0.0
 11
109.161216
 21
-0.882516
 31
0.0
  0
LINE
  5
EE
100
AcDbEntity
  8
0
390
0
  6
Continuous
 62
     7
100
AcDbLine
 10
109.161216
 20
-0.882516
 30
0.0
 11
109.173882
 21
-0.835932
 31
0.0
  0
LINE
  5
EF
100
AcDbEntity
  8
0
390
0
  6
Continuous
 62
     7
100
AcDbLine
 10
109.173882
 20
-0.835932
 30
0.0
 11
109.184322
 21
-0.788667
 31
0.0
  0
LINE
  5
F0
100
AcDbEntity
  8
0
390
0
  6
Continuous
 62
     7
100
AcDbLine
 10
109.184322
 20
-0.788667
 30
0.0
 11
109.192502
 21
-0.740886
 31
0.0
  0
LINE
  5
F1
100
AcDbEntity
  8
0
390
0
  6
Continuous
 62
     7
100
AcDbLine
 10
109.192502
 20
-0.740886
 30
0.0
 11
109.198388
 21
-0.692754
 31
0.0
  0
LINE
  5
F2
100
AcDbEntity
  8
0
390
0
  6
Continuous
 62
     7
100
AcDbLine
 10
109.198388
 20
-0.692754
 30
0.0
 11
109.201945
 21
-0.644435
 31
0.0
  0
LINE
  5
F3
100
AcDbEntity
  8
0
390
0
  6
Continuous
 62
     7
100
AcDbLine
 10
109.201945
 20
-0.644435
 30
0.0
 11
109.203138
 21
-0.596093
 31
0.0
  0
LINE
  5
F4
100
AcDbEntity
  8
0
390
0
  6
Continuous
 62
     7
100
AcDbLine
 10
109.203138
 20
-0.596093
 30
0.0
 11
109.203138
 21
2.246708
 31
0.0
  0
LINE
  5
F5
100
AcDbEntity
  8
0
390
0
  6
Continuous
 62
     7
100
AcDbLine
 10
109.203138
 20
2.246708
 30
0.0
 11
110.378311
 21
2.246708
 31
0.0
  0
LINE
  5
F6
100
AcDbEntity
  8
0
390
0
  6
Continuous
 62
     7
100
AcDbLine
 10
110.378311
 20
2.246708
 30
0.0
 11
110.378311
 21
-0.75
 31
0.0
  0
LINE
  5
F7
100
AcDbEntity
  8
0
390
0
  6
Continuous
 62
     7
100
AcDbLine
 10
108.878311
 20
-2.25
 30
0.0
 11
107.30022
 21
-2.25
 31
0.0
  0
LINE
  5
F8
100
AcDbEntity
  8
0
390
0
  6
Continuous
 62
     7
100
AcDbLine
 10
107.30022
 20
-2.25
 30
0.0
 11
107.564415
 21
-1.596093
 31
0.0
  0
LINE
  5
F9
100
AcDbEntity
  8
0
390
0
  6
Continuous
 62
     7
100
AcDbLine
 10
107.564415
 20
-1.596093
 30
0.0
 11
108.203138
 21
-1.596093
 31
0.0
  0
LINE
  5
FA
100
AcDbEntity
  8
0
390
0
  6
Continuous
 62
     7
100
AcDbLine
 10
108.203138
 20
-1.596093
 30
0.0
 11
108.245289
 21
-1.595197
 31
0.0
  0
LINE
  5
FB
100
AcDbEntity
  8
0
390
0
  6
Continuous
 62
     7
100
AcDbLine
 10
108.245289
 20
-1.595197
 30
0.0
 11
108.287418
 21
-1.592519
 31
0.0
  0
LINE
  5
FC
100
AcDbEntity
  8
0
390
0
  6
Continuous
 62
     7
100
AcDbLine
 10
108.287418
 20
-1.592519
 30
0.0
 11
108.329405
 21
-1.588073
 31
0.0
  0
LINE
  5
FD
100
AcDbEntity
  8
0
390
0
  6
Continuous
 62
     7
100
AcDbLine
 10
108.329405
 20
-1.588073
 30
0.0
 11
108.371131
 21
-1.581874
 31
0.0
  0
LINE
  5
FE
100
AcDbEntity
  8
0
390
0
  6
Continuous
 62
     7
100
AcDbLine
 10
108.371131
 20
-1.581874
 30
0.0
 11
108.412475
 21
-1.573937
 31
0.0
  0
LINE
  5
FF
100
AcDbEntity
  8
0
390
0
  6
Continuous
 62
     7
100
AcDbLine
 10
108.412475
 20
-1.573937
 30
0.0
 11
108.460069
 21
-1.562495
 31
0.0
  0
LINE
  5
100
100
AcDbEntity
  8
0
390
0
  6
Continuous
 62
     7
100
AcDbLine
 10
108.460069
 20
-1.562495
 30
0.0
 11
108.507138
 21
-1.548687
 31
0.0
  0
LINE
  5
101
100
AcDbEntity
  8
0
390
0
  6
Continuous
 62
     7
100
AcDbLine
 10
108.507138
 20
-1.548687
 30
0.0
 11
108.553518
 21
-1.532586
 31
0.0
  0
LINE
  5
102
100
AcDbEntity
  8
0
390
0
  6
Continuous
 62
     7
100
AcDbLine
 10
108.553518
 20
-1.532586
 30
0.0
 11
108.599047
 21
-1.514266
 31
0.0
  0
LINE
  5
103
100
AcDbEntity
  8
0
390
0
  6
Continuous
 62
     7
100
AcDbLine
 10
108.599047
 20
-1.514266
 30
0.0
 11
108.64356
 21
-1.493801
 31
0.0
  0
LINE
  5
104
100
AcDbEntity
  8
0
390
0
  6
Continuous
 62
     7
100
AcDbLine
 10
108.64356
 20
-1.493801
 30
0.0
 11
108.686895
 21
-1.471265
 31
0.0
  0
LINE
  5
105
100
AcDbEntity
  8
0
390
0
  6
Continuous
 62
     7
100
AcDbLine
 10
108.686895
 20
-1.471265
 30
0.0
 11
108.728887
 21
-1.446733
 31
0.0
  0
LINE
  5
106
100
AcDbEntity
  8
0
390
0
  6
Continuous
 62
     7
100
AcDbLine
 10
108.728887
 20
-1.446733
 30
0.0
 11
108.769768
 21
-1.420038
 31
0.0
  0
LINE
  5
107
100
AcDbEntity
  8
0
390
0
  6
Continuous
 62
     7
100
AcDbLine
 10
108.769768
 20
-1.420038
 30
0.0
 11
108.809358
 21
-1.39131
 31
0.0
  0
LINE
  5
108
100
AcDbEntity
  8
0
390
0
  6
Continuous
 62
     7
100
AcDbLine
 10
108.809358
 20
-1.39131
 30
0.0
 11
108.847535
 21
-1.360663
 31
0.0
  0
ARC
  5
109
100
AcDbEntity
  8
0
390
0
  6
Continuous
 62
     7
100
AcDbCircle
 10
108.878101
 20
-0.749791
 30
0.0
 40
1.50021
210
0.0
220
0.0
230
1.0
100
AcDbArc
 50
270.008009
 51
359.991987
  0
LINE
  5
10A
100
AcDbEntity
  8
0
390
0
  6
Continuous
 62
     7
100
AcDbLine
 10
123.049236
 20
-6.633352
 30
0.0
 11
93.133002
 21
-6.633352
 31
0.0
  0
ELLIPSE
  5
10B
100
AcDbEntity
  8
0
390
0
  6
Continuous
 62
     7
100
AcDbEllipse
 10
98.732518
 20
0.0
 30
0.0
 11
-14.399999999999997
 21
0.0
 31
0.0
210
0.0
220
0.0
230
0.9999999999999999
 40
0.5
 41
0.31682979462342
 42
1.1714075942015367
  0
ELLIPSE
  5
10C
100
AcDbEntity
  8
0
390
0
  6
Continuous
 62
     7
100
AcDbEllipse
 10
96.943663
 20
0.0
 30
0.0
 11
-14.399999999999997
 21
0.0
 31
0.0
210
0.0
220
0.0
230
0.9999999999999999
 40
0.5
 41
0.5988189887858726
 42
1.2807898768773365
  0
ARC
  5
10D
100
AcDbEntity
  8
0
390
0
  6
Continuous
 62
     7
100
AcDbCircle
 10
90.845314
 20
-3.983943
 30
0.0
 40
3.524504
210
0.0
220
0.0
230
1.0
100
AcDbArc
 50
267.568314
 51
304.189842
  0
LINE
  5
10E
100
AcDbEntity
  8
0
390
0
  6
Continuous
 62
     7
100
AcDbLine
 10
92.825862
 20
-6.899343
 30
0.0
 11
93.133002
 21
-6.633352
 31
0.0
  0
LINE
  5
10F
100
AcDbEntity
  8
0
390
0
  6
Continuous
 62
     7
100
AcDbLine
 10
85.049236
 20
8.2
 30
0.0
 11
84.049236
 21
8.2
 31
0.0
  0
LINE
  5
110
100
AcDbEntity
  8
0
390
0
  6
Continuous
 62
     7
100
AcDbLine
 10
124.049236
 20
8.2
 30
0.0
 11
123.049236
 21
8.2
 31
0.0
  0
LINE
  5
111
100
AcDbEntity
  8
0
390
0
  6
Continuous
 62
     7
100
AcDbLine
 10
123.049236
 20
7.2
 30
0.0
 11
85.049236
 21
7.2
 31
0.0
  0
POINT
  5
112
100
AcDbEntity
  8
0
390
0
 62
     7
100
AcDbPoint
 10
0.0
 20
0.0
 30
0.0
  0
ENDSEC
  0
SECTION
  2
OBJECTS
  0
DICTIONARY
  5
19
100
AcDbDictionary
280
     0
281
     1
  3
ACAD_GROUP
350
1A
  3
ACAD_MLINESTYLE
350
1B
  3
ACAD_LAYOUT
350
1E
  3
ACAD_PLOTSETTINGS
350
22
  3
ACAD_PLOTSTYLENAME
350
1F
  3
ACAD_WIPEOUT_VARS
350
23
  0
DICTIONARY
  5
1A
102
{ACAD_REACTORS
330
19
102
}
100
AcDbDictionary
280
     0
281
     1
  0
DICTIONARY
  5
1B
102
{ACAD_REACTORS
330
19
102
}
100
AcDbDictionary
280
     0
281
     1
  3
Standard
350
1C
  0
MLINESTYLE
  5
1C
102
{ACAD_REACTORS
330
1B
102
}
100
AcDbMlineStyle
  2
Standard
 70
     0
  3

 62
     0
 51
90.0
 52
90.0
 71
     2
 49
0.5
 62
   256
  6
ByLayer
 49
-0.5
 62
   256
  6
ByLayer
  0
ACDBDICTIONARYWDFLT
  5
1F
102
{ACAD_REACTORS
330
19
102
}
100
AcDbDictionary
281
     1
  3
Normal
350
1D
100
AcDbDictionaryWithDefault
340
1D
  0
ACDBPLACEHOLDER
  5
1D
102
{ACAD_REACTORS
330
1F
102
}
  0
LAYOUT
  5
20
102
{ACAD_REACTORS
330
1E
102
}
100
AcDbPlotSettings
  1

  2

  4

  6

 40
0.0
 41
0.0
 42
0.0
 43
0.0
 44
0.0
 45
0.0
 46
0.0
 47
0.0
 48
0.0
 49
0.0
140
0.0
141
0.0
142
1.0
143
1.0
 70
  1024
 72
     0
 73
     0
 74
     0
  7

 75
     0
147
1.0
148
0.0
149
0.0
100
AcDbLayout
  1
Model
 70
     0
 71
     1
 10
0.0
 20
0.0
 11
0.0
 21
0.0
 12
0.0
 22
0.0
 32
0.0
 14
0.0
 24
0.0
 34
0.0
 15
0.0
 25
0.0
 35
0.0
146
0.0
 13
0.0
 23
0.0
 33
0.0
 16
0.0
 26
0.0
 36
0.0
 17
0.0
 27
0.0
 37
0.0
 76
     0
330
A
331
0
345
0
346
0
  0
LAYOUT
  5
21
102
{ACAD_REACTORS
330
1E
102
}
100
AcDbPlotSettings
  1

  2

  4

  6

 40
0.0
 41
0.0
 42
0.0
 43
0.0
 44
0.0
 45
0.0
 46
0.0
 47
0.0
 48
0.0
 49
0.0
140
0.0
141
0.0
142
1.0
143
1.0
 70
     0
 72
     0
 73
     0
 74
     0
  7

 75
     0
147
1.0
148
0.0
149
0.0
100
AcDbLayout
  1
Layout1
 70
     0
 71
     2
 10
0.0
 20
0.0
 11
0.0
 21
0.0
 12
0.0
 22
0.0
 32
0.0
 14
0.0
 24
0.0
 34
0.0
 15
0.0
 25
0.0
 35
0.0
146
0.0
 13
0.0
 23
0.0
 33
0.0
 16
0.0
 26
0.0
 36
0.0
 17
0.0
 27
0.0
 37
0.0
 76
     0
330
B
331
0
345
0
346
0
  0
DICTIONARY
  5
1E
102
{ACAD_REACTORS
330
19
102
}
100
AcDbDictionary
280
     0
281
     1
  3
Layout1
350
21
  3
Model
350
20
  0
DICTIONARY
  5
22
102
{ACAD_REACTORS
330
19
102
}
100
AcDbDictionary
280
     0
281
     1
  0
WIPEOUTVARIABLES
  5
23
100
AcDbWipeoutVariables
 70
     1
  0
ENDSEC
  0
EOF
