  0
SECTION
  2
HEADER
  9
$ACADVER
  1
AC1015
  9
$ACADMAINTVER
 70
     6
  9
$DWGCODEPAGE
  3
DOS932
  9
$INSBASE
 10
0.0
 20
0.0
 30
0.0
  9
$EXTMIN
 10
-104.018626
 20
-24.624974
 30
0.0
  9
$EXTMAX
 10
315.126051
 20
264.090101
 30
9.906
  9
$LIMMIN
 10
-104.018626
 20
-24.624974
  9
$LIMMAX
 10
315.126051
 20
264.090101
  9
$ORTHOMODE
 70
     0
  9
$REGENMODE
 70
     1
  9
$FILLMODE
 70
     1
  9
$QTEXTMODE
 70
     0
  9
$MIRRTEXT
 70
     1
  9
$LTSCALE
 40
10.0
  9
$ATTMODE
 70
     1
  9
$TEXTSIZE
 40
0.2
  9
$TRACEWID
 40
0.05
  9
$TEXTSTYLE
  7
Standard
  9
$CLAYER
  8
0
  9
$CELTYPE
  6
Continuous
  9
$CECOLOR
 62
   256
  9
$CELTSCALE
 40
1.0
  9
$DISPSILH
 70
     0
  9
$DIMSCALE
 40
1.0
  9
$DIMASZ
 40
1.40208
  9
$DIMEXO
 40
1.40208
  9
$DIMDLI
 40
0.38
  9
$DIMRND
 40
0.0
  9
$DIMDLE
 40
0.0
  9
$DIMEXE
 40
1.05156
  9
$DIMTP
 40
0.0
  9
$DIMTM
 40
0.0
  9
$DIMTXT
 40
3.5052
  9
$DIMCEN
 40
0.09
  9
$DIMTSZ
 40
0.0
  9
$DIMTOL
 70
     0
  9
$DIMLIM
 70
     0
  9
$DIMTIH
 70
     0
  9
$DIMTOH
 70
     0
  9
$DIMSE1
 70
     0
  9
$DIMSE2
 70
     0
  9
$DIMTAD
 70
     1
  9
$DIMZIN
 70
     0
  9
$DIMBLK
  1

  9
$DIMASO
 70
     1
  9
$DIMSHO
 70
     1
  9
$DIMPOST
  1

  9
$DIMAPOST
  1

  9
$DIMALT
 70
     0
  9
$DIMALTD
 70
     2
  9
$DIMALTF
 40
25.4
  9
$DIMLFAC
 40
1.0
  9
$DIMTOFL
 70
     0
  9
$DIMTVP
 40
0.0
  9
$DIMTIX
 70
     0
  9
$DIMSOXD
 70
     0
  9
$DIMSAH
 70
     0
  9
$DIMBLK1
  1

  9
$DIMBLK2
  1

  9
$DIMSTYLE
  2
Standard
  9
$DIMCLRD
 70
     7
  9
$DIMCLRE
 70
     7
  9
$DIMCLRT
 70
     7
  9
$DIMTFAC
 40
0.5
  9
$DIMGAP
 40
1.7526
  9
$DIMJUST
 70
     0
  9
$DIMSD1
 70
     0
  9
$DIMSD2
 70
     0
  9
$DIMTOLJ
 70
     1
  9
$DIMTZIN
 70
     0
  9
$DIMALTZ
 70
     0
  9
$DIMALTTZ
 70
     0
  9
$DIMUPT
 70
     0
  9
$DIMDEC
 70
     2
  9
$DIMTDEC
 70
     4
  9
$DIMALTU
 70
     2
  9
$DIMALTTD
 70
     2
  9
$DIMTXSTY
  7
Standard
  9
$DIMAUNIT
 70
     0
  9
$DIMADEC
 70
     0
  9
$DIMALTRND
 40
0.0
  9
$DIMAZIN
 70
     0
  9
$DIMDSEP
 70
     0
  9
$DIMATFIT
 70
     3
  9
$DIMFRAC
 70
     0
  9
$DIMLDRBLK
  1

  9
$DIMLUNIT
 70
     2
  9
$DIMLWD
 70
     0
  9
$DIMLWE
 70
     0
  9
$DIMTMOVE
 70
     0
  9
$LUNITS
 70
     2
  9
$LUPREC
 70
     4
  9
$SKETCHINC
 40
0.1
  9
$FILLETRAD
 40
0.0
  9
$AUNITS
 70
     0
  9
$AUPREC
 70
     0
  9
$MENU
  1
acad
  9
$ELEVATION
 40
0.0
  9
$PELEVATION
 40
0.0
  9
$THICKNESS
 40
0.0
  9
$LIMCHECK
 70
     0
  9
$CHAMFERA
 40
0.0
  9
$CHAMFERB
 40
0.0
  9
$CHAMFERC
 40
0.0
  9
$CHAMFERD
 40
0.0
  9
$SKPOLY
 70
     0
  9
$TDCREATE
 40
2459781.729768518
  9
$TDUCREATE
 40
0.000000000
  9
$TDUPDATE
 40
2459781.354722222
  9
$TDUUPDATE
 40
0.000000000
  9
$TDINDWG
 40
0.0000000000
  9
$TDUSRTIMER
 40
0.0000000000
  9
$USRTIMER
 70
     1
  9
$ANGBASE
 50
0.0
  9
$ANGDIR
 70
     0
  9
$PDMODE
 70
     0
  9
$PDSIZE
 40
0.0
  9
$PLINEWID
 40
0.0
  9
$SPLFRAME
 70
     0
  9
$SPLINETYPE
 70
     6
  9
$SPLINESEGS
 70
     8
  9
$HANDSEED
  5
841
  9
$SURFTAB1
 70
     6
  9
$SURFTAB2
 70
     6
  9
$SURFTYPE
 70
     6
  9
$SURFU
 70
     6
  9
$SURFV
 70
     6
  9
$UCSBASE
  2

  9
$UCSNAME
  2

  9
$UCSORG
 10
0.0
 20
0.0
 30
0.0
  9
$UCSXDIR
 10
1.0
 20
0.0
 30
0.0
  9
$UCSYDIR
 10
0.0
 20
1.0
 30
0.0
  9
$UCSORTHOREF
  2

  9
$UCSORTHOVIEW
 70
     0
  9
$UCSORGTOP
 10
0.0
 20
0.0
 30
0.0
  9
$UCSORGBOTTOM
 10
0.0
 20
0.0
 30
0.0
  9
$UCSORGLEFT
 10
0.0
 20
0.0
 30
0.0
  9
$UCSORGRIGHT
 10
0.0
 20
0.0
 30
0.0
  9
$UCSORGFRONT
 10
0.0
 20
0.0
 30
0.0
  9
$UCSORGBACK
 10
0.0
 20
0.0
 30
0.0
  9
$PUCSBASE
  2

  9
$PUCSNAME
  2

  9
$PUCSORG
 10
0.0
 20
0.0
 30
0.0
  9
$PUCSXDIR
 10
1.0
 20
0.0
 30
0.0
  9
$PUCSYDIR
 10
0.0
 20
1.0
 30
0.0
  9
$PUCSORTHOREF
  2

  9
$PUCSORTHOVIEW
 70
     0
  9
$PUCSORGTOP
 10
0.0
 20
0.0
 30
0.0
  9
$PUCSORGBOTTOM
 10
0.0
 20
0.0
 30
0.0
  9
$PUCSORGLEFT
 10
0.0
 20
0.0
 30
0.0
  9
$PUCSORGRIGHT
 10
0.0
 20
0.0
 30
0.0
  9
$PUCSORGFRONT
 10
0.0
 20
0.0
 30
0.0
  9
$PUCSORGBACK
 10
0.0
 20
0.0
 30
0.0
  9
$USERI1
 70
     0
  9
$USERI2
 70
     0
  9
$USERI3
 70
     0
  9
$USERI4
 70
     0
  9
$USERI5
 70
     0
  9
$USERR1
 40
0.0
  9
$USERR2
 40
0.0
  9
$USERR3
 40
0.0
  9
$USERR4
 40
0.0
  9
$USERR5
 40
0.0
  9
$WORLDVIEW
 70
     1
  9
$SHADEDGE
 70
     3
  9
$SHADEDIF
 70
    70
  9
$TILEMODE
 70
     1
  9
$MAXACTVP
 70
    16
  9
$PINSBASE
 10
0.0
 20
0.0
 30
0.0
  9
$PLIMCHECK
 70
     0
  9
$PEXTMIN
 10
1.000000E+20
 20
1.000000E+20
 30
1.000000E+20
  9
$PEXTMAX
 10
-1.000000E+20
 20
-1.000000E+20
 30
-1.000000E+20
  9
$PLIMMIN
 10
0.0
 20
0.0
  9
$PLIMMAX
 10
12.0
 20
9.0
  9
$UNITMODE
 70
     0
  9
$VISRETAIN
 70
     0
  9
$PLINEGEN
 70
     1
  9
$PSLTSCALE
 70
     0
  9
$TREEDEPTH
 70
  3020
  9
$CMLSTYLE
  2
Standard
  9
$CMLJUST
 70
     0
  9
$CMLSCALE
 40
1.0
  9
$PROXYGRAPHICS
 70
     0
  9
$MEASUREMENT
 70
     0
  9
$CELWEIGHT
370
     0
  9
$ENDCAPS
280
     0
  9
$JOINSTYLE
280
     0
  9
$LWDISPLAY
290
     0
  9
$INSUNITS
 70
     0
  9
$HYPERLINKBASE
  1

  9
$STYLESHEET
  1

  9
$XEDIT
290
     1
  9
$CEPSNTYPE
380
     0
  9
$PSTYLEMODE
290
     1
  9
$FINGERPRINTGUID
  2

  9
$VERSIONGUID
  2

  9
$EXTNAMES
290
     1
  9
$PSVPSCALE
 40
0.0
  0
ENDSEC
  0
SECTION
  2
CLASSES
  0
CLASS
  1
LWPOLYLINE
  2
AcDbPolyline
  3
AutoCAD 2000
 90
        0
280
     0
281
     1
  0
CLASS
  1
IMAGE
  2
AcDbRasterImage
  3
ISM
 90
      127
280
     0
281
     1
  0
CLASS
  1
OLE2FRAME
  2
AcDbOle2Frame
  3
AutoCAD 2000
 90
        0
280
     0
281
     1
  0
CLASS
  1
HATCH
  2
AcDbHatch
  3
AutoCAD 2000
 90
        0
280
     0
281
     1
  0
CLASS
  1
DICTIONARYVAR
  2
AcDbDictionaryVar
  3
AutoCAD 2000
 90
        0
280
     0
281
     0
  0
CLASS
  1
RASTERVARIABLES
  2
AcDbRasterVariables
  3
ISM
 90
        0
280
     0
281
     0
  0
CLASS
  1
IMAGEDEF
  2
AcDbRasterImageDef
  3
ISM
 90
        0
280
     0
281
     0
  0
CLASS
  1
IMAGEDEF_REACTOR
  2
AcDbRasterImageDefReactor
  3
ISM
 90
        1
280
     0
281
     0
  0
CLASS
  1
IDBUFFER
  2
AcDbIdBuffer
  3
AutoCAD 2000
 90
        0
280
     0
281
     0
  0
CLASS
  1
SPATIAL_FILTER
  2
AcDbSpatialFilter
  3
AutoCAD 2000
 90
        0
280
     0
281
     0
  0
CLASS
  1
XRECORD
  2
AcDbXrecord
  3
AutoCAD 2000
 90
        0
280
     0
281
     0
  0
CLASS
  1
SORTENTSTABLE
  2
AcDbSortentsTable
  3
AutoCAD 2000
 90
        0
280
     0
281
     0
  0
CLASS
  1
LAYER_INDEX
  2
AcDbLayerIndex
  3
AutoCAD 2000
 90
        0
280
     0
281
     0
  0
CLASS
  1
SPATIAL_INDEX
  2
AcDbSpatialIndex
  3
AutoCAD 2000
 90
        0
280
     0
281
     0
  0
CLASS
  1
OBJECT_PTR
  2
CAseDLPNTableRecord
  3
"ASE-LPNTableRecord"
 90
        1
280
     0
281
     0
  0
CLASS
  1
LAYOUT
  2
AcDbLayout
  3
AutoCAD 2000
 90
        0
280
     0
281
     0
  0
CLASS
  1
PLOTSETTINGS
  2
AcDbPlotSettings
  3
AutoCAD 2000
 90
        0
280
     0
281
     0
  0
CLASS
  1
ACDBDICTIONARYWDFLT
  2
AcDbDictionaryWithDefault
  3
AutoCAD 2000
 90
        0
280
     0
281
     0
  0
CLASS
  1
ACDBPLACEHOLDER
  2
AcDbPlaceHolder
  3
AutoCAD 2000
 90
        0
280
     0
281
     0
  0
CLASS
  1
VBA_PROJECT
  2
AcDbVbaProject
  3
acadvba
 90
        0
280
     0
281
     0
  0
CLASS
  1
WIPEOUT
  2
AcDbWipeout
  3
WipeOut|AutoCAD Express Tool|expresstools@autodesk.com
 90
      127
280
     0
281
     1
  0
CLASS
  1
WIPEOUTVARIABLES
  2
AcDbWipeoutVariables
  3
WipeOut|AutoCAD Express Tool|expresstools@autodesk.com
 90
        0
280
     0
281
     0
  0
CLASS
  1
RTEXT
  2
RText
  3
RText|AutoCAD Express Tool|expresstools@autodesk.com
 90
        0
280
     0
281
     1
  0
CLASS
  1
ARCALIGNEDTEXT
  2
AcDbArcAlignedText
  3
ATEXT|AutoCAD Express Tool|expresstools@autodesk.com
 90
        0
280
     0
281
     1
  0
ENDSEC
  0
SECTION
  2
TABLES
  0
TABLE
  2
VPORT
  5
7
100
AcDbSymbolTable
 70
     1
  0
VPORT
  5
15
100
AcDbSymbolTableRecord
100
AcDbViewportTableRecord
  2
*ACTIVE
 70
     0
 10
0.0
 20
0.0
 11
1.0
 21
1.0
 12
6.591288
 22
4.579184
 13
0.0
 23
0.0
 14
1.0
 24
1.0
 15
0.0
 25
0.0
 16
0.0
 26
0.0
 36
1.0
 17
0.0
 27
0.0
 37
0.0
 40
9.158369
 41
0.688564
 42
50.0
 43
0.0
 44
0.0
 50
0.0
 51
0.0
 71
     0
 72
   100
 73
     1
 74
     1
 75
     0
 76
     0
 77
     0
 78
     0
281
     0
 65
     0
110
0.0
120
0.0
130
0.0
111
1.0
121
0.0
131
0.0
112
0.0
122
1.0
132
0.0
345
0
346
0
 79
     0
146
0.0
  0
ENDTAB
  0
TABLE
  2
LTYPE
  5
4
100
AcDbSymbolTable
 70
     3
  0
LTYPE
  5
11
100
AcDbSymbolTableRecord
100
AcDbLinetypeTableRecord
  2
ByBlock
 70
    64
  3

 72
    65
 73
     0
 40
0.0
  0
LTYPE
  5
12
100
AcDbSymbolTableRecord
100
AcDbLinetypeTableRecord
  2
ByLayer
 70
    64
  3

 72
    65
 73
     0
 40
0.0
  0
LTYPE
  5
13
100
AcDbSymbolTableRecord
100
AcDbLinetypeTableRecord
  2
Continuous
 70
    64
  3
Solid line
 72
    65
 73
     0
 40
0.0
  0
ENDTAB
  0
TABLE
  2
LAYER
  5
2
100
AcDbSymbolTable
 70
     1
  0
LAYER
  5
14
100
AcDbSymbolTableRecord
100
AcDbLayerTableRecord
  2
0
 70
     0
 62
     7
  6
Continuous
290
     1
370
    -3
390
1D
  0
ENDTAB
  0
TABLE
  2
STYLE
  5
3
100
AcDbSymbolTable
 70
     1
  0
STYLE
  5
17
100
AcDbSymbolTableRecord
100
AcDbTextStyleTableRecord
  2
Standard
 70
     0
 40
0.0
 41
1.0
 50
0.0
 71
     0
 42
0.0
  3
FG教科書体NT-M
  4

1001
ACAD
1000
FG教科書体NT-M
1071
        0
  0
ENDTAB
  0
TABLE
  2
VIEW
  5
5
100
AcDbSymbolTable
 70
     0
  0
ENDTAB
  0
TABLE
  2
UCS
  5
6
100
AcDbSymbolTable
 70
     0
  0
ENDTAB
  0
TABLE
  2
APPID
  5
8
100
AcDbSymbolTable
 70
     2
  0
APPID
  5
16
100
AcDbSymbolTableRecord
100
AcDbRegAppTableRecord
  2
ACAD
 70
     0
  0
APPID
  5
26
100
AcDbSymbolTableRecord
100
AcDbRegAppTableRecord
  2
TOPsolid_Design
 70
     0
  0
ENDTAB
  0
TABLE
  2
DIMSTYLE
  5
9
100
AcDbSymbolTable
 70
     1
100
AcDbDimStyleTable
 71
     0
  0
DIMSTYLE
105
18
100
AcDbSymbolTableRecord
100
AcDbDimStyleTableRecord
  2
Standard
 70
     0
  3

  4

 40
1.0
 41
1.40208
 42
1.40208
 43
0.38
 44
1.05156
 45
0.0
 46
0.0
 47
0.0
 48
0.0
 71
     0
 72
     0
 73
     0
 74
     0
 75
     0
 76
     0
 77
     1
 78
     0
 79
     0
140
3.5052
141
0.09
142
0.0
143
25.4
144
1.0
145
0.0
146
0.5
147
1.7526
148
0.0
170
     0
171
     2
172
     0
173
     0
174
     0
175
     0
176
     7
177
     7
178
     7
179
     0
271
     2
272
     4
273
     2
274
     2
275
     0
276
     0
277
     2
278
    46
279
     0
280
     0
281
     0
282
     0
283
     1
284
     0
285
     0
286
     0
288
     0
289
     3
340
17
341
0
342
0
343
0
344
0
371
    -2
372
    -2
  0
ENDTAB
  0
TABLE
  2
BLOCK_RECORD
  5
1
100
AcDbSymbolTable
 70
     0
  0
BLOCK_RECORD
  5
A
100
AcDbSymbolTableRecord
100
AcDbBlockTableRecord
  2
*MODEL_SPACE
340
20
  0
BLOCK_RECORD
  5
B
100
AcDbSymbolTableRecord
100
AcDbBlockTableRecord
  2
*PAPER_SPACE
340
21
  0
ENDTAB
  0
ENDSEC
  0
SECTION
  2
BLOCKS
  0
BLOCK
  5
D
100
AcDbEntity
  8
0
390
0
100
AcDbBlockBegin
  2
*MODEL_SPACE
 70
     0
 10
0.0
 20
0.0
 30
0.0
  3
*MODEL_SPACE
  1

  0
ENDBLK
  5
E
100
AcDbEntity
  8
0
390
0
100
AcDbBlockEnd
  0
BLOCK
  5
F
100
AcDbEntity
 67
     1
  8
0
390
0
100
AcDbBlockBegin
  2
*PAPER_SPACE
 70
     0
 10
0.0
 20
0.0
 30
0.0
  3
*PAPER_SPACE
  1

  0
ENDBLK
  5
10
100
AcDbEntity
 67
     1
  8
0
390
0
100
AcDbBlockEnd
  0
ENDSEC
  0
SECTION
  2
ENTITIES
  0
LINE
  5
27
100
AcDbEntity
  8
0
390
0
  6
Continuous
 62
     7
100
AcDbLine
 10
-5.354601
 20
-23.6
 30
0.0
 11
-5.344488
 21
-23.603612
 31
0.0
  0
LINE
  5
28
100
AcDbEntity
  8
0
390
0
  6
Continuous
 62
     7
100
AcDbLine
 10
-4.360584
 20
-23.935678
 30
0.0
 11
-4.193534
 21
-23.988287
 31
0.0
  0
LINE
  5
29
100
AcDbEntity
  8
0
390
0
  6
Continuous
 62
     7
100
AcDbLine
 10
-5.354601
 20
23.600002
 30
0.0
 11
-4.193534
 21
23.988289
 31
0.0
  0
LINE
  5
2A
100
AcDbEntity
  8
0
390
0
  6
Continuous
 62
     7
100
AcDbLine
 10
-6.11188
 20
-23.161879
 30
0.0
 11
-6.11188
 21
-21.398786
 31
0.0
  0
POLYLINE
  5
2B
100
AcDbEntity
  8
0
390
0
  6
Continuous
 62
     7
100
AcDb2dPolyline
 66
     1
 10
0.0
 20
0.0
 30
0.0
 40
0.1
 41
0.1
  0
VERTEX
  5
2C
100
AcDbEntity
  8
0
390
0
 62
     7
100
AcDbVertex
100
AcDb2dVertex
 10
-2.767316
 20
-4.592069
 30
0.0
 42
-0.084742
  0
VERTEX
  5
2D
100
AcDbEntity
  8
0
390
0
 62
     7
100
AcDbVertex
100
AcDb2dVertex
 10
1.865494
 20
-9.217903
 30
0.0
 42
-0.083188
  0
VERTEX
  5
2E
100
AcDbEntity
  8
0
390
0
 62
     7
100
AcDbVertex
100
AcDb2dVertex
 10
2.047581
 20
-9.754748
 30
0.0
  0
VERTEX
  5
2F
100
AcDbEntity
  8
0
390
0
 62
     7
100
AcDbVertex
100
AcDb2dVertex
 10
2.059616
 20
-9.892644
 30
0.0
  0
VERTEX
  5
30
100
AcDbEntity
  8
0
390
0
 62
     7
100
AcDbVertex
100
AcDb2dVertex
 10
2.055674
 20
-10.030985
 30
0.0
  0
VERTEX
  5
31
100
AcDbEntity
  8
0
390
0
 62
     7
100
AcDbVertex
100
AcDb2dVertex
 10
2.036554
 20
-10.167512
 30
0.0
 42
-0.201439
  0
VERTEX
  5
32
100
AcDbEntity
  8
0
390
0
 62
     7
100
AcDbVertex
100
AcDb2dVertex
 10
0.210539
 20
-12.246442
 30
0.0
 42
-0.050457
  0
VERTEX
  5
33
100
AcDbEntity
  8
0
390
0
 62
     7
100
AcDbVertex
100
AcDb2dVertex
 10
-2.767313
 20
-13.979323
 30
0.0
  0
SEQEND
  5
34
100
AcDbEntity
  8
0
390
0
  0
LINE
  5
35
100
AcDbEntity
  8
0
390
0
  6
Continuous
 62
     7
100
AcDbLine
 10
-2.767313
 20
-13.979323
 30
0.0
 11
-4.193537
 21
-14.758681
 31
0.0
  0
POLYLINE
  5
36
100
AcDbEntity
  8
0
390
0
  6
Continuous
 62
     7
100
AcDb2dPolyline
 66
     1
 10
0.0
 20
0.0
 30
0.0
 40
0.1
 41
0.1
  0
VERTEX
  5
37
100
AcDbEntity
  8
0
390
0
 62
     7
100
AcDbVertex
100
AcDb2dVertex
 10
-4.193537
 20
-14.758681
 30
0.0
 42
0.504285
  0
VERTEX
  5
38
100
AcDbEntity
  8
0
390
0
 62
     7
100
AcDbVertex
100
AcDb2dVertex
 10
-4.524976
 20
-18.77243
 30
0.0
  0
VERTEX
  5
39
100
AcDbEntity
  8
0
390
0
 62
     7
100
AcDbVertex
100
AcDb2dVertex
 10
-4.364639
 20
-18.97131
 30
0.0
  0
VERTEX
  5
3A
100
AcDbEntity
  8
0
390
0
 62
     7
100
AcDbVertex
100
AcDb2dVertex
 10
-4.193535
 20
-19.165881
 30
0.0
  0
SEQEND
  5
3B
100
AcDbEntity
  8
0
390
0
  0
LINE
  5
3C
100
AcDbEntity
  8
0
390
0
  6
Continuous
 62
     7
100
AcDbLine
 10
-4.193535
 20
-19.165881
 30
0.0
 11
-2.767315
 21
-20.473493
 31
0.0
  0
POLYLINE
  5
3D
100
AcDbEntity
  8
0
390
0
  6
Continuous
 62
     7
100
AcDb2dPolyline
 66
     1
 10
0.0
 20
0.0
 30
0.0
 40
0.1
 41
0.1
  0
VERTEX
  5
3E
100
AcDbEntity
  8
0
390
0
 62
     7
100
AcDbVertex
100
AcDb2dVertex
 10
-2.767315
 20
-20.473493
 30
0.0
 42
-0.013314
  0
VERTEX
  5
3F
100
AcDbEntity
  8
0
390
0
 62
     7
100
AcDbVertex
100
AcDb2dVertex
 10
1.928522
 20
-23.71712
 30
0.0
  0
VERTEX
  5
40
100
AcDbEntity
  8
0
390
0
 62
     7
100
AcDbVertex
100
AcDb2dVertex
 10
2.00186
 20
-23.809449
 30
0.0
  0
VERTEX
  5
41
100
AcDbEntity
  8
0
390
0
 62
     7
100
AcDbVertex
100
AcDb2dVertex
 10
2.047581
 20
-23.900196
 30
0.0
  0
VERTEX
  5
42
100
AcDbEntity
  8
0
390
0
 62
     7
100
AcDbVertex
100
AcDb2dVertex
 10
2.055674
 20
-24.015662
 30
0.0
  0
VERTEX
  5
43
100
AcDbEntity
  8
0
390
0
 62
     7
100
AcDbVertex
100
AcDb2dVertex
 10
2.003225
 20
-24.120393
 30
0.0
  0
VERTEX
  5
44
100
AcDbEntity
  8
0
390
0
 62
     7
100
AcDbVertex
100
AcDb2dVertex
 10
1.925177
 20
-24.193136
 30
0.0
  0
VERTEX
  5
45
100
AcDbEntity
  8
0
390
0
 62
     7
100
AcDbVertex
100
AcDb2dVertex
 10
1.822583
 20
-24.257702
 30
0.0
  0
VERTEX
  5
46
100
AcDbEntity
  8
0
390
0
 62
     7
100
AcDbVertex
100
AcDb2dVertex
 10
1.702336
 20
-24.314523
 30
0.0
 42
-0.088129
  0
VERTEX
  5
47
100
AcDbEntity
  8
0
390
0
 62
     7
100
AcDbVertex
100
AcDb2dVertex
 10
-0.428551
 20
-24.621697
 30
0.0
  0
SEQEND
  5
48
100
AcDbEntity
  8
0
390
0
  0
LINE
  5
49
100
AcDbEntity
  8
0
390
0
  6
Continuous
 62
     7
100
AcDbLine
 10
-2.767315
 20
-24.361821
 30
0.0
 11
-4.193536
 21
-23.988286
 31
0.0
  0
LINE
  5
4A
100
AcDbEntity
  8
0
390
0
  6
Continuous
 62
     7
100
AcDbLine
 10
-4.193536
 20
-23.988286
 30
0.0
 11
-5.354601
 21
-23.6
 31
0.0
  0
LINE
  5
4B
100
AcDbEntity
  8
0
390
0
  6
Continuous
 62
     7
100
AcDbLine
 10
-4.193536
 20
23.988287
 30
0.0
 11
-4.360595
 21
23.935675
 31
0.0
  0
LINE
  5
4C
100
AcDbEntity
  8
0
390
0
  6
Continuous
 62
     7
100
AcDbLine
 10
-4.193534
 20
23.988289
 30
0.0
 11
-2.767316
 21
24.361821
 31
0.0
  0
ARC
  5
4D
100
AcDbEntity
  8
0
390
0
  6
Continuous
 62
     7
100
AcDbCircle
 10
-0.410005
 20
13.800737
 30
0.0
 40
10.820971
210
0.0
220
0.0
230
1.0
100
AcDbArc
 50
90.080199
 51
102.58258
  0
LINE
  5
4E
100
AcDbEntity
  8
0
390
0
  6
Continuous
 62
     7
100
AcDbLine
 10
-2.767313
 20
20.473495
 30
0.0
 11
-4.193537
 21
19.165879
 31
0.0
  0
POLYLINE
  5
4F
100
AcDbEntity
  8
0
390
0
  6
Continuous
 62
     7
100
AcDb2dPolyline
 66
     1
 10
0.0
 20
0.0
 30
0.0
 40
0.1
 41
0.1
  0
VERTEX
  5
50
100
AcDbEntity
  8
0
390
0
 62
     7
100
AcDbVertex
100
AcDb2dVertex
 10
-4.193537
 20
19.165879
 30
0.0
 42
0.445354
  0
VERTEX
  5
51
100
AcDbEntity
  8
0
390
0
 62
     7
100
AcDbVertex
100
AcDb2dVertex
 10
-4.653158
 20
15.117345
 30
0.0
  0
VERTEX
  5
52
100
AcDbEntity
  8
0
390
0
 62
     7
100
AcDbVertex
100
AcDb2dVertex
 10
-4.524976
 20
15.003013
 30
0.0
  0
VERTEX
  5
53
100
AcDbEntity
  8
0
390
0
 62
     7
100
AcDbVertex
100
AcDb2dVertex
 10
-4.364639
 20
14.877025
 30
0.0
  0
VERTEX
  5
54
100
AcDbEntity
  8
0
390
0
 62
     7
100
AcDbVertex
100
AcDb2dVertex
 10
-4.193535
 20
14.75868
 30
0.0
  0
SEQEND
  5
55
100
AcDbEntity
  8
0
390
0
  0
LINE
  5
56
100
AcDbEntity
  8
0
390
0
  6
Continuous
 62
     7
100
AcDbLine
 10
-4.193535
 20
14.75868
 30
0.0
 11
-2.767315
 21
13.979325
 31
0.0
  0
POLYLINE
  5
57
100
AcDbEntity
  8
0
390
0
  6
Continuous
 62
     7
100
AcDb2dPolyline
 66
     1
 10
0.0
 20
0.0
 30
0.0
 40
0.1
 41
0.1
  0
VERTEX
  5
58
100
AcDbEntity
  8
0
390
0
 62
     7
100
AcDbVertex
100
AcDb2dVertex
 10
-2.767315
 20
13.979325
 30
0.0
 42
-0.157822
  0
VERTEX
  5
59
100
AcDbEntity
  8
0
390
0
 62
     7
100
AcDbVertex
100
AcDb2dVertex
 10
1.928522
 20
10.493526
 30
0.0
  0
VERTEX
  5
5A
100
AcDbEntity
  8
0
390
0
 62
     7
100
AcDbVertex
100
AcDb2dVertex
 10
1.98017
 20
10.368289
 30
0.0
  0
VERTEX
  5
5B
100
AcDbEntity
  8
0
390
0
 62
     7
100
AcDbVertex
100
AcDb2dVertex
 10
2.020481
 20
10.238345
 30
0.0
  0
VERTEX
  5
5C
100
AcDbEntity
  8
0
390
0
 62
     7
100
AcDbVertex
100
AcDb2dVertex
 10
2.047581
 20
10.104897
 30
0.0
  0
VERTEX
  5
5D
100
AcDbEntity
  8
0
390
0
 62
     7
100
AcDbVertex
100
AcDb2dVertex
 10
2.059616
 20
9.968539
 30
0.0
  0
VERTEX
  5
5E
100
AcDbEntity
  8
0
390
0
 62
     7
100
AcDbVertex
100
AcDb2dVertex
 10
2.055674
 20
9.829706
 30
0.0
 42
-0.187368
  0
VERTEX
  5
5F
100
AcDbEntity
  8
0
390
0
 62
     7
100
AcDbVertex
100
AcDb2dVertex
 10
0.210535
 20
7.281168
 30
0.0
 42
-0.013694
  0
VERTEX
  5
60
100
AcDbEntity
  8
0
390
0
 62
     7
100
AcDbVertex
100
AcDb2dVertex
 10
-2.767315
 20
4.592072
 30
0.0
  0
SEQEND
  5
61
100
AcDbEntity
  8
0
390
0
  0
LINE
  5
62
100
AcDbEntity
  8
0
390
0
  6
Continuous
 62
     7
100
AcDbLine
 10
-2.767315
 20
4.592072
 30
0.0
 11
-4.193536
 21
3.116362
 31
0.0
  0
ARC
  5
63
100
AcDbEntity
  8
0
390
0
  6
Continuous
 62
     7
100
AcDbCircle
 10
-0.59149
 20
0.0
 30
0.0
 40
4.763029
210
0.0
220
0.0
230
1.0
100
AcDbArc
 50
139.134803
 51
220.865228
  0
LINE
  5
64
100
AcDbEntity
  8
0
390
0
  6
Continuous
 62
     7
100
AcDbLine
 10
-4.193534
 20
-3.116363
 30
0.0
 11
-2.767316
 21
-4.592069
 31
0.0
  0
LINE
  5
65
100
AcDbEntity
  8
0
390
0
  6
Continuous
 62
     7
100
AcDbLine
 10
-6.11188
 20
-21.398786
 30
0.0
 11
-6.11188
 21
23.16188
 31
0.0
  0
LINE
  5
66
100
AcDbEntity
  8
0
390
0
  6
Continuous
 62
     7
100
AcDbLine
 10
8.25
 20
-4.592069
 30
0.0
 11
-2.767316
 21
-4.592069
 31
0.0
  0
LINE
  5
67
100
AcDbEntity
  8
0
390
0
  6
Continuous
 62
     7
100
AcDbLine
 10
8.25
 20
-13.979323
 30
0.0
 11
-2.767313
 21
-13.979323
 31
0.0
  0
LINE
  5
68
100
AcDbEntity
  8
0
390
0
  6
Continuous
 62
     7
100
AcDbLine
 10
8.25
 20
-13.979323
 30
0.0
 11
8.25
 21
-4.592069
 31
0.0
  0
LINE
  5
69
100
AcDbEntity
  8
0
390
0
  6
Continuous
 62
     7
100
AcDbLine
 10
8.25
 20
13.979325
 30
0.0
 11
-2.767315
 21
13.979325
 31
0.0
  0
LINE
  5
6A
100
AcDbEntity
  8
0
390
0
  6
Continuous
 62
     7
100
AcDbLine
 10
8.25
 20
4.592072
 30
0.0
 11
-2.767315
 21
4.592072
 31
0.0
  0
LINE
  5
6B
100
AcDbEntity
  8
0
390
0
  6
Continuous
 62
     7
100
AcDbLine
 10
8.25
 20
4.592072
 30
0.0
 11
8.25
 21
13.979325
 31
0.0
  0
LINE
  5
6C
100
AcDbEntity
  8
0
390
0
  6
Continuous
 62
     7
100
AcDbLine
 10
8.25
 20
3.116362
 30
0.0
 11
-4.193536
 21
3.116362
 31
0.0
  0
LINE
  5
6D
100
AcDbEntity
  8
0
390
0
  6
Continuous
 62
     7
100
AcDbLine
 10
8.25
 20
3.116362
 30
0.0
 11
8.25
 21
4.592072
 31
0.0
  0
LINE
  5
6E
100
AcDbEntity
  8
0
390
0
  6
Continuous
 62
     7
100
AcDbLine
 10
8.25
 20
-3.116363
 30
0.0
 11
-4.193534
 21
-3.116363
 31
0.0
  0
LINE
  5
6F
100
AcDbEntity
  8
0
390
0
  6
Continuous
 62
     7
100
AcDbLine
 10
8.25
 20
-4.592069
 30
0.0
 11
8.25
 21
-3.116363
 31
0.0
  0
LINE
  5
70
100
AcDbEntity
  8
0
390
0
  6
Continuous
 62
     7
100
AcDbLine
 10
8.25
 20
3.116362
 30
0.0
 11
8.25
 21
-3.116363
 31
0.0
  0
LINE
  5
71
100
AcDbEntity
  8
0
390
0
  6
Continuous
 62
     7
100
AcDbLine
 10
8.25
 20
-14.758681
 30
0.0
 11
-4.193537
 21
-14.758681
 31
0.0
  0
LINE
  5
72
100
AcDbEntity
  8
0
390
0
  6
Continuous
 62
     7
100
AcDbLine
 10
8.25
 20
-14.758681
 30
0.0
 11
8.25
 21
-13.979323
 31
0.0
  0
LINE
  5
73
100
AcDbEntity
  8
0
390
0
  6
Continuous
 62
     7
100
AcDbLine
 10
8.25
 20
14.75868
 30
0.0
 11
-4.193535
 21
14.75868
 31
0.0
  0
LINE
  5
74
100
AcDbEntity
  8
0
390
0
  6
Continuous
 62
     7
100
AcDbLine
 10
8.25
 20
13.979325
 30
0.0
 11
8.25
 21
14.75868
 31
0.0
  0
LINE
  5
75
100
AcDbEntity
  8
0
390
0
  6
Continuous
 62
     7
100
AcDbLine
 10
8.25
 20
19.165879
 30
0.0
 11
-4.193537
 21
19.165879
 31
0.0
  0
LINE
  5
76
100
AcDbEntity
  8
0
390
0
  6
Continuous
 62
     7
100
AcDbLine
 10
8.25
 20
19.165879
 30
0.0
 11
8.25
 21
14.75868
 31
0.0
  0
LINE
  5
77
100
AcDbEntity
  8
0
390
0
  6
Continuous
 62
     7
100
AcDbLine
 10
8.25
 20
-19.165881
 30
0.0
 11
-4.193535
 21
-19.165881
 31
0.0
  0
LINE
  5
78
100
AcDbEntity
  8
0
390
0
  6
Continuous
 62
     7
100
AcDbLine
 10
8.25
 20
-14.758681
 30
0.0
 11
8.25
 21
-19.165881
 31
0.0
  0
LINE
  5
79
100
AcDbEntity
  8
0
390
0
  6
Continuous
 62
     7
100
AcDbLine
 10
8.25
 20
20.473495
 30
0.0
 11
-2.767313
 21
20.473495
 31
0.0
  0
LINE
  5
7A
100
AcDbEntity
  8
0
390
0
  6
Continuous
 62
     7
100
AcDbLine
 10
8.25
 20
19.165879
 30
0.0
 11
8.25
 21
20.473495
 31
0.0
  0
LINE
  5
7B
100
AcDbEntity
  8
0
390
0
  6
Continuous
 62
     7
100
AcDbLine
 10
8.25
 20
-20.473493
 30
0.0
 11
-2.767315
 21
-20.473493
 31
0.0
  0
LINE
  5
7C
100
AcDbEntity
  8
0
390
0
  6
Continuous
 62
     7
100
AcDbLine
 10
8.25
 20
-20.473493
 30
0.0
 11
8.25
 21
-19.165881
 31
0.0
  0
ARC
  5
7D
100
AcDbEntity
  8
0
390
0
  6
Continuous
 62
     7
100
AcDbCircle
 10
-0.403165
 20
-13.739438
 30
0.0
 40
10.882289
210
0.0
220
0.0
230
1.0
100
AcDbArc
 50
257.452587
 51
269.866344
  0
LINE
  5
7E
100
AcDbEntity
  8
0
390
0
  6
Continuous
 62
     7
100
AcDbLine
 10
8.25
 20
-24.621697
 30
0.0
 11
8.25
 21
-20.473493
 31
0.0
  0
POLYLINE
  5
7F
100
AcDbEntity
  8
0
390
0
  6
Continuous
 62
     7
100
AcDb2dPolyline
 66
     1
 10
0.0
 20
0.0
 30
0.0
 40
0.1
 41
0.1
  0
VERTEX
  5
80
100
AcDbEntity
  8
0
390
0
 62
     7
100
AcDbVertex
100
AcDb2dVertex
 10
-0.425152
 20
24.621697
 30
0.0
 42
-0.100115
  0
VERTEX
  5
81
100
AcDbEntity
  8
0
390
0
 62
     7
100
AcDbVertex
100
AcDb2dVertex
 10
1.79411
 20
24.272799
 30
0.0
  0
VERTEX
  5
82
100
AcDbEntity
  8
0
390
0
 62
     7
100
AcDbVertex
100
AcDb2dVertex
 10
1.928521
 20
24.190581
 30
0.0
  0
VERTEX
  5
83
100
AcDbEntity
  8
0
390
0
 62
     7
100
AcDbVertex
100
AcDb2dVertex
 10
2.00186
 20
24.121732
 30
0.0
  0
VERTEX
  5
84
100
AcDbEntity
  8
0
390
0
 62
     7
100
AcDbVertex
100
AcDb2dVertex
 10
2.055591
 20
24.018227
 30
0.0
  0
VERTEX
  5
85
100
AcDbEntity
  8
0
390
0
 62
     7
100
AcDbVertex
100
AcDb2dVertex
 10
2.047951
 20
23.902473
 30
0.0
  0
VERTEX
  5
86
100
AcDbEntity
  8
0
390
0
 62
     7
100
AcDbVertex
100
AcDb2dVertex
 10
2.003226
 20
23.811209
 30
0.0
  0
VERTEX
  5
87
100
AcDbEntity
  8
0
390
0
 62
     7
100
AcDbVertex
100
AcDb2dVertex
 10
1.925178
 20
23.713446
 30
0.0
 42
-0.008485
  0
VERTEX
  5
88
100
AcDbEntity
  8
0
390
0
 62
     7
100
AcDbVertex
100
AcDb2dVertex
 10
-2.767313
 20
20.473496
 30
0.0
  0
SEQEND
  5
89
100
AcDbEntity
  8
0
390
0
  0
LINE
  5
8A
100
AcDbEntity
  8
0
390
0
  6
Continuous
 62
     7
100
AcDbLine
 10
8.25
 20
20.473495
 30
0.0
 11
8.25
 21
24.621699
 31
0.0
  0
ARC
  5
8B
100
AcDbEntity
  8
0
390
0
  6
Continuous
 62
     7
100
AcDbCircle
 10
4.279882
 20
-6.073542
 30
0.0
 40
20.0
210
0.0
220
0.0
230
1.0
100
AcDbArc
 50
238.695373
 51
241.204435
  0
ARC
  5
8C
100
AcDbEntity
  8
0
390
0
  6
Continuous
 62
     7
100
AcDbCircle
 10
4.279882
 20
6.073542
 30
0.0
 40
20.0
210
0.0
220
0.0
230
1.0
100
AcDbArc
 50
118.795565
 51
121.304627
  0
ARC
  5
8D
100
AcDbEntity
  8
0
390
0
  6
Continuous
 62
     7
100
AcDbCircle
 10
-0.95
 20
-18.0
 30
0.0
 40
7.3
210
0.0
220
0.0
230
1.0
100
AcDbArc
 50
180.0
 51
225.0
  0
ARC
  5
8E
100
AcDbEntity
  8
0
390
0
  6
Continuous
 62
     7
100
AcDbCircle
 10
-0.95
 20
18.000001
 30
0.0
 40
7.3
210
0.0
220
0.0
230
1.0
100
AcDbArc
 50
135.0
 51
180.0
  0
LINE
  5
8F
100
AcDbEntity
  8
0
390
0
  6
Continuous
 62
     7
100
AcDbLine
 10
-8.25
 20
18.000001
 30
0.0
 11
-8.25
 21
-18.0
 31
0.0
  0
LINE
  5
90
100
AcDbEntity
  8
0
390
0
  6
Continuous
 62
     7
100
AcDbLine
 10
-0.427841
 20
-24.621697
 30
0.0
 11
8.25
 21
-24.621697
 31
0.0
  0
LINE
  5
91
100
AcDbEntity
  8
0
390
0
  6
Continuous
 62
     7
100
AcDbLine
 10
8.25
 20
24.621699
 30
0.0
 11
-0.421515
 21
24.621699
 31
0.0
  0
ARC
  5
92
100
AcDbEntity
  8
0
390
0
  6
Continuous
 62
     7
100
AcDbCircle
 10
81.035185
 20
0.0
 30
0.0
 40
21.55
210
0.0
220
0.0
230
1.0
100
AcDbArc
 50
289.384299
 51
293.388599
  0
ARC
  5
93
100
AcDbEntity
  8
0
390
0
  6
Continuous
 62
     7
100
AcDbCircle
 10
81.035196
 20
-0.000004
 30
0.0
 40
21.549992
210
0.0
220
0.0
230
1.0
100
AcDbArc
 50
293.388577
 51
295.615679
  0
ARC
  5
94
100
AcDbEntity
  8
0
390
0
  6
Continuous
 62
     7
100
AcDbCircle
 10
106.703162
 20
-25.667975
 30
0.0
 40
17.5
210
0.0
220
0.0
230
0.9999999999999999
100
AcDbArc
 50
110.8759
 51
159.124102
  0
ARC
  5
95
100
AcDbEntity
  8
0
390
0
  6
Continuous
 62
     7
100
AcDbCircle
 10
81.035182
 20
0.000003
 30
0.0
 40
21.550004
210
0.0
220
0.0
230
0.9999999999999999
100
AcDbArc
 50
334.384298
 51
340.6157
  0
ARC
  5
96
100
AcDbEntity
  8
0
390
0
  6
Continuous
 62
     7
100
AcDbCircle
 10
117.335185
 20
0.000001
 30
0.0
 40
17.499999
210
0.0
220
0.0
230
1.0
100
AcDbArc
 50
155.8759
 51
204.124102
  0
ARC
  5
97
100
AcDbEntity
  8
0
390
0
  6
Continuous
 62
     7
100
AcDbCircle
 10
81.035185
 20
0.0
 30
0.0
 40
21.55
210
0.0
220
0.0
230
1.0
100
AcDbArc
 50
19.384299
 51
21.611401
  0
ARC
  5
98
100
AcDbEntity
  8
0
390
0
  6
Continuous
 62
     7
100
AcDbCircle
 10
81.035188
 20
0.000006
 30
0.0
 40
21.549995
210
0.0
220
0.0
230
1.0
100
AcDbArc
 50
21.611389
 51
25.615689
  0
ARC
  5
99
100
AcDbEntity
  8
0
390
0
  6
Continuous
 62
     7
100
AcDbCircle
 10
106.703162
 20
25.667977
 30
0.0
 40
17.5
210
0.0
220
0.0
230
1.0
100
AcDbArc
 50
200.8759
 51
249.124102
  0
ARC
  5
9A
100
AcDbEntity
  8
0
390
0
  6
Continuous
 62
     7
100
AcDbCircle
 10
81.035183
 20
-0.000004
 30
0.0
 40
21.550005
210
0.0
220
0.0
230
1.0
100
AcDbArc
 50
64.384298
 51
69.916264
  0
LINE
  5
9B
100
AcDbEntity
  8
0
390
0
  6
Continuous
 62
     7
100
AcDbLine
 10
88.435306
 20
20.239583
 30
0.0
 11
86.000208
 21
19.519102
 31
0.0
  0
ARC
  5
9C
100
AcDbEntity
  8
0
390
0
  6
Continuous
 62
     7
100
AcDbCircle
 10
81.035185
 20
36.3
 30
0.0
 40
17.499999
210
0.0
220
0.0
230
1.0
100
AcDbArc
 50
245.8759
 51
286.482089
  0
ARC
  5
9D
100
AcDbEntity
  8
0
390
0
  6
Continuous
 62
     7
100
AcDbCircle
 10
81.035185
 20
0.0
 30
0.0
 40
21.55
210
0.0
220
0.0
230
1.0
100
AcDbArc
 50
109.384299
 51
113.388599
  0
ARC
  5
9E
100
AcDbEntity
  8
0
390
0
  6
Continuous
 62
     7
100
AcDbCircle
 10
81.035175
 20
0.000005
 30
0.0
 40
21.549992
210
0.0
220
0.0
230
0.9999999999999999
100
AcDbArc
 50
113.388577
 51
115.615679
  0
ARC
  5
9F
100
AcDbEntity
  8
0
390
0
  6
Continuous
 62
     7
100
AcDbCircle
 10
55.367209
 20
25.667977
 30
0.0
 40
17.5
210
0.0
220
0.0
230
0.9999999999999999
100
AcDbArc
 50
290.8759
 51
339.124102
  0
ARC
  5
A0
100
AcDbEntity
  8
0
390
0
  6
Continuous
 62
     7
100
AcDbCircle
 10
81.035189
 20
-0.000001
 30
0.0
 40
21.550004
210
0.0
220
0.0
230
1.0
100
AcDbArc
 50
154.384298
 51
160.6157
  0
ARC
  5
A1
100
AcDbEntity
  8
0
390
0
  6
Continuous
 62
     7
100
AcDbCircle
 10
44.735186
 20
0.0
 30
0.0
 40
17.499999
210
0.0
220
0.0
230
1.0
100
AcDbArc
 50
335.8759
 51
24.124102
  0
ARC
  5
A2
100
AcDbEntity
  8
0
390
0
  6
Continuous
 62
     7
100
AcDbCircle
 10
81.035185
 20
0.0
 30
0.0
 40
21.55
210
0.0
220
0.0
230
1.0
100
AcDbArc
 50
199.384299
 51
201.611401
  0
ARC
  5
A3
100
AcDbEntity
  8
0
390
0
  6
Continuous
 62
     7
100
AcDbCircle
 10
81.035183
 20
-0.000006
 30
0.0
 40
21.549995
210
0.0
220
0.0
230
1.0
100
AcDbArc
 50
201.611389
 51
205.615689
  0
ARC
  5
A4
100
AcDbEntity
  8
0
390
0
  6
Continuous
 62
     7
100
AcDbCircle
 10
55.367209
 20
-25.667975
 30
0.0
 40
17.5
210
0.0
220
0.0
230
1.0
100
AcDbArc
 50
20.8759
 51
69.124102
  0
ARC
  5
A5
100
AcDbEntity
  8
0
390
0
  6
Continuous
 62
     7
100
AcDbCircle
 10
81.035187
 20
0.000004
 30
0.0
 40
21.550004
210
0.0
220
0.0
230
1.0
100
AcDbArc
 50
244.384298
 51
250.6157
  0
ARC
  5
A6
100
AcDbEntity
  8
0
390
0
  6
Continuous
 62
     7
100
AcDbCircle
 10
81.035186
 20
-36.299999
 30
0.0
 40
17.499999
210
0.0
220
0.0
230
1.0
100
AcDbArc
 50
65.8759
 51
114.124102
  0
ARC
  5
A7
100
AcDbEntity
  8
0
390
0
  6
Continuous
 62
     7
100
AcDbCircle
 10
44.735186
 20
0.0
 30
0.0
 40
12.7
210
0.0
220
0.0
230
1.0
100
AcDbArc
 50
345.795532
 51
14.20446
  0
LINE
  5
A8
100
AcDbEntity
  8
0
390
0
  6
Continuous
 62
     7
100
AcDbLine
 10
57.046899
 20
3.116362
 30
0.0
 11
56.673364
 21
4.592072
 31
0.0
  0
ARC
  5
A9
100
AcDbEntity
  8
0
390
0
  6
Continuous
 62
     7
100
AcDbCircle
 10
64.913488
 20
6.677826
 30
0.0
 40
8.5
210
0.0
220
0.0
230
0.9999999999999999
100
AcDbArc
 50
120.79554
 51
194.20446
  0
LINE
  5
AA
100
AcDbEntity
  8
0
390
0
  6
Continuous
 62
     7
100
AcDbLine
 10
60.561692
 20
13.979325
 30
0.0
 11
61.869304
 21
14.75868
 31
0.0
  0
ARC
  5
AB
100
AcDbEntity
  8
0
390
0
  6
Continuous
 62
     7
100
AcDbCircle
 10
55.36721
 20
25.667976
 30
0.0
 40
12.699999
210
0.0
220
0.0
230
1.0
100
AcDbArc
 50
300.79554
 51
329.204451
  0
LINE
  5
AC
100
AcDbEntity
  8
0
390
0
  6
Continuous
 62
     7
100
AcDbLine
 10
66.276504
 20
19.165879
 30
0.0
 11
67.055862
 21
20.473495
 31
0.0
  0
ARC
  5
AD
100
AcDbEntity
  8
0
390
0
  6
Continuous
 62
     7
100
AcDbCircle
 10
74.35736
 20
16.121699
 30
0.0
 40
8.5
210
0.0
220
0.0
230
1.0
100
AcDbArc
 50
75.795532
 51
149.204451
  0
LINE
  5
AE
100
AcDbEntity
  8
0
390
0
  6
Continuous
 62
     7
100
AcDbLine
 10
76.443115
 20
24.361821
 30
0.0
 11
77.918821
 21
23.988289
 31
0.0
  0
ARC
  5
AF
100
AcDbEntity
  8
0
390
0
  6
Continuous
 62
     7
100
AcDbCircle
 10
81.035185
 20
36.3
 30
0.0
 40
12.7
210
0.0
220
0.0
230
1.0
100
AcDbArc
 50
255.795532
 51
284.20446
  0
LINE
  5
B0
100
AcDbEntity
  8
0
390
0
  6
Continuous
 62
     7
100
AcDbLine
 10
84.151547
 20
23.988287
 30
0.0
 11
85.627257
 21
24.361821
 31
0.0
  0
ARC
  5
B1
100
AcDbEntity
  8
0
390
0
  6
Continuous
 62
     7
100
AcDbCircle
 10
87.713011
 20
16.121699
 30
0.0
 40
8.5
210
0.0
220
0.0
230
0.9999999999999999
100
AcDbArc
 50
30.79554
 51
104.20446
  0
LINE
  5
B2
100
AcDbEntity
  8
0
390
0
  6
Continuous
 62
     7
100
AcDbLine
 10
95.014509
 20
20.473495
 30
0.0
 11
95.793865
 21
19.165883
 31
0.0
  0
ARC
  5
B3
100
AcDbEntity
  8
0
390
0
  6
Continuous
 62
     7
100
AcDbCircle
 10
106.703161
 20
25.667976
 30
0.0
 40
12.699999
210
0.0
220
0.0
230
1.0
100
AcDbArc
 50
210.79554
 51
239.204451
  0
LINE
  5
B4
100
AcDbEntity
  8
0
390
0
  6
Continuous
 62
     7
100
AcDbLine
 10
100.201064
 20
14.758681
 30
0.0
 11
101.50868
 21
13.979325
 31
0.0
  0
ARC
  5
B5
100
AcDbEntity
  8
0
390
0
  6
Continuous
 62
     7
100
AcDbCircle
 10
97.156883
 20
6.677826
 30
0.0
 40
8.5
210
0.0
220
0.0
230
1.0
100
AcDbArc
 50
345.795532
 51
59.204451
  0
LINE
  5
B6
100
AcDbEntity
  8
0
390
0
  6
Continuous
 62
     7
100
AcDbLine
 10
105.397006
 20
4.592071
 30
0.0
 11
105.023473
 21
3.116365
 31
0.0
  0
ARC
  5
B7
100
AcDbEntity
  8
0
390
0
  6
Continuous
 62
     7
100
AcDbCircle
 10
117.335185
 20
0.000001
 30
0.0
 40
12.7
210
0.0
220
0.0
230
1.0
100
AcDbArc
 50
165.795532
 51
194.20446
  0
LINE
  5
B8
100
AcDbEntity
  8
0
390
0
  6
Continuous
 62
     7
100
AcDbLine
 10
105.023472
 20
-3.11636
 30
0.0
 11
105.397006
 21
-4.59207
 31
0.0
  0
ARC
  5
B9
100
AcDbEntity
  8
0
390
0
  6
Continuous
 62
     7
100
AcDbCircle
 10
97.156883
 20
-6.677826
 30
0.0
 40
8.5
210
0.0
220
0.0
230
1.0
100
AcDbArc
 50
300.79554
 51
14.20446
  0
LINE
  5
BA
100
AcDbEntity
  8
0
390
0
  6
Continuous
 62
     7
100
AcDbLine
 10
101.508679
 20
-13.979323
 30
0.0
 11
100.201067
 21
-14.758679
 31
0.0
  0
ARC
  5
BB
100
AcDbEntity
  8
0
390
0
  6
Continuous
 62
     7
100
AcDbCircle
 10
106.703161
 20
-25.667974
 30
0.0
 40
12.699999
210
0.0
220
0.0
230
1.0
100
AcDbArc
 50
120.79554
 51
149.204451
  0
LINE
  5
BC
100
AcDbEntity
  8
0
390
0
  6
Continuous
 62
     7
100
AcDbLine
 10
95.793867
 20
-19.165879
 30
0.0
 11
95.014509
 21
-20.473494
 31
0.0
  0
ARC
  5
BD
100
AcDbEntity
  8
0
390
0
  6
Continuous
 62
     7
100
AcDbCircle
 10
87.713011
 20
-16.121697
 30
0.0
 40
8.5
210
0.0
220
0.0
230
0.9999999999999999
100
AcDbArc
 50
255.795532
 51
329.204451
  0
LINE
  5
BE
100
AcDbEntity
  8
0
390
0
  6
Continuous
 62
     7
100
AcDbLine
 10
85.627256
 20
-24.36182
 30
0.0
 11
84.15155
 21
-23.988287
 31
0.0
  0
ARC
  5
BF
100
AcDbEntity
  8
0
390
0
  6
Continuous
 62
     7
100
AcDbCircle
 10
81.035186
 20
-36.3
 30
0.0
 40
12.7
210
0.0
220
0.0
230
1.0
100
AcDbArc
 50
75.795532
 51
104.20446
  0
LINE
  5
C0
100
AcDbEntity
  8
0
390
0
  6
Continuous
 62
     7
100
AcDbLine
 10
77.918824
 20
-23.988286
 30
0.0
 11
76.443114
 21
-24.361821
 31
0.0
  0
ARC
  5
C1
100
AcDbEntity
  8
0
390
0
  6
Continuous
 62
     7
100
AcDbCircle
 10
74.35736
 20
-16.121697
 30
0.0
 40
8.5
210
0.0
220
0.0
230
1.0
100
AcDbArc
 50
210.79554
 51
284.20446
  0
LINE
  5
C2
100
AcDbEntity
  8
0
390
0
  6
Continuous
 62
     7
100
AcDbLine
 10
67.055862
 20
-20.473493
 30
0.0
 11
66.276506
 21
-19.165881
 31
0.0
  0
ARC
  5
C3
100
AcDbEntity
  8
0
390
0
  6
Continuous
 62
     7
100
AcDbCircle
 10
55.36721
 20
-25.667975
 30
0.0
 40
12.699999
210
0.0
220
0.0
230
1.0
100
AcDbArc
 50
30.79554
 51
59.204451
  0
LINE
  5
C4
100
AcDbEntity
  8
0
390
0
  6
Continuous
 62
     7
100
AcDbLine
 10
61.869307
 20
-14.758681
 30
0.0
 11
60.561691
 21
-13.979323
 31
0.0
  0
ARC
  5
C5
100
AcDbEntity
  8
0
390
0
  6
Continuous
 62
     7
100
AcDbCircle
 10
64.913488
 20
-6.677826
 30
0.0
 40
8.5
210
0.0
220
0.0
230
1.0
100
AcDbArc
 50
165.795532
 51
239.204451
  0
LINE
  5
C6
100
AcDbEntity
  8
0
390
0
  6
Continuous
 62
     7
100
AcDbLine
 10
56.673365
 20
-4.592069
 30
0.0
 11
57.046898
 21
-3.116363
 31
0.0
  0
LINE
  5
C7
100
AcDbEntity
  8
0
390
0
  6
Continuous
 62
     7
100
AcDbLine
 10
62.023875
 20
-2.71131
 30
0.0
 11
62.674525
 21
-2.06066
 31
0.0
  0
LINE
  5
C8
100
AcDbEntity
  8
0
390
0
  6
Continuous
 62
     7
100
AcDbLine
 10
62.674525
 20
2.06066
 30
0.0
 11
62.023875
 21
2.71131
 31
0.0
  0
LINE
  5
C9
100
AcDbEntity
  8
0
390
0
  6
Continuous
 62
     7
100
AcDbLine
 10
62.674525
 20
2.06066
 30
0.0
 11
62.674525
 21
-2.06066
 31
0.0
  0
LINE
  5
CA
100
AcDbEntity
  8
0
390
0
  6
Continuous
 62
     7
100
AcDbLine
 10
83.095845
 20
18.360661
 30
0.0
 11
83.746495
 21
19.011312
 31
0.0
  0
LINE
  5
CB
100
AcDbEntity
  8
0
390
0
  6
Continuous
 62
     7
100
AcDbLine
 10
83.095845
 20
18.360661
 30
0.0
 11
78.974525
 21
18.360661
 31
0.0
  0
LINE
  5
CC
100
AcDbEntity
  8
0
390
0
  6
Continuous
 62
     7
100
AcDbLine
 10
78.323875
 20
19.011312
 30
0.0
 11
78.974525
 21
18.360661
 31
0.0
  0
LINE
  5
CD
100
AcDbEntity
  8
0
390
0
  6
Continuous
 62
     7
100
AcDbLine
 10
100.046496
 20
2.711312
 30
0.0
 11
99.395846
 21
2.060661
 31
0.0
  0
LINE
  5
CE
100
AcDbEntity
  8
0
390
0
  6
Continuous
 62
     7
100
AcDbLine
 10
99.395846
 20
-2.060659
 30
0.0
 11
100.046496
 21
-2.711309
 31
0.0
  0
LINE
  5
CF
100
AcDbEntity
  8
0
390
0
  6
Continuous
 62
     7
100
AcDbLine
 10
99.395846
 20
-2.060659
 30
0.0
 11
99.395846
 21
2.060661
 31
0.0
  0
LINE
  5
D0
100
AcDbEntity
  8
0
390
0
  6
Continuous
 62
     7
100
AcDbLine
 10
83.746496
 20
-19.011309
 30
0.0
 11
83.095846
 21
-18.36066
 31
0.0
  0
LINE
  5
D1
100
AcDbEntity
  8
0
390
0
  6
Continuous
 62
     7
100
AcDbLine
 10
78.974526
 20
-18.36066
 30
0.0
 11
78.323876
 21
-19.011309
 31
0.0
  0
LINE
  5
D2
100
AcDbEntity
  8
0
390
0
  6
Continuous
 62
     7
100
AcDbLine
 10
78.974526
 20
-18.36066
 30
0.0
 11
83.095846
 21
-18.36066
 31
0.0
  0
LINE
  5
D3
100
AcDbEntity
  8
0
390
0
  6
Continuous
 62
     7
100
AcDbLine
 10
63.113865
 20
1.62132
 30
0.0
 11
62.674525
 21
2.06066
 31
0.0
  0
LINE
  5
D4
100
AcDbEntity
  8
0
390
0
  6
Continuous
 62
     7
100
AcDbLine
 10
62.674525
 20
-2.06066
 30
0.0
 11
63.113865
 21
-1.62132
 31
0.0
  0
LINE
  5
D5
100
AcDbEntity
  8
0
390
0
  6
Continuous
 62
     7
100
AcDbLine
 10
82.656505
 20
17.921322
 30
0.0
 11
83.095845
 21
18.360661
 31
0.0
  0
LINE
  5
D6
100
AcDbEntity
  8
0
390
0
  6
Continuous
 62
     7
100
AcDbLine
 10
78.974525
 20
18.360661
 30
0.0
 11
79.413865
 21
17.921322
 31
0.0
  0
LINE
  5
D7
100
AcDbEntity
  8
0
390
0
  6
Continuous
 62
     7
100
AcDbLine
 10
98.956506
 20
-1.62132
 30
0.0
 11
99.395846
 21
-2.060659
 31
0.0
  0
LINE
  5
D8
100
AcDbEntity
  8
0
390
0
  6
Continuous
 62
     7
100
AcDbLine
 10
99.395846
 20
2.060661
 30
0.0
 11
98.956506
 21
1.621321
 31
0.0
  0
LINE
  5
D9
100
AcDbEntity
  8
0
390
0
  6
Continuous
 62
     7
100
AcDbLine
 10
79.413866
 20
-17.92132
 30
0.0
 11
78.974526
 21
-18.36066
 31
0.0
  0
LINE
  5
DA
100
AcDbEntity
  8
0
390
0
  6
Continuous
 62
     7
100
AcDbLine
 10
83.095846
 20
-18.36066
 30
0.0
 11
82.656506
 21
-17.92132
 31
0.0
  0
CIRCLE
  5
DB
100
AcDbEntity
  8
0
390
0
  6
Continuous
 62
     7
100
AcDbCircle
 10
81.035185
 20
0.0
 30
0.0
 40
14.225083
210
0.0
220
0.0
230
1.0
  0
CIRCLE
  5
DC
100
AcDbEntity
  8
0
390
0
  6
Continuous
 62
     7
100
AcDbCircle
 10
81.035185
 20
0.0
 30
0.0
 40
13.5
210
0.0
220
0.0
230
1.0
  0
LINE
  5
DD
100
AcDbEntity
  8
0
390
0
  6
Continuous
 62
     7
100
AcDbLine
 10
96.1462
 20
7.658234
 30
0.0
 11
97.500448
 21
10.883541
 31
0.0
  0
POLYLINE
  5
DE
100
AcDbEntity
  8
0
390
0
  6
Continuous
 62
     7
100
AcDb2dPolyline
 66
     1
 10
0.0
 20
0.0
 30
0.0
 40
0.1
 41
0.1
  0
VERTEX
  5
DF
100
AcDbEntity
  8
0
390
0
 62
     7
100
AcDbVertex
100
AcDb2dVertex
 10
96.288704
 20
7.533093
 30
0.0
  0
VERTEX
  5
E0
100
AcDbEntity
  8
0
390
0
 62
     7
100
AcDbVertex
100
AcDb2dVertex
 10
96.186915
 20
7.533794
 30
0.0
  0
VERTEX
  5
E1
100
AcDbEntity
  8
0
390
0
 62
     7
100
AcDbVertex
100
AcDb2dVertex
 10
96.138558
 20
7.625091
 30
0.0
  0
VERTEX
  5
E2
100
AcDbEntity
  8
0
390
0
 62
     7
100
AcDbVertex
100
AcDb2dVertex
 10
96.1462
 20
7.658234
 30
0.0
  0
SEQEND
  5
E3
100
AcDbEntity
  8
0
390
0
  0
LINE
  5
E4
100
AcDbEntity
  8
0
390
0
  6
Continuous
 62
     7
100
AcDbLine
 10
98.635638
 20
8.899046
 30
0.0
 11
96.288704
 21
7.533093
 31
0.0
  0
LINE
  5
E5
100
AcDbEntity
  8
0
390
0
  6
Continuous
 62
     7
100
AcDbLine
 10
98.657576
 20
8.910448
 30
0.0
 11
98.635638
 21
8.899046
 31
0.0
  0
LINE
  5
E6
100
AcDbEntity
  8
0
390
0
  6
Continuous
 62
     7
100
AcDbLine
 10
98.673667
 20
8.916653
 30
0.0
 11
98.657576
 21
8.910448
 31
0.0
  0
LINE
  5
E7
100
AcDbEntity
  8
0
390
0
  6
Continuous
 62
     7
100
AcDbLine
 10
98.685436
 20
8.919444
 30
0.0
 11
98.673667
 21
8.916653
 31
0.0
  0
LINE
  5
E8
100
AcDbEntity
  8
0
390
0
  6
Continuous
 62
     7
100
AcDbLine
 10
98.692977
 20
8.919988
 30
0.0
 11
98.685436
 21
8.919444
 31
0.0
  0
LINE
  5
E9
100
AcDbEntity
  8
0
390
0
  6
Continuous
 62
     7
100
AcDbLine
 10
98.697307
 20
8.919498
 30
0.0
 11
98.692977
 21
8.919988
 31
0.0
  0
LINE
  5
EA
100
AcDbEntity
  8
0
390
0
  6
Continuous
 62
     7
100
AcDbLine
 10
98.700376
 20
8.918513
 30
0.0
 11
98.697307
 21
8.919498
 31
0.0
  0
LINE
  5
EB
100
AcDbEntity
  8
0
390
0
  6
Continuous
 62
     7
100
AcDbLine
 10
98.704282
 20
8.916332
 30
0.0
 11
98.700376
 21
8.918513
 31
0.0
  0
LINE
  5
EC
100
AcDbEntity
  8
0
390
0
  6
Continuous
 62
     7
100
AcDbLine
 10
98.710257
 20
8.911379
 30
0.0
 11
98.704282
 21
8.916332
 31
0.0
  0
LINE
  5
ED
100
AcDbEntity
  8
0
390
0
  6
Continuous
 62
     7
100
AcDbLine
 10
98.718383
 20
8.902091
 30
0.0
 11
98.710257
 21
8.911379
 31
0.0
  0
LINE
  5
EE
100
AcDbEntity
  8
0
390
0
  6
Continuous
 62
     7
100
AcDbLine
 10
98.727899
 20
8.887721
 30
0.0
 11
98.718383
 21
8.902091
 31
0.0
  0
LINE
  5
EF
100
AcDbEntity
  8
0
390
0
  6
Continuous
 62
     7
100
AcDbLine
 10
98.735693
 20
8.872349
 30
0.0
 11
98.727899
 21
8.887721
 31
0.0
  0
LINE
  5
F0
100
AcDbEntity
  8
0
390
0
  6
Continuous
 62
     7
100
AcDbLine
 10
98.739755
 20
8.860695
 30
0.0
 11
98.735693
 21
8.872349
 31
0.0
  0
LINE
  5
F1
100
AcDbEntity
  8
0
390
0
  6
Continuous
 62
     7
100
AcDbLine
 10
98.741112
 20
8.853052
 30
0.0
 11
98.739755
 21
8.860695
 31
0.0
  0
LINE
  5
F2
100
AcDbEntity
  8
0
390
0
  6
Continuous
 62
     7
100
AcDbLine
 10
98.741078
 20
8.848578
 30
0.0
 11
98.741112
 21
8.853052
 31
0.0
  0
LINE
  5
F3
100
AcDbEntity
  8
0
390
0
  6
Continuous
 62
     7
100
AcDbLine
 10
98.740419
 20
8.845423
 30
0.0
 11
98.741078
 21
8.848578
 31
0.0
  0
LINE
  5
F4
100
AcDbEntity
  8
0
390
0
  6
Continuous
 62
     7
100
AcDbLine
 10
98.738705
 20
8.841415
 30
0.0
 11
98.740419
 21
8.845423
 31
0.0
  0
LINE
  5
F5
100
AcDbEntity
  8
0
390
0
  6
Continuous
 62
     7
100
AcDbLine
 10
98.734508
 20
8.835125
 30
0.0
 11
98.738705
 21
8.841415
 31
0.0
  0
LINE
  5
F6
100
AcDbEntity
  8
0
390
0
  6
Continuous
 62
     7
100
AcDbLine
 10
98.726268
 20
8.826272
 30
0.0
 11
98.734508
 21
8.835125
 31
0.0
  0
LINE
  5
F7
100
AcDbEntity
  8
0
390
0
  6
Continuous
 62
     7
100
AcDbLine
 10
98.712925
 20
8.815344
 30
0.0
 11
98.726268
 21
8.826272
 31
0.0
  0
LINE
  5
F8
100
AcDbEntity
  8
0
390
0
  6
Continuous
 62
     7
100
AcDbLine
 10
98.692177
 20
8.801901
 30
0.0
 11
98.712925
 21
8.815344
 31
0.0
  0
LINE
  5
F9
100
AcDbEntity
  8
0
390
0
  6
Continuous
 62
     7
100
AcDbLine
 10
96.253191
 20
7.382372
 30
0.0
 11
98.692177
 21
8.801901
 31
0.0
  0
LINE
  5
FA
100
AcDbEntity
  8
0
390
0
  6
Continuous
 62
     7
100
AcDbLine
 10
96.227125
 20
7.369116
 30
0.0
 11
96.253191
 21
7.382372
 31
0.0
  0
LINE
  5
FB
100
AcDbEntity
  8
0
390
0
  6
Continuous
 62
     7
100
AcDbLine
 10
96.207595
 20
7.362223
 30
0.0
 11
96.227125
 21
7.369116
 31
0.0
  0
LINE
  5
FC
100
AcDbEntity
  8
0
390
0
  6
Continuous
 62
     7
100
AcDbLine
 10
96.192414
 20
7.359422
 30
0.0
 11
96.207595
 21
7.362223
 31
0.0
  0
LINE
  5
FD
100
AcDbEntity
  8
0
390
0
  6
Continuous
 62
     7
100
AcDbLine
 10
96.180838
 20
7.359405
 30
0.0
 11
96.192414
 21
7.359422
 31
0.0
  0
LINE
  5
FE
100
AcDbEntity
  8
0
390
0
  6
Continuous
 62
     7
100
AcDbLine
 10
96.1711
 20
7.361329
 30
0.0
 11
96.180838
 21
7.359405
 31
0.0
  0
LINE
  5
FF
100
AcDbEntity
  8
0
390
0
  6
Continuous
 62
     7
100
AcDbLine
 10
96.161029
 20
7.365517
 30
0.0
 11
96.1711
 21
7.361329
 31
0.0
  0
LINE
  5
100
100
AcDbEntity
  8
0
390
0
  6
Continuous
 62
     7
100
AcDbLine
 10
96.1491
 20
7.373332
 30
0.0
 11
96.161029
 21
7.365517
 31
0.0
  0
LINE
  5
101
100
AcDbEntity
  8
0
390
0
  6
Continuous
 62
     7
100
AcDbLine
 10
96.134933
 20
7.38636
 30
0.0
 11
96.1491
 21
7.373332
 31
0.0
  0
LINE
  5
102
100
AcDbEntity
  8
0
390
0
  6
Continuous
 62
     7
100
AcDbLine
 10
96.118974
 20
7.405717
 30
0.0
 11
96.134933
 21
7.38636
 31
0.0
  0
LINE
  5
103
100
AcDbEntity
  8
0
390
0
  6
Continuous
 62
     7
100
AcDbLine
 10
96.101143
 20
7.433176
 30
0.0
 11
96.118974
 21
7.405717
 31
0.0
  0
LINE
  5
104
100
AcDbEntity
  8
0
390
0
  6
Continuous
 62
     7
100
AcDbLine
 10
96.092968
 20
7.447705
 30
0.0
 11
96.101143
 21
7.433176
 31
0.0
  0
LINE
  5
105
100
AcDbEntity
  8
0
390
0
  6
Continuous
 62
     7
100
AcDbLine
 10
96.084995
 20
7.46297
 30
0.0
 11
96.092968
 21
7.447705
 31
0.0
  0
LINE
  5
106
100
AcDbEntity
  8
0
390
0
  6
Continuous
 62
     7
100
AcDbLine
 10
96.078066
 20
7.477415
 30
0.0
 11
96.084995
 21
7.46297
 31
0.0
  0
LINE
  5
107
100
AcDbEntity
  8
0
390
0
  6
Continuous
 62
     7
100
AcDbLine
 10
96.072164
 20
7.490998
 30
0.0
 11
96.078066
 21
7.477415
 31
0.0
  0
LINE
  5
108
100
AcDbEntity
  8
0
390
0
  6
Continuous
 62
     7
100
AcDbLine
 10
96.06726
 20
7.503671
 30
0.0
 11
96.072164
 21
7.490998
 31
0.0
  0
LINE
  5
109
100
AcDbEntity
  8
0
390
0
  6
Continuous
 62
     7
100
AcDbLine
 10
96.063321
 20
7.515389
 30
0.0
 11
96.06726
 21
7.503671
 31
0.0
  0
LINE
  5
10A
100
AcDbEntity
  8
0
390
0
  6
Continuous
 62
     7
100
AcDbLine
 10
96.060295
 20
7.526105
 30
0.0
 11
96.063321
 21
7.515389
 31
0.0
  0
LINE
  5
10B
100
AcDbEntity
  8
0
390
0
  6
Continuous
 62
     7
100
AcDbLine
 10
96.05812
 20
7.535776
 30
0.0
 11
96.060295
 21
7.526105
 31
0.0
  0
LINE
  5
10C
100
AcDbEntity
  8
0
390
0
  6
Continuous
 62
     7
100
AcDbLine
 10
96.056714
 20
7.544369
 30
0.0
 11
96.05812
 21
7.535776
 31
0.0
  0
LINE
  5
10D
100
AcDbEntity
  8
0
390
0
  6
Continuous
 62
     7
100
AcDbLine
 10
96.055903
 20
7.55264
 30
0.0
 11
96.056714
 21
7.544369
 31
0.0
  0
LINE
  5
10E
100
AcDbEntity
  8
0
390
0
  6
Continuous
 62
     7
100
AcDbLine
 10
96.055208
 20
7.568673
 30
0.0
 11
96.055903
 21
7.55264
 31
0.0
  0
LINE
  5
10F
100
AcDbEntity
  8
0
390
0
  6
Continuous
 62
     7
100
AcDbLine
 10
96.05517
 20
7.585101
 30
0.0
 11
96.055208
 21
7.568673
 31
0.0
  0
LINE
  5
110
100
AcDbEntity
  8
0
390
0
  6
Continuous
 62
     7
100
AcDbLine
 10
96.055809
 20
7.601221
 30
0.0
 11
96.05517
 21
7.585101
 31
0.0
  0
LINE
  5
111
100
AcDbEntity
  8
0
390
0
  6
Continuous
 62
     7
100
AcDbLine
 10
96.057116
 20
7.617054
 30
0.0
 11
96.055809
 21
7.601221
 31
0.0
  0
LINE
  5
112
100
AcDbEntity
  8
0
390
0
  6
Continuous
 62
     7
100
AcDbLine
 10
96.059084
 20
7.632623
 30
0.0
 11
96.057116
 21
7.617054
 31
0.0
  0
LINE
  5
113
100
AcDbEntity
  8
0
390
0
  6
Continuous
 62
     7
100
AcDbLine
 10
96.06171
 20
7.647953
 30
0.0
 11
96.059084
 21
7.632623
 31
0.0
  0
LINE
  5
114
100
AcDbEntity
  8
0
390
0
  6
Continuous
 62
     7
100
AcDbLine
 10
96.064993
 20
7.663068
 30
0.0
 11
96.06171
 21
7.647953
 31
0.0
  0
LINE
  5
115
100
AcDbEntity
  8
0
390
0
  6
Continuous
 62
     7
100
AcDbLine
 10
96.068936
 20
7.677995
 30
0.0
 11
96.064993
 21
7.663068
 31
0.0
  0
LINE
  5
116
100
AcDbEntity
  8
0
390
0
  6
Continuous
 62
     7
100
AcDbLine
 10
96.073547
 20
7.692761
 30
0.0
 11
96.068936
 21
7.677995
 31
0.0
  0
LINE
  5
117
100
AcDbEntity
  8
0
390
0
  6
Continuous
 62
     7
100
AcDbLine
 10
96.078743
 20
7.707132
 30
0.0
 11
96.073547
 21
7.692761
 31
0.0
  0
LINE
  5
118
100
AcDbEntity
  8
0
390
0
  6
Continuous
 62
     7
100
AcDbLine
 10
97.287074
 20
10.595509
 30
0.0
 11
96.078743
 21
7.707132
 31
0.0
  0
POLYLINE
  5
119
100
AcDbEntity
  8
0
390
0
  6
Continuous
 62
     7
100
AcDb2dPolyline
 66
     1
 10
0.0
 20
0.0
 30
0.0
 40
0.1
 41
0.1
  0
VERTEX
  5
11A
100
AcDbEntity
  8
0
390
0
 62
     7
100
AcDbVertex
100
AcDb2dVertex
 10
97.144519
 20
10.720529
 30
0.0
  0
VERTEX
  5
11B
100
AcDbEntity
  8
0
390
0
 62
     7
100
AcDbVertex
100
AcDb2dVertex
 10
97.247282
 20
10.719235
 30
0.0
  0
VERTEX
  5
11C
100
AcDbEntity
  8
0
390
0
 62
     7
100
AcDbVertex
100
AcDb2dVertex
 10
97.294679
 20
10.628786
 30
0.0
  0
VERTEX
  5
11D
100
AcDbEntity
  8
0
390
0
 62
     7
100
AcDbVertex
100
AcDb2dVertex
 10
97.287074
 20
10.595509
 30
0.0
  0
SEQEND
  5
11E
100
AcDbEntity
  8
0
390
0
  0
LINE
  5
11F
100
AcDbEntity
  8
0
390
0
  6
Continuous
 62
     7
100
AcDbLine
 10
95.000085
 20
9.472437
 30
0.0
 11
97.144519
 21
10.720529
 31
0.0
  0
LINE
  5
120
100
AcDbEntity
  8
0
390
0
  6
Continuous
 62
     7
100
AcDbLine
 10
94.978146
 20
9.461036
 30
0.0
 11
95.000085
 21
9.472437
 31
0.0
  0
LINE
  5
121
100
AcDbEntity
  8
0
390
0
  6
Continuous
 62
     7
100
AcDbLine
 10
94.962055
 20
9.454831
 30
0.0
 11
94.978146
 21
9.461036
 31
0.0
  0
LINE
  5
122
100
AcDbEntity
  8
0
390
0
  6
Continuous
 62
     7
100
AcDbLine
 10
94.950286
 20
9.45204
 30
0.0
 11
94.962055
 21
9.454831
 31
0.0
  0
LINE
  5
123
100
AcDbEntity
  8
0
390
0
  6
Continuous
 62
     7
100
AcDbLine
 10
94.942744
 20
9.451497
 30
0.0
 11
94.950286
 21
9.45204
 31
0.0
  0
LINE
  5
124
100
AcDbEntity
  8
0
390
0
  6
Continuous
 62
     7
100
AcDbLine
 10
94.938413
 20
9.451986
 30
0.0
 11
94.942744
 21
9.451497
 31
0.0
  0
LINE
  5
125
100
AcDbEntity
  8
0
390
0
  6
Continuous
 62
     7
100
AcDbLine
 10
94.935343
 20
9.452972
 30
0.0
 11
94.938413
 21
9.451986
 31
0.0
  0
LINE
  5
126
100
AcDbEntity
  8
0
390
0
  6
Continuous
 62
     7
100
AcDbLine
 10
94.931436
 20
9.455154
 30
0.0
 11
94.935343
 21
9.452972
 31
0.0
  0
LINE
  5
127
100
AcDbEntity
  8
0
390
0
  6
Continuous
 62
     7
100
AcDbLine
 10
94.92546
 20
9.460108
 30
0.0
 11
94.931436
 21
9.455154
 31
0.0
  0
LINE
  5
128
100
AcDbEntity
  8
0
390
0
  6
Continuous
 62
     7
100
AcDbLine
 10
94.917333
 20
9.469397
 30
0.0
 11
94.92546
 21
9.460108
 31
0.0
  0
LINE
  5
129
100
AcDbEntity
  8
0
390
0
  6
Continuous
 62
     7
100
AcDbLine
 10
94.907818
 20
9.483763
 30
0.0
 11
94.917333
 21
9.469397
 31
0.0
  0
LINE
  5
12A
100
AcDbEntity
  8
0
390
0
  6
Continuous
 62
     7
100
AcDbLine
 10
94.900026
 20
9.499131
 30
0.0
 11
94.907818
 21
9.483763
 31
0.0
  0
LINE
  5
12B
100
AcDbEntity
  8
0
390
0
  6
Continuous
 62
     7
100
AcDbLine
 10
94.895965
 20
9.510785
 30
0.0
 11
94.900026
 21
9.499131
 31
0.0
  0
LINE
  5
12C
100
AcDbEntity
  8
0
390
0
  6
Continuous
 62
     7
100
AcDbLine
 10
94.894608
 20
9.518428
 30
0.0
 11
94.895965
 21
9.510785
 31
0.0
  0
LINE
  5
12D
100
AcDbEntity
  8
0
390
0
  6
Continuous
 62
     7
100
AcDbLine
 10
94.894643
 20
9.522903
 30
0.0
 11
94.894608
 21
9.518428
 31
0.0
  0
LINE
  5
12E
100
AcDbEntity
  8
0
390
0
  6
Continuous
 62
     7
100
AcDbLine
 10
94.895301
 20
9.52606
 30
0.0
 11
94.894643
 21
9.522903
 31
0.0
  0
LINE
  5
12F
100
AcDbEntity
  8
0
390
0
  6
Continuous
 62
     7
100
AcDbLine
 10
94.897016
 20
9.530068
 30
0.0
 11
94.895301
 21
9.52606
 31
0.0
  0
LINE
  5
130
100
AcDbEntity
  8
0
390
0
  6
Continuous
 62
     7
100
AcDbLine
 10
94.901214
 20
9.536358
 30
0.0
 11
94.897016
 21
9.530068
 31
0.0
  0
LINE
  5
131
100
AcDbEntity
  8
0
390
0
  6
Continuous
 62
     7
100
AcDbLine
 10
94.909454
 20
9.545213
 30
0.0
 11
94.901214
 21
9.536358
 31
0.0
  0
LINE
  5
132
100
AcDbEntity
  8
0
390
0
  6
Continuous
 62
     7
100
AcDbLine
 10
94.922797
 20
9.55614
 30
0.0
 11
94.909454
 21
9.545213
 31
0.0
  0
LINE
  5
133
100
AcDbEntity
  8
0
390
0
  6
Continuous
 62
     7
100
AcDbLine
 10
94.943546
 20
9.569584
 30
0.0
 11
94.922797
 21
9.55614
 31
0.0
  0
LINE
  5
134
100
AcDbEntity
  8
0
390
0
  6
Continuous
 62
     7
100
AcDbLine
 10
97.275818
 20
10.927001
 30
0.0
 11
94.943546
 21
9.569584
 31
0.0
  0
LINE
  5
135
100
AcDbEntity
  8
0
390
0
  6
Continuous
 62
     7
100
AcDbLine
 10
61.736088
 20
4.29364
 30
0.0
 11
61.751678
 21
4.286265
 31
0.0
  0
LINE
  5
136
100
AcDbEntity
  8
0
390
0
  6
Continuous
 62
     7
100
AcDbLine
 10
61.72595
 20
4.300238
 30
0.0
 11
61.736088
 21
4.29364
 31
0.0
  0
LINE
  5
137
100
AcDbEntity
  8
0
390
0
  6
Continuous
 62
     7
100
AcDbLine
 10
61.720355
 20
4.305325
 30
0.0
 11
61.72595
 21
4.300238
 31
0.0
  0
LINE
  5
138
100
AcDbEntity
  8
0
390
0
  6
Continuous
 62
     7
100
AcDbLine
 10
61.717722
 20
4.3088
 30
0.0
 11
61.720355
 21
4.305325
 31
0.0
  0
LINE
  5
139
100
AcDbEntity
  8
0
390
0
  6
Continuous
 62
     7
100
AcDbLine
 10
61.716319
 20
4.311704
 30
0.0
 11
61.717722
 21
4.3088
 31
0.0
  0
LINE
  5
13A
100
AcDbEntity
  8
0
390
0
  6
Continuous
 62
     7
100
AcDbLine
 10
61.715203
 20
4.316038
 30
0.0
 11
61.716319
 21
4.311704
 31
0.0
  0
LINE
  5
13B
100
AcDbEntity
  8
0
390
0
  6
Continuous
 62
     7
100
AcDbLine
 10
61.71467
 20
4.323783
 30
0.0
 11
61.715203
 21
4.316038
 31
0.0
  0
LINE
  5
13C
100
AcDbEntity
  8
0
390
0
  6
Continuous
 62
     7
100
AcDbLine
 10
61.715791
 20
4.336073
 30
0.0
 11
61.71467
 21
4.323783
 31
0.0
  0
LINE
  5
13D
100
AcDbEntity
  8
0
390
0
  6
Continuous
 62
     7
100
AcDbLine
 10
61.719717
 20
4.353234
 30
0.0
 11
61.715791
 21
4.336073
 31
0.0
  0
LINE
  5
13E
100
AcDbEntity
  8
0
390
0
  6
Continuous
 62
     7
100
AcDbLine
 10
61.722358
 20
4.360867
 30
0.0
 11
61.719717
 21
4.353234
 31
0.0
  0
LINE
  5
13F
100
AcDbEntity
  8
0
390
0
  6
Continuous
 62
     7
100
AcDbLine
 10
61.725834
 20
4.368339
 30
0.0
 11
61.722358
 21
4.360867
 31
0.0
  0
LINE
  5
140
100
AcDbEntity
  8
0
390
0
  6
Continuous
 62
     7
100
AcDbLine
 10
61.730136
 20
4.375549
 30
0.0
 11
61.725834
 21
4.368339
 31
0.0
  0
LINE
  5
141
100
AcDbEntity
  8
0
390
0
  6
Continuous
 62
     7
100
AcDbLine
 10
61.735466
 20
4.382729
 30
0.0
 11
61.730136
 21
4.375549
 31
0.0
  0
LINE
  5
142
100
AcDbEntity
  8
0
390
0
  6
Continuous
 62
     7
100
AcDbLine
 10
61.742072
 20
4.390029
 30
0.0
 11
61.735466
 21
4.382729
 31
0.0
  0
LINE
  5
143
100
AcDbEntity
  8
0
390
0
  6
Continuous
 62
     7
100
AcDbLine
 10
61.750199
 20
4.397503
 30
0.0
 11
61.742072
 21
4.390029
 31
0.0
  0
LINE
  5
144
100
AcDbEntity
  8
0
390
0
  6
Continuous
 62
     7
100
AcDbLine
 10
61.760064
 20
4.40513
 30
0.0
 11
61.750199
 21
4.397503
 31
0.0
  0
LINE
  5
145
100
AcDbEntity
  8
0
390
0
  6
Continuous
 62
     7
100
AcDbLine
 10
61.771835
 20
4.412832
 30
0.0
 11
61.760064
 21
4.40513
 31
0.0
  0
LINE
  5
146
100
AcDbEntity
  8
0
390
0
  6
Continuous
 62
     7
100
AcDbLine
 10
61.785628
 20
4.420502
 30
0.0
 11
61.771835
 21
4.412832
 31
0.0
  0
LINE
  5
147
100
AcDbEntity
  8
0
390
0
  6
Continuous
 62
     7
100
AcDbLine
 10
61.800615
 20
4.427599
 30
0.0
 11
61.785628
 21
4.420502
 31
0.0
  0
POLYLINE
  5
148
100
AcDbEntity
  8
0
390
0
  6
Continuous
 62
     7
100
AcDb2dPolyline
 66
     1
 10
0.0
 20
0.0
 30
0.0
 40
0.1
 41
0.1
  0
VERTEX
  5
149
100
AcDbEntity
  8
0
390
0
 62
     7
100
AcDbVertex
100
AcDb2dVertex
 10
65.062598
 20
5.860633
 30
0.0
  0
VERTEX
  5
14A
100
AcDbEntity
  8
0
390
0
 62
     7
100
AcDbVertex
100
AcDb2dVertex
 10
65.132313
 20
5.786315
 30
0.0
  0
VERTEX
  5
14B
100
AcDbEntity
  8
0
390
0
 62
     7
100
AcDbVertex
100
AcDb2dVertex
 10
65.099425
 20
5.688377
 30
0.0
  0
VERTEX
  5
14C
100
AcDbEntity
  8
0
390
0
 62
     7
100
AcDbVertex
100
AcDb2dVertex
 10
65.070248
 20
5.671136
 30
0.0
  0
SEQEND
  5
14D
100
AcDbEntity
  8
0
390
0
  0
LINE
  5
14E
100
AcDbEntity
  8
0
390
0
  6
Continuous
 62
     7
100
AcDbLine
 10
62.454895
 20
6.618241
 30
0.0
 11
65.062598
 21
5.860633
 31
0.0
  0
LINE
  5
14F
100
AcDbEntity
  8
0
390
0
  6
Continuous
 62
     7
100
AcDbLine
 10
62.43151
 20
6.626266
 30
0.0
 11
62.454895
 21
6.618241
 31
0.0
  0
LINE
  5
150
100
AcDbEntity
  8
0
390
0
  6
Continuous
 62
     7
100
AcDbLine
 10
62.41592
 20
6.633639
 30
0.0
 11
62.43151
 21
6.626266
 31
0.0
  0
LINE
  5
151
100
AcDbEntity
  8
0
390
0
  6
Continuous
 62
     7
100
AcDbLine
 10
62.405782
 20
6.640237
 30
0.0
 11
62.41592
 21
6.633639
 31
0.0
  0
LINE
  5
152
100
AcDbEntity
  8
0
390
0
  6
Continuous
 62
     7
100
AcDbLine
 10
62.400188
 20
6.645324
 30
0.0
 11
62.405782
 21
6.640237
 31
0.0
  0
LINE
  5
153
100
AcDbEntity
  8
0
390
0
  6
Continuous
 62
     7
100
AcDbLine
 10
62.397556
 20
6.648798
 30
0.0
 11
62.400188
 21
6.645324
 31
0.0
  0
LINE
  5
154
100
AcDbEntity
  8
0
390
0
  6
Continuous
 62
     7
100
AcDbLine
 10
62.396153
 20
6.651701
 30
0.0
 11
62.397556
 21
6.648798
 31
0.0
  0
LINE
  5
155
100
AcDbEntity
  8
0
390
0
  6
Continuous
 62
     7
100
AcDbLine
 10
62.395038
 20
6.656034
 30
0.0
 11
62.396153
 21
6.651701
 31
0.0
  0
LINE
  5
156
100
AcDbEntity
  8
0
390
0
  6
Continuous
 62
     7
100
AcDbLine
 10
62.394505
 20
6.663778
 30
0.0
 11
62.395038
 21
6.656034
 31
0.0
  0
LINE
  5
157
100
AcDbEntity
  8
0
390
0
  6
Continuous
 62
     7
100
AcDbLine
 10
62.395627
 20
6.676069
 30
0.0
 11
62.394505
 21
6.663778
 31
0.0
  0
LINE
  5
158
100
AcDbEntity
  8
0
390
0
  6
Continuous
 62
     7
100
AcDbLine
 10
62.399471
 20
6.69287
 30
0.0
 11
62.395627
 21
6.676069
 31
0.0
  0
LINE
  5
159
100
AcDbEntity
  8
0
390
0
  6
Continuous
 62
     7
100
AcDbLine
 10
62.405227
 20
6.709117
 30
0.0
 11
62.399471
 21
6.69287
 31
0.0
  0
LINE
  5
15A
100
AcDbEntity
  8
0
390
0
  6
Continuous
 62
     7
100
AcDbLine
 10
62.410866
 20
6.720094
 30
0.0
 11
62.405227
 21
6.709117
 31
0.0
  0
LINE
  5
15B
100
AcDbEntity
  8
0
390
0
  6
Continuous
 62
     7
100
AcDbLine
 10
62.415465
 20
6.726347
 30
0.0
 11
62.410866
 21
6.720094
 31
0.0
  0
LINE
  5
15C
100
AcDbEntity
  8
0
390
0
  6
Continuous
 62
     7
100
AcDbLine
 10
62.418727
 20
6.729407
 30
0.0
 11
62.415465
 21
6.726347
 31
0.0
  0
LINE
  5
15D
100
AcDbEntity
  8
0
390
0
  6
Continuous
 62
     7
100
AcDbLine
 10
62.421467
 20
6.731107
 30
0.0
 11
62.418727
 21
6.729407
 31
0.0
  0
LINE
  5
15E
100
AcDbEntity
  8
0
390
0
  6
Continuous
 62
     7
100
AcDbLine
 10
62.42555
 20
6.732628
 30
0.0
 11
62.421467
 21
6.731107
 31
0.0
  0
LINE
  5
15F
100
AcDbEntity
  8
0
390
0
  6
Continuous
 62
     7
100
AcDbLine
 10
62.432999
 20
6.733926
 30
0.0
 11
62.42555
 21
6.732628
 31
0.0
  0
LINE
  5
160
100
AcDbEntity
  8
0
390
0
  6
Continuous
 62
     7
100
AcDbLine
 10
62.445093
 20
6.734065
 30
0.0
 11
62.432999
 21
6.733926
 31
0.0
  0
LINE
  5
161
100
AcDbEntity
  8
0
390
0
  6
Continuous
 62
     7
100
AcDbLine
 10
62.462208
 20
6.731938
 30
0.0
 11
62.445093
 21
6.734065
 31
0.0
  0
LINE
  5
162
100
AcDbEntity
  8
0
390
0
  6
Continuous
 62
     7
100
AcDbLine
 10
62.486252
 20
6.726183
 30
0.0
 11
62.462208
 21
6.731938
 31
0.0
  0
LINE
  5
163
100
AcDbEntity
  8
0
390
0
  6
Continuous
 62
     7
100
AcDbLine
 10
65.196236
 20
5.938858
 30
0.0
 11
62.486252
 21
6.726183
 31
0.0
  0
LINE
  5
164
100
AcDbEntity
  8
0
390
0
  6
Continuous
 62
     7
100
AcDbLine
 10
65.223811
 20
5.929123
 30
0.0
 11
65.196236
 21
5.938858
 31
0.0
  0
LINE
  5
165
100
AcDbEntity
  8
0
390
0
  6
Continuous
 62
     7
100
AcDbLine
 10
65.242273
 20
5.919732
 30
0.0
 11
65.223811
 21
5.929123
 31
0.0
  0
LINE
  5
166
100
AcDbEntity
  8
0
390
0
  6
Continuous
 62
     7
100
AcDbLine
 10
65.254771
 20
5.910669
 30
0.0
 11
65.242273
 21
5.919732
 31
0.0
  0
LINE
  5
167
100
AcDbEntity
  8
0
390
0
  6
Continuous
 62
     7
100
AcDbLine
 10
65.262769
 20
5.902297
 30
0.0
 11
65.254771
 21
5.910669
 31
0.0
  0
LINE
  5
168
100
AcDbEntity
  8
0
390
0
  6
Continuous
 62
     7
100
AcDbLine
 10
65.26809
 20
5.893917
 30
0.0
 11
65.262769
 21
5.902297
 31
0.0
  0
LINE
  5
169
100
AcDbEntity
  8
0
390
0
  6
Continuous
 62
     7
100
AcDbLine
 10
65.272004
 20
5.883735
 30
0.0
 11
65.26809
 21
5.893917
 31
0.0
  0
LINE
  5
16A
100
AcDbEntity
  8
0
390
0
  6
Continuous
 62
     7
100
AcDbLine
 10
65.274571
 20
5.869705
 30
0.0
 11
65.272004
 21
5.883735
 31
0.0
  0
LINE
  5
16B
100
AcDbEntity
  8
0
390
0
  6
Continuous
 62
     7
100
AcDbLine
 10
65.274906
 20
5.85046
 30
0.0
 11
65.274571
 21
5.869705
 31
0.0
  0
LINE
  5
16C
100
AcDbEntity
  8
0
390
0
  6
Continuous
 62
     7
100
AcDbLine
 10
65.271896
 20
5.825553
 30
0.0
 11
65.274906
 21
5.85046
 31
0.0
  0
LINE
  5
16D
100
AcDbEntity
  8
0
390
0
  6
Continuous
 62
     7
100
AcDbLine
 10
65.264308
 20
5.793705
 30
0.0
 11
65.271896
 21
5.825553
 31
0.0
  0
LINE
  5
16E
100
AcDbEntity
  8
0
390
0
  6
Continuous
 62
     7
100
AcDbLine
 10
65.259424
 20
5.777768
 30
0.0
 11
65.264308
 21
5.793705
 31
0.0
  0
LINE
  5
16F
100
AcDbEntity
  8
0
390
0
  6
Continuous
 62
     7
100
AcDbLine
 10
65.253867
 20
5.761466
 30
0.0
 11
65.259424
 21
5.777768
 31
0.0
  0
LINE
  5
170
100
AcDbEntity
  8
0
390
0
  6
Continuous
 62
     7
100
AcDbLine
 10
65.248185
 20
5.746487
 30
0.0
 11
65.253867
 21
5.761466
 31
0.0
  0
LINE
  5
171
100
AcDbEntity
  8
0
390
0
  6
Continuous
 62
     7
100
AcDbLine
 10
65.24242
 20
5.732847
 30
0.0
 11
65.248185
 21
5.746487
 31
0.0
  0
LINE
  5
172
100
AcDbEntity
  8
0
390
0
  6
Continuous
 62
     7
100
AcDbLine
 10
65.236623
 20
5.720557
 30
0.0
 11
65.24242
 21
5.732847
 31
0.0
  0
LINE
  5
173
100
AcDbEntity
  8
0
390
0
  6
Continuous
 62
     7
100
AcDbLine
 10
65.230854
 20
5.709624
 30
0.0
 11
65.236623
 21
5.720557
 31
0.0
  0
LINE
  5
174
100
AcDbEntity
  8
0
390
0
  6
Continuous
 62
     7
100
AcDbLine
 10
65.22518
 20
5.700044
 30
0.0
 11
65.230854
 21
5.709624
 31
0.0
  0
LINE
  5
175
100
AcDbEntity
  8
0
390
0
  6
Continuous
 62
     7
100
AcDbLine
 10
65.219677
 20
5.691799
 30
0.0
 11
65.22518
 21
5.700044
 31
0.0
  0
LINE
  5
176
100
AcDbEntity
  8
0
390
0
  6
Continuous
 62
     7
100
AcDbLine
 10
65.214425
 20
5.684858
 30
0.0
 11
65.219677
 21
5.691799
 31
0.0
  0
LINE
  5
177
100
AcDbEntity
  8
0
390
0
  6
Continuous
 62
     7
100
AcDbLine
 10
65.208992
 20
5.678565
 30
0.0
 11
65.214425
 21
5.684858
 31
0.0
  0
LINE
  5
178
100
AcDbEntity
  8
0
390
0
  6
Continuous
 62
     7
100
AcDbLine
 10
65.197861
 20
5.667004
 30
0.0
 11
65.208992
 21
5.678565
 31
0.0
  0
LINE
  5
179
100
AcDbEntity
  8
0
390
0
  6
Continuous
 62
     7
100
AcDbLine
 10
65.185989
 20
5.655648
 30
0.0
 11
65.197861
 21
5.667004
 31
0.0
  0
LINE
  5
17A
100
AcDbEntity
  8
0
390
0
  6
Continuous
 62
     7
100
AcDbLine
 10
65.173874
 20
5.644994
 30
0.0
 11
65.185989
 21
5.655648
 31
0.0
  0
LINE
  5
17B
100
AcDbEntity
  8
0
390
0
  6
Continuous
 62
     7
100
AcDbLine
 10
65.161507
 20
5.635023
 30
0.0
 11
65.173874
 21
5.644994
 31
0.0
  0
LINE
  5
17C
100
AcDbEntity
  8
0
390
0
  6
Continuous
 62
     7
100
AcDbLine
 10
65.148874
 20
5.62571
 30
0.0
 11
65.161507
 21
5.635023
 31
0.0
  0
LINE
  5
17D
100
AcDbEntity
  8
0
390
0
  6
Continuous
 62
     7
100
AcDbLine
 10
65.135962
 20
5.61704
 30
0.0
 11
65.148874
 21
5.62571
 31
0.0
  0
LINE
  5
17E
100
AcDbEntity
  8
0
390
0
  6
Continuous
 62
     7
100
AcDbLine
 10
65.122752
 20
5.608994
 30
0.0
 11
65.135962
 21
5.61704
 31
0.0
  0
LINE
  5
17F
100
AcDbEntity
  8
0
390
0
  6
Continuous
 62
     7
100
AcDbLine
 10
65.109222
 20
5.601556
 30
0.0
 11
65.122752
 21
5.608994
 31
0.0
  0
LINE
  5
180
100
AcDbEntity
  8
0
390
0
  6
Continuous
 62
     7
100
AcDbLine
 10
65.09535
 20
5.594713
 30
0.0
 11
65.109222
 21
5.601556
 31
0.0
  0
LINE
  5
181
100
AcDbEntity
  8
0
390
0
  6
Continuous
 62
     7
100
AcDbLine
 10
65.081358
 20
5.588566
 30
0.0
 11
65.09535
 21
5.594713
 31
0.0
  0
LINE
  5
182
100
AcDbEntity
  8
0
390
0
  6
Continuous
 62
     7
100
AcDbLine
 10
62.156353
 20
4.471712
 30
0.0
 11
65.081358
 21
5.588566
 31
0.0
  0
POLYLINE
  5
183
100
AcDbEntity
  8
0
390
0
  6
Continuous
 62
     7
100
AcDb2dPolyline
 66
     1
 10
0.0
 20
0.0
 30
0.0
 40
0.1
 41
0.1
  0
VERTEX
  5
184
100
AcDbEntity
  8
0
390
0
 62
     7
100
AcDbVertex
100
AcDb2dVertex
 10
62.164125
 20
4.282261
 30
0.0
  0
VERTEX
  5
185
100
AcDbEntity
  8
0
390
0
 62
     7
100
AcDbVertex
100
AcDb2dVertex
 10
62.094168
 20
4.357698
 30
0.0
  0
VERTEX
  5
186
100
AcDbEntity
  8
0
390
0
 62
     7
100
AcDbVertex
100
AcDb2dVertex
 10
62.127104
 20
4.454352
 30
0.0
  0
VERTEX
  5
187
100
AcDbEntity
  8
0
390
0
 62
     7
100
AcDbVertex
100
AcDb2dVertex
 10
62.156353
 20
4.471712
 30
0.0
  0
SEQEND
  5
188
100
AcDbEntity
  8
0
390
0
  0
LINE
  5
189
100
AcDbEntity
  8
0
390
0
  6
Continuous
 62
     7
100
AcDbLine
 10
64.546829
 20
3.590016
 30
0.0
 11
62.164125
 21
4.282261
 31
0.0
  0
LINE
  5
18A
100
AcDbEntity
  8
0
390
0
  6
Continuous
 62
     7
100
AcDbLine
 10
64.570214
 20
3.581991
 30
0.0
 11
64.546829
 21
3.590016
 31
0.0
  0
LINE
  5
18B
100
AcDbEntity
  8
0
390
0
  6
Continuous
 62
     7
100
AcDbLine
 10
64.585804
 20
3.574617
 30
0.0
 11
64.570214
 21
3.581991
 31
0.0
  0
LINE
  5
18C
100
AcDbEntity
  8
0
390
0
  6
Continuous
 62
     7
100
AcDbLine
 10
64.595941
 20
3.568019
 30
0.0
 11
64.585804
 21
3.574617
 31
0.0
  0
LINE
  5
18D
100
AcDbEntity
  8
0
390
0
  6
Continuous
 62
     7
100
AcDbLine
 10
64.601535
 20
3.562933
 30
0.0
 11
64.595941
 21
3.568019
 31
0.0
  0
LINE
  5
18E
100
AcDbEntity
  8
0
390
0
  6
Continuous
 62
     7
100
AcDbLine
 10
64.604168
 20
3.559459
 30
0.0
 11
64.601535
 21
3.562933
 31
0.0
  0
LINE
  5
18F
100
AcDbEntity
  8
0
390
0
  6
Continuous
 62
     7
100
AcDbLine
 10
64.605571
 20
3.556555
 30
0.0
 11
64.604168
 21
3.559459
 31
0.0
  0
LINE
  5
190
100
AcDbEntity
  8
0
390
0
  6
Continuous
 62
     7
100
AcDbLine
 10
64.606686
 20
3.552223
 30
0.0
 11
64.605571
 21
3.556555
 31
0.0
  0
LINE
  5
191
100
AcDbEntity
  8
0
390
0
  6
Continuous
 62
     7
100
AcDbLine
 10
64.607219
 20
3.54448
 30
0.0
 11
64.606686
 21
3.552223
 31
0.0
  0
LINE
  5
192
100
AcDbEntity
  8
0
390
0
  6
Continuous
 62
     7
100
AcDbLine
 10
64.606097
 20
3.532188
 30
0.0
 11
64.607219
 21
3.54448
 31
0.0
  0
LINE
  5
193
100
AcDbEntity
  8
0
390
0
  6
Continuous
 62
     7
100
AcDbLine
 10
64.602253
 20
3.515386
 30
0.0
 11
64.606097
 21
3.532188
 31
0.0
  0
LINE
  5
194
100
AcDbEntity
  8
0
390
0
  6
Continuous
 62
     7
100
AcDbLine
 10
64.596496
 20
3.499141
 30
0.0
 11
64.602253
 21
3.515386
 31
0.0
  0
LINE
  5
195
100
AcDbEntity
  8
0
390
0
  6
Continuous
 62
     7
100
AcDbLine
 10
64.590858
 20
3.488163
 30
0.0
 11
64.596496
 21
3.499141
 31
0.0
  0
LINE
  5
196
100
AcDbEntity
  8
0
390
0
  6
Continuous
 62
     7
100
AcDbLine
 10
64.586259
 20
3.48191
 30
0.0
 11
64.590858
 21
3.488163
 31
0.0
  0
LINE
  5
197
100
AcDbEntity
  8
0
390
0
  6
Continuous
 62
     7
100
AcDbLine
 10
64.582996
 20
3.47885
 30
0.0
 11
64.586259
 21
3.48191
 31
0.0
  0
LINE
  5
198
100
AcDbEntity
  8
0
390
0
  6
Continuous
 62
     7
100
AcDbLine
 10
64.580257
 20
3.477151
 30
0.0
 11
64.582996
 21
3.47885
 31
0.0
  0
LINE
  5
199
100
AcDbEntity
  8
0
390
0
  6
Continuous
 62
     7
100
AcDbLine
 10
64.576174
 20
3.475629
 30
0.0
 11
64.580257
 21
3.477151
 31
0.0
  0
LINE
  5
19A
100
AcDbEntity
  8
0
390
0
  6
Continuous
 62
     7
100
AcDbLine
 10
64.568725
 20
3.474331
 30
0.0
 11
64.576174
 21
3.475629
 31
0.0
  0
LINE
  5
19B
100
AcDbEntity
  8
0
390
0
  6
Continuous
 62
     7
100
AcDbLine
 10
64.55663
 20
3.474193
 30
0.0
 11
64.568725
 21
3.474331
 31
0.0
  0
LINE
  5
19C
100
AcDbEntity
  8
0
390
0
  6
Continuous
 62
     7
100
AcDbLine
 10
64.539516
 20
3.476319
 30
0.0
 11
64.55663
 21
3.474193
 31
0.0
  0
LINE
  5
19D
100
AcDbEntity
  8
0
390
0
  6
Continuous
 62
     7
100
AcDbLine
 10
64.515471
 20
3.482075
 30
0.0
 11
64.539516
 21
3.476319
 31
0.0
  0
LINE
  5
19E
100
AcDbEntity
  8
0
390
0
  6
Continuous
 62
     7
100
AcDbLine
 10
61.775063
 20
4.278241
 30
0.0
 11
64.515471
 21
3.482075
 31
0.0
  0
LINE
  5
19F
100
AcDbEntity
  8
0
390
0
  6
Continuous
 62
     7
100
AcDbLine
 10
61.751678
 20
4.286265
 30
0.0
 11
61.775063
 21
4.278241
 31
0.0
  0
LINE
  5
1A0
100
AcDbEntity
  8
0
390
0
  6
Continuous
 62
     7
100
AcDbLine
 10
65.070248
 20
5.671136
 30
0.0
 11
62.129716
 21
4.552766
 31
0.0
  0
LINE
  5
1A1
100
AcDbEntity
  8
0
390
0
  6
Continuous
 62
     7
100
AcDbLine
 10
62.129716
 20
4.552766
 30
0.0
 11
61.800615
 21
4.427599
 31
0.0
  0
LINE
  5
1A2
100
AcDbEntity
  8
0
390
0
  6
Continuous
 62
     7
100
AcDbLine
 10
93.835953
 20
11.099616
 30
0.0
 11
94.192785
 21
13.437859
 31
0.0
  0
POLYLINE
  5
1A3
100
AcDbEntity
  8
0
390
0
  6
Continuous
 62
     7
100
AcDb2dPolyline
 66
     1
 10
0.0
 20
0.0
 30
0.0
 40
0.1
 41
0.1
  0
VERTEX
  5
1A4
100
AcDbEntity
  8
0
390
0
 62
     7
100
AcDbVertex
100
AcDb2dVertex
 10
94.00465
 20
11.012961
 30
0.0
  0
VERTEX
  5
1A5
100
AcDbEntity
  8
0
390
0
 62
     7
100
AcDbVertex
100
AcDb2dVertex
 10
93.905934
 20
10.988791
 30
0.0
  0
VERTEX
  5
1A6
100
AcDbEntity
  8
0
390
0
 62
     7
100
AcDbVertex
100
AcDb2dVertex
 10
93.836648
 20
11.065441
 30
0.0
  0
VERTEX
  5
1A7
100
AcDbEntity
  8
0
390
0
 62
     7
100
AcDbVertex
100
AcDb2dVertex
 10
93.835953
 20
11.099616
 30
0.0
  0
SEQEND
  5
1A8
100
AcDbEntity
  8
0
390
0
  0
LINE
  5
1A9
100
AcDbEntity
  8
0
390
0
  6
Continuous
 62
     7
100
AcDbLine
 10
95.367926
 20
12.343329
 30
0.0
 11
94.00465
 21
11.012961
 31
0.0
  0
LINE
  5
1AA
100
AcDbEntity
  8
0
390
0
  6
Continuous
 62
     7
100
AcDbLine
 10
94.006931
 20
10.858115
 30
0.0
 11
95.453951
 21
12.270206
 31
0.0
  0
LINE
  5
1AB
100
AcDbEntity
  8
0
390
0
  6
Continuous
 62
     7
100
AcDbLine
 10
93.984879
 20
10.838908
 30
0.0
 11
94.006931
 21
10.858115
 31
0.0
  0
LINE
  5
1AC
100
AcDbEntity
  8
0
390
0
  6
Continuous
 62
     7
100
AcDbLine
 10
93.967615
 20
10.827464
 30
0.0
 11
93.984879
 21
10.838908
 31
0.0
  0
LINE
  5
1AD
100
AcDbEntity
  8
0
390
0
  6
Continuous
 62
     7
100
AcDbLine
 10
93.953573
 20
10.82105
 30
0.0
 11
93.967615
 21
10.827464
 31
0.0
  0
LINE
  5
1AE
100
AcDbEntity
  8
0
390
0
  6
Continuous
 62
     7
100
AcDbLine
 10
93.942348
 20
10.818212
 30
0.0
 11
93.953573
 21
10.82105
 31
0.0
  0
LINE
  5
1AF
100
AcDbEntity
  8
0
390
0
  6
Continuous
 62
     7
100
AcDbLine
 10
93.932433
 20
10.817706
 30
0.0
 11
93.942348
 21
10.818212
 31
0.0
  0
LINE
  5
1B0
100
AcDbEntity
  8
0
390
0
  6
Continuous
 62
     7
100
AcDbLine
 10
93.921644
 20
10.819315
 30
0.0
 11
93.932433
 21
10.817706
 31
0.0
  0
LINE
  5
1B1
100
AcDbEntity
  8
0
390
0
  6
Continuous
 62
     7
100
AcDbLine
 10
93.908168
 20
10.82399
 30
0.0
 11
93.921644
 21
10.819315
 31
0.0
  0
LINE
  5
1B2
100
AcDbEntity
  8
0
390
0
  6
Continuous
 62
     7
100
AcDbLine
 10
93.891251
 20
10.833176
 30
0.0
 11
93.908168
 21
10.82399
 31
0.0
  0
LINE
  5
1B3
100
AcDbEntity
  8
0
390
0
  6
Continuous
 62
     7
100
AcDbLine
 10
93.871055
 20
10.848062
 30
0.0
 11
93.891251
 21
10.833176
 31
0.0
  0
LINE
  5
1B4
100
AcDbEntity
  8
0
390
0
  6
Continuous
 62
     7
100
AcDbLine
 10
93.84707
 20
10.870353
 30
0.0
 11
93.871055
 21
10.848062
 31
0.0
  0
LINE
  5
1B5
100
AcDbEntity
  8
0
390
0
  6
Continuous
 62
     7
100
AcDbLine
 10
93.835601
 20
10.882455
 30
0.0
 11
93.84707
 21
10.870353
 31
0.0
  0
LINE
  5
1B6
100
AcDbEntity
  8
0
390
0
  6
Continuous
 62
     7
100
AcDbLine
 10
93.824149
 20
10.895318
 30
0.0
 11
93.835601
 21
10.882455
 31
0.0
  0
LINE
  5
1B7
100
AcDbEntity
  8
0
390
0
  6
Continuous
 62
     7
100
AcDbLine
 10
93.813911
 20
10.907638
 30
0.0
 11
93.824149
 21
10.895318
 31
0.0
  0
LINE
  5
1B8
100
AcDbEntity
  8
0
390
0
  6
Continuous
 62
     7
100
AcDbLine
 10
93.804877
 20
10.919372
 30
0.0
 11
93.813911
 21
10.907638
 31
0.0
  0
LINE
  5
1B9
100
AcDbEntity
  8
0
390
0
  6
Continuous
 62
     7
100
AcDbLine
 10
93.797035
 20
10.930471
 30
0.0
 11
93.804877
 21
10.919372
 31
0.0
  0
LINE
  5
1BA
100
AcDbEntity
  8
0
390
0
  6
Continuous
 62
     7
100
AcDbLine
 10
93.79036
 20
10.940876
 30
0.0
 11
93.797035
 21
10.930471
 31
0.0
  0
LINE
  5
1BB
100
AcDbEntity
  8
0
390
0
  6
Continuous
 62
     7
100
AcDbLine
 10
93.784816
 20
10.950531
 30
0.0
 11
93.79036
 21
10.940876
 31
0.0
  0
LINE
  5
1BC
100
AcDbEntity
  8
0
390
0
  6
Continuous
 62
     7
100
AcDbLine
 10
93.780351
 20
10.959379
 30
0.0
 11
93.784816
 21
10.950531
 31
0.0
  0
LINE
  5
1BD
100
AcDbEntity
  8
0
390
0
  6
Continuous
 62
     7
100
AcDbLine
 10
93.776895
 20
10.967371
 30
0.0
 11
93.780351
 21
10.959379
 31
0.0
  0
LINE
  5
1BE
100
AcDbEntity
  8
0
390
0
  6
Continuous
 62
     7
100
AcDbLine
 10
93.774093
 20
10.975199
 30
0.0
 11
93.776895
 21
10.967371
 31
0.0
  0
LINE
  5
1BF
100
AcDbEntity
  8
0
390
0
  6
Continuous
 62
     7
100
AcDbLine
 10
93.769512
 20
10.990583
 30
0.0
 11
93.774093
 21
10.975199
 31
0.0
  0
LINE
  5
1C0
100
AcDbEntity
  8
0
390
0
  6
Continuous
 62
     7
100
AcDbLine
 10
93.765473
 20
11.006507
 30
0.0
 11
93.769512
 21
10.990583
 31
0.0
  0
LINE
  5
1C1
100
AcDbEntity
  8
0
390
0
  6
Continuous
 62
     7
100
AcDbLine
 10
93.762166
 20
11.022298
 30
0.0
 11
93.765473
 21
11.006507
 31
0.0
  0
LINE
  5
1C2
100
AcDbEntity
  8
0
390
0
  6
Continuous
 62
     7
100
AcDbLine
 10
93.759576
 20
11.037974
 30
0.0
 11
93.762166
 21
11.022298
 31
0.0
  0
LINE
  5
1C3
100
AcDbEntity
  8
0
390
0
  6
Continuous
 62
     7
100
AcDbLine
 10
93.757692
 20
11.053553
 30
0.0
 11
93.759576
 21
11.037974
 31
0.0
  0
LINE
  5
1C4
100
AcDbEntity
  8
0
390
0
  6
Continuous
 62
     7
100
AcDbLine
 10
93.756505
 20
11.069061
 30
0.0
 11
93.757692
 21
11.053553
 31
0.0
  0
LINE
  5
1C5
100
AcDbEntity
  8
0
390
0
  6
Continuous
 62
     7
100
AcDbLine
 10
93.756006
 20
11.084521
 30
0.0
 11
93.756505
 21
11.069061
 31
0.0
  0
LINE
  5
1C6
100
AcDbEntity
  8
0
390
0
  6
Continuous
 62
     7
100
AcDbLine
 10
93.756195
 20
11.099961
 30
0.0
 11
93.756006
 21
11.084521
 31
0.0
  0
LINE
  5
1C7
100
AcDbEntity
  8
0
390
0
  6
Continuous
 62
     7
100
AcDbLine
 10
93.75707
 20
11.115404
 30
0.0
 11
93.756195
 21
11.099961
 31
0.0
  0
LINE
  5
1C8
100
AcDbEntity
  8
0
390
0
  6
Continuous
 62
     7
100
AcDbLine
 10
93.758608
 20
11.13061
 30
0.0
 11
93.75707
 21
11.115404
 31
0.0
  0
LINE
  5
1C9
100
AcDbEntity
  8
0
390
0
  6
Continuous
 62
     7
100
AcDbLine
 10
94.11927
 20
13.514931
 30
0.0
 11
93.758608
 21
11.13061
 31
0.0
  0
LINE
  5
1CA
100
AcDbEntity
  8
0
390
0
  6
Continuous
 62
     7
100
AcDbLine
 10
92.282328
 20
12.580025
 30
0.0
 11
93.697239
 21
13.960779
 31
0.0
  0
LINE
  5
1CB
100
AcDbEntity
  8
0
390
0
  6
Continuous
 62
     7
100
AcDbLine
 10
92.263826
 20
12.563622
 30
0.0
 11
92.282328
 21
12.580025
 31
0.0
  0
LINE
  5
1CC
100
AcDbEntity
  8
0
390
0
  6
Continuous
 62
     7
100
AcDbLine
 10
92.24973
 20
12.553682
 30
0.0
 11
92.263826
 21
12.563622
 31
0.0
  0
LINE
  5
1CD
100
AcDbEntity
  8
0
390
0
  6
Continuous
 62
     7
100
AcDbLine
 10
92.238993
 20
12.548108
 30
0.0
 11
92.24973
 21
12.553682
 31
0.0
  0
LINE
  5
1CE
100
AcDbEntity
  8
0
390
0
  6
Continuous
 62
     7
100
AcDbLine
 10
92.231809
 20
12.545743
 30
0.0
 11
92.238993
 21
12.548108
 31
0.0
  0
LINE
  5
1CF
100
AcDbEntity
  8
0
390
0
  6
Continuous
 62
     7
100
AcDbLine
 10
92.227488
 20
12.545162
 30
0.0
 11
92.231809
 21
12.545743
 31
0.0
  0
LINE
  5
1D0
100
AcDbEntity
  8
0
390
0
  6
Continuous
 62
     7
100
AcDbLine
 10
92.224268
 20
12.54537
 30
0.0
 11
92.227488
 21
12.545162
 31
0.0
  0
LINE
  5
1D1
100
AcDbEntity
  8
0
390
0
  6
Continuous
 62
     7
100
AcDbLine
 10
92.219947
 20
12.546534
 30
0.0
 11
92.224268
 21
12.54537
 31
0.0
  0
LINE
  5
1D2
100
AcDbEntity
  8
0
390
0
  6
Continuous
 62
     7
100
AcDbLine
 10
92.212943
 20
12.549884
 30
0.0
 11
92.219947
 21
12.546534
 31
0.0
  0
LINE
  5
1D3
100
AcDbEntity
  8
0
390
0
  6
Continuous
 62
     7
100
AcDbLine
 10
92.202797
 20
12.556913
 30
0.0
 11
92.212943
 21
12.549884
 31
0.0
  0
LINE
  5
1D4
100
AcDbEntity
  8
0
390
0
  6
Continuous
 62
     7
100
AcDbLine
 10
92.190067
 20
12.568533
 30
0.0
 11
92.202797
 21
12.556913
 31
0.0
  0
LINE
  5
1D5
100
AcDbEntity
  8
0
390
0
  6
Continuous
 62
     7
100
AcDbLine
 10
92.178764
 20
12.58154
 30
0.0
 11
92.190067
 21
12.568533
 31
0.0
  0
LINE
  5
1D6
100
AcDbEntity
  8
0
390
0
  6
Continuous
 62
     7
100
AcDbLine
 10
92.171986
 20
12.591855
 30
0.0
 11
92.178764
 21
12.58154
 31
0.0
  0
LINE
  5
1D7
100
AcDbEntity
  8
0
390
0
  6
Continuous
 62
     7
100
AcDbLine
 10
92.168809
 20
12.598936
 30
0.0
 11
92.171986
 21
12.591855
 31
0.0
  0
LINE
  5
1D8
100
AcDbEntity
  8
0
390
0
  6
Continuous
 62
     7
100
AcDbLine
 10
92.167752
 20
12.603284
 30
0.0
 11
92.168809
 21
12.598936
 31
0.0
  0
LINE
  5
1D9
100
AcDbEntity
  8
0
390
0
  6
Continuous
 62
     7
100
AcDbLine
 10
92.167622
 20
12.606507
 30
0.0
 11
92.167752
 21
12.603284
 31
0.0
  0
LINE
  5
1DA
100
AcDbEntity
  8
0
390
0
  6
Continuous
 62
     7
100
AcDbLine
 10
92.168309
 20
12.610813
 30
0.0
 11
92.167622
 21
12.606507
 31
0.0
  0
LINE
  5
1DB
100
AcDbEntity
  8
0
390
0
  6
Continuous
 62
     7
100
AcDbLine
 10
92.170849
 20
12.617938
 30
0.0
 11
92.168309
 21
12.610813
 31
0.0
  0
LINE
  5
1DC
100
AcDbEntity
  8
0
390
0
  6
Continuous
 62
     7
100
AcDbLine
 10
92.176685
 20
12.628535
 30
0.0
 11
92.170849
 21
12.617938
 31
0.0
  0
LINE
  5
1DD
100
AcDbEntity
  8
0
390
0
  6
Continuous
 62
     7
100
AcDbLine
 10
92.186966
 20
12.642386
 30
0.0
 11
92.176685
 21
12.628535
 31
0.0
  0
LINE
  5
1DE
100
AcDbEntity
  8
0
390
0
  6
Continuous
 62
     7
100
AcDbLine
 10
92.203817
 20
12.66048
 30
0.0
 11
92.186966
 21
12.642386
 31
0.0
  0
LINE
  5
1DF
100
AcDbEntity
  8
0
390
0
  6
Continuous
 62
     7
100
AcDbLine
 10
93.6239
 20
14.046283
 30
0.0
 11
92.203817
 21
12.66048
 31
0.0
  0
LINE
  5
1E0
100
AcDbEntity
  8
0
390
0
  6
Continuous
 62
     7
100
AcDbLine
 10
68.551775
 20
-11.381625
 30
0.0
 11
67.902775
 21
-13.464384
 31
0.0
  0
LINE
  5
1E1
100
AcDbEntity
  8
0
390
0
  6
Continuous
 62
     7
100
AcDbLine
 10
68.558304
 20
-11.368786
 30
0.0
 11
68.551775
 21
-11.381625
 31
0.0
  0
LINE
  5
1E2
100
AcDbEntity
  8
0
390
0
  6
Continuous
 62
     7
100
AcDbLine
 10
68.566029
 20
-11.35703
 30
0.0
 11
68.558304
 21
-11.368786
 31
0.0
  0
LINE
  5
1E3
100
AcDbEntity
  8
0
390
0
  6
Continuous
 62
     7
100
AcDbLine
 10
68.572725
 20
-11.349258
 30
0.0
 11
68.566029
 21
-11.35703
 31
0.0
  0
LINE
  5
1E4
100
AcDbEntity
  8
0
390
0
  6
Continuous
 62
     7
100
AcDbLine
 10
68.578108
 20
-11.344626
 30
0.0
 11
68.572725
 21
-11.349258
 31
0.0
  0
LINE
  5
1E5
100
AcDbEntity
  8
0
390
0
  6
Continuous
 62
     7
100
AcDbLine
 10
68.582421
 20
-11.342005
 30
0.0
 11
68.578108
 21
-11.344626
 31
0.0
  0
LINE
  5
1E6
100
AcDbEntity
  8
0
390
0
  6
Continuous
 62
     7
100
AcDbLine
 10
68.586602
 20
-11.340368
 30
0.0
 11
68.582421
 21
-11.342005
 31
0.0
  0
LINE
  5
1E7
100
AcDbEntity
  8
0
390
0
  6
Continuous
 62
     7
100
AcDbLine
 10
68.592037
 20
-11.339254
 30
0.0
 11
68.586602
 21
-11.340368
 31
0.0
  0
LINE
  5
1E8
100
AcDbEntity
  8
0
390
0
  6
Continuous
 62
     7
100
AcDbLine
 10
68.60003
 20
-11.338918
 30
0.0
 11
68.592037
 21
-11.339254
 31
0.0
  0
LINE
  5
1E9
100
AcDbEntity
  8
0
390
0
  6
Continuous
 62
     7
100
AcDbLine
 10
68.61138
 20
-11.340072
 30
0.0
 11
68.60003
 21
-11.338918
 31
0.0
  0
LINE
  5
1EA
100
AcDbEntity
  8
0
390
0
  6
Continuous
 62
     7
100
AcDbLine
 10
68.619441
 20
-11.341918
 30
0.0
 11
68.61138
 21
-11.340072
 31
0.0
  0
LINE
  5
1EB
100
AcDbEntity
  8
0
390
0
  6
Continuous
 62
     7
100
AcDbLine
 10
68.628811
 20
-11.346684
 30
0.0
 11
68.619441
 21
-11.341918
 31
0.0
  0
LINE
  5
1EC
100
AcDbEntity
  8
0
390
0
  6
Continuous
 62
     7
100
AcDbLine
 10
68.640567
 20
-11.354407
 30
0.0
 11
68.628811
 21
-11.346684
 31
0.0
  0
LINE
  5
1ED
100
AcDbEntity
  8
0
390
0
  6
Continuous
 62
     7
100
AcDbLine
 10
68.648339
 20
-11.361103
 30
0.0
 11
68.640567
 21
-11.354407
 31
0.0
  0
LINE
  5
1EE
100
AcDbEntity
  8
0
390
0
  6
Continuous
 62
     7
100
AcDbLine
 10
68.652971
 20
-11.366486
 30
0.0
 11
68.648339
 21
-11.361103
 31
0.0
  0
LINE
  5
1EF
100
AcDbEntity
  8
0
390
0
  6
Continuous
 62
     7
100
AcDbLine
 10
68.655592
 20
-11.370801
 30
0.0
 11
68.652971
 21
-11.366486
 31
0.0
  0
LINE
  5
1F0
100
AcDbEntity
  8
0
390
0
  6
Continuous
 62
     7
100
AcDbLine
 10
68.65723
 20
-11.374983
 30
0.0
 11
68.655592
 21
-11.370801
 31
0.0
  0
LINE
  5
1F1
100
AcDbEntity
  8
0
390
0
  6
Continuous
 62
     7
100
AcDbLine
 10
68.658344
 20
-11.38042
 30
0.0
 11
68.65723
 21
-11.374983
 31
0.0
  0
LINE
  5
1F2
100
AcDbEntity
  8
0
390
0
  6
Continuous
 62
     7
100
AcDbLine
 10
68.658679
 20
-11.388413
 30
0.0
 11
68.658344
 21
-11.38042
 31
0.0
  0
LINE
  5
1F3
100
AcDbEntity
  8
0
390
0
  6
Continuous
 62
     7
100
AcDbLine
 10
68.657526
 20
-11.399763
 30
0.0
 11
68.658679
 21
-11.388413
 31
0.0
  0
LINE
  5
1F4
100
AcDbEntity
  8
0
390
0
  6
Continuous
 62
     7
100
AcDbLine
 10
68.65387
 20
-11.415735
 30
0.0
 11
68.657526
 21
-11.399763
 31
0.0
  0
LINE
  5
1F5
100
AcDbEntity
  8
0
390
0
  6
Continuous
 62
     7
100
AcDbLine
 10
67.975019
 20
-13.539938
 30
0.0
 11
68.65387
 21
-11.415735
 31
0.0
  0
LINE
  5
1F6
100
AcDbEntity
  8
0
390
0
  6
Continuous
 62
     7
100
AcDbLine
 10
70.693821
 20
-13.291517
 30
0.0
 11
68.558657
 21
-14.176989
 31
0.0
  0
LINE
  5
1F7
100
AcDbEntity
  8
0
390
0
  6
Continuous
 62
     7
100
AcDbLine
 10
70.70943
 20
-13.286537
 30
0.0
 11
70.693821
 21
-13.291517
 31
0.0
  0
LINE
  5
1F8
100
AcDbEntity
  8
0
390
0
  6
Continuous
 62
     7
100
AcDbLine
 10
70.720644
 20
-13.284438
 30
0.0
 11
70.70943
 21
-13.286537
 31
0.0
  0
LINE
  5
1F9
100
AcDbEntity
  8
0
390
0
  6
Continuous
 62
     7
100
AcDbLine
 10
70.728637
 20
-13.284102
 30
0.0
 11
70.720644
 21
-13.284438
 31
0.0
  0
LINE
  5
1FA
100
AcDbEntity
  8
0
390
0
  6
Continuous
 62
     7
100
AcDbLine
 10
70.734147
 20
-13.284757
 30
0.0
 11
70.728637
 21
-13.284102
 31
0.0
  0
LINE
  5
1FB
100
AcDbEntity
  8
0
390
0
  6
Continuous
 62
     7
100
AcDbLine
 10
70.738451
 20
-13.28604
 30
0.0
 11
70.734147
 21
-13.284757
 31
0.0
  0
LINE
  5
1FC
100
AcDbEntity
  8
0
390
0
  6
Continuous
 62
     7
100
AcDbLine
 10
70.742971
 20
-13.288291
 30
0.0
 11
70.738451
 21
-13.28604
 31
0.0
  0
LINE
  5
1FD
100
AcDbEntity
  8
0
390
0
  6
Continuous
 62
     7
100
AcDbLine
 10
70.748724
 20
-13.292457
 30
0.0
 11
70.742971
 21
-13.288291
 31
0.0
  0
LINE
  5
1FE
100
AcDbEntity
  8
0
390
0
  6
Continuous
 62
     7
100
AcDbLine
 10
70.756049
 20
-13.299641
 30
0.0
 11
70.748724
 21
-13.292457
 31
0.0
  0
LINE
  5
1FF
100
AcDbEntity
  8
0
390
0
  6
Continuous
 62
     7
100
AcDbLine
 10
70.764731
 20
-13.310712
 30
0.0
 11
70.756049
 21
-13.299641
 31
0.0
  0
LINE
  5
200
100
AcDbEntity
  8
0
390
0
  6
Continuous
 62
     7
100
AcDbLine
 10
70.770263
 20
-13.319648
 30
0.0
 11
70.764731
 21
-13.310712
 31
0.0
  0
LINE
  5
201
100
AcDbEntity
  8
0
390
0
  6
Continuous
 62
     7
100
AcDbLine
 10
70.772776
 20
-13.327522
 30
0.0
 11
70.770263
 21
-13.319648
 31
0.0
  0
LINE
  5
202
100
AcDbEntity
  8
0
390
0
  6
Continuous
 62
     7
100
AcDbLine
 10
70.774875
 20
-13.338738
 30
0.0
 11
70.772776
 21
-13.327522
 31
0.0
  0
LINE
  5
203
100
AcDbEntity
  8
0
390
0
  6
Continuous
 62
     7
100
AcDbLine
 10
70.77521
 20
-13.346732
 30
0.0
 11
70.774875
 21
-13.338738
 31
0.0
  0
LINE
  5
204
100
AcDbEntity
  8
0
390
0
  6
Continuous
 62
     7
100
AcDbLine
 10
70.774555
 20
-13.352242
 30
0.0
 11
70.77521
 21
-13.346732
 31
0.0
  0
LINE
  5
205
100
AcDbEntity
  8
0
390
0
  6
Continuous
 62
     7
100
AcDbLine
 10
70.773273
 20
-13.356547
 30
0.0
 11
70.774555
 21
-13.352242
 31
0.0
  0
LINE
  5
206
100
AcDbEntity
  8
0
390
0
  6
Continuous
 62
     7
100
AcDbLine
 10
70.771021
 20
-13.361066
 30
0.0
 11
70.773273
 21
-13.356547
 31
0.0
  0
LINE
  5
207
100
AcDbEntity
  8
0
390
0
  6
Continuous
 62
     7
100
AcDbLine
 10
70.766856
 20
-13.366818
 30
0.0
 11
70.771021
 21
-13.361066
 31
0.0
  0
LINE
  5
208
100
AcDbEntity
  8
0
390
0
  6
Continuous
 62
     7
100
AcDbLine
 10
70.759672
 20
-13.374141
 30
0.0
 11
70.766856
 21
-13.366818
 31
0.0
  0
LINE
  5
209
100
AcDbEntity
  8
0
390
0
  6
Continuous
 62
     7
100
AcDbLine
 10
70.748603
 20
-13.382823
 30
0.0
 11
70.759672
 21
-13.374141
 31
0.0
  0
LINE
  5
20A
100
AcDbEntity
  8
0
390
0
  6
Continuous
 62
     7
100
AcDbLine
 10
70.736356
 20
-13.390404
 30
0.0
 11
70.748603
 21
-13.382823
 31
0.0
  0
LINE
  5
20B
100
AcDbEntity
  8
0
390
0
  6
Continuous
 62
     7
100
AcDbLine
 10
68.62103
 20
-14.249719
 30
0.0
 11
70.736356
 21
-13.390404
 31
0.0
  0
LINE
  5
20C
100
AcDbEntity
  8
0
390
0
  6
Continuous
 62
     7
100
AcDbLine
 10
86.073901
 20
15.98938
 30
0.0
 11
86.090172
 21
15.981431
 31
0.0
  0
LINE
  5
20D
100
AcDbEntity
  8
0
390
0
  6
Continuous
 62
     7
100
AcDbLine
 10
86.060522
 20
15.997879
 30
0.0
 11
86.073901
 21
15.98938
 31
0.0
  0
LINE
  5
20E
100
AcDbEntity
  8
0
390
0
  6
Continuous
 62
     7
100
AcDbLine
 10
86.049566
 20
16.00686
 30
0.0
 11
86.060522
 21
15.997879
 31
0.0
  0
LINE
  5
20F
100
AcDbEntity
  8
0
390
0
  6
Continuous
 62
     7
100
AcDbLine
 10
86.040487
 20
16.016469
 30
0.0
 11
86.049566
 21
16.00686
 31
0.0
  0
LINE
  5
210
100
AcDbEntity
  8
0
390
0
  6
Continuous
 62
     7
100
AcDbLine
 10
86.032793
 20
16.027083
 30
0.0
 11
86.040487
 21
16.016469
 31
0.0
  0
LINE
  5
211
100
AcDbEntity
  8
0
390
0
  6
Continuous
 62
     7
100
AcDbLine
 10
86.026164
 20
16.039241
 30
0.0
 11
86.032793
 21
16.027083
 31
0.0
  0
LINE
  5
212
100
AcDbEntity
  8
0
390
0
  6
Continuous
 62
     7
100
AcDbLine
 10
86.020518
 20
16.053524
 30
0.0
 11
86.026164
 21
16.039241
 31
0.0
  0
LINE
  5
213
100
AcDbEntity
  8
0
390
0
  6
Continuous
 62
     7
100
AcDbLine
 10
86.015981
 20
16.070409
 30
0.0
 11
86.020518
 21
16.053524
 31
0.0
  0
LINE
  5
214
100
AcDbEntity
  8
0
390
0
  6
Continuous
 62
     7
100
AcDbLine
 10
86.012252
 20
16.093702
 30
0.0
 11
86.015981
 21
16.070409
 31
0.0
  0
LINE
  5
215
100
AcDbEntity
  8
0
390
0
  6
Continuous
 62
     7
100
AcDbLine
 10
85.587578
 20
19.188435
 30
0.0
 11
86.012252
 21
16.093702
 31
0.0
  0
LINE
  5
216
100
AcDbEntity
  8
0
390
0
  6
Continuous
 62
     7
100
AcDbLine
 10
85.586925
 20
19.21021
 30
0.0
 11
85.587578
 21
19.188435
 31
0.0
  0
LINE
  5
217
100
AcDbEntity
  8
0
390
0
  6
Continuous
 62
     7
100
AcDbLine
 10
85.5882
 20
19.228399
 30
0.0
 11
85.586925
 21
19.21021
 31
0.0
  0
LINE
  5
218
100
AcDbEntity
  8
0
390
0
  6
Continuous
 62
     7
100
AcDbLine
 10
85.590768
 20
19.241746
 30
0.0
 11
85.5882
 21
19.228399
 31
0.0
  0
LINE
  5
219
100
AcDbEntity
  8
0
390
0
  6
Continuous
 62
     7
100
AcDbLine
 10
85.593813
 20
19.250564
 30
0.0
 11
85.590768
 21
19.241746
 31
0.0
  0
LINE
  5
21A
100
AcDbEntity
  8
0
390
0
  6
Continuous
 62
     7
100
AcDbLine
 10
85.596641
 20
19.255782
 30
0.0
 11
85.593813
 21
19.250564
 31
0.0
  0
LINE
  5
21B
100
AcDbEntity
  8
0
390
0
  6
Continuous
 62
     7
100
AcDbLine
 10
85.59916
 20
19.258913
 30
0.0
 11
85.596641
 21
19.255782
 31
0.0
  0
LINE
  5
21C
100
AcDbEntity
  8
0
390
0
  6
Continuous
 62
     7
100
AcDbLine
 10
85.602216
 20
19.261523
 30
0.0
 11
85.59916
 21
19.258913
 31
0.0
  0
LINE
  5
21D
100
AcDbEntity
  8
0
390
0
  6
Continuous
 62
     7
100
AcDbLine
 10
85.607351
 20
19.264501
 30
0.0
 11
85.602216
 21
19.261523
 31
0.0
  0
LINE
  5
21E
100
AcDbEntity
  8
0
390
0
  6
Continuous
 62
     7
100
AcDbLine
 10
85.616076
 20
19.267802
 30
0.0
 11
85.607351
 21
19.264501
 31
0.0
  0
LINE
  5
21F
100
AcDbEntity
  8
0
390
0
  6
Continuous
 62
     7
100
AcDbLine
 10
85.62244
 20
19.269221
 30
0.0
 11
85.616076
 21
19.267802
 31
0.0
  0
LINE
  5
220
100
AcDbEntity
  8
0
390
0
  6
Continuous
 62
     7
100
AcDbLine
 10
85.631617
 20
19.268844
 30
0.0
 11
85.62244
 21
19.269221
 31
0.0
  0
LINE
  5
221
100
AcDbEntity
  8
0
390
0
  6
Continuous
 62
     7
100
AcDbLine
 10
85.644614
 20
19.266675
 30
0.0
 11
85.631617
 21
19.268844
 31
0.0
  0
LINE
  5
222
100
AcDbEntity
  8
0
390
0
  6
Continuous
 62
     7
100
AcDbLine
 10
85.654184
 20
19.263639
 30
0.0
 11
85.644614
 21
19.266675
 31
0.0
  0
LINE
  5
223
100
AcDbEntity
  8
0
390
0
  6
Continuous
 62
     7
100
AcDbLine
 10
85.661263
 20
19.260098
 30
0.0
 11
85.654184
 21
19.263639
 31
0.0
  0
LINE
  5
224
100
AcDbEntity
  8
0
390
0
  6
Continuous
 62
     7
100
AcDbLine
 10
85.667052
 20
19.255886
 30
0.0
 11
85.661263
 21
19.260098
 31
0.0
  0
LINE
  5
225
100
AcDbEntity
  8
0
390
0
  6
Continuous
 62
     7
100
AcDbLine
 10
85.672601
 20
19.250241
 30
0.0
 11
85.667052
 21
19.255886
 31
0.0
  0
LINE
  5
226
100
AcDbEntity
  8
0
390
0
  6
Continuous
 62
     7
100
AcDbLine
 10
85.678435
 20
19.24207
 30
0.0
 11
85.672601
 21
19.250241
 31
0.0
  0
LINE
  5
227
100
AcDbEntity
  8
0
390
0
  6
Continuous
 62
     7
100
AcDbLine
 10
85.684499
 20
19.230372
 30
0.0
 11
85.678435
 21
19.24207
 31
0.0
  0
LINE
  5
228
100
AcDbEntity
  8
0
390
0
  6
Continuous
 62
     7
100
AcDbLine
 10
85.690365
 20
19.214493
 30
0.0
 11
85.684499
 21
19.230372
 31
0.0
  0
LINE
  5
229
100
AcDbEntity
  8
0
390
0
  6
Continuous
 62
     7
100
AcDbLine
 10
85.695194
 20
19.195352
 30
0.0
 11
85.690365
 21
19.214493
 31
0.0
  0
LINE
  5
22A
100
AcDbEntity
  8
0
390
0
  6
Continuous
 62
     7
100
AcDbLine
 10
85.813789
 20
18.299901
 30
0.0
 11
85.695194
 21
19.195352
 31
0.0
  0
LINE
  5
22B
100
AcDbEntity
  8
0
390
0
  6
Continuous
 62
     7
100
AcDbLine
 10
87.691813
 20
17.704137
 30
0.0
 11
85.813789
 21
18.299901
 31
0.0
  0
LINE
  5
22C
100
AcDbEntity
  8
0
390
0
  6
Continuous
 62
     7
100
AcDbLine
 10
88.304892
 20
18.367474
 30
0.0
 11
87.691813
 21
17.704137
 31
0.0
  0
LINE
  5
22D
100
AcDbEntity
  8
0
390
0
  6
Continuous
 62
     7
100
AcDbLine
 10
88.319873
 20
18.380332
 30
0.0
 11
88.304892
 21
18.367474
 31
0.0
  0
LINE
  5
22E
100
AcDbEntity
  8
0
390
0
  6
Continuous
 62
     7
100
AcDbLine
 10
88.333821
 20
18.389927
 30
0.0
 11
88.319873
 21
18.380332
 31
0.0
  0
LINE
  5
22F
100
AcDbEntity
  8
0
390
0
  6
Continuous
 62
     7
100
AcDbLine
 10
88.345519
 20
18.395992
 30
0.0
 11
88.333821
 21
18.389927
 31
0.0
  0
LINE
  5
230
100
AcDbEntity
  8
0
390
0
  6
Continuous
 62
     7
100
AcDbLine
 10
88.354997
 20
18.399304
 30
0.0
 11
88.345519
 21
18.395992
 31
0.0
  0
LINE
  5
231
100
AcDbEntity
  8
0
390
0
  6
Continuous
 62
     7
100
AcDbLine
 10
88.362784
 20
18.400719
 30
0.0
 11
88.354997
 21
18.399304
 31
0.0
  0
LINE
  5
232
100
AcDbEntity
  8
0
390
0
  6
Continuous
 62
     7
100
AcDbLine
 10
88.369941
 20
18.400824
 30
0.0
 11
88.362784
 21
18.400719
 31
0.0
  0
LINE
  5
233
100
AcDbEntity
  8
0
390
0
  6
Continuous
 62
     7
100
AcDbLine
 10
88.377766
 20
18.399636
 30
0.0
 11
88.369941
 21
18.400824
 31
0.0
  0
LINE
  5
234
100
AcDbEntity
  8
0
390
0
  6
Continuous
 62
     7
100
AcDbLine
 10
88.387335
 20
18.396601
 30
0.0
 11
88.377766
 21
18.399636
 31
0.0
  0
LINE
  5
235
100
AcDbEntity
  8
0
390
0
  6
Continuous
 62
     7
100
AcDbLine
 10
88.399204
 20
18.390882
 30
0.0
 11
88.387335
 21
18.396601
 31
0.0
  0
LINE
  5
236
100
AcDbEntity
  8
0
390
0
  6
Continuous
 62
     7
100
AcDbLine
 10
88.406922
 20
18.385896
 30
0.0
 11
88.399204
 21
18.390882
 31
0.0
  0
LINE
  5
237
100
AcDbEntity
  8
0
390
0
  6
Continuous
 62
     7
100
AcDbLine
 10
88.411307
 20
18.381068
 30
0.0
 11
88.406922
 21
18.385896
 31
0.0
  0
LINE
  5
238
100
AcDbEntity
  8
0
390
0
  6
Continuous
 62
     7
100
AcDbLine
 10
88.416534
 20
18.373341
 30
0.0
 11
88.411307
 21
18.381068
 31
0.0
  0
LINE
  5
239
100
AcDbEntity
  8
0
390
0
  6
Continuous
 62
     7
100
AcDbLine
 10
88.419012
 20
18.367947
 30
0.0
 11
88.416534
 21
18.373341
 31
0.0
  0
LINE
  5
23A
100
AcDbEntity
  8
0
390
0
  6
Continuous
 62
     7
100
AcDbLine
 10
88.420006
 20
18.364053
 30
0.0
 11
88.419012
 21
18.367947
 31
0.0
  0
LINE
  5
23B
100
AcDbEntity
  8
0
390
0
  6
Continuous
 62
     7
100
AcDbLine
 10
88.420259
 20
18.360043
 30
0.0
 11
88.420006
 21
18.364053
 31
0.0
  0
LINE
  5
23C
100
AcDbEntity
  8
0
390
0
  6
Continuous
 62
     7
100
AcDbLine
 10
88.419562
 20
18.354149
 30
0.0
 11
88.420259
 21
18.360043
 31
0.0
  0
LINE
  5
23D
100
AcDbEntity
  8
0
390
0
  6
Continuous
 62
     7
100
AcDbLine
 10
88.416967
 20
18.345187
 30
0.0
 11
88.419562
 21
18.354149
 31
0.0
  0
LINE
  5
23E
100
AcDbEntity
  8
0
390
0
  6
Continuous
 62
     7
100
AcDbLine
 10
88.411371
 20
18.332799
 30
0.0
 11
88.416967
 21
18.345187
 31
0.0
  0
LINE
  5
23F
100
AcDbEntity
  8
0
390
0
  6
Continuous
 62
     7
100
AcDbLine
 10
88.401927
 20
18.317201
 30
0.0
 11
88.411371
 21
18.332799
 31
0.0
  0
LINE
  5
240
100
AcDbEntity
  8
0
390
0
  6
Continuous
 62
     7
100
AcDbLine
 10
88.388843
 20
18.299783
 30
0.0
 11
88.401927
 21
18.317201
 31
0.0
  0
LINE
  5
241
100
AcDbEntity
  8
0
390
0
  6
Continuous
 62
     7
100
AcDbLine
 10
86.257873
 20
16.015779
 30
0.0
 11
88.388843
 21
18.299783
 31
0.0
  0
LINE
  5
242
100
AcDbEntity
  8
0
390
0
  6
Continuous
 62
     7
100
AcDbLine
 10
86.241398
 20
15.998897
 30
0.0
 11
86.257873
 21
16.015779
 31
0.0
  0
LINE
  5
243
100
AcDbEntity
  8
0
390
0
  6
Continuous
 62
     7
100
AcDbLine
 10
86.227956
 20
15.987714
 30
0.0
 11
86.241398
 21
15.998897
 31
0.0
  0
LINE
  5
244
100
AcDbEntity
  8
0
390
0
  6
Continuous
 62
     7
100
AcDbLine
 10
86.21511
 20
15.979299
 30
0.0
 11
86.227956
 21
15.987714
 31
0.0
  0
LINE
  5
245
100
AcDbEntity
  8
0
390
0
  6
Continuous
 62
     7
100
AcDbLine
 10
86.202685
 20
15.973184
 30
0.0
 11
86.21511
 21
15.979299
 31
0.0
  0
LINE
  5
246
100
AcDbEntity
  8
0
390
0
  6
Continuous
 62
     7
100
AcDbLine
 10
86.19028
 20
15.968947
 30
0.0
 11
86.202685
 21
15.973184
 31
0.0
  0
LINE
  5
247
100
AcDbEntity
  8
0
390
0
  6
Continuous
 62
     7
100
AcDbLine
 10
86.177323
 20
15.96633
 30
0.0
 11
86.19028
 21
15.968947
 31
0.0
  0
LINE
  5
248
100
AcDbEntity
  8
0
390
0
  6
Continuous
 62
     7
100
AcDbLine
 10
86.163194
 20
15.965308
 30
0.0
 11
86.177323
 21
15.96633
 31
0.0
  0
LINE
  5
249
100
AcDbEntity
  8
0
390
0
  6
Continuous
 62
     7
100
AcDbLine
 10
86.147365
 20
15.966074
 30
0.0
 11
86.163194
 21
15.965308
 31
0.0
  0
LINE
  5
24A
100
AcDbEntity
  8
0
390
0
  6
Continuous
 62
     7
100
AcDbLine
 10
86.129487
 20
15.968957
 30
0.0
 11
86.147365
 21
15.966074
 31
0.0
  0
LINE
  5
24B
100
AcDbEntity
  8
0
390
0
  6
Continuous
 62
     7
100
AcDbLine
 10
86.109541
 20
15.974282
 30
0.0
 11
86.129487
 21
15.968957
 31
0.0
  0
LINE
  5
24C
100
AcDbEntity
  8
0
390
0
  6
Continuous
 62
     7
100
AcDbLine
 10
86.090172
 20
15.981431
 30
0.0
 11
86.109541
 21
15.974282
 31
0.0
  0
LINE
  5
24D
100
AcDbEntity
  8
0
390
0
  6
Continuous
 62
     7
100
AcDbLine
 10
87.511933
 20
17.708823
 30
0.0
 11
87.555184
 21
17.545685
 31
0.0
  0
LINE
  5
24E
100
AcDbEntity
  8
0
390
0
  6
Continuous
 62
     7
100
AcDbLine
 10
85.96347
 20
18.200041
 30
0.0
 11
87.511933
 21
17.708823
 31
0.0
  0
LINE
  5
24F
100
AcDbEntity
  8
0
390
0
  6
Continuous
 62
     7
100
AcDbLine
 10
85.834088
 20
18.091668
 30
0.0
 11
85.96347
 21
18.200041
 31
0.0
  0
LINE
  5
250
100
AcDbEntity
  8
0
390
0
  6
Continuous
 62
     7
100
AcDbLine
 10
86.084038
 20
16.193368
 30
0.0
 11
85.834088
 21
18.091668
 31
0.0
  0
POLYLINE
  5
251
100
AcDbEntity
  8
0
390
0
  6
Continuous
 62
     7
100
AcDb2dPolyline
 66
     1
 10
0.0
 20
0.0
 30
0.0
 40
0.1
 41
0.1
  0
VERTEX
  5
252
100
AcDbEntity
  8
0
390
0
 62
     7
100
AcDbVertex
100
AcDb2dVertex
 10
86.256671
 20
16.138604
 30
0.0
  0
VERTEX
  5
253
100
AcDbEntity
  8
0
390
0
 62
     7
100
AcDbVertex
100
AcDb2dVertex
 10
86.160374
 20
16.109058
 30
0.0
  0
VERTEX
  5
254
100
AcDbEntity
  8
0
390
0
 62
     7
100
AcDbVertex
100
AcDb2dVertex
 10
86.086562
 20
16.180644
 30
0.0
  0
VERTEX
  5
255
100
AcDbEntity
  8
0
390
0
 62
     7
100
AcDbVertex
100
AcDb2dVertex
 10
86.084038
 20
16.193368
 30
0.0
  0
SEQEND
  5
256
100
AcDbEntity
  8
0
390
0
  0
LINE
  5
257
100
AcDbEntity
  8
0
390
0
  6
Continuous
 62
     7
100
AcDbLine
 10
87.555184
 20
17.545685
 30
0.0
 11
86.256671
 21
16.138604
 31
0.0
  0
LINE
  5
258
100
AcDbEntity
  8
0
390
0
  6
Continuous
 62
     7
100
AcDbLine
 10
72.220588
 20
14.259551
 30
0.0
 11
72.237239
 21
14.266675
 31
0.0
  0
LINE
  5
259
100
AcDbEntity
  8
0
390
0
  6
Continuous
 62
     7
100
AcDbLine
 10
72.205411
 20
14.254977
 30
0.0
 11
72.220588
 21
14.259551
 31
0.0
  0
LINE
  5
25A
100
AcDbEntity
  8
0
390
0
  6
Continuous
 62
     7
100
AcDbLine
 10
72.191452
 20
14.252551
 30
0.0
 11
72.205411
 21
14.254977
 31
0.0
  0
LINE
  5
25B
100
AcDbEntity
  8
0
390
0
  6
Continuous
 62
     7
100
AcDbLine
 10
72.178245
 20
14.251955
 30
0.0
 11
72.191452
 21
14.252551
 31
0.0
  0
LINE
  5
25C
100
AcDbEntity
  8
0
390
0
  6
Continuous
 62
     7
100
AcDbLine
 10
72.165182
 20
14.253065
 30
0.0
 11
72.178245
 21
14.251955
 31
0.0
  0
LINE
  5
25D
100
AcDbEntity
  8
0
390
0
  6
Continuous
 62
     7
100
AcDbLine
 10
72.151645
 20
14.255992
 30
0.0
 11
72.165182
 21
14.253065
 31
0.0
  0
LINE
  5
25E
100
AcDbEntity
  8
0
390
0
  6
Continuous
 62
     7
100
AcDbLine
 10
72.137144
 20
14.26105
 30
0.0
 11
72.151645
 21
14.255992
 31
0.0
  0
LINE
  5
25F
100
AcDbEntity
  8
0
390
0
  6
Continuous
 62
     7
100
AcDbLine
 10
72.121396
 20
14.268648
 30
0.0
 11
72.137144
 21
14.26105
 31
0.0
  0
LINE
  5
260
100
AcDbEntity
  8
0
390
0
  6
Continuous
 62
     7
100
AcDbLine
 10
72.101327
 20
14.281043
 30
0.0
 11
72.121396
 21
14.268648
 31
0.0
  0
LINE
  5
261
100
AcDbEntity
  8
0
390
0
  6
Continuous
 62
     7
100
AcDbLine
 10
69.79633
 20
15.777123
 30
0.0
 11
72.101327
 21
14.281043
 31
0.0
  0
LINE
  5
262
100
AcDbEntity
  8
0
390
0
  6
Continuous
 62
     7
100
AcDbLine
 10
70.301495
 20
15.572423
 30
0.0
 11
69.856186
 21
15.864434
 31
0.0
  0
LINE
  5
263
100
AcDbEntity
  8
0
390
0
  6
Continuous
 62
     7
100
AcDbLine
 10
71.979664
 20
16.604836
 30
0.0
 11
70.301495
 21
15.572423
 31
0.0
  0
LINE
  5
264
100
AcDbEntity
  8
0
390
0
  6
Continuous
 62
     7
100
AcDbLine
 10
71.878109
 20
17.502409
 30
0.0
 11
71.979664
 21
16.604836
 31
0.0
  0
LINE
  5
265
100
AcDbEntity
  8
0
390
0
  6
Continuous
 62
     7
100
AcDbLine
 10
71.878164
 20
17.522154
 30
0.0
 11
71.878109
 21
17.502409
 31
0.0
  0
LINE
  5
266
100
AcDbEntity
  8
0
390
0
  6
Continuous
 62
     7
100
AcDbLine
 10
71.880014
 20
17.538985
 30
0.0
 11
71.878164
 21
17.522154
 31
0.0
  0
LINE
  5
267
100
AcDbEntity
  8
0
390
0
  6
Continuous
 62
     7
100
AcDbLine
 10
71.883068
 20
17.551803
 30
0.0
 11
71.880014
 21
17.538985
 31
0.0
  0
LINE
  5
268
100
AcDbEntity
  8
0
390
0
  6
Continuous
 62
     7
100
AcDbLine
 10
71.886753
 20
17.561143
 30
0.0
 11
71.883068
 21
17.551803
 31
0.0
  0
LINE
  5
269
100
AcDbEntity
  8
0
390
0
  6
Continuous
 62
     7
100
AcDbLine
 10
71.890771
 20
17.567964
 30
0.0
 11
71.886753
 21
17.561143
 31
0.0
  0
LINE
  5
26A
100
AcDbEntity
  8
0
390
0
  6
Continuous
 62
     7
100
AcDbLine
 10
71.895369
 20
17.573451
 30
0.0
 11
71.890771
 21
17.567964
 31
0.0
  0
LINE
  5
26B
100
AcDbEntity
  8
0
390
0
  6
Continuous
 62
     7
100
AcDbLine
 10
71.901381
 20
17.578598
 30
0.0
 11
71.895369
 21
17.573451
 31
0.0
  0
LINE
  5
26C
100
AcDbEntity
  8
0
390
0
  6
Continuous
 62
     7
100
AcDbLine
 10
71.909933
 20
17.58386
 30
0.0
 11
71.901381
 21
17.578598
 31
0.0
  0
LINE
  5
26D
100
AcDbEntity
  8
0
390
0
  6
Continuous
 62
     7
100
AcDbLine
 10
71.922019
 20
17.589107
 30
0.0
 11
71.909933
 21
17.58386
 31
0.0
  0
LINE
  5
26E
100
AcDbEntity
  8
0
390
0
  6
Continuous
 62
     7
100
AcDbLine
 10
71.930839
 20
17.591694
 30
0.0
 11
71.922019
 21
17.589107
 31
0.0
  0
LINE
  5
26F
100
AcDbEntity
  8
0
390
0
  6
Continuous
 62
     7
100
AcDbLine
 10
71.937362
 20
17.591857
 30
0.0
 11
71.930839
 21
17.591694
 31
0.0
  0
LINE
  5
270
100
AcDbEntity
  8
0
390
0
  6
Continuous
 62
     7
100
AcDbLine
 10
71.946626
 20
17.590767
 30
0.0
 11
71.937362
 21
17.591857
 31
0.0
  0
LINE
  5
271
100
AcDbEntity
  8
0
390
0
  6
Continuous
 62
     7
100
AcDbLine
 10
71.952327
 20
17.589117
 30
0.0
 11
71.946626
 21
17.590767
 31
0.0
  0
LINE
  5
272
100
AcDbEntity
  8
0
390
0
  6
Continuous
 62
     7
100
AcDbLine
 10
71.955923
 20
17.587327
 30
0.0
 11
71.952327
 21
17.589117
 31
0.0
  0
LINE
  5
273
100
AcDbEntity
  8
0
390
0
  6
Continuous
 62
     7
100
AcDbLine
 10
71.959124
 20
17.584897
 30
0.0
 11
71.955923
 21
17.587327
 31
0.0
  0
LINE
  5
274
100
AcDbEntity
  8
0
390
0
  6
Continuous
 62
     7
100
AcDbLine
 10
71.963131
 20
17.580518
 30
0.0
 11
71.959124
 21
17.584897
 31
0.0
  0
LINE
  5
275
100
AcDbEntity
  8
0
390
0
  6
Continuous
 62
     7
100
AcDbLine
 10
71.968218
 20
17.572698
 30
0.0
 11
71.963131
 21
17.580518
 31
0.0
  0
LINE
  5
276
100
AcDbEntity
  8
0
390
0
  6
Continuous
 62
     7
100
AcDbLine
 10
71.973939
 20
17.560368
 30
0.0
 11
71.968218
 21
17.572698
 31
0.0
  0
LINE
  5
277
100
AcDbEntity
  8
0
390
0
  6
Continuous
 62
     7
100
AcDbLine
 10
71.979577
 20
17.543025
 30
0.0
 11
71.973939
 21
17.560368
 31
0.0
  0
LINE
  5
278
100
AcDbEntity
  8
0
390
0
  6
Continuous
 62
     7
100
AcDbLine
 10
71.984212
 20
17.521738
 30
0.0
 11
71.979577
 21
17.543025
 31
0.0
  0
LINE
  5
279
100
AcDbEntity
  8
0
390
0
  6
Continuous
 62
     7
100
AcDbLine
 10
72.320818
 20
14.416078
 30
0.0
 11
71.984212
 21
17.521738
 31
0.0
  0
LINE
  5
27A
100
AcDbEntity
  8
0
390
0
  6
Continuous
 62
     7
100
AcDbLine
 10
72.322833
 20
14.392573
 30
0.0
 11
72.320818
 21
14.416078
 31
0.0
  0
LINE
  5
27B
100
AcDbEntity
  8
0
390
0
  6
Continuous
 62
     7
100
AcDbLine
 10
72.322516
 20
14.37509
 30
0.0
 11
72.322833
 21
14.392573
 31
0.0
  0
LINE
  5
27C
100
AcDbEntity
  8
0
390
0
  6
Continuous
 62
     7
100
AcDbLine
 10
72.320492
 20
14.359866
 30
0.0
 11
72.322516
 21
14.37509
 31
0.0
  0
LINE
  5
27D
100
AcDbEntity
  8
0
390
0
  6
Continuous
 62
     7
100
AcDbLine
 10
72.317002
 20
14.346464
 30
0.0
 11
72.320492
 21
14.359866
 31
0.0
  0
LINE
  5
27E
100
AcDbEntity
  8
0
390
0
  6
Continuous
 62
     7
100
AcDbLine
 10
72.312104
 20
14.334305
 30
0.0
 11
72.317002
 21
14.346464
 31
0.0
  0
LINE
  5
27F
100
AcDbEntity
  8
0
390
0
  6
Continuous
 62
     7
100
AcDbLine
 10
72.305619
 20
14.322785
 30
0.0
 11
72.312104
 21
14.334305
 31
0.0
  0
LINE
  5
280
100
AcDbEntity
  8
0
390
0
  6
Continuous
 62
     7
100
AcDbLine
 10
72.297161
 20
14.31142
 30
0.0
 11
72.305619
 21
14.322785
 31
0.0
  0
LINE
  5
281
100
AcDbEntity
  8
0
390
0
  6
Continuous
 62
     7
100
AcDbLine
 10
72.286236
 20
14.299938
 30
0.0
 11
72.297161
 21
14.31142
 31
0.0
  0
LINE
  5
282
100
AcDbEntity
  8
0
390
0
  6
Continuous
 62
     7
100
AcDbLine
 10
72.272372
 20
14.288289
 30
0.0
 11
72.286236
 21
14.299938
 31
0.0
  0
LINE
  5
283
100
AcDbEntity
  8
0
390
0
  6
Continuous
 62
     7
100
AcDbLine
 10
72.255308
 20
14.276666
 30
0.0
 11
72.272372
 21
14.288289
 31
0.0
  0
LINE
  5
284
100
AcDbEntity
  8
0
390
0
  6
Continuous
 62
     7
100
AcDbLine
 10
72.237239
 20
14.266675
 30
0.0
 11
72.255308
 21
14.276666
 31
0.0
  0
LINE
  5
285
100
AcDbEntity
  8
0
390
0
  6
Continuous
 62
     7
100
AcDbLine
 10
71.858589
 20
16.471725
 30
0.0
 11
72.010345
 21
16.397869
 31
0.0
  0
LINE
  5
286
100
AcDbEntity
  8
0
390
0
  6
Continuous
 62
     7
100
AcDbLine
 10
70.474901
 20
15.620474
 30
0.0
 11
71.858589
 21
16.471725
 31
0.0
  0
LINE
  5
287
100
AcDbEntity
  8
0
390
0
  6
Continuous
 62
     7
100
AcDbLine
 10
70.4724
 20
15.451719
 30
0.0
 11
70.474901
 21
15.620474
 31
0.0
  0
LINE
  5
288
100
AcDbEntity
  8
0
390
0
  6
Continuous
 62
     7
100
AcDbLine
 10
72.072787
 20
14.400527
 30
0.0
 11
70.4724
 21
15.451719
 31
0.0
  0
POLYLINE
  5
289
100
AcDbEntity
  8
0
390
0
  6
Continuous
 62
     7
100
AcDb2dPolyline
 66
     1
 10
0.0
 20
0.0
 30
0.0
 40
0.1
 41
0.1
  0
VERTEX
  5
28A
100
AcDbEntity
  8
0
390
0
 62
     7
100
AcDbVertex
100
AcDb2dVertex
 10
72.227045
 20
14.495425
 30
0.0
  0
VERTEX
  5
28B
100
AcDbEntity
  8
0
390
0
 62
     7
100
AcDbVertex
100
AcDb2dVertex
 10
72.186501
 20
14.403234
 30
0.0
  0
VERTEX
  5
28C
100
AcDbEntity
  8
0
390
0
 62
     7
100
AcDbVertex
100
AcDb2dVertex
 10
72.084077
 20
14.394119
 30
0.0
  0
VERTEX
  5
28D
100
AcDbEntity
  8
0
390
0
 62
     7
100
AcDbVertex
100
AcDb2dVertex
 10
72.072787
 20
14.400527
 30
0.0
  0
SEQEND
  5
28E
100
AcDbEntity
  8
0
390
0
  0
LINE
  5
28F
100
AcDbEntity
  8
0
390
0
  6
Continuous
 62
     7
100
AcDbLine
 10
72.010345
 20
16.397869
 30
0.0
 11
72.227045
 21
14.495425
 31
0.0
  0
LINE
  5
290
100
AcDbEntity
  8
0
390
0
  6
Continuous
 62
     7
100
AcDbLine
 10
66.540169
 20
8.420152
 30
0.0
 11
66.551502
 21
8.434278
 31
0.0
  0
LINE
  5
291
100
AcDbEntity
  8
0
390
0
  6
Continuous
 62
     7
100
AcDbLine
 10
66.528937
 20
8.40897
 30
0.0
 11
66.540169
 21
8.420152
 31
0.0
  0
LINE
  5
292
100
AcDbEntity
  8
0
390
0
  6
Continuous
 62
     7
100
AcDbLine
 10
66.517767
 20
8.400255
 30
0.0
 11
66.528937
 21
8.40897
 31
0.0
  0
LINE
  5
293
100
AcDbEntity
  8
0
390
0
  6
Continuous
 62
     7
100
AcDbLine
 10
66.506398
 20
8.39351
 30
0.0
 11
66.517767
 21
8.400255
 31
0.0
  0
LINE
  5
294
100
AcDbEntity
  8
0
390
0
  6
Continuous
 62
     7
100
AcDbLine
 10
66.494353
 20
8.388336
 30
0.0
 11
66.506398
 21
8.39351
 31
0.0
  0
LINE
  5
295
100
AcDbEntity
  8
0
390
0
  6
Continuous
 62
     7
100
AcDbLine
 10
66.481033
 20
8.384543
 30
0.0
 11
66.494353
 21
8.388336
 31
0.0
  0
LINE
  5
296
100
AcDbEntity
  8
0
390
0
  6
Continuous
 62
     7
100
AcDbLine
 10
66.46586
 20
8.382175
 30
0.0
 11
66.481033
 21
8.384543
 31
0.0
  0
LINE
  5
297
100
AcDbEntity
  8
0
390
0
  6
Continuous
 62
     7
100
AcDbLine
 10
66.448389
 20
8.38146
 30
0.0
 11
66.46586
 21
8.382175
 31
0.0
  0
LINE
  5
298
100
AcDbEntity
  8
0
390
0
  6
Continuous
 62
     7
100
AcDbLine
 10
66.424844
 20
8.382943
 30
0.0
 11
66.448389
 21
8.38146
 31
0.0
  0
LINE
  5
299
100
AcDbEntity
  8
0
390
0
  6
Continuous
 62
     7
100
AcDbLine
 10
63.290835
 20
8.653158
 30
0.0
 11
63.312223
 21
8.649007
 31
0.0
  0
LINE
  5
29A
100
AcDbEntity
  8
0
390
0
  6
Continuous
 62
     7
100
AcDbLine
 10
63.273368
 20
8.6584
 30
0.0
 11
63.290835
 21
8.653158
 31
0.0
  0
LINE
  5
29B
100
AcDbEntity
  8
0
390
0
  6
Continuous
 62
     7
100
AcDbLine
 10
63.26091
 20
8.66384
 30
0.0
 11
63.273368
 21
8.6584
 31
0.0
  0
LINE
  5
29C
100
AcDbEntity
  8
0
390
0
  6
Continuous
 62
     7
100
AcDbLine
 10
63.252978
 20
8.668749
 30
0.0
 11
63.26091
 21
8.66384
 31
0.0
  0
LINE
  5
29D
100
AcDbEntity
  8
0
390
0
  6
Continuous
 62
     7
100
AcDbLine
 10
63.248509
 20
8.672655
 30
0.0
 11
63.252978
 21
8.668749
 31
0.0
  0
LINE
  5
29E
100
AcDbEntity
  8
0
390
0
  6
Continuous
 62
     7
100
AcDbLine
 10
63.246008
 20
8.6758
 30
0.0
 11
63.248509
 21
8.672655
 31
0.0
  0
LINE
  5
29F
100
AcDbEntity
  8
0
390
0
  6
Continuous
 62
     7
100
AcDbLine
 10
63.244135
 20
8.679356
 30
0.0
 11
63.246008
 21
8.6758
 31
0.0
  0
LINE
  5
2A0
100
AcDbEntity
  8
0
390
0
  6
Continuous
 62
     7
100
AcDbLine
 10
63.242358
 20
8.68502
 30
0.0
 11
63.244135
 21
8.679356
 31
0.0
  0
LINE
  5
2A1
100
AcDbEntity
  8
0
390
0
  6
Continuous
 62
     7
100
AcDbLine
 10
63.241057
 20
8.694257
 30
0.0
 11
63.242358
 21
8.68502
 31
0.0
  0
LINE
  5
2A2
100
AcDbEntity
  8
0
390
0
  6
Continuous
 62
     7
100
AcDbLine
 10
63.241073
 20
8.700786
 30
0.0
 11
63.241057
 21
8.694257
 31
0.0
  0
LINE
  5
2A3
100
AcDbEntity
  8
0
390
0
  6
Continuous
 62
     7
100
AcDbLine
 10
63.243459
 20
8.709663
 30
0.0
 11
63.241073
 21
8.700786
 31
0.0
  0
LINE
  5
2A4
100
AcDbEntity
  8
0
390
0
  6
Continuous
 62
     7
100
AcDbLine
 10
63.248431
 20
8.721867
 30
0.0
 11
63.243459
 21
8.709663
 31
0.0
  0
LINE
  5
2A5
100
AcDbEntity
  8
0
390
0
  6
Continuous
 62
     7
100
AcDbLine
 10
63.253497
 20
8.730536
 30
0.0
 11
63.248431
 21
8.721867
 31
0.0
  0
LINE
  5
2A6
100
AcDbEntity
  8
0
390
0
  6
Continuous
 62
     7
100
AcDbLine
 10
63.258508
 20
8.736665
 30
0.0
 11
63.253497
 21
8.730536
 31
0.0
  0
LINE
  5
2A7
100
AcDbEntity
  8
0
390
0
  6
Continuous
 62
     7
100
AcDbLine
 10
63.26389
 20
8.741386
 30
0.0
 11
63.258508
 21
8.736665
 31
0.0
  0
LINE
  5
2A8
100
AcDbEntity
  8
0
390
0
  6
Continuous
 62
     7
100
AcDbLine
 10
63.270617
 20
8.745558
 30
0.0
 11
63.26389
 21
8.741386
 31
0.0
  0
LINE
  5
2A9
100
AcDbEntity
  8
0
390
0
  6
Continuous
 62
     7
100
AcDbLine
 10
63.279872
 20
8.749455
 30
0.0
 11
63.270617
 21
8.745558
 31
0.0
  0
LINE
  5
2AA
100
AcDbEntity
  8
0
390
0
  6
Continuous
 62
     7
100
AcDbLine
 10
63.292618
 20
8.752798
 30
0.0
 11
63.279872
 21
8.749455
 31
0.0
  0
LINE
  5
2AB
100
AcDbEntity
  8
0
390
0
  6
Continuous
 62
     7
100
AcDbLine
 10
63.309401
 20
8.75503
 30
0.0
 11
63.292618
 21
8.752798
 31
0.0
  0
LINE
  5
2AC
100
AcDbEntity
  8
0
390
0
  6
Continuous
 62
     7
100
AcDbLine
 10
63.329139
 20
8.755534
 30
0.0
 11
63.309401
 21
8.75503
 31
0.0
  0
LINE
  5
2AD
100
AcDbEntity
  8
0
390
0
  6
Continuous
 62
     7
100
AcDbLine
 10
64.228818
 20
8.674371
 30
0.0
 11
63.329139
 21
8.755534
 31
0.0
  0
LINE
  5
2AE
100
AcDbEntity
  8
0
390
0
  6
Continuous
 62
     7
100
AcDbLine
 10
65.222928
 20
10.375597
 30
0.0
 11
64.228818
 21
8.674371
 31
0.0
  0
LINE
  5
2AF
100
AcDbEntity
  8
0
390
0
  6
Continuous
 62
     7
100
AcDbLine
 10
64.82797
 20
10.949078
 30
0.0
 11
65.222928
 21
10.375597
 31
0.0
  0
LINE
  5
2B0
100
AcDbEntity
  8
0
390
0
  6
Continuous
 62
     7
100
AcDbLine
 10
66.554868
 20
8.605455
 30
0.0
 11
64.918835
 21
11.005053
 31
0.0
  0
LINE
  5
2B1
100
AcDbEntity
  8
0
390
0
  6
Continuous
 62
     7
100
AcDbLine
 10
66.567717
 20
8.585672
 30
0.0
 11
66.554868
 21
8.605455
 31
0.0
  0
LINE
  5
2B2
100
AcDbEntity
  8
0
390
0
  6
Continuous
 62
     7
100
AcDbLine
 10
66.575672
 20
8.570098
 30
0.0
 11
66.567717
 21
8.585672
 31
0.0
  0
LINE
  5
2B3
100
AcDbEntity
  8
0
390
0
  6
Continuous
 62
     7
100
AcDbLine
 10
66.581057
 20
8.555716
 30
0.0
 11
66.575672
 21
8.570098
 31
0.0
  0
LINE
  5
2B4
100
AcDbEntity
  8
0
390
0
  6
Continuous
 62
     7
100
AcDbLine
 10
66.58429
 20
8.542247
 30
0.0
 11
66.581057
 21
8.555716
 31
0.0
  0
LINE
  5
2B5
100
AcDbEntity
  8
0
390
0
  6
Continuous
 62
     7
100
AcDbLine
 10
66.585696
 20
8.529213
 30
0.0
 11
66.58429
 21
8.542247
 31
0.0
  0
LINE
  5
2B6
100
AcDbEntity
  8
0
390
0
  6
Continuous
 62
     7
100
AcDbLine
 10
66.585401
 20
8.515996
 30
0.0
 11
66.585696
 21
8.529213
 31
0.0
  0
LINE
  5
2B7
100
AcDbEntity
  8
0
390
0
  6
Continuous
 62
     7
100
AcDbLine
 10
66.583291
 20
8.501986
 30
0.0
 11
66.585401
 21
8.515996
 31
0.0
  0
LINE
  5
2B8
100
AcDbEntity
  8
0
390
0
  6
Continuous
 62
     7
100
AcDbLine
 10
66.579062
 20
8.486708
 30
0.0
 11
66.583291
 21
8.501986
 31
0.0
  0
LINE
  5
2B9
100
AcDbEntity
  8
0
390
0
  6
Continuous
 62
     7
100
AcDbLine
 10
66.572318
 20
8.469899
 30
0.0
 11
66.579062
 21
8.486708
 31
0.0
  0
LINE
  5
2BA
100
AcDbEntity
  8
0
390
0
  6
Continuous
 62
     7
100
AcDbLine
 10
66.562736
 20
8.451606
 30
0.0
 11
66.572318
 21
8.469899
 31
0.0
  0
LINE
  5
2BB
100
AcDbEntity
  8
0
390
0
  6
Continuous
 62
     7
100
AcDbLine
 10
66.551502
 20
8.434278
 30
0.0
 11
66.562736
 21
8.451606
 31
0.0
  0
POLYLINE
  5
2BC
100
AcDbEntity
  8
0
390
0
  6
Continuous
 62
     7
100
AcDb2dPolyline
 66
     1
 10
0.0
 20
0.0
 30
0.0
 40
0.1
 41
0.1
  0
VERTEX
  5
2BD
100
AcDbEntity
  8
0
390
0
 62
     7
100
AcDbVertex
100
AcDb2dVertex
 10
66.434758
 20
8.631275
 30
0.0
  0
VERTEX
  5
2BE
100
AcDbEntity
  8
0
390
0
 62
     7
100
AcDbVertex
100
AcDb2dVertex
 10
66.442477
 20
8.530974
 30
0.0
  0
VERTEX
  5
2BF
100
AcDbEntity
  8
0
390
0
 62
     7
100
AcDbVertex
100
AcDb2dVertex
 10
66.35643
 20
8.474572
 30
0.0
  0
VERTEX
  5
2C0
100
AcDbEntity
  8
0
390
0
 62
     7
100
AcDbVertex
100
AcDb2dVertex
 10
66.343383
 20
8.474903
 30
0.0
  0
SEQEND
  5
2C1
100
AcDbEntity
  8
0
390
0
  0
LINE
  5
2C2
100
AcDbEntity
  8
0
390
0
  6
Continuous
 62
     7
100
AcDbLine
 10
65.347483
 20
10.207462
 30
0.0
 11
66.434758
 21
8.631275
 31
0.0
  0
LINE
  5
2C3
100
AcDbEntity
  8
0
390
0
  6
Continuous
 62
     7
100
AcDbLine
 10
65.178828
 20
10.201132
 30
0.0
 11
65.347483
 21
10.207462
 31
0.0
  0
LINE
  5
2C4
100
AcDbEntity
  8
0
390
0
  6
Continuous
 62
     7
100
AcDbLine
 10
64.359159
 20
8.798433
 30
0.0
 11
65.178828
 21
10.201132
 31
0.0
  0
LINE
  5
2C5
100
AcDbEntity
  8
0
390
0
  6
Continuous
 62
     7
100
AcDbLine
 10
64.436439
 20
8.648391
 30
0.0
 11
64.359159
 21
8.798433
 31
0.0
  0
LINE
  5
2C6
100
AcDbEntity
  8
0
390
0
  6
Continuous
 62
     7
100
AcDbLine
 10
66.343383
 20
8.474903
 30
0.0
 11
64.436439
 21
8.648391
 31
0.0
  0
LINE
  5
2C7
100
AcDbEntity
  8
0
390
0
  6
Continuous
 62
     7
100
AcDbLine
 10
63.312223
 20
8.649007
 30
0.0
 11
66.259302
 21
8.397093
 31
0.0
  0
LINE
  5
2C8
100
AcDbEntity
  8
0
390
0
  6
Continuous
 62
     7
100
AcDbLine
 10
66.259302
 20
8.397093
 30
0.0
 11
66.424844
 21
8.382943
 31
0.0
  0
LINE
  5
2C9
100
AcDbEntity
  8
0
390
0
  6
Continuous
 62
     7
100
AcDbLine
 10
97.249565
 20
4.560634
 30
0.0
 11
100.332153
 21
4.055059
 31
0.0
  0
LINE
  5
2CA
100
AcDbEntity
  8
0
390
0
  6
Continuous
 62
     7
100
AcDbLine
 10
97.226378
 20
4.564973
 30
0.0
 11
97.249565
 21
4.560634
 31
0.0
  0
LINE
  5
2CB
100
AcDbEntity
  8
0
390
0
  6
Continuous
 62
     7
100
AcDbLine
 10
97.209617
 20
4.569951
 30
0.0
 11
97.226378
 21
4.564973
 31
0.0
  0
LINE
  5
2CC
100
AcDbEntity
  8
0
390
0
  6
Continuous
 62
     7
100
AcDbLine
 10
97.195489
 20
4.575969
 30
0.0
 11
97.209617
 21
4.569951
 31
0.0
  0
LINE
  5
2CD
100
AcDbEntity
  8
0
390
0
  6
Continuous
 62
     7
100
AcDbLine
 10
97.183507
 20
4.582914
 30
0.0
 11
97.195489
 21
4.575969
 31
0.0
  0
LINE
  5
2CE
100
AcDbEntity
  8
0
390
0
  6
Continuous
 62
     7
100
AcDbLine
 10
97.1731
 20
4.590884
 30
0.0
 11
97.183507
 21
4.582914
 31
0.0
  0
LINE
  5
2CF
100
AcDbEntity
  8
0
390
0
  6
Continuous
 62
     7
100
AcDbLine
 10
97.163733
 20
4.60021
 30
0.0
 11
97.1731
 21
4.590884
 31
0.0
  0
LINE
  5
2D0
100
AcDbEntity
  8
0
390
0
  6
Continuous
 62
     7
100
AcDbLine
 10
97.155042
 20
4.611397
 30
0.0
 11
97.163733
 21
4.60021
 31
0.0
  0
LINE
  5
2D1
100
AcDbEntity
  8
0
390
0
  6
Continuous
 62
     7
100
AcDbLine
 10
97.146897
 20
4.624993
 30
0.0
 11
97.155042
 21
4.611397
 31
0.0
  0
LINE
  5
2D2
100
AcDbEntity
  8
0
390
0
  6
Continuous
 62
     7
100
AcDbLine
 10
97.139376
 20
4.641466
 30
0.0
 11
97.146897
 21
4.624993
 31
0.0
  0
LINE
  5
2D3
100
AcDbEntity
  8
0
390
0
  6
Continuous
 62
     7
100
AcDbLine
 10
97.132737
 20
4.661016
 30
0.0
 11
97.139376
 21
4.641466
 31
0.0
  0
LINE
  5
2D4
100
AcDbEntity
  8
0
390
0
  6
Continuous
 62
     7
100
AcDbLine
 10
97.127937
 20
4.681096
 30
0.0
 11
97.132737
 21
4.661016
 31
0.0
  0
LINE
  5
2D5
100
AcDbEntity
  8
0
390
0
  6
Continuous
 62
     7
100
AcDbLine
 10
97.125522
 20
4.699044
 30
0.0
 11
97.127937
 21
4.681096
 31
0.0
  0
LINE
  5
2D6
100
AcDbEntity
  8
0
390
0
  6
Continuous
 62
     7
100
AcDbLine
 10
97.12517
 20
4.71489
 30
0.0
 11
97.125522
 21
4.699044
 31
0.0
  0
LINE
  5
2D7
100
AcDbEntity
  8
0
390
0
  6
Continuous
 62
     7
100
AcDbLine
 10
97.126563
 20
4.728989
 30
0.0
 11
97.12517
 21
4.71489
 31
0.0
  0
LINE
  5
2D8
100
AcDbEntity
  8
0
390
0
  6
Continuous
 62
     7
100
AcDbLine
 10
97.129519
 20
4.741872
 30
0.0
 11
97.126563
 21
4.728989
 31
0.0
  0
LINE
  5
2D9
100
AcDbEntity
  8
0
390
0
  6
Continuous
 62
     7
100
AcDbLine
 10
97.134079
 20
4.754162
 30
0.0
 11
97.129519
 21
4.741872
 31
0.0
  0
LINE
  5
2DA
100
AcDbEntity
  8
0
390
0
  6
Continuous
 62
     7
100
AcDbLine
 10
97.140517
 20
4.766423
 30
0.0
 11
97.134079
 21
4.754162
 31
0.0
  0
LINE
  5
2DB
100
AcDbEntity
  8
0
390
0
  6
Continuous
 62
     7
100
AcDbLine
 10
97.149266
 20
4.779045
 30
0.0
 11
97.140517
 21
4.766423
 31
0.0
  0
LINE
  5
2DC
100
AcDbEntity
  8
0
390
0
  6
Continuous
 62
     7
100
AcDbLine
 10
97.160797
 20
4.792189
 30
0.0
 11
97.149266
 21
4.779045
 31
0.0
  0
LINE
  5
2DD
100
AcDbEntity
  8
0
390
0
  6
Continuous
 62
     7
100
AcDbLine
 10
97.178106
 20
4.808216
 30
0.0
 11
97.160797
 21
4.792189
 31
0.0
  0
LINE
  5
2DE
100
AcDbEntity
  8
0
390
0
  6
Continuous
 62
     7
100
AcDbLine
 10
99.517161
 20
6.878669
 30
0.0
 11
97.178106
 21
4.808216
 31
0.0
  0
LINE
  5
2DF
100
AcDbEntity
  8
0
390
0
  6
Continuous
 62
     7
100
AcDbLine
 10
99.534914
 20
6.891294
 30
0.0
 11
99.517161
 21
6.878669
 31
0.0
  0
LINE
  5
2E0
100
AcDbEntity
  8
0
390
0
  6
Continuous
 62
     7
100
AcDbLine
 10
99.550756
 20
6.900326
 30
0.0
 11
99.534914
 21
6.891294
 31
0.0
  0
LINE
  5
2E1
100
AcDbEntity
  8
0
390
0
  6
Continuous
 62
     7
100
AcDbLine
 10
99.563285
 20
6.905595
 30
0.0
 11
99.550756
 21
6.900326
 31
0.0
  0
LINE
  5
2E2
100
AcDbEntity
  8
0
390
0
  6
Continuous
 62
     7
100
AcDbLine
 10
99.57231
 20
6.907955
 30
0.0
 11
99.563285
 21
6.905595
 31
0.0
  0
LINE
  5
2E3
100
AcDbEntity
  8
0
390
0
  6
Continuous
 62
     7
100
AcDbLine
 10
99.57822
 20
6.908497
 30
0.0
 11
99.57231
 21
6.907955
 31
0.0
  0
LINE
  5
2E4
100
AcDbEntity
  8
0
390
0
  6
Continuous
 62
     7
100
AcDbLine
 10
99.582222
 20
6.908139
 30
0.0
 11
99.57822
 21
6.908497
 31
0.0
  0
LINE
  5
2E5
100
AcDbEntity
  8
0
390
0
  6
Continuous
 62
     7
100
AcDbLine
 10
99.586088
 20
6.907043
 30
0.0
 11
99.582222
 21
6.908139
 31
0.0
  0
LINE
  5
2E6
100
AcDbEntity
  8
0
390
0
  6
Continuous
 62
     7
100
AcDbLine
 10
99.591415
 20
6.904425
 30
0.0
 11
99.586088
 21
6.907043
 31
0.0
  0
LINE
  5
2E7
100
AcDbEntity
  8
0
390
0
  6
Continuous
 62
     7
100
AcDbLine
 10
99.599003
 20
6.898997
 30
0.0
 11
99.591415
 21
6.904425
 31
0.0
  0
LINE
  5
2E8
100
AcDbEntity
  8
0
390
0
  6
Continuous
 62
     7
100
AcDbLine
 10
99.603716
 20
6.894487
 30
0.0
 11
99.599003
 21
6.898997
 31
0.0
  0
LINE
  5
2E9
100
AcDbEntity
  8
0
390
0
  6
Continuous
 62
     7
100
AcDbLine
 10
99.608497
 20
6.88664
 30
0.0
 11
99.603716
 21
6.894487
 31
0.0
  0
LINE
  5
2EA
100
AcDbEntity
  8
0
390
0
  6
Continuous
 62
     7
100
AcDbLine
 10
99.613904
 20
6.874625
 30
0.0
 11
99.608497
 21
6.88664
 31
0.0
  0
LINE
  5
2EB
100
AcDbEntity
  8
0
390
0
  6
Continuous
 62
     7
100
AcDbLine
 10
99.616688
 20
6.864979
 30
0.0
 11
99.613904
 21
6.874625
 31
0.0
  0
LINE
  5
2EC
100
AcDbEntity
  8
0
390
0
  6
Continuous
 62
     7
100
AcDbLine
 10
99.61767
 20
6.857125
 30
0.0
 11
99.616688
 21
6.864979
 31
0.0
  0
LINE
  5
2ED
100
AcDbEntity
  8
0
390
0
  6
Continuous
 62
     7
100
AcDbLine
 10
99.617378
 20
6.849973
 30
0.0
 11
99.61767
 21
6.857125
 31
0.0
  0
LINE
  5
2EE
100
AcDbEntity
  8
0
390
0
  6
Continuous
 62
     7
100
AcDbLine
 10
99.61576
 20
6.842225
 30
0.0
 11
99.617378
 21
6.849973
 31
0.0
  0
LINE
  5
2EF
100
AcDbEntity
  8
0
390
0
  6
Continuous
 62
     7
100
AcDbLine
 10
99.612199
 20
6.832838
 30
0.0
 11
99.61576
 21
6.842225
 31
0.0
  0
LINE
  5
2F0
100
AcDbEntity
  8
0
390
0
  6
Continuous
 62
     7
100
AcDbLine
 10
99.605831
 20
6.821302
 30
0.0
 11
99.612199
 21
6.832838
 31
0.0
  0
LINE
  5
2F1
100
AcDbEntity
  8
0
390
0
  6
Continuous
 62
     7
100
AcDbLine
 10
99.595874
 20
6.807611
 30
0.0
 11
99.605831
 21
6.821302
 31
0.0
  0
LINE
  5
2F2
100
AcDbEntity
  8
0
390
0
  6
Continuous
 62
     7
100
AcDbLine
 10
99.582627
 20
6.792971
 30
0.0
 11
99.595874
 21
6.807611
 31
0.0
  0
LINE
  5
2F3
100
AcDbEntity
  8
0
390
0
  6
Continuous
 62
     7
100
AcDbLine
 10
98.903454
 20
6.197459
 30
0.0
 11
99.582627
 21
6.792971
 31
0.0
  0
LINE
  5
2F4
100
AcDbEntity
  8
0
390
0
  6
Continuous
 62
     7
100
AcDbLine
 10
99.449839
 20
4.304458
 30
0.0
 11
98.903454
 21
6.197459
 31
0.0
  0
LINE
  5
2F5
100
AcDbEntity
  8
0
390
0
  6
Continuous
 62
     7
100
AcDbLine
 10
100.341884
 20
4.162461
 30
0.0
 11
99.449839
 21
4.304458
 31
0.0
  0
LINE
  5
2F6
100
AcDbEntity
  8
0
390
0
  6
Continuous
 62
     7
100
AcDbLine
 10
98.741479
 20
6.06503
 30
0.0
 11
98.903428
 21
6.017522
 31
0.0
  0
LINE
  5
2F7
100
AcDbEntity
  8
0
390
0
  6
Continuous
 62
     7
100
AcDbLine
 10
97.30086
 20
4.803793
 30
0.0
 11
98.741479
 21
6.06503
 31
0.0
  0
POLYLINE
  5
2F8
100
AcDbEntity
  8
0
390
0
  6
Continuous
 62
     7
100
AcDb2dPolyline
 66
     1
 10
0.0
 20
0.0
 30
0.0
 40
0.1
 41
0.1
  0
VERTEX
  5
2F9
100
AcDbEntity
  8
0
390
0
 62
     7
100
AcDbVertex
100
AcDb2dVertex
 10
97.351085
 20
4.629785
 30
0.0
  0
VERTEX
  5
2FA
100
AcDbEntity
  8
0
390
0
 62
     7
100
AcDbVertex
100
AcDb2dVertex
 10
97.273073
 20
4.693509
 30
0.0
  0
VERTEX
  5
2FB
100
AcDbEntity
  8
0
390
0
 62
     7
100
AcDbVertex
100
AcDb2dVertex
 10
97.291673
 20
4.794631
 30
0.0
  0
VERTEX
  5
2FC
100
AcDbEntity
  8
0
390
0
 62
     7
100
AcDbVertex
100
AcDb2dVertex
 10
97.30086
 20
4.803793
 30
0.0
  0
SEQEND
  5
2FD
100
AcDbEntity
  8
0
390
0
  0
LINE
  5
2FE
100
AcDbEntity
  8
0
390
0
  6
Continuous
 62
     7
100
AcDbLine
 10
99.24221
 20
4.33021
 30
0.0
 11
97.351085
 21
4.629785
 31
0.0
  0
LINE
  5
2FF
100
AcDbEntity
  8
0
390
0
  6
Continuous
 62
     7
100
AcDbLine
 10
99.353934
 20
4.45671
 30
0.0
 11
99.24221
 21
4.33021
 31
0.0
  0
LINE
  5
300
100
AcDbEntity
  8
0
390
0
  6
Continuous
 62
     7
100
AcDbLine
 10
98.903428
 20
6.017522
 30
0.0
 11
99.353934
 21
4.45671
 31
0.0
  0
LINE
  5
301
100
AcDbEntity
  8
0
390
0
  6
Continuous
 62
     7
100
AcDbLine
 10
90.472964
 20
17.325188
 30
0.0
 11
90.453564
 21
17.311859
 31
0.0
  0
LINE
  5
302
100
AcDbEntity
  8
0
390
0
  6
Continuous
 62
     7
100
AcDbLine
 10
90.491132
 20
17.334395
 30
0.0
 11
90.472964
 21
17.325188
 31
0.0
  0
LINE
  5
303
100
AcDbEntity
  8
0
390
0
  6
Continuous
 62
     7
100
AcDbLine
 10
90.508364
 20
17.340159
 30
0.0
 11
90.491132
 21
17.334395
 31
0.0
  0
LINE
  5
304
100
AcDbEntity
  8
0
390
0
  6
Continuous
 62
     7
100
AcDbLine
 10
90.525351
 20
17.343047
 30
0.0
 11
90.508364
 21
17.340159
 31
0.0
  0
LINE
  5
305
100
AcDbEntity
  8
0
390
0
  6
Continuous
 62
     7
100
AcDbLine
 10
90.543043
 20
17.343271
 30
0.0
 11
90.525351
 21
17.343047
 31
0.0
  0
LINE
  5
306
100
AcDbEntity
  8
0
390
0
  6
Continuous
 62
     7
100
AcDbLine
 10
90.562343
 20
17.340611
 30
0.0
 11
90.543043
 21
17.343271
 31
0.0
  0
LINE
  5
307
100
AcDbEntity
  8
0
390
0
  6
Continuous
 62
     7
100
AcDbLine
 10
90.583858
 20
17.33454
 30
0.0
 11
90.562343
 21
17.340611
 31
0.0
  0
LINE
  5
308
100
AcDbEntity
  8
0
390
0
  6
Continuous
 62
     7
100
AcDbLine
 10
90.607815
 20
17.324469
 30
0.0
 11
90.583858
 21
17.33454
 31
0.0
  0
LINE
  5
309
100
AcDbEntity
  8
0
390
0
  6
Continuous
 62
     7
100
AcDbLine
 10
90.633862
 20
17.310058
 30
0.0
 11
90.607815
 21
17.324469
 31
0.0
  0
LINE
  5
30A
100
AcDbEntity
  8
0
390
0
  6
Continuous
 62
     7
100
AcDbLine
 10
90.6556
 20
17.29502
 30
0.0
 11
90.633862
 21
17.310058
 31
0.0
  0
LINE
  5
30B
100
AcDbEntity
  8
0
390
0
  6
Continuous
 62
     7
100
AcDbLine
 10
90.672605
 20
17.280084
 30
0.0
 11
90.6556
 21
17.29502
 31
0.0
  0
LINE
  5
30C
100
AcDbEntity
  8
0
390
0
  6
Continuous
 62
     7
100
AcDbLine
 10
90.685412
 20
17.265454
 30
0.0
 11
90.672605
 21
17.280084
 31
0.0
  0
LINE
  5
30D
100
AcDbEntity
  8
0
390
0
  6
Continuous
 62
     7
100
AcDbLine
 10
90.694738
 20
17.251046
 30
0.0
 11
90.685412
 21
17.265454
 31
0.0
  0
LINE
  5
30E
100
AcDbEntity
  8
0
390
0
  6
Continuous
 62
     7
100
AcDbLine
 10
90.701306
 20
17.23637
 30
0.0
 11
90.694738
 21
17.251046
 31
0.0
  0
LINE
  5
30F
100
AcDbEntity
  8
0
390
0
  6
Continuous
 62
     7
100
AcDbLine
 10
90.70559
 20
17.220589
 30
0.0
 11
90.701306
 21
17.23637
 31
0.0
  0
LINE
  5
310
100
AcDbEntity
  8
0
390
0
  6
Continuous
 62
     7
100
AcDbLine
 10
90.707639
 20
17.202757
 30
0.0
 11
90.70559
 21
17.220589
 31
0.0
  0
LINE
  5
311
100
AcDbEntity
  8
0
390
0
  6
Continuous
 62
     7
100
AcDbLine
 10
90.707119
 20
17.182133
 30
0.0
 11
90.707639
 21
17.202757
 31
0.0
  0
LINE
  5
312
100
AcDbEntity
  8
0
390
0
  6
Continuous
 62
     7
100
AcDbLine
 10
90.703515
 20
17.15831
 30
0.0
 11
90.707119
 21
17.182133
 31
0.0
  0
LINE
  5
313
100
AcDbEntity
  8
0
390
0
  6
Continuous
 62
     7
100
AcDbLine
 10
90.695765
 20
17.129108
 30
0.0
 11
90.703515
 21
17.15831
 31
0.0
  0
LINE
  5
314
100
AcDbEntity
  8
0
390
0
  6
Continuous
 62
     7
100
AcDbLine
 10
89.852903
 20
14.457347
 30
0.0
 11
90.695765
 21
17.129108
 31
0.0
  0
POLYLINE
  5
315
100
AcDbEntity
  8
0
390
0
  6
Continuous
 62
     7
100
AcDb2dPolyline
 66
     1
 10
0.0
 20
0.0
 30
0.0
 40
0.1
 41
0.1
  0
VERTEX
  5
316
100
AcDbEntity
  8
0
390
0
 62
     7
100
AcDbVertex
100
AcDb2dVertex
 10
90.001724
 20
14.365988
 30
0.0
  0
VERTEX
  5
317
100
AcDbEntity
  8
0
390
0
 62
     7
100
AcDbVertex
100
AcDb2dVertex
 10
89.899485
 20
14.349279
 30
0.0
  0
VERTEX
  5
318
100
AcDbEntity
  8
0
390
0
 62
     7
100
AcDbVertex
100
AcDb2dVertex
 10
89.849187
 20
14.439294
 30
0.0
  0
VERTEX
  5
319
100
AcDbEntity
  8
0
390
0
 62
     7
100
AcDbVertex
100
AcDb2dVertex
 10
89.852903
 20
14.457347
 30
0.0
  0
SEQEND
  5
31A
100
AcDbEntity
  8
0
390
0
  0
LINE
  5
31B
100
AcDbEntity
  8
0
390
0
  6
Continuous
 62
     7
100
AcDbLine
 10
91.999833
 20
16.323969
 30
0.0
 11
90.001724
 21
14.365988
 31
0.0
  0
LINE
  5
31C
100
AcDbEntity
  8
0
390
0
  6
Continuous
 62
     7
100
AcDbLine
 10
91.404545
 20
13.374128
 30
0.0
 11
92.1853
 21
15.905147
 31
0.0
  0
LINE
  5
31D
100
AcDbEntity
  8
0
390
0
  6
Continuous
 62
     7
100
AcDbLine
 10
91.397483
 20
13.356579
 30
0.0
 11
91.404545
 21
13.374128
 31
0.0
  0
LINE
  5
31E
100
AcDbEntity
  8
0
390
0
  6
Continuous
 62
     7
100
AcDbLine
 10
91.39056
 20
13.343651
 30
0.0
 11
91.397483
 21
13.356579
 31
0.0
  0
LINE
  5
31F
100
AcDbEntity
  8
0
390
0
  6
Continuous
 62
     7
100
AcDbLine
 10
91.384137
 20
13.33465
 30
0.0
 11
91.39056
 21
13.343651
 31
0.0
  0
LINE
  5
320
100
AcDbEntity
  8
0
390
0
  6
Continuous
 62
     7
100
AcDbLine
 10
91.378563
 20
13.328872
 30
0.0
 11
91.384137
 21
13.33465
 31
0.0
  0
LINE
  5
321
100
AcDbEntity
  8
0
390
0
  6
Continuous
 62
     7
100
AcDbLine
 10
91.373756
 20
13.325294
 30
0.0
 11
91.378563
 21
13.328872
 31
0.0
  0
LINE
  5
322
100
AcDbEntity
  8
0
390
0
  6
Continuous
 62
     7
100
AcDbLine
 10
91.369002
 20
13.322899
 30
0.0
 11
91.373756
 21
13.325294
 31
0.0
  0
LINE
  5
323
100
AcDbEntity
  8
0
390
0
  6
Continuous
 62
     7
100
AcDbLine
 10
91.363102
 20
13.321109
 30
0.0
 11
91.369002
 21
13.322899
 31
0.0
  0
LINE
  5
324
100
AcDbEntity
  8
0
390
0
  6
Continuous
 62
     7
100
AcDbLine
 10
91.354836
 20
13.320006
 30
0.0
 11
91.363102
 21
13.321109
 31
0.0
  0
LINE
  5
325
100
AcDbEntity
  8
0
390
0
  6
Continuous
 62
     7
100
AcDbLine
 10
91.34338
 20
13.320154
 30
0.0
 11
91.354836
 21
13.320006
 31
0.0
  0
LINE
  5
326
100
AcDbEntity
  8
0
390
0
  6
Continuous
 62
     7
100
AcDbLine
 10
91.336536
 20
13.32111
 30
0.0
 11
91.34338
 21
13.320154
 31
0.0
  0
LINE
  5
327
100
AcDbEntity
  8
0
390
0
  6
Continuous
 62
     7
100
AcDbLine
 10
91.323137
 20
13.327192
 30
0.0
 11
91.336536
 21
13.32111
 31
0.0
  0
LINE
  5
328
100
AcDbEntity
  8
0
390
0
  6
Continuous
 62
     7
100
AcDbLine
 10
91.307758
 20
13.33658
 30
0.0
 11
91.323137
 21
13.327192
 31
0.0
  0
LINE
  5
329
100
AcDbEntity
  8
0
390
0
  6
Continuous
 62
     7
100
AcDbLine
 10
91.297609
 20
13.345044
 30
0.0
 11
91.307758
 21
13.33658
 31
0.0
  0
LINE
  5
32A
100
AcDbEntity
  8
0
390
0
  6
Continuous
 62
     7
100
AcDbLine
 10
91.291553
 20
13.352183
 30
0.0
 11
91.297609
 21
13.345044
 31
0.0
  0
LINE
  5
32B
100
AcDbEntity
  8
0
390
0
  6
Continuous
 62
     7
100
AcDbLine
 10
91.288045
 20
13.35843
 30
0.0
 11
91.291553
 21
13.352183
 31
0.0
  0
LINE
  5
32C
100
AcDbEntity
  8
0
390
0
  6
Continuous
 62
     7
100
AcDbLine
 10
91.285844
 20
13.365248
 30
0.0
 11
91.288045
 21
13.35843
 31
0.0
  0
LINE
  5
32D
100
AcDbEntity
  8
0
390
0
  6
Continuous
 62
     7
100
AcDbLine
 10
91.284719
 20
13.374542
 30
0.0
 11
91.285844
 21
13.365248
 31
0.0
  0
LINE
  5
32E
100
AcDbEntity
  8
0
390
0
  6
Continuous
 62
     7
100
AcDbLine
 10
91.285401
 20
13.387738
 30
0.0
 11
91.284719
 21
13.374542
 31
0.0
  0
LINE
  5
32F
100
AcDbEntity
  8
0
390
0
  6
Continuous
 62
     7
100
AcDbLine
 10
91.288959
 20
13.405399
 30
0.0
 11
91.285401
 21
13.387738
 31
0.0
  0
LINE
  5
330
100
AcDbEntity
  8
0
390
0
  6
Continuous
 62
     7
100
AcDbLine
 10
91.297805
 20
13.432019
 30
0.0
 11
91.288959
 21
13.405399
 31
0.0
  0
LINE
  5
331
100
AcDbEntity
  8
0
390
0
  6
Continuous
 62
     7
100
AcDbLine
 10
92.127282
 20
15.989376
 30
0.0
 11
91.297805
 21
13.432019
 31
0.0
  0
LINE
  5
332
100
AcDbEntity
  8
0
390
0
  6
Continuous
 62
     7
100
AcDbLine
 10
90.027208
 20
14.292998
 30
0.0
 11
92.02302
 21
16.217009
 31
0.0
  0
LINE
  5
333
100
AcDbEntity
  8
0
390
0
  6
Continuous
 62
     7
100
AcDbLine
 10
90.002157
 20
14.270059
 30
0.0
 11
90.027208
 21
14.292998
 31
0.0
  0
LINE
  5
334
100
AcDbEntity
  8
0
390
0
  6
Continuous
 62
     7
100
AcDbLine
 10
89.980695
 20
14.254384
 30
0.0
 11
90.002157
 21
14.270059
 31
0.0
  0
LINE
  5
335
100
AcDbEntity
  8
0
390
0
  6
Continuous
 62
     7
100
AcDbLine
 10
89.960686
 20
14.24335
 30
0.0
 11
89.980695
 21
14.254384
 31
0.0
  0
LINE
  5
336
100
AcDbEntity
  8
0
390
0
  6
Continuous
 62
     7
100
AcDbLine
 10
89.942003
 20
14.23628
 30
0.0
 11
89.960686
 21
14.24335
 31
0.0
  0
LINE
  5
337
100
AcDbEntity
  8
0
390
0
  6
Continuous
 62
     7
100
AcDbLine
 10
89.924109
 20
14.232497
 30
0.0
 11
89.942003
 21
14.23628
 31
0.0
  0
LINE
  5
338
100
AcDbEntity
  8
0
390
0
  6
Continuous
 62
     7
100
AcDbLine
 10
89.906092
 20
14.231604
 30
0.0
 11
89.924109
 21
14.232497
 31
0.0
  0
LINE
  5
339
100
AcDbEntity
  8
0
390
0
  6
Continuous
 62
     7
100
AcDbLine
 10
89.886937
 20
14.233654
 30
0.0
 11
89.906092
 21
14.231604
 31
0.0
  0
LINE
  5
33A
100
AcDbEntity
  8
0
390
0
  6
Continuous
 62
     7
100
AcDbLine
 10
89.865852
 20
14.239108
 30
0.0
 11
89.886937
 21
14.233654
 31
0.0
  0
LINE
  5
33B
100
AcDbEntity
  8
0
390
0
  6
Continuous
 62
     7
100
AcDbLine
 10
89.842447
 20
14.248602
 30
0.0
 11
89.865852
 21
14.239108
 31
0.0
  0
LINE
  5
33C
100
AcDbEntity
  8
0
390
0
  6
Continuous
 62
     7
100
AcDbLine
 10
89.817009
 20
14.262542
 30
0.0
 11
89.842447
 21
14.248602
 31
0.0
  0
LINE
  5
33D
100
AcDbEntity
  8
0
390
0
  6
Continuous
 62
     7
100
AcDbLine
 10
89.795984
 20
14.27722
 30
0.0
 11
89.817009
 21
14.262542
 31
0.0
  0
LINE
  5
33E
100
AcDbEntity
  8
0
390
0
  6
Continuous
 62
     7
100
AcDbLine
 10
89.779758
 20
14.291869
 30
0.0
 11
89.795984
 21
14.27722
 31
0.0
  0
LINE
  5
33F
100
AcDbEntity
  8
0
390
0
  6
Continuous
 62
     7
100
AcDbLine
 10
89.767666
 20
14.306351
 30
0.0
 11
89.779758
 21
14.291869
 31
0.0
  0
LINE
  5
340
100
AcDbEntity
  8
0
390
0
  6
Continuous
 62
     7
100
AcDbLine
 10
89.758891
 20
14.320903
 30
0.0
 11
89.767666
 21
14.306351
 31
0.0
  0
LINE
  5
341
100
AcDbEntity
  8
0
390
0
  6
Continuous
 62
     7
100
AcDbLine
 10
89.752716
 20
14.336222
 30
0.0
 11
89.758891
 21
14.320903
 31
0.0
  0
LINE
  5
342
100
AcDbEntity
  8
0
390
0
  6
Continuous
 62
     7
100
AcDbLine
 10
89.748806
 20
14.353297
 30
0.0
 11
89.752716
 21
14.336222
 31
0.0
  0
LINE
  5
343
100
AcDbEntity
  8
0
390
0
  6
Continuous
 62
     7
100
AcDbLine
 10
89.747303
 20
14.373072
 30
0.0
 11
89.748806
 21
14.353297
 31
0.0
  0
LINE
  5
344
100
AcDbEntity
  8
0
390
0
  6
Continuous
 62
     7
100
AcDbLine
 10
89.748675
 20
14.396175
 30
0.0
 11
89.747303
 21
14.373072
 31
0.0
  0
LINE
  5
345
100
AcDbEntity
  8
0
390
0
  6
Continuous
 62
     7
100
AcDbLine
 10
89.753484
 20
14.422867
 30
0.0
 11
89.748675
 21
14.396175
 31
0.0
  0
LINE
  5
346
100
AcDbEntity
  8
0
390
0
  6
Continuous
 62
     7
100
AcDbLine
 10
89.762948
 20
14.455673
 30
0.0
 11
89.753484
 21
14.422867
 31
0.0
  0
LINE
  5
347
100
AcDbEntity
  8
0
390
0
  6
Continuous
 62
     7
100
AcDbLine
 10
90.611122
 20
17.106683
 30
0.0
 11
89.762948
 21
14.455673
 31
0.0
  0
POLYLINE
  5
348
100
AcDbEntity
  8
0
390
0
  6
Continuous
 62
     7
100
AcDb2dPolyline
 66
     1
 10
0.0
 20
0.0
 30
0.0
 40
0.1
 41
0.1
  0
VERTEX
  5
349
100
AcDbEntity
  8
0
390
0
 62
     7
100
AcDbVertex
100
AcDb2dVertex
 10
90.462158
 20
17.198141
 30
0.0
  0
VERTEX
  5
34A
100
AcDbEntity
  8
0
390
0
 62
     7
100
AcDbVertex
100
AcDb2dVertex
 10
90.56171
 20
17.216458
 30
0.0
  0
VERTEX
  5
34B
100
AcDbEntity
  8
0
390
0
 62
     7
100
AcDbVertex
100
AcDb2dVertex
 10
90.615234
 20
17.128611
 30
0.0
  0
VERTEX
  5
34C
100
AcDbEntity
  8
0
390
0
 62
     7
100
AcDbVertex
100
AcDb2dVertex
 10
90.611122
 20
17.106683
 30
0.0
  0
SEQEND
  5
34D
100
AcDbEntity
  8
0
390
0
  0
LINE
  5
34E
100
AcDbEntity
  8
0
390
0
  6
Continuous
 62
     7
100
AcDbLine
 10
88.437576
 20
15.198473
 30
0.0
 11
90.462158
 21
17.198141
 31
0.0
  0
LINE
  5
34F
100
AcDbEntity
  8
0
390
0
  6
Continuous
 62
     7
100
AcDbLine
 10
88.417777
 20
15.178687
 30
0.0
 11
88.437576
 21
15.198473
 31
0.0
  0
LINE
  5
350
100
AcDbEntity
  8
0
390
0
  6
Continuous
 62
     7
100
AcDbLine
 10
88.403576
 20
15.167598
 30
0.0
 11
88.417777
 21
15.178687
 31
0.0
  0
LINE
  5
351
100
AcDbEntity
  8
0
390
0
  6
Continuous
 62
     7
100
AcDbLine
 10
88.39208
 20
15.161078
 30
0.0
 11
88.403576
 21
15.167598
 31
0.0
  0
LINE
  5
352
100
AcDbEntity
  8
0
390
0
  6
Continuous
 62
     7
100
AcDbLine
 10
88.383266
 20
15.157924
 30
0.0
 11
88.39208
 21
15.161078
 31
0.0
  0
LINE
  5
353
100
AcDbEntity
  8
0
390
0
  6
Continuous
 62
     7
100
AcDbLine
 10
88.376183
 20
15.15684
 30
0.0
 11
88.383266
 21
15.157924
 31
0.0
  0
LINE
  5
354
100
AcDbEntity
  8
0
390
0
  6
Continuous
 62
     7
100
AcDbLine
 10
88.369025
 20
15.15718
 30
0.0
 11
88.376183
 21
15.15684
 31
0.0
  0
LINE
  5
355
100
AcDbEntity
  8
0
390
0
  6
Continuous
 62
     7
100
AcDbLine
 10
88.359929
 20
15.159398
 30
0.0
 11
88.369025
 21
15.15718
 31
0.0
  0
LINE
  5
356
100
AcDbEntity
  8
0
390
0
  6
Continuous
 62
     7
100
AcDbLine
 10
88.347814
 20
15.164682
 30
0.0
 11
88.359929
 21
15.159398
 31
0.0
  0
LINE
  5
357
100
AcDbEntity
  8
0
390
0
  6
Continuous
 62
     7
100
AcDbLine
 10
88.332533
 20
15.17423
 30
0.0
 11
88.347814
 21
15.164682
 31
0.0
  0
LINE
  5
358
100
AcDbEntity
  8
0
390
0
  6
Continuous
 62
     7
100
AcDbLine
 10
88.316273
 20
15.187393
 30
0.0
 11
88.332533
 21
15.17423
 31
0.0
  0
LINE
  5
359
100
AcDbEntity
  8
0
390
0
  6
Continuous
 62
     7
100
AcDbLine
 10
88.306721
 20
15.19787
 30
0.0
 11
88.316273
 21
15.187393
 31
0.0
  0
LINE
  5
35A
100
AcDbEntity
  8
0
390
0
  6
Continuous
 62
     7
100
AcDbLine
 10
88.300713
 20
15.206665
 30
0.0
 11
88.306721
 21
15.19787
 31
0.0
  0
LINE
  5
35B
100
AcDbEntity
  8
0
390
0
  6
Continuous
 62
     7
100
AcDbLine
 10
88.298232
 20
15.212083
 30
0.0
 11
88.300713
 21
15.206665
 31
0.0
  0
LINE
  5
35C
100
AcDbEntity
  8
0
390
0
  6
Continuous
 62
     7
100
AcDbLine
 10
88.297628
 20
15.214638
 30
0.0
 11
88.298232
 21
15.212083
 31
0.0
  0
LINE
  5
35D
100
AcDbEntity
  8
0
390
0
  6
Continuous
 62
     7
100
AcDbLine
 10
88.2976
 20
15.216165
 30
0.0
 11
88.297628
 21
15.214638
 31
0.0
  0
LINE
  5
35E
100
AcDbEntity
  8
0
390
0
  6
Continuous
 62
     7
100
AcDbLine
 10
88.298182
 20
15.219121
 30
0.0
 11
88.2976
 21
15.216165
 31
0.0
  0
LINE
  5
35F
100
AcDbEntity
  8
0
390
0
  6
Continuous
 62
     7
100
AcDbLine
 10
88.300686
 20
15.225244
 30
0.0
 11
88.298182
 21
15.219121
 31
0.0
  0
LINE
  5
360
100
AcDbEntity
  8
0
390
0
  6
Continuous
 62
     7
100
AcDbLine
 10
88.306696
 20
15.234976
 30
0.0
 11
88.300686
 21
15.225244
 31
0.0
  0
LINE
  5
361
100
AcDbEntity
  8
0
390
0
  6
Continuous
 62
     7
100
AcDbLine
 10
88.317316
 20
15.247876
 30
0.0
 11
88.306696
 21
15.234976
 31
0.0
  0
LINE
  5
362
100
AcDbEntity
  8
0
390
0
  6
Continuous
 62
     7
100
AcDbLine
 10
88.335799
 20
15.26589
 30
0.0
 11
88.317316
 21
15.247876
 31
0.0
  0
LINE
  5
363
100
AcDbEntity
  8
0
390
0
  6
Continuous
 62
     7
100
AcDbLine
 10
90.453564
 20
17.311859
 30
0.0
 11
90.431188
 21
17.292246
 31
0.0
  0
LINE
  5
364
100
AcDbEntity
  8
0
390
0
  6
Continuous
 62
     7
100
AcDbLine
 10
90.431188
 20
17.292246
 30
0.0
 11
90.328148
 21
17.192602
 31
0.0
  0
LINE
  5
365
100
AcDbEntity
  8
0
390
0
  6
Continuous
 62
     7
100
AcDbLine
 10
90.328148
 20
17.192602
 30
0.0
 11
88.335799
 21
15.26589
 31
0.0
  0
LINE
  5
366
100
AcDbEntity
  8
0
390
0
  6
Continuous
 62
     7
100
AcDbLine
 10
71.315349
 20
-15.433879
 30
0.0
 11
73.35835
 21
-16.543136
 31
0.0
  0
LINE
  5
367
100
AcDbEntity
  8
0
390
0
  6
Continuous
 62
     7
100
AcDbLine
 10
70.605318
 20
-16.741604
 30
0.0
 11
71.315349
 21
-15.433879
 31
0.0
  0
LINE
  5
368
100
AcDbEntity
  8
0
390
0
  6
Continuous
 62
     7
100
AcDbLine
 10
70.592494
 20
-16.762748
 30
0.0
 11
70.605318
 21
-16.741604
 31
0.0
  0
LINE
  5
369
100
AcDbEntity
  8
0
390
0
  6
Continuous
 62
     7
100
AcDbLine
 10
70.581965
 20
-16.776413
 30
0.0
 11
70.592494
 21
-16.762748
 31
0.0
  0
LINE
  5
36A
100
AcDbEntity
  8
0
390
0
  6
Continuous
 62
     7
100
AcDbLine
 10
70.573355
 20
-16.784914
 30
0.0
 11
70.581965
 21
-16.776413
 31
0.0
  0
LINE
  5
36B
100
AcDbEntity
  8
0
390
0
  6
Continuous
 62
     7
100
AcDbLine
 10
70.567189
 20
-16.7893
 30
0.0
 11
70.573355
 21
-16.784914
 31
0.0
  0
LINE
  5
36C
100
AcDbEntity
  8
0
390
0
  6
Continuous
 62
     7
100
AcDbLine
 10
70.563231
 20
-16.791134
 30
0.0
 11
70.567189
 21
-16.7893
 31
0.0
  0
LINE
  5
36D
100
AcDbEntity
  8
0
390
0
  6
Continuous
 62
     7
100
AcDbLine
 10
70.560092
 20
-16.791887
 30
0.0
 11
70.563231
 21
-16.791134
 31
0.0
  0
LINE
  5
36E
100
AcDbEntity
  8
0
390
0
  6
Continuous
 62
     7
100
AcDbLine
 10
70.555617
 20
-16.792054
 30
0.0
 11
70.560092
 21
-16.791887
 31
0.0
  0
LINE
  5
36F
100
AcDbEntity
  8
0
390
0
  6
Continuous
 62
     7
100
AcDbLine
 10
70.547934
 20
-16.790923
 30
0.0
 11
70.555617
 21
-16.792054
 31
0.0
  0
LINE
  5
370
100
AcDbEntity
  8
0
390
0
  6
Continuous
 62
     7
100
AcDbLine
 10
70.53616
 20
-16.787209
 30
0.0
 11
70.547934
 21
-16.790923
 31
0.0
  0
LINE
  5
371
100
AcDbEntity
  8
0
390
0
  6
Continuous
 62
     7
100
AcDbLine
 10
70.520562
 20
-16.779873
 30
0.0
 11
70.53616
 21
-16.787209
 31
0.0
  0
LINE
  5
372
100
AcDbEntity
  8
0
390
0
  6
Continuous
 62
     7
100
AcDbLine
 10
70.505912
 20
-16.770785
 30
0.0
 11
70.520562
 21
-16.779873
 31
0.0
  0
LINE
  5
373
100
AcDbEntity
  8
0
390
0
  6
Continuous
 62
     7
100
AcDbLine
 10
70.496382
 20
-16.762932
 30
0.0
 11
70.505912
 21
-16.770785
 31
0.0
  0
LINE
  5
374
100
AcDbEntity
  8
0
390
0
  6
Continuous
 62
     7
100
AcDbLine
 10
70.491249
 20
-16.757103
 30
0.0
 11
70.496382
 21
-16.762932
 31
0.0
  0
LINE
  5
375
100
AcDbEntity
  8
0
390
0
  6
Continuous
 62
     7
100
AcDbLine
 10
70.488951
 20
-16.753258
 30
0.0
 11
70.491249
 21
-16.757103
 31
0.0
  0
LINE
  5
376
100
AcDbEntity
  8
0
390
0
  6
Continuous
 62
     7
100
AcDbLine
 10
70.487872
 20
-16.750214
 30
0.0
 11
70.488951
 21
-16.753258
 31
0.0
  0
LINE
  5
377
100
AcDbEntity
  8
0
390
0
  6
Continuous
 62
     7
100
AcDbLine
 10
70.487254
 20
-16.745895
 30
0.0
 11
70.487872
 21
-16.750214
 31
0.0
  0
LINE
  5
378
100
AcDbEntity
  8
0
390
0
  6
Continuous
 62
     7
100
AcDbLine
 10
70.487573
 20
-16.738336
 30
0.0
 11
70.487254
 21
-16.745895
 31
0.0
  0
LINE
  5
379
100
AcDbEntity
  8
0
390
0
  6
Continuous
 62
     7
100
AcDbLine
 10
70.490015
 20
-16.726486
 30
0.0
 11
70.487573
 21
-16.738336
 31
0.0
  0
LINE
  5
37A
100
AcDbEntity
  8
0
390
0
  6
Continuous
 62
     7
100
AcDbLine
 10
70.495741
 20
-16.710213
 30
0.0
 11
70.490015
 21
-16.726486
 31
0.0
  0
LINE
  5
37B
100
AcDbEntity
  8
0
390
0
  6
Continuous
 62
     7
100
AcDbLine
 10
70.506488
 20
-16.687942
 30
0.0
 11
70.495741
 21
-16.710213
 31
0.0
  0
LINE
  5
37C
100
AcDbEntity
  8
0
390
0
  6
Continuous
 62
     7
100
AcDbLine
 10
71.868394
 20
-14.179612
 30
0.0
 11
70.506488
 21
-16.687942
 31
0.0
  0
LINE
  5
37D
100
AcDbEntity
  8
0
390
0
  6
Continuous
 62
     7
100
AcDbLine
 10
71.88122
 20
-14.158467
 30
0.0
 11
71.868394
 21
-14.179612
 31
0.0
  0
LINE
  5
37E
100
AcDbEntity
  8
0
390
0
  6
Continuous
 62
     7
100
AcDbLine
 10
71.891749
 20
-14.144801
 30
0.0
 11
71.88122
 21
-14.158467
 31
0.0
  0
LINE
  5
37F
100
AcDbEntity
  8
0
390
0
  6
Continuous
 62
     7
100
AcDbLine
 10
71.900358
 20
-14.136299
 30
0.0
 11
71.891749
 21
-14.144801
 31
0.0
  0
LINE
  5
380
100
AcDbEntity
  8
0
390
0
  6
Continuous
 62
     7
100
AcDbLine
 10
71.906524
 20
-14.131914
 30
0.0
 11
71.900358
 21
-14.136299
 31
0.0
  0
LINE
  5
381
100
AcDbEntity
  8
0
390
0
  6
Continuous
 62
     7
100
AcDbLine
 10
71.910482
 20
-14.13008
 30
0.0
 11
71.906524
 21
-14.131914
 31
0.0
  0
LINE
  5
382
100
AcDbEntity
  8
0
390
0
  6
Continuous
 62
     7
100
AcDbLine
 10
71.913621
 20
-14.129327
 30
0.0
 11
71.910482
 21
-14.13008
 31
0.0
  0
LINE
  5
383
100
AcDbEntity
  8
0
390
0
  6
Continuous
 62
     7
100
AcDbLine
 10
71.918096
 20
-14.12916
 30
0.0
 11
71.913621
 21
-14.129327
 31
0.0
  0
LINE
  5
384
100
AcDbEntity
  8
0
390
0
  6
Continuous
 62
     7
100
AcDbLine
 10
71.925781
 20
-14.13029
 30
0.0
 11
71.918096
 21
-14.12916
 31
0.0
  0
LINE
  5
385
100
AcDbEntity
  8
0
390
0
  6
Continuous
 62
     7
100
AcDbLine
 10
71.937556
 20
-14.134006
 30
0.0
 11
71.925781
 21
-14.13029
 31
0.0
  0
LINE
  5
386
100
AcDbEntity
  8
0
390
0
  6
Continuous
 62
     7
100
AcDbLine
 10
71.953157
 20
-14.141342
 30
0.0
 11
71.937556
 21
-14.134006
 31
0.0
  0
LINE
  5
387
100
AcDbEntity
  8
0
390
0
  6
Continuous
 62
     7
100
AcDbLine
 10
71.967805
 20
-14.150431
 30
0.0
 11
71.953157
 21
-14.141342
 31
0.0
  0
LINE
  5
388
100
AcDbEntity
  8
0
390
0
  6
Continuous
 62
     7
100
AcDbLine
 10
71.977334
 20
-14.158281
 30
0.0
 11
71.967805
 21
-14.150431
 31
0.0
  0
LINE
  5
389
100
AcDbEntity
  8
0
390
0
  6
Continuous
 62
     7
100
AcDbLine
 10
71.982466
 20
-14.16411
 30
0.0
 11
71.977334
 21
-14.158281
 31
0.0
  0
LINE
  5
38A
100
AcDbEntity
  8
0
390
0
  6
Continuous
 62
     7
100
AcDbLine
 10
71.984763
 20
-14.167953
 30
0.0
 11
71.982466
 21
-14.16411
 31
0.0
  0
LINE
  5
38B
100
AcDbEntity
  8
0
390
0
  6
Continuous
 62
     7
100
AcDbLine
 10
71.985841
 20
-14.170997
 30
0.0
 11
71.984763
 21
-14.167953
 31
0.0
  0
LINE
  5
38C
100
AcDbEntity
  8
0
390
0
  6
Continuous
 62
     7
100
AcDbLine
 10
71.986459
 20
-14.175316
 30
0.0
 11
71.985841
 21
-14.170997
 31
0.0
  0
LINE
  5
38D
100
AcDbEntity
  8
0
390
0
  6
Continuous
 62
     7
100
AcDbLine
 10
71.98614
 20
-14.182877
 30
0.0
 11
71.986459
 21
-14.175316
 31
0.0
  0
LINE
  5
38E
100
AcDbEntity
  8
0
390
0
  6
Continuous
 62
     7
100
AcDbLine
 10
71.983698
 20
-14.194729
 30
0.0
 11
71.98614
 21
-14.182877
 31
0.0
  0
LINE
  5
38F
100
AcDbEntity
  8
0
390
0
  6
Continuous
 62
     7
100
AcDbLine
 10
71.977971
 20
-14.211004
 30
0.0
 11
71.983698
 21
-14.194729
 31
0.0
  0
LINE
  5
390
100
AcDbEntity
  8
0
390
0
  6
Continuous
 62
     7
100
AcDbLine
 10
71.967224
 20
-14.233276
 30
0.0
 11
71.977971
 21
-14.211004
 31
0.0
  0
LINE
  5
391
100
AcDbEntity
  8
0
390
0
  6
Continuous
 62
     7
100
AcDbLine
 10
71.339193
 20
-15.389968
 30
0.0
 11
71.967224
 21
-14.233276
 31
0.0
  0
LINE
  5
392
100
AcDbEntity
  8
0
390
0
  6
Continuous
 62
     7
100
AcDbLine
 10
73.382194
 20
-16.499225
 30
0.0
 11
71.339193
 21
-15.389968
 31
0.0
  0
LINE
  5
393
100
AcDbEntity
  8
0
390
0
  6
Continuous
 62
     7
100
AcDbLine
 10
74.010226
 20
-15.342531
 30
0.0
 11
73.382194
 21
-16.499225
 31
0.0
  0
LINE
  5
394
100
AcDbEntity
  8
0
390
0
  6
Continuous
 62
     7
100
AcDbLine
 10
74.023051
 20
-15.321386
 30
0.0
 11
74.010226
 21
-15.342531
 31
0.0
  0
LINE
  5
395
100
AcDbEntity
  8
0
390
0
  6
Continuous
 62
     7
100
AcDbLine
 10
74.03358
 20
-15.307719
 30
0.0
 11
74.023051
 21
-15.321386
 31
0.0
  0
LINE
  5
396
100
AcDbEntity
  8
0
390
0
  6
Continuous
 62
     7
100
AcDbLine
 10
74.04219
 20
-15.299216
 30
0.0
 11
74.03358
 21
-15.307719
 31
0.0
  0
LINE
  5
397
100
AcDbEntity
  8
0
390
0
  6
Continuous
 62
     7
100
AcDbLine
 10
74.048357
 20
-15.294831
 30
0.0
 11
74.04219
 21
-15.299216
 31
0.0
  0
LINE
  5
398
100
AcDbEntity
  8
0
390
0
  6
Continuous
 62
     7
100
AcDbLine
 10
74.052316
 20
-15.292997
 30
0.0
 11
74.048357
 21
-15.294831
 31
0.0
  0
LINE
  5
399
100
AcDbEntity
  8
0
390
0
  6
Continuous
 62
     7
100
AcDbLine
 10
74.055456
 20
-15.292242
 30
0.0
 11
74.052316
 21
-15.292997
 31
0.0
  0
LINE
  5
39A
100
AcDbEntity
  8
0
390
0
  6
Continuous
 62
     7
100
AcDbLine
 10
74.059931
 20
-15.292076
 30
0.0
 11
74.055456
 21
-15.292242
 31
0.0
  0
LINE
  5
39B
100
AcDbEntity
  8
0
390
0
  6
Continuous
 62
     7
100
AcDbLine
 10
74.067616
 20
-15.293206
 30
0.0
 11
74.059931
 21
-15.292076
 31
0.0
  0
LINE
  5
39C
100
AcDbEntity
  8
0
390
0
  6
Continuous
 62
     7
100
AcDbLine
 10
74.079391
 20
-15.296921
 30
0.0
 11
74.067616
 21
-15.293206
 31
0.0
  0
LINE
  5
39D
100
AcDbEntity
  8
0
390
0
  6
Continuous
 62
     7
100
AcDbLine
 10
74.09499
 20
-15.304257
 30
0.0
 11
74.079391
 21
-15.296921
 31
0.0
  0
LINE
  5
39E
100
AcDbEntity
  8
0
390
0
  6
Continuous
 62
     7
100
AcDbLine
 10
74.109637
 20
-15.313343
 30
0.0
 11
74.09499
 21
-15.304257
 31
0.0
  0
LINE
  5
39F
100
AcDbEntity
  8
0
390
0
  6
Continuous
 62
     7
100
AcDbLine
 10
74.119165
 20
-15.321194
 30
0.0
 11
74.109637
 21
-15.313343
 31
0.0
  0
LINE
  5
3A0
100
AcDbEntity
  8
0
390
0
  6
Continuous
 62
     7
100
AcDbLine
 10
74.124297
 20
-15.327022
 30
0.0
 11
74.119165
 21
-15.321194
 31
0.0
  0
LINE
  5
3A1
100
AcDbEntity
  8
0
390
0
  6
Continuous
 62
     7
100
AcDbLine
 10
74.126594
 20
-15.330866
 30
0.0
 11
74.124297
 21
-15.327022
 31
0.0
  0
LINE
  5
3A2
100
AcDbEntity
  8
0
390
0
  6
Continuous
 62
     7
100
AcDbLine
 10
74.127672
 20
-15.33391
 30
0.0
 11
74.126594
 21
-15.330866
 31
0.0
  0
LINE
  5
3A3
100
AcDbEntity
  8
0
390
0
  6
Continuous
 62
     7
100
AcDbLine
 10
74.12829
 20
-15.338228
 30
0.0
 11
74.127672
 21
-15.33391
 31
0.0
  0
LINE
  5
3A4
100
AcDbEntity
  8
0
390
0
  6
Continuous
 62
     7
100
AcDbLine
 10
74.127971
 20
-15.345789
 30
0.0
 11
74.12829
 21
-15.338228
 31
0.0
  0
LINE
  5
3A5
100
AcDbEntity
  8
0
390
0
  6
Continuous
 62
     7
100
AcDbLine
 10
74.125529
 20
-15.357642
 30
0.0
 11
74.127971
 21
-15.345789
 31
0.0
  0
LINE
  5
3A6
100
AcDbEntity
  8
0
390
0
  6
Continuous
 62
     7
100
AcDbLine
 10
74.119803
 20
-15.373916
 30
0.0
 11
74.125529
 21
-15.357642
 31
0.0
  0
LINE
  5
3A7
100
AcDbEntity
  8
0
390
0
  6
Continuous
 62
     7
100
AcDbLine
 10
74.109055
 20
-15.396188
 30
0.0
 11
74.119803
 21
-15.373916
 31
0.0
  0
LINE
  5
3A8
100
AcDbEntity
  8
0
390
0
  6
Continuous
 62
     7
100
AcDbLine
 10
72.74715
 20
-17.904516
 30
0.0
 11
74.109055
 21
-15.396188
 31
0.0
  0
LINE
  5
3A9
100
AcDbEntity
  8
0
390
0
  6
Continuous
 62
     7
100
AcDbLine
 10
72.734325
 20
-17.92566
 30
0.0
 11
72.74715
 21
-17.904516
 31
0.0
  0
LINE
  5
3AA
100
AcDbEntity
  8
0
390
0
  6
Continuous
 62
     7
100
AcDbLine
 10
72.723796
 20
-17.939325
 30
0.0
 11
72.734325
 21
-17.92566
 31
0.0
  0
LINE
  5
3AB
100
AcDbEntity
  8
0
390
0
  6
Continuous
 62
     7
100
AcDbLine
 10
72.715186
 20
-17.947828
 30
0.0
 11
72.723796
 21
-17.939325
 31
0.0
  0
LINE
  5
3AC
100
AcDbEntity
  8
0
390
0
  6
Continuous
 62
     7
100
AcDbLine
 10
72.709021
 20
-17.952212
 30
0.0
 11
72.715186
 21
-17.947828
 31
0.0
  0
LINE
  5
3AD
100
AcDbEntity
  8
0
390
0
  6
Continuous
 62
     7
100
AcDbLine
 10
72.705062
 20
-17.954045
 30
0.0
 11
72.709021
 21
-17.952212
 31
0.0
  0
LINE
  5
3AE
100
AcDbEntity
  8
0
390
0
  6
Continuous
 62
     7
100
AcDbLine
 10
72.701923
 20
-17.954799
 30
0.0
 11
72.705062
 21
-17.954045
 31
0.0
  0
LINE
  5
3AF
100
AcDbEntity
  8
0
390
0
  6
Continuous
 62
     7
100
AcDbLine
 10
72.697448
 20
-17.954966
 30
0.0
 11
72.701923
 21
-17.954799
 31
0.0
  0
LINE
  5
3B0
100
AcDbEntity
  8
0
390
0
  6
Continuous
 62
     7
100
AcDbLine
 10
72.689765
 20
-17.953837
 30
0.0
 11
72.697448
 21
-17.954966
 31
0.0
  0
LINE
  5
3B1
100
AcDbEntity
  8
0
390
0
  6
Continuous
 62
     7
100
AcDbLine
 10
72.677991
 20
-17.950121
 30
0.0
 11
72.689765
 21
-17.953837
 31
0.0
  0
LINE
  5
3B2
100
AcDbEntity
  8
0
390
0
  6
Continuous
 62
     7
100
AcDbLine
 10
72.662391
 20
-17.942785
 30
0.0
 11
72.677991
 21
-17.950121
 31
0.0
  0
LINE
  5
3B3
100
AcDbEntity
  8
0
390
0
  6
Continuous
 62
     7
100
AcDbLine
 10
72.647741
 20
-17.933697
 30
0.0
 11
72.662391
 21
-17.942785
 31
0.0
  0
LINE
  5
3B4
100
AcDbEntity
  8
0
390
0
  6
Continuous
 62
     7
100
AcDbLine
 10
72.638212
 20
-17.925846
 30
0.0
 11
72.647741
 21
-17.933697
 31
0.0
  0
LINE
  5
3B5
100
AcDbEntity
  8
0
390
0
  6
Continuous
 62
     7
100
AcDbLine
 10
72.633079
 20
-17.920017
 30
0.0
 11
72.638212
 21
-17.925846
 31
0.0
  0
LINE
  5
3B6
100
AcDbEntity
  8
0
390
0
  6
Continuous
 62
     7
100
AcDbLine
 10
72.630782
 20
-17.916173
 30
0.0
 11
72.633079
 21
-17.920017
 31
0.0
  0
LINE
  5
3B7
100
AcDbEntity
  8
0
390
0
  6
Continuous
 62
     7
100
AcDbLine
 10
72.629703
 20
-17.913131
 30
0.0
 11
72.630782
 21
-17.916173
 31
0.0
  0
LINE
  5
3B8
100
AcDbEntity
  8
0
390
0
  6
Continuous
 62
     7
100
AcDbLine
 10
72.629086
 20
-17.908813
 30
0.0
 11
72.629703
 21
-17.913131
 31
0.0
  0
LINE
  5
3B9
100
AcDbEntity
  8
0
390
0
  6
Continuous
 62
     7
100
AcDbLine
 10
72.629405
 20
-17.901255
 30
0.0
 11
72.629086
 21
-17.908813
 31
0.0
  0
LINE
  5
3BA
100
AcDbEntity
  8
0
390
0
  6
Continuous
 62
     7
100
AcDbLine
 10
72.631846
 20
-17.889404
 30
0.0
 11
72.629405
 21
-17.901255
 31
0.0
  0
LINE
  5
3BB
100
AcDbEntity
  8
0
390
0
  6
Continuous
 62
     7
100
AcDbLine
 10
72.637572
 20
-17.873132
 30
0.0
 11
72.631846
 21
-17.889404
 31
0.0
  0
LINE
  5
3BC
100
AcDbEntity
  8
0
390
0
  6
Continuous
 62
     7
100
AcDbLine
 10
72.648319
 20
-17.85086
 30
0.0
 11
72.637572
 21
-17.873132
 31
0.0
  0
LINE
  5
3BD
100
AcDbEntity
  8
0
390
0
  6
Continuous
 62
     7
100
AcDbLine
 10
73.35835
 20
-16.543136
 30
0.0
 11
72.648319
 21
-17.85086
 31
0.0
  0
LINE
  5
3BE
100
AcDbEntity
  8
0
390
0
  6
Continuous
 62
     7
100
AcDbLine
 10
68.910428
 20
11.579365
 30
0.0
 11
68.99709
 21
11.663629
 31
0.0
  0
LINE
  5
3BF
100
AcDbEntity
  8
0
390
0
  6
Continuous
 62
     7
100
AcDbLine
 10
68.824948
 20
11.505159
 30
0.0
 11
68.910428
 21
11.579365
 31
0.0
  0
LINE
  5
3C0
100
AcDbEntity
  8
0
390
0
  6
Continuous
 62
     7
100
AcDbLine
 10
68.739832
 20
11.440077
 30
0.0
 11
68.824948
 21
11.505159
 31
0.0
  0
LINE
  5
3C1
100
AcDbEntity
  8
0
390
0
  6
Continuous
 62
     7
100
AcDbLine
 10
68.655148
 20
11.384022
 30
0.0
 11
68.739832
 21
11.440077
 31
0.0
  0
LINE
  5
3C2
100
AcDbEntity
  8
0
390
0
  6
Continuous
 62
     7
100
AcDbLine
 10
68.570944
 20
11.336871
 30
0.0
 11
68.655148
 21
11.384022
 31
0.0
  0
LINE
  5
3C3
100
AcDbEntity
  8
0
390
0
  6
Continuous
 62
     7
100
AcDbLine
 10
68.487229
 20
11.298468
 30
0.0
 11
68.570944
 21
11.336871
 31
0.0
  0
LINE
  5
3C4
100
AcDbEntity
  8
0
390
0
  6
Continuous
 62
     7
100
AcDbLine
 10
68.403957
 20
11.268634
 30
0.0
 11
68.487229
 21
11.298468
 31
0.0
  0
LINE
  5
3C5
100
AcDbEntity
  8
0
390
0
  6
Continuous
 62
     7
100
AcDbLine
 10
68.321016
 20
11.247195
 30
0.0
 11
68.403957
 21
11.268634
 31
0.0
  0
LINE
  5
3C6
100
AcDbEntity
  8
0
390
0
  6
Continuous
 62
     7
100
AcDbLine
 10
68.238222
 20
11.233993
 30
0.0
 11
68.321016
 21
11.247195
 31
0.0
  0
LINE
  5
3C7
100
AcDbEntity
  8
0
390
0
  6
Continuous
 62
     7
100
AcDbLine
 10
68.154719
 20
11.22889
 30
0.0
 11
68.238222
 21
11.233993
 31
0.0
  0
LINE
  5
3C8
100
AcDbEntity
  8
0
390
0
  6
Continuous
 62
     7
100
AcDbLine
 10
68.093043
 20
11.230383
 30
0.0
 11
68.154719
 21
11.22889
 31
0.0
  0
LINE
  5
3C9
100
AcDbEntity
  8
0
390
0
  6
Continuous
 62
     7
100
AcDbLine
 10
68.032935
 20
11.236407
 30
0.0
 11
68.093043
 21
11.230383
 31
0.0
  0
LINE
  5
3CA
100
AcDbEntity
  8
0
390
0
  6
Continuous
 62
     7
100
AcDbLine
 10
67.974942
 20
11.246883
 30
0.0
 11
68.032935
 21
11.236407
 31
0.0
  0
LINE
  5
3CB
100
AcDbEntity
  8
0
390
0
  6
Continuous
 62
     7
100
AcDbLine
 10
67.918912
 20
11.26178
 30
0.0
 11
67.974942
 21
11.246883
 31
0.0
  0
LINE
  5
3CC
100
AcDbEntity
  8
0
390
0
  6
Continuous
 62
     7
100
AcDbLine
 10
67.864684
 20
11.281111
 30
0.0
 11
67.918912
 21
11.26178
 31
0.0
  0
LINE
  5
3CD
100
AcDbEntity
  8
0
390
0
  6
Continuous
 62
     7
100
AcDbLine
 10
67.812097
 20
11.304925
 30
0.0
 11
67.864684
 21
11.281111
 31
0.0
  0
LINE
  5
3CE
100
AcDbEntity
  8
0
390
0
  6
Continuous
 62
     7
100
AcDbLine
 10
67.76101
 20
11.333309
 30
0.0
 11
67.812097
 21
11.304925
 31
0.0
  0
LINE
  5
3CF
100
AcDbEntity
  8
0
390
0
  6
Continuous
 62
     7
100
AcDbLine
 10
67.711313
 20
11.366377
 30
0.0
 11
67.76101
 21
11.333309
 31
0.0
  0
LINE
  5
3D0
100
AcDbEntity
  8
0
390
0
  6
Continuous
 62
     7
100
AcDbLine
 10
67.662936
 20
11.404256
 30
0.0
 11
67.711313
 21
11.366377
 31
0.0
  0
LINE
  5
3D1
100
AcDbEntity
  8
0
390
0
  6
Continuous
 62
     7
100
AcDbLine
 10
67.615907
 20
11.447015
 30
0.0
 11
67.662936
 21
11.404256
 31
0.0
  0
LINE
  5
3D2
100
AcDbEntity
  8
0
390
0
  6
Continuous
 62
     7
100
AcDbLine
 10
67.569921
 20
11.495235
 30
0.0
 11
67.615907
 21
11.447015
 31
0.0
  0
LINE
  5
3D3
100
AcDbEntity
  8
0
390
0
  6
Continuous
 62
     7
100
AcDbLine
 10
67.529018
 20
11.545103
 30
0.0
 11
67.569921
 21
11.495235
 31
0.0
  0
LINE
  5
3D4
100
AcDbEntity
  8
0
390
0
  6
Continuous
 62
     7
100
AcDbLine
 10
67.493083
 20
11.596642
 30
0.0
 11
67.529018
 21
11.545103
 31
0.0
  0
LINE
  5
3D5
100
AcDbEntity
  8
0
390
0
  6
Continuous
 62
     7
100
AcDbLine
 10
67.461988
 20
11.649927
 30
0.0
 11
67.493083
 21
11.596642
 31
0.0
  0
LINE
  5
3D6
100
AcDbEntity
  8
0
390
0
  6
Continuous
 62
     7
100
AcDbLine
 10
67.435622
 20
11.705077
 30
0.0
 11
67.461988
 21
11.649927
 31
0.0
  0
LINE
  5
3D7
100
AcDbEntity
  8
0
390
0
  6
Continuous
 62
     7
100
AcDbLine
 10
67.413901
 20
11.762232
 30
0.0
 11
67.435622
 21
11.705077
 31
0.0
  0
LINE
  5
3D8
100
AcDbEntity
  8
0
390
0
  6
Continuous
 62
     7
100
AcDbLine
 10
67.396779
 20
11.821557
 30
0.0
 11
67.413901
 21
11.762232
 31
0.0
  0
LINE
  5
3D9
100
AcDbEntity
  8
0
390
0
  6
Continuous
 62
     7
100
AcDbLine
 10
67.384252
 20
11.883211
 30
0.0
 11
67.396779
 21
11.821557
 31
0.0
  0
LINE
  5
3DA
100
AcDbEntity
  8
0
390
0
  6
Continuous
 62
     7
100
AcDbLine
 10
67.376354
 20
11.947336
 30
0.0
 11
67.384252
 21
11.883211
 31
0.0
  0
LINE
  5
3DB
100
AcDbEntity
  8
0
390
0
  6
Continuous
 62
     7
100
AcDbLine
 10
67.373207
 20
12.0128
 30
0.0
 11
67.376354
 21
11.947336
 31
0.0
  0
LINE
  5
3DC
100
AcDbEntity
  8
0
390
0
  6
Continuous
 62
     7
100
AcDbLine
 10
67.376751
 20
12.087184
 30
0.0
 11
67.373207
 21
12.0128
 31
0.0
  0
LINE
  5
3DD
100
AcDbEntity
  8
0
390
0
  6
Continuous
 62
     7
100
AcDbLine
 10
67.389158
 20
12.163088
 30
0.0
 11
67.376751
 21
12.087184
 31
0.0
  0
LINE
  5
3DE
100
AcDbEntity
  8
0
390
0
  6
Continuous
 62
     7
100
AcDbLine
 10
67.410813
 20
12.242027
 30
0.0
 11
67.389158
 21
12.163088
 31
0.0
  0
LINE
  5
3DF
100
AcDbEntity
  8
0
390
0
  6
Continuous
 62
     7
100
AcDbLine
 10
67.442041
 20
12.324085
 30
0.0
 11
67.410813
 21
12.242027
 31
0.0
  0
LINE
  5
3E0
100
AcDbEntity
  8
0
390
0
  6
Continuous
 62
     7
100
AcDbLine
 10
67.48312
 20
12.40923
 30
0.0
 11
67.442041
 21
12.324085
 31
0.0
  0
LINE
  5
3E1
100
AcDbEntity
  8
0
390
0
  6
Continuous
 62
     7
100
AcDbLine
 10
67.534254
 20
12.497355
 30
0.0
 11
67.48312
 21
12.40923
 31
0.0
  0
LINE
  5
3E2
100
AcDbEntity
  8
0
390
0
  6
Continuous
 62
     7
100
AcDbLine
 10
67.595586
 20
12.588322
 30
0.0
 11
67.534254
 21
12.497355
 31
0.0
  0
LINE
  5
3E3
100
AcDbEntity
  8
0
390
0
  6
Continuous
 62
     7
100
AcDbLine
 10
67.6672
 20
12.681991
 30
0.0
 11
67.595586
 21
12.588322
 31
0.0
  0
LINE
  5
3E4
100
AcDbEntity
  8
0
390
0
  6
Continuous
 62
     7
100
AcDbLine
 10
67.749146
 20
12.778231
 30
0.0
 11
67.6672
 21
12.681991
 31
0.0
  0
LINE
  5
3E5
100
AcDbEntity
  8
0
390
0
  6
Continuous
 62
     7
100
AcDbLine
 10
67.84213
 20
12.87766
 30
0.0
 11
67.749146
 21
12.778231
 31
0.0
  0
LINE
  5
3E6
100
AcDbEntity
  8
0
390
0
  6
Continuous
 62
     7
100
AcDbLine
 10
68.533091
 20
13.585712
 30
0.0
 11
67.84213
 21
12.87766
 31
0.0
  0
LINE
  5
3E7
100
AcDbEntity
  8
0
390
0
  6
Continuous
 62
     7
100
AcDbLine
 10
68.265562
 20
13.846784
 30
0.0
 11
68.533091
 21
13.585712
 31
0.0
  0
LINE
  5
3E8
100
AcDbEntity
  8
0
390
0
  6
Continuous
 62
     7
100
AcDbLine
 10
69.708819
 20
12.592153
 30
0.0
 11
69.678475
 21
12.625053
 31
0.0
  0
LINE
  5
3E9
100
AcDbEntity
  8
0
390
0
  6
Continuous
 62
     7
100
AcDbLine
 10
69.729275
 20
12.563679
 30
0.0
 11
69.708819
 21
12.592153
 31
0.0
  0
LINE
  5
3EA
100
AcDbEntity
  8
0
390
0
  6
Continuous
 62
     7
100
AcDbLine
 10
69.742313
 20
12.538381
 30
0.0
 11
69.729275
 21
12.563679
 31
0.0
  0
LINE
  5
3EB
100
AcDbEntity
  8
0
390
0
  6
Continuous
 62
     7
100
AcDbLine
 10
69.74927
 20
12.516178
 30
0.0
 11
69.742313
 21
12.538381
 31
0.0
  0
LINE
  5
3EC
100
AcDbEntity
  8
0
390
0
  6
Continuous
 62
     7
100
AcDbLine
 10
69.751542
 20
12.49596
 30
0.0
 11
69.74927
 21
12.516178
 31
0.0
  0
LINE
  5
3ED
100
AcDbEntity
  8
0
390
0
  6
Continuous
 62
     7
100
AcDbLine
 10
69.749765
 20
12.475694
 30
0.0
 11
69.751542
 21
12.49596
 31
0.0
  0
LINE
  5
3EE
100
AcDbEntity
  8
0
390
0
  6
Continuous
 62
     7
100
AcDbLine
 10
69.743353
 20
12.453329
 30
0.0
 11
69.749765
 21
12.475694
 31
0.0
  0
LINE
  5
3EF
100
AcDbEntity
  8
0
390
0
  6
Continuous
 62
     7
100
AcDbLine
 10
69.730938
 20
12.427721
 30
0.0
 11
69.743353
 21
12.453329
 31
0.0
  0
LINE
  5
3F0
100
AcDbEntity
  8
0
390
0
  6
Continuous
 62
     7
100
AcDbLine
 10
69.711185
 20
12.398754
 30
0.0
 11
69.730938
 21
12.427721
 31
0.0
  0
LINE
  5
3F1
100
AcDbEntity
  8
0
390
0
  6
Continuous
 62
     7
100
AcDbLine
 10
69.681655
 20
12.365125
 30
0.0
 11
69.711185
 21
12.398754
 31
0.0
  0
LINE
  5
3F2
100
AcDbEntity
  8
0
390
0
  6
Continuous
 62
     7
100
AcDbLine
 10
68.99709
 20
11.663629
 30
0.0
 11
69.681655
 21
12.365125
 31
0.0
  0
LINE
  5
3F3
100
AcDbEntity
  8
0
390
0
  6
Continuous
 62
     7
100
AcDbLine
 10
69.588797
 20
12.343242
 30
0.0
 11
69.573224
 21
12.325506
 31
0.0
  0
LINE
  5
3F4
100
AcDbEntity
  8
0
390
0
  6
Continuous
 62
     7
100
AcDbLine
 10
69.603988
 20
12.365519
 30
0.0
 11
69.588797
 21
12.343242
 31
0.0
  0
LINE
  5
3F5
100
AcDbEntity
  8
0
390
0
  6
Continuous
 62
     7
100
AcDbLine
 10
69.616355
 20
12.391027
 30
0.0
 11
69.603988
 21
12.365519
 31
0.0
  0
LINE
  5
3F6
100
AcDbEntity
  8
0
390
0
  6
Continuous
 62
     7
100
AcDbLine
 10
69.624563
 20
12.419654
 30
0.0
 11
69.616355
 21
12.391027
 31
0.0
  0
LINE
  5
3F7
100
AcDbEntity
  8
0
390
0
  6
Continuous
 62
     7
100
AcDbLine
 10
69.627246
 20
12.450256
 30
0.0
 11
69.624563
 21
12.419654
 31
0.0
  0
LINE
  5
3F8
100
AcDbEntity
  8
0
390
0
  6
Continuous
 62
     7
100
AcDbLine
 10
69.623816
 20
12.480784
 30
0.0
 11
69.627246
 21
12.450256
 31
0.0
  0
LINE
  5
3F9
100
AcDbEntity
  8
0
390
0
  6
Continuous
 62
     7
100
AcDbLine
 10
69.61491
 20
12.509204
 30
0.0
 11
69.623816
 21
12.480784
 31
0.0
  0
LINE
  5
3FA
100
AcDbEntity
  8
0
390
0
  6
Continuous
 62
     7
100
AcDbLine
 10
69.601924
 20
12.534402
 30
0.0
 11
69.61491
 21
12.509204
 31
0.0
  0
LINE
  5
3FB
100
AcDbEntity
  8
0
390
0
  6
Continuous
 62
     7
100
AcDbLine
 10
69.586193
 20
12.556299
 30
0.0
 11
69.601924
 21
12.534402
 31
0.0
  0
LINE
  5
3FC
100
AcDbEntity
  8
0
390
0
  6
Continuous
 62
     7
100
AcDbLine
 10
69.570191
 20
12.573648
 30
0.0
 11
69.586193
 21
12.556299
 31
0.0
  0
LINE
  5
3FD
100
AcDbEntity
  8
0
390
0
  6
Continuous
 62
     7
100
AcDbLine
 10
68.568827
 20
13.55084
 30
0.0
 11
69.570191
 21
12.573648
 31
0.0
  0
LINE
  5
3FE
100
AcDbEntity
  8
0
390
0
  6
Continuous
 62
     7
100
AcDbLine
 10
67.777974
 20
12.740423
 30
0.0
 11
68.568827
 21
13.55084
 31
0.0
  0
LINE
  5
3FF
100
AcDbEntity
  8
0
390
0
  6
Continuous
 62
     7
100
AcDbLine
 10
67.72118
 20
12.678922
 30
0.0
 11
67.777974
 21
12.740423
 31
0.0
  0
LINE
  5
400
100
AcDbEntity
  8
0
390
0
  6
Continuous
 62
     7
100
AcDbLine
 10
67.669157
 20
12.615455
 30
0.0
 11
67.72118
 21
12.678922
 31
0.0
  0
LINE
  5
401
100
AcDbEntity
  8
0
390
0
  6
Continuous
 62
     7
100
AcDbLine
 10
67.622876
 20
12.550925
 30
0.0
 11
67.669157
 21
12.615455
 31
0.0
  0
LINE
  5
402
100
AcDbEntity
  8
0
390
0
  6
Continuous
 62
     7
100
AcDbLine
 10
67.58244
 20
12.485282
 30
0.0
 11
67.622876
 21
12.550925
 31
0.0
  0
LINE
  5
403
100
AcDbEntity
  8
0
390
0
  6
Continuous
 62
     7
100
AcDbLine
 10
67.547982
 20
12.418508
 30
0.0
 11
67.58244
 21
12.485282
 31
0.0
  0
LINE
  5
404
100
AcDbEntity
  8
0
390
0
  6
Continuous
 62
     7
100
AcDbLine
 10
67.519653
 20
12.350625
 30
0.0
 11
67.547982
 21
12.418508
 31
0.0
  0
LINE
  5
405
100
AcDbEntity
  8
0
390
0
  6
Continuous
 62
     7
100
AcDbLine
 10
67.497614
 20
12.281716
 30
0.0
 11
67.519653
 21
12.350625
 31
0.0
  0
LINE
  5
406
100
AcDbEntity
  8
0
390
0
  6
Continuous
 62
     7
100
AcDbLine
 10
67.482012
 20
12.211914
 30
0.0
 11
67.497614
 21
12.281716
 31
0.0
  0
LINE
  5
407
100
AcDbEntity
  8
0
390
0
  6
Continuous
 62
     7
100
AcDbLine
 10
67.472963
 20
12.141413
 30
0.0
 11
67.482012
 21
12.211914
 31
0.0
  0
LINE
  5
408
100
AcDbEntity
  8
0
390
0
  6
Continuous
 62
     7
100
AcDbLine
 10
67.470528
 20
12.07058
 30
0.0
 11
67.472963
 21
12.141413
 31
0.0
  0
LINE
  5
409
100
AcDbEntity
  8
0
390
0
  6
Continuous
 62
     7
100
AcDbLine
 10
67.473712
 20
12.013445
 30
0.0
 11
67.470528
 21
12.07058
 31
0.0
  0
LINE
  5
40A
100
AcDbEntity
  8
0
390
0
  6
Continuous
 62
     7
100
AcDbLine
 10
67.481854
 20
11.957182
 30
0.0
 11
67.473712
 21
12.013445
 31
0.0
  0
LINE
  5
40B
100
AcDbEntity
  8
0
390
0
  6
Continuous
 62
     7
100
AcDbLine
 10
67.494944
 20
11.901807
 30
0.0
 11
67.481854
 21
11.957182
 31
0.0
  0
LINE
  5
40C
100
AcDbEntity
  8
0
390
0
  6
Continuous
 62
     7
100
AcDbLine
 10
67.512913
 20
11.847508
 30
0.0
 11
67.494944
 21
11.901807
 31
0.0
  0
LINE
  5
40D
100
AcDbEntity
  8
0
390
0
  6
Continuous
 62
     7
100
AcDbLine
 10
67.535648
 20
11.794443
 30
0.0
 11
67.512913
 21
11.847508
 31
0.0
  0
LINE
  5
40E
100
AcDbEntity
  8
0
390
0
  6
Continuous
 62
     7
100
AcDbLine
 10
67.563014
 20
11.742718
 30
0.0
 11
67.535648
 21
11.794443
 31
0.0
  0
LINE
  5
40F
100
AcDbEntity
  8
0
390
0
  6
Continuous
 62
     7
100
AcDbLine
 10
67.594865
 20
11.692396
 30
0.0
 11
67.563014
 21
11.742718
 31
0.0
  0
LINE
  5
410
100
AcDbEntity
  8
0
390
0
  6
Continuous
 62
     7
100
AcDbLine
 10
67.63107
 20
11.643489
 30
0.0
 11
67.594865
 21
11.692396
 31
0.0
  0
LINE
  5
411
100
AcDbEntity
  8
0
390
0
  6
Continuous
 62
     7
100
AcDbLine
 10
67.671511
 20
11.595976
 30
0.0
 11
67.63107
 21
11.643489
 31
0.0
  0
LINE
  5
412
100
AcDbEntity
  8
0
390
0
  6
Continuous
 62
     7
100
AcDbLine
 10
67.716384
 20
11.549518
 30
0.0
 11
67.671511
 21
11.595976
 31
0.0
  0
LINE
  5
413
100
AcDbEntity
  8
0
390
0
  6
Continuous
 62
     7
100
AcDbLine
 10
67.762756
 20
11.507467
 30
0.0
 11
67.716384
 21
11.549518
 31
0.0
  0
LINE
  5
414
100
AcDbEntity
  8
0
390
0
  6
Continuous
 62
     7
100
AcDbLine
 10
67.811705
 20
11.469428
 30
0.0
 11
67.762756
 21
11.507467
 31
0.0
  0
LINE
  5
415
100
AcDbEntity
  8
0
390
0
  6
Continuous
 62
     7
100
AcDbLine
 10
67.862956
 20
11.435739
 30
0.0
 11
67.811705
 21
11.469428
 31
0.0
  0
LINE
  5
416
100
AcDbEntity
  8
0
390
0
  6
Continuous
 62
     7
100
AcDbLine
 10
67.916417
 20
11.406521
 30
0.0
 11
67.862956
 21
11.435739
 31
0.0
  0
LINE
  5
417
100
AcDbEntity
  8
0
390
0
  6
Continuous
 62
     7
100
AcDbLine
 10
67.971962
 20
11.38188
 30
0.0
 11
67.916417
 21
11.406521
 31
0.0
  0
LINE
  5
418
100
AcDbEntity
  8
0
390
0
  6
Continuous
 62
     7
100
AcDbLine
 10
68.029439
 20
11.361888
 30
0.0
 11
67.971962
 21
11.38188
 31
0.0
  0
LINE
  5
419
100
AcDbEntity
  8
0
390
0
  6
Continuous
 62
     7
100
AcDbLine
 10
68.088686
 20
11.346574
 30
0.0
 11
68.029439
 21
11.361888
 31
0.0
  0
LINE
  5
41A
100
AcDbEntity
  8
0
390
0
  6
Continuous
 62
     7
100
AcDbLine
 10
68.149546
 20
11.335932
 30
0.0
 11
68.088686
 21
11.346574
 31
0.0
  0
LINE
  5
41B
100
AcDbEntity
  8
0
390
0
  6
Continuous
 62
     7
100
AcDbLine
 10
68.21188
 20
11.329916
 30
0.0
 11
68.149546
 21
11.335932
 31
0.0
  0
LINE
  5
41C
100
AcDbEntity
  8
0
390
0
  6
Continuous
 62
     7
100
AcDbLine
 10
68.276467
 20
11.328436
 30
0.0
 11
68.21188
 21
11.329916
 31
0.0
  0
LINE
  5
41D
100
AcDbEntity
  8
0
390
0
  6
Continuous
 62
     7
100
AcDbLine
 10
68.3434
 20
11.332725
 30
0.0
 11
68.276467
 21
11.328436
 31
0.0
  0
LINE
  5
41E
100
AcDbEntity
  8
0
390
0
  6
Continuous
 62
     7
100
AcDbLine
 10
68.410921
 20
11.344028
 30
0.0
 11
68.3434
 21
11.332725
 31
0.0
  0
LINE
  5
41F
100
AcDbEntity
  8
0
390
0
  6
Continuous
 62
     7
100
AcDbLine
 10
68.477935
 20
11.362135
 30
0.0
 11
68.410921
 21
11.344028
 31
0.0
  0
LINE
  5
420
100
AcDbEntity
  8
0
390
0
  6
Continuous
 62
     7
100
AcDbLine
 10
68.544275
 20
11.386846
 30
0.0
 11
68.477935
 21
11.362135
 31
0.0
  0
LINE
  5
421
100
AcDbEntity
  8
0
390
0
  6
Continuous
 62
     7
100
AcDbLine
 10
68.60986
 20
11.417948
 30
0.0
 11
68.544275
 21
11.386846
 31
0.0
  0
LINE
  5
422
100
AcDbEntity
  8
0
390
0
  6
Continuous
 62
     7
100
AcDbLine
 10
68.674686
 20
11.455254
 30
0.0
 11
68.60986
 21
11.417948
 31
0.0
  0
LINE
  5
423
100
AcDbEntity
  8
0
390
0
  6
Continuous
 62
     7
100
AcDbLine
 10
68.738799
 20
11.498607
 30
0.0
 11
68.674686
 21
11.455254
 31
0.0
  0
LINE
  5
424
100
AcDbEntity
  8
0
390
0
  6
Continuous
 62
     7
100
AcDbLine
 10
68.802276
 20
11.54789
 30
0.0
 11
68.738799
 21
11.498607
 31
0.0
  0
LINE
  5
425
100
AcDbEntity
  8
0
390
0
  6
Continuous
 62
     7
100
AcDbLine
 10
68.865206
 20
11.603025
 30
0.0
 11
68.802276
 21
11.54789
 31
0.0
  0
LINE
  5
426
100
AcDbEntity
  8
0
390
0
  6
Continuous
 62
     7
100
AcDbLine
 10
68.926843
 20
11.663141
 30
0.0
 11
68.865206
 21
11.603025
 31
0.0
  0
LINE
  5
427
100
AcDbEntity
  8
0
390
0
  6
Continuous
 62
     7
100
AcDbLine
 10
69.573224
 20
12.325506
 30
0.0
 11
68.926843
 21
11.663141
 31
0.0
  0
LINE
  5
428
100
AcDbEntity
  8
0
390
0
  6
Continuous
 62
     7
100
AcDbLine
 10
69.678475
 20
12.625053
 30
0.0
 11
68.342805
 21
13.928479
 31
0.0
  0
LINE
  5
429
100
AcDbEntity
  8
0
390
0
  6
Continuous
 62
     7
100
AcDbLine
 10
76.236669
 20
18.336291
 30
0.0
 11
76.277179
 21
18.255226
 31
0.0
  0
LINE
  5
42A
100
AcDbEntity
  8
0
390
0
  6
Continuous
 62
     7
100
AcDbLine
 10
76.194735
 20
18.41153
 30
0.0
 11
76.236669
 21
18.336291
 31
0.0
  0
LINE
  5
42B
100
AcDbEntity
  8
0
390
0
  6
Continuous
 62
     7
100
AcDbLine
 10
76.151269
 20
18.480967
 30
0.0
 11
76.194735
 21
18.41153
 31
0.0
  0
LINE
  5
42C
100
AcDbEntity
  8
0
390
0
  6
Continuous
 62
     7
100
AcDbLine
 10
76.106136
 20
18.544607
 30
0.0
 11
76.151269
 21
18.480967
 31
0.0
  0
LINE
  5
42D
100
AcDbEntity
  8
0
390
0
  6
Continuous
 62
     7
100
AcDbLine
 10
76.059182
 20
18.602428
 30
0.0
 11
76.106136
 21
18.544607
 31
0.0
  0
LINE
  5
42E
100
AcDbEntity
  8
0
390
0
  6
Continuous
 62
     7
100
AcDbLine
 10
76.010229
 20
18.65436
 30
0.0
 11
76.059182
 21
18.602428
 31
0.0
  0
LINE
  5
42F
100
AcDbEntity
  8
0
390
0
  6
Continuous
 62
     7
100
AcDbLine
 10
75.959105
 20
18.700267
 30
0.0
 11
76.010229
 21
18.65436
 31
0.0
  0
LINE
  5
430
100
AcDbEntity
  8
0
390
0
  6
Continuous
 62
     7
100
AcDbLine
 10
75.905663
 20
18.739925
 30
0.0
 11
75.959105
 21
18.700267
 31
0.0
  0
LINE
  5
431
100
AcDbEntity
  8
0
390
0
  6
Continuous
 62
     7
100
AcDbLine
 10
75.850451
 20
18.772655
 30
0.0
 11
75.905663
 21
18.739925
 31
0.0
  0
LINE
  5
432
100
AcDbEntity
  8
0
390
0
  6
Continuous
 62
     7
100
AcDbLine
 10
75.786326
 20
18.802595
 30
0.0
 11
75.850451
 21
18.772655
 31
0.0
  0
LINE
  5
433
100
AcDbEntity
  8
0
390
0
  6
Continuous
 62
     7
100
AcDbLine
 10
75.720709
 20
18.826497
 30
0.0
 11
75.786326
 21
18.802595
 31
0.0
  0
LINE
  5
434
100
AcDbEntity
  8
0
390
0
  6
Continuous
 62
     7
100
AcDbLine
 10
75.653209
 20
18.844548
 30
0.0
 11
75.720709
 21
18.826497
 31
0.0
  0
LINE
  5
435
100
AcDbEntity
  8
0
390
0
  6
Continuous
 62
     7
100
AcDbLine
 10
75.584024
 20
18.856714
 30
0.0
 11
75.653209
 21
18.844548
 31
0.0
  0
LINE
  5
436
100
AcDbEntity
  8
0
390
0
  6
Continuous
 62
     7
100
AcDbLine
 10
75.513343
 20
18.863019
 30
0.0
 11
75.584024
 21
18.856714
 31
0.0
  0
LINE
  5
437
100
AcDbEntity
  8
0
390
0
  6
Continuous
 62
     7
100
AcDbLine
 10
75.441327
 20
18.863529
 30
0.0
 11
75.513343
 21
18.863019
 31
0.0
  0
LINE
  5
438
100
AcDbEntity
  8
0
390
0
  6
Continuous
 62
     7
100
AcDbLine
 10
75.368099
 20
18.858335
 30
0.0
 11
75.441327
 21
18.863529
 31
0.0
  0
LINE
  5
439
100
AcDbEntity
  8
0
390
0
  6
Continuous
 62
     7
100
AcDbLine
 10
75.29374
 20
18.847548
 30
0.0
 11
75.368099
 21
18.858335
 31
0.0
  0
LINE
  5
43A
100
AcDbEntity
  8
0
390
0
  6
Continuous
 62
     7
100
AcDbLine
 10
75.21829
 20
18.831279
 30
0.0
 11
75.29374
 21
18.847548
 31
0.0
  0
LINE
  5
43B
100
AcDbEntity
  8
0
390
0
  6
Continuous
 62
     7
100
AcDbLine
 10
75.14174
 20
18.809628
 30
0.0
 11
75.21829
 21
18.831279
 31
0.0
  0
LINE
  5
43C
100
AcDbEntity
  8
0
390
0
  6
Continuous
 62
     7
100
AcDbLine
 10
75.069627
 20
18.784578
 30
0.0
 11
75.14174
 21
18.809628
 31
0.0
  0
LINE
  5
43D
100
AcDbEntity
  8
0
390
0
  6
Continuous
 62
     7
100
AcDbLine
 10
75.001474
 20
18.756094
 30
0.0
 11
75.069627
 21
18.784578
 31
0.0
  0
LINE
  5
43E
100
AcDbEntity
  8
0
390
0
  6
Continuous
 62
     7
100
AcDbLine
 10
74.937232
 20
18.724052
 30
0.0
 11
75.001474
 21
18.756094
 31
0.0
  0
LINE
  5
43F
100
AcDbEntity
  8
0
390
0
  6
Continuous
 62
     7
100
AcDbLine
 10
74.876988
 20
18.688374
 30
0.0
 11
74.937232
 21
18.724052
 31
0.0
  0
LINE
  5
440
100
AcDbEntity
  8
0
390
0
  6
Continuous
 62
     7
100
AcDbLine
 10
74.820863
 20
18.649005
 30
0.0
 11
74.876988
 21
18.688374
 31
0.0
  0
LINE
  5
441
100
AcDbEntity
  8
0
390
0
  6
Continuous
 62
     7
100
AcDbLine
 10
74.769009
 20
18.60592
 30
0.0
 11
74.820863
 21
18.649005
 31
0.0
  0
LINE
  5
442
100
AcDbEntity
  8
0
390
0
  6
Continuous
 62
     7
100
AcDbLine
 10
74.7216
 20
18.559139
 30
0.0
 11
74.769009
 21
18.60592
 31
0.0
  0
LINE
  5
443
100
AcDbEntity
  8
0
390
0
  6
Continuous
 62
     7
100
AcDbLine
 10
74.678815
 20
18.508739
 30
0.0
 11
74.7216
 21
18.559139
 31
0.0
  0
LINE
  5
444
100
AcDbEntity
  8
0
390
0
  6
Continuous
 62
     7
100
AcDbLine
 10
74.640817
 20
18.454855
 30
0.0
 11
74.678815
 21
18.508739
 31
0.0
  0
LINE
  5
445
100
AcDbEntity
  8
0
390
0
  6
Continuous
 62
     7
100
AcDbLine
 10
74.607501
 20
18.397259
 30
0.0
 11
74.640817
 21
18.454855
 31
0.0
  0
LINE
  5
446
100
AcDbEntity
  8
0
390
0
  6
Continuous
 62
     7
100
AcDbLine
 10
74.575754
 20
18.327463
 30
0.0
 11
74.607501
 21
18.397259
 31
0.0
  0
LINE
  5
447
100
AcDbEntity
  8
0
390
0
  6
Continuous
 62
     7
100
AcDbLine
 10
74.551021
 20
18.253537
 30
0.0
 11
74.575754
 21
18.327463
 31
0.0
  0
LINE
  5
448
100
AcDbEntity
  8
0
390
0
  6
Continuous
 62
     7
100
AcDbLine
 10
74.533447
 20
18.176207
 30
0.0
 11
74.551021
 21
18.253537
 31
0.0
  0
LINE
  5
449
100
AcDbEntity
  8
0
390
0
  6
Continuous
 62
     7
100
AcDbLine
 10
74.522911
 20
18.095712
 30
0.0
 11
74.533447
 21
18.176207
 31
0.0
  0
LINE
  5
44A
100
AcDbEntity
  8
0
390
0
  6
Continuous
 62
     7
100
AcDbLine
 10
74.519245
 20
18.012217
 30
0.0
 11
74.522911
 21
18.095712
 31
0.0
  0
LINE
  5
44B
100
AcDbEntity
  8
0
390
0
  6
Continuous
 62
     7
100
AcDbLine
 10
74.522272
 20
17.925799
 30
0.0
 11
74.519245
 21
18.012217
 31
0.0
  0
LINE
  5
44C
100
AcDbEntity
  8
0
390
0
  6
Continuous
 62
     7
100
AcDbLine
 10
74.531826
 20
17.836478
 30
0.0
 11
74.522272
 21
17.925799
 31
0.0
  0
LINE
  5
44D
100
AcDbEntity
  8
0
390
0
  6
Continuous
 62
     7
100
AcDbLine
 10
74.547767
 20
17.744225
 30
0.0
 11
74.531826
 21
17.836478
 31
0.0
  0
LINE
  5
44E
100
AcDbEntity
  8
0
390
0
  6
Continuous
 62
     7
100
AcDbLine
 10
74.569983
 20
17.648989
 30
0.0
 11
74.547767
 21
17.744225
 31
0.0
  0
LINE
  5
44F
100
AcDbEntity
  8
0
390
0
  6
Continuous
 62
     7
100
AcDbLine
 10
74.598072
 20
17.551804
 30
0.0
 11
74.569983
 21
17.648989
 31
0.0
  0
LINE
  5
450
100
AcDbEntity
  8
0
390
0
  6
Continuous
 62
     7
100
AcDbLine
 10
75.152002
 20
15.794926
 30
0.0
 11
74.598072
 21
17.551804
 31
0.0
  0
LINE
  5
451
100
AcDbEntity
  8
0
390
0
  6
Continuous
 62
     7
100
AcDbLine
 10
75.158302
 20
15.771015
 30
0.0
 11
75.152002
 21
15.794926
 31
0.0
  0
LINE
  5
452
100
AcDbEntity
  8
0
390
0
  6
Continuous
 62
     7
100
AcDbLine
 10
75.160817
 20
15.753951
 30
0.0
 11
75.158302
 21
15.771015
 31
0.0
  0
LINE
  5
453
100
AcDbEntity
  8
0
390
0
  6
Continuous
 62
     7
100
AcDbLine
 10
75.160952
 20
15.741852
 30
0.0
 11
75.160817
 21
15.753951
 31
0.0
  0
LINE
  5
454
100
AcDbEntity
  8
0
390
0
  6
Continuous
 62
     7
100
AcDbLine
 10
75.159823
 20
15.734372
 30
0.0
 11
75.160952
 21
15.741852
 31
0.0
  0
LINE
  5
455
100
AcDbEntity
  8
0
390
0
  6
Continuous
 62
     7
100
AcDbLine
 10
75.158393
 20
15.730252
 30
0.0
 11
75.159823
 21
15.734372
 31
0.0
  0
LINE
  5
456
100
AcDbEntity
  8
0
390
0
  6
Continuous
 62
     7
100
AcDbLine
 10
75.156754
 20
15.727471
 30
0.0
 11
75.158393
 21
15.730252
 31
0.0
  0
LINE
  5
457
100
AcDbEntity
  8
0
390
0
  6
Continuous
 62
     7
100
AcDbLine
 10
75.153766
 20
15.724138
 30
0.0
 11
75.156754
 21
15.727471
 31
0.0
  0
LINE
  5
458
100
AcDbEntity
  8
0
390
0
  6
Continuous
 62
     7
100
AcDbLine
 10
75.147617
 20
15.719396
 30
0.0
 11
75.153766
 21
15.724138
 31
0.0
  0
LINE
  5
459
100
AcDbEntity
  8
0
390
0
  6
Continuous
 62
     7
100
AcDbLine
 10
75.136766
 20
15.713508
 30
0.0
 11
75.147617
 21
15.719396
 31
0.0
  0
LINE
  5
45A
100
AcDbEntity
  8
0
390
0
  6
Continuous
 62
     7
100
AcDbLine
 10
75.120656
 20
15.707384
 30
0.0
 11
75.136766
 21
15.713508
 31
0.0
  0
LINE
  5
45B
100
AcDbEntity
  8
0
390
0
  6
Continuous
 62
     7
100
AcDbLine
 10
75.103948
 20
15.70316
 30
0.0
 11
75.120656
 21
15.707384
 31
0.0
  0
LINE
  5
45C
100
AcDbEntity
  8
0
390
0
  6
Continuous
 62
     7
100
AcDbLine
 10
75.091685
 20
15.70176
 30
0.0
 11
75.103948
 21
15.70316
 31
0.0
  0
LINE
  5
45D
100
AcDbEntity
  8
0
390
0
  6
Continuous
 62
     7
100
AcDbLine
 10
75.08393
 20
15.702118
 30
0.0
 11
75.091685
 21
15.70176
 31
0.0
  0
LINE
  5
45E
100
AcDbEntity
  8
0
390
0
  6
Continuous
 62
     7
100
AcDbLine
 10
75.079571
 20
15.703135
 30
0.0
 11
75.08393
 21
15.702118
 31
0.0
  0
LINE
  5
45F
100
AcDbEntity
  8
0
390
0
  6
Continuous
 62
     7
100
AcDbLine
 10
75.076635
 20
15.704473
 30
0.0
 11
75.079571
 21
15.703135
 31
0.0
  0
LINE
  5
460
100
AcDbEntity
  8
0
390
0
  6
Continuous
 62
     7
100
AcDbLine
 10
75.073101
 20
15.707027
 30
0.0
 11
75.076635
 21
15.704473
 31
0.0
  0
LINE
  5
461
100
AcDbEntity
  8
0
390
0
  6
Continuous
 62
     7
100
AcDbLine
 10
75.067887
 20
15.712507
 30
0.0
 11
75.073101
 21
15.707027
 31
0.0
  0
LINE
  5
462
100
AcDbEntity
  8
0
390
0
  6
Continuous
 62
     7
100
AcDbLine
 10
75.061059
 20
15.722495
 30
0.0
 11
75.067887
 21
15.712507
 31
0.0
  0
LINE
  5
463
100
AcDbEntity
  8
0
390
0
  6
Continuous
 62
     7
100
AcDbLine
 10
75.053332
 20
15.737917
 30
0.0
 11
75.061059
 21
15.722495
 31
0.0
  0
LINE
  5
464
100
AcDbEntity
  8
0
390
0
  6
Continuous
 62
     7
100
AcDbLine
 10
75.044778
 20
15.761119
 30
0.0
 11
75.053332
 21
15.737917
 31
0.0
  0
LINE
  5
465
100
AcDbEntity
  8
0
390
0
  6
Continuous
 62
     7
100
AcDbLine
 10
74.486936
 20
17.530398
 30
0.0
 11
75.044778
 21
15.761119
 31
0.0
  0
LINE
  5
466
100
AcDbEntity
  8
0
390
0
  6
Continuous
 62
     7
100
AcDbLine
 10
74.458064
 20
17.631939
 30
0.0
 11
74.486936
 21
17.530398
 31
0.0
  0
LINE
  5
467
100
AcDbEntity
  8
0
390
0
  6
Continuous
 62
     7
100
AcDbLine
 10
74.436796
 20
17.728691
 30
0.0
 11
74.458064
 21
17.631939
 31
0.0
  0
LINE
  5
468
100
AcDbEntity
  8
0
390
0
  6
Continuous
 62
     7
100
AcDbLine
 10
74.422661
 20
17.821949
 30
0.0
 11
74.436796
 21
17.728691
 31
0.0
  0
LINE
  5
469
100
AcDbEntity
  8
0
390
0
  6
Continuous
 62
     7
100
AcDbLine
 10
74.415543
 20
17.911732
 30
0.0
 11
74.422661
 21
17.821949
 31
0.0
  0
LINE
  5
46A
100
AcDbEntity
  8
0
390
0
  6
Continuous
 62
     7
100
AcDbLine
 10
74.415324
 20
17.998099
 30
0.0
 11
74.415543
 21
17.911732
 31
0.0
  0
LINE
  5
46B
100
AcDbEntity
  8
0
390
0
  6
Continuous
 62
     7
100
AcDbLine
 10
74.421889
 20
18.081152
 30
0.0
 11
74.415324
 21
17.998099
 31
0.0
  0
LINE
  5
46C
100
AcDbEntity
  8
0
390
0
  6
Continuous
 62
     7
100
AcDbLine
 10
74.435147
 20
18.161041
 30
0.0
 11
74.421889
 21
18.081152
 31
0.0
  0
LINE
  5
46D
100
AcDbEntity
  8
0
390
0
  6
Continuous
 62
     7
100
AcDbLine
 10
74.455048
 20
18.23796
 30
0.0
 11
74.435147
 21
18.161041
 31
0.0
  0
LINE
  5
46E
100
AcDbEntity
  8
0
390
0
  6
Continuous
 62
     7
100
AcDbLine
 10
74.481597
 20
18.31212
 30
0.0
 11
74.455048
 21
18.23796
 31
0.0
  0
LINE
  5
46F
100
AcDbEntity
  8
0
390
0
  6
Continuous
 62
     7
100
AcDbLine
 10
74.514879
 20
18.383784
 30
0.0
 11
74.481597
 21
18.31212
 31
0.0
  0
LINE
  5
470
100
AcDbEntity
  8
0
390
0
  6
Continuous
 62
     7
100
AcDbLine
 10
74.552186
 20
18.448393
 30
0.0
 11
74.514879
 21
18.383784
 31
0.0
  0
LINE
  5
471
100
AcDbEntity
  8
0
390
0
  6
Continuous
 62
     7
100
AcDbLine
 10
74.594792
 20
18.509084
 30
0.0
 11
74.552186
 21
18.448393
 31
0.0
  0
LINE
  5
472
100
AcDbEntity
  8
0
390
0
  6
Continuous
 62
     7
100
AcDbLine
 10
74.642758
 20
18.565938
 30
0.0
 11
74.594792
 21
18.509084
 31
0.0
  0
LINE
  5
473
100
AcDbEntity
  8
0
390
0
  6
Continuous
 62
     7
100
AcDbLine
 10
74.696236
 20
18.619094
 30
0.0
 11
74.642758
 21
18.565938
 31
0.0
  0
LINE
  5
474
100
AcDbEntity
  8
0
390
0
  6
Continuous
 62
     7
100
AcDbLine
 10
74.755397
 20
18.668635
 30
0.0
 11
74.696236
 21
18.619094
 31
0.0
  0
LINE
  5
475
100
AcDbEntity
  8
0
390
0
  6
Continuous
 62
     7
100
AcDbLine
 10
74.820414
 20
18.714595
 30
0.0
 11
74.755397
 21
18.668635
 31
0.0
  0
LINE
  5
476
100
AcDbEntity
  8
0
390
0
  6
Continuous
 62
     7
100
AcDbLine
 10
74.89144
 20
18.756958
 30
0.0
 11
74.820414
 21
18.714595
 31
0.0
  0
LINE
  5
477
100
AcDbEntity
  8
0
390
0
  6
Continuous
 62
     7
100
AcDbLine
 10
74.968601
 20
18.795675
 30
0.0
 11
74.89144
 21
18.756958
 31
0.0
  0
LINE
  5
478
100
AcDbEntity
  8
0
390
0
  6
Continuous
 62
     7
100
AcDbLine
 10
75.05199
 20
18.830676
 30
0.0
 11
74.968601
 21
18.795675
 31
0.0
  0
LINE
  5
479
100
AcDbEntity
  8
0
390
0
  6
Continuous
 62
     7
100
AcDbLine
 10
75.141537
 20
18.861832
 30
0.0
 11
75.05199
 21
18.830676
 31
0.0
  0
LINE
  5
47A
100
AcDbEntity
  8
0
390
0
  6
Continuous
 62
     7
100
AcDbLine
 10
75.232817
 20
18.887539
 30
0.0
 11
75.141537
 21
18.861832
 31
0.0
  0
LINE
  5
47B
100
AcDbEntity
  8
0
390
0
  6
Continuous
 62
     7
100
AcDbLine
 10
75.321519
 20
18.906363
 30
0.0
 11
75.232817
 21
18.887539
 31
0.0
  0
LINE
  5
47C
100
AcDbEntity
  8
0
390
0
  6
Continuous
 62
     7
100
AcDbLine
 10
75.407683
 20
18.91841
 30
0.0
 11
75.321519
 21
18.906363
 31
0.0
  0
LINE
  5
47D
100
AcDbEntity
  8
0
390
0
  6
Continuous
 62
     7
100
AcDbLine
 10
75.491364
 20
18.923788
 30
0.0
 11
75.407683
 21
18.91841
 31
0.0
  0
LINE
  5
47E
100
AcDbEntity
  8
0
390
0
  6
Continuous
 62
     7
100
AcDbLine
 10
75.572661
 20
18.922595
 30
0.0
 11
75.491364
 21
18.923788
 31
0.0
  0
LINE
  5
47F
100
AcDbEntity
  8
0
390
0
  6
Continuous
 62
     7
100
AcDbLine
 10
75.651709
 20
18.914912
 30
0.0
 11
75.572661
 21
18.922595
 31
0.0
  0
LINE
  5
480
100
AcDbEntity
  8
0
390
0
  6
Continuous
 62
     7
100
AcDbLine
 10
75.728676
 20
18.900782
 30
0.0
 11
75.651709
 21
18.914912
 31
0.0
  0
LINE
  5
481
100
AcDbEntity
  8
0
390
0
  6
Continuous
 62
     7
100
AcDbLine
 10
75.803746
 20
18.880205
 30
0.0
 11
75.728676
 21
18.900782
 31
0.0
  0
LINE
  5
482
100
AcDbEntity
  8
0
390
0
  6
Continuous
 62
     7
100
AcDbLine
 10
75.877102
 20
18.853132
 30
0.0
 11
75.803746
 21
18.880205
 31
0.0
  0
LINE
  5
483
100
AcDbEntity
  8
0
390
0
  6
Continuous
 62
     7
100
AcDbLine
 10
75.948452
 20
18.819683
 30
0.0
 11
75.877102
 21
18.853132
 31
0.0
  0
LINE
  5
484
100
AcDbEntity
  8
0
390
0
  6
Continuous
 62
     7
100
AcDbLine
 10
75.998392
 20
18.790367
 30
0.0
 11
75.948452
 21
18.819683
 31
0.0
  0
LINE
  5
485
100
AcDbEntity
  8
0
390
0
  6
Continuous
 62
     7
100
AcDbLine
 10
76.047587
 20
18.754707
 30
0.0
 11
75.998392
 21
18.790367
 31
0.0
  0
LINE
  5
486
100
AcDbEntity
  8
0
390
0
  6
Continuous
 62
     7
100
AcDbLine
 10
76.096495
 20
18.712173
 30
0.0
 11
76.047587
 21
18.754707
 31
0.0
  0
LINE
  5
487
100
AcDbEntity
  8
0
390
0
  6
Continuous
 62
     7
100
AcDbLine
 10
76.145034
 20
18.662566
 30
0.0
 11
76.096495
 21
18.712173
 31
0.0
  0
LINE
  5
488
100
AcDbEntity
  8
0
390
0
  6
Continuous
 62
     7
100
AcDbLine
 10
76.193084
 20
18.60575
 30
0.0
 11
76.145034
 21
18.662566
 31
0.0
  0
LINE
  5
489
100
AcDbEntity
  8
0
390
0
  6
Continuous
 62
     7
100
AcDbLine
 10
76.240513
 20
18.541641
 30
0.0
 11
76.193084
 21
18.60575
 31
0.0
  0
LINE
  5
48A
100
AcDbEntity
  8
0
390
0
  6
Continuous
 62
     7
100
AcDbLine
 10
76.287193
 20
18.4702
 30
0.0
 11
76.240513
 21
18.541641
 31
0.0
  0
LINE
  5
48B
100
AcDbEntity
  8
0
390
0
  6
Continuous
 62
     7
100
AcDbLine
 10
76.333012
 20
18.391412
 30
0.0
 11
76.287193
 21
18.4702
 31
0.0
  0
LINE
  5
48C
100
AcDbEntity
  8
0
390
0
  6
Continuous
 62
     7
100
AcDbLine
 10
76.377871
 20
18.305287
 30
0.0
 11
76.333012
 21
18.391412
 31
0.0
  0
LINE
  5
48D
100
AcDbEntity
  8
0
390
0
  6
Continuous
 62
     7
100
AcDbLine
 10
76.418742
 20
18.218122
 30
0.0
 11
76.377871
 21
18.305287
 31
0.0
  0
LINE
  5
48E
100
AcDbEntity
  8
0
390
0
  6
Continuous
 62
     7
100
AcDbLine
 10
76.4237
 20
18.199676
 30
0.0
 11
76.418742
 21
18.218122
 31
0.0
  0
LINE
  5
48F
100
AcDbEntity
  8
0
390
0
  6
Continuous
 62
     7
100
AcDbLine
 10
76.426836
 20
18.180763
 30
0.0
 11
76.4237
 21
18.199676
 31
0.0
  0
LINE
  5
490
100
AcDbEntity
  8
0
390
0
  6
Continuous
 62
     7
100
AcDbLine
 10
76.427518
 20
18.166148
 30
0.0
 11
76.426836
 21
18.180763
 31
0.0
  0
LINE
  5
491
100
AcDbEntity
  8
0
390
0
  6
Continuous
 62
     7
100
AcDbLine
 10
76.426555
 20
18.155729
 30
0.0
 11
76.427518
 21
18.166148
 31
0.0
  0
LINE
  5
492
100
AcDbEntity
  8
0
390
0
  6
Continuous
 62
     7
100
AcDbLine
 10
76.424779
 20
18.148826
 30
0.0
 11
76.426555
 21
18.155729
 31
0.0
  0
LINE
  5
493
100
AcDbEntity
  8
0
390
0
  6
Continuous
 62
     7
100
AcDbLine
 10
76.422634
 20
18.144117
 30
0.0
 11
76.424779
 21
18.148826
 31
0.0
  0
LINE
  5
494
100
AcDbEntity
  8
0
390
0
  6
Continuous
 62
     7
100
AcDbLine
 10
76.419755
 20
18.139995
 30
0.0
 11
76.422634
 21
18.144117
 31
0.0
  0
LINE
  5
495
100
AcDbEntity
  8
0
390
0
  6
Continuous
 62
     7
100
AcDbLine
 10
76.414995
 20
18.135251
 30
0.0
 11
76.419755
 21
18.139995
 31
0.0
  0
LINE
  5
496
100
AcDbEntity
  8
0
390
0
  6
Continuous
 62
     7
100
AcDbLine
 10
76.406961
 20
18.129501
 30
0.0
 11
76.414995
 21
18.135251
 31
0.0
  0
LINE
  5
497
100
AcDbEntity
  8
0
390
0
  6
Continuous
 62
     7
100
AcDbLine
 10
76.39928
 20
18.125511
 30
0.0
 11
76.406961
 21
18.129501
 31
0.0
  0
LINE
  5
498
100
AcDbEntity
  8
0
390
0
  6
Continuous
 62
     7
100
AcDbLine
 10
76.387123
 20
18.122366
 30
0.0
 11
76.39928
 21
18.125511
 31
0.0
  0
LINE
  5
499
100
AcDbEntity
  8
0
390
0
  6
Continuous
 62
     7
100
AcDbLine
 10
76.372829
 20
18.120444
 30
0.0
 11
76.387123
 21
18.122366
 31
0.0
  0
LINE
  5
49A
100
AcDbEntity
  8
0
390
0
  6
Continuous
 62
     7
100
AcDbLine
 10
76.36245
 20
18.120511
 30
0.0
 11
76.372829
 21
18.120444
 31
0.0
  0
LINE
  5
49B
100
AcDbEntity
  8
0
390
0
  6
Continuous
 62
     7
100
AcDbLine
 10
76.355331
 20
18.121711
 30
0.0
 11
76.36245
 21
18.120511
 31
0.0
  0
LINE
  5
49C
100
AcDbEntity
  8
0
390
0
  6
Continuous
 62
     7
100
AcDbLine
 10
76.35017
 20
18.123549
 30
0.0
 11
76.355331
 21
18.121711
 31
0.0
  0
LINE
  5
49D
100
AcDbEntity
  8
0
390
0
  6
Continuous
 62
     7
100
AcDbLine
 10
76.34538
 20
18.126308
 30
0.0
 11
76.35017
 21
18.123549
 31
0.0
  0
LINE
  5
49E
100
AcDbEntity
  8
0
390
0
  6
Continuous
 62
     7
100
AcDbLine
 10
76.339736
 20
18.131034
 30
0.0
 11
76.34538
 21
18.126308
 31
0.0
  0
LINE
  5
49F
100
AcDbEntity
  8
0
390
0
  6
Continuous
 62
     7
100
AcDbLine
 10
76.332801
 20
18.13903
 30
0.0
 11
76.339736
 21
18.131034
 31
0.0
  0
LINE
  5
4A0
100
AcDbEntity
  8
0
390
0
  6
Continuous
 62
     7
100
AcDbLine
 10
76.324825
 20
18.151333
 30
0.0
 11
76.332801
 21
18.13903
 31
0.0
  0
LINE
  5
4A1
100
AcDbEntity
  8
0
390
0
  6
Continuous
 62
     7
100
AcDbLine
 10
76.31493
 20
18.171461
 30
0.0
 11
76.324825
 21
18.151333
 31
0.0
  0
LINE
  5
4A2
100
AcDbEntity
  8
0
390
0
  6
Continuous
 62
     7
100
AcDbLine
 10
76.277179
 20
18.255226
 30
0.0
 11
76.31493
 21
18.171461
 31
0.0
  0
LINE
  5
4A3
100
AcDbEntity
  8
0
390
0
  6
Continuous
 62
     7
100
AcDbLine
 10
81.460549
 20
-17.14812
 30
0.0
 11
81.455156
 21
-17.921311
 31
0.0
  0
POLYLINE
  5
4A4
100
AcDbEntity
  8
0
390
0
  6
Continuous
 62
     7
100
AcDb2dPolyline
 66
     1
 10
0.0
 20
0.0
 30
0.0
 40
0.1
 41
0.1
  0
VERTEX
  5
4A5
100
AcDbEntity
  8
0
390
0
 62
     7
100
AcDbVertex
100
AcDb2dVertex
 10
81.286901
 20
-17.07978
 30
0.0
  0
VERTEX
  5
4A6
100
AcDbEntity
  8
0
390
0
 62
     7
100
AcDbVertex
100
AcDb2dVertex
 10
81.386012
 20
-17.050719
 30
0.0
  0
VERTEX
  5
4A7
100
AcDbEntity
  8
0
390
0
 62
     7
100
AcDbVertex
100
AcDb2dVertex
 10
81.457947
 20
-17.12475
 30
0.0
  0
VERTEX
  5
4A8
100
AcDbEntity
  8
0
390
0
 62
     7
100
AcDbVertex
100
AcDb2dVertex
 10
81.460549
 20
-17.14812
 30
0.0
  0
SEQEND
  5
4A9
100
AcDbEntity
  8
0
390
0
  0
LINE
  5
4AA
100
AcDbEntity
  8
0
390
0
  6
Continuous
 62
     7
100
AcDbLine
 10
80.514006
 20
-17.921314
 30
0.0
 11
81.286901
 21
-17.07978
 31
0.0
  0
LINE
  5
4AB
100
AcDbEntity
  8
0
390
0
  6
Continuous
 62
     7
100
AcDbLine
 10
81.431141
 20
-16.814346
 30
0.0
 11
81.413846
 21
-16.833246
 31
0.0
  0
LINE
  5
4AC
100
AcDbEntity
  8
0
390
0
  6
Continuous
 62
     7
100
AcDbLine
 10
81.446222
 20
-16.799598
 30
0.0
 11
81.431141
 21
-16.814346
 31
0.0
  0
LINE
  5
4AD
100
AcDbEntity
  8
0
390
0
  6
Continuous
 62
     7
100
AcDbLine
 10
81.46057
 20
-16.78722
 30
0.0
 11
81.446222
 21
-16.799598
 31
0.0
  0
LINE
  5
4AE
100
AcDbEntity
  8
0
390
0
  6
Continuous
 62
     7
100
AcDbLine
 10
81.474066
 20
-16.777133
 30
0.0
 11
81.46057
 21
-16.78722
 31
0.0
  0
LINE
  5
4AF
100
AcDbEntity
  8
0
390
0
  6
Continuous
 62
     7
100
AcDbLine
 10
81.486602
 20
-16.769211
 30
0.0
 11
81.474066
 21
-16.777133
 31
0.0
  0
LINE
  5
4B0
100
AcDbEntity
  8
0
390
0
  6
Continuous
 62
     7
100
AcDbLine
 10
81.498102
 20
-16.763277
 30
0.0
 11
81.486602
 21
-16.769211
 31
0.0
  0
LINE
  5
4B1
100
AcDbEntity
  8
0
390
0
  6
Continuous
 62
     7
100
AcDbLine
 10
81.508554
 20
-16.759092
 30
0.0
 11
81.498102
 21
-16.763277
 31
0.0
  0
LINE
  5
4B2
100
AcDbEntity
  8
0
390
0
  6
Continuous
 62
     7
100
AcDbLine
 10
81.518049
 20
-16.756396
 30
0.0
 11
81.508554
 21
-16.759092
 31
0.0
  0
LINE
  5
4B3
100
AcDbEntity
  8
0
390
0
  6
Continuous
 62
     7
100
AcDbLine
 10
81.5268
 20
-16.754927
 30
0.0
 11
81.518049
 21
-16.756396
 31
0.0
  0
LINE
  5
4B4
100
AcDbEntity
  8
0
390
0
  6
Continuous
 62
     7
100
AcDbLine
 10
81.53513
 20
-16.754498
 30
0.0
 11
81.5268
 21
-16.754927
 31
0.0
  0
LINE
  5
4B5
100
AcDbEntity
  8
0
390
0
  6
Continuous
 62
     7
100
AcDbLine
 10
81.550505
 20
-16.755506
 30
0.0
 11
81.53513
 21
-16.754498
 31
0.0
  0
LINE
  5
4B6
100
AcDbEntity
  8
0
390
0
  6
Continuous
 62
     7
100
AcDbLine
 10
81.561285
 20
-16.757698
 30
0.0
 11
81.550505
 21
-16.755506
 31
0.0
  0
LINE
  5
4B7
100
AcDbEntity
  8
0
390
0
  6
Continuous
 62
     7
100
AcDbLine
 10
81.567741
 20
-16.760139
 30
0.0
 11
81.561285
 21
-16.757698
 31
0.0
  0
LINE
  5
4B8
100
AcDbEntity
  8
0
390
0
  6
Continuous
 62
     7
100
AcDbLine
 10
81.571165
 20
-16.762221
 30
0.0
 11
81.567741
 21
-16.760139
 31
0.0
  0
LINE
  5
4B9
100
AcDbEntity
  8
0
390
0
  6
Continuous
 62
     7
100
AcDbLine
 10
81.573358
 20
-16.764243
 30
0.0
 11
81.571165
 21
-16.762221
 31
0.0
  0
LINE
  5
4BA
100
AcDbEntity
  8
0
390
0
  6
Continuous
 62
     7
100
AcDbLine
 10
81.575773
 20
-16.767569
 30
0.0
 11
81.573358
 21
-16.764243
 31
0.0
  0
LINE
  5
4BB
100
AcDbEntity
  8
0
390
0
  6
Continuous
 62
     7
100
AcDbLine
 10
81.578817
 20
-16.773966
 30
0.0
 11
81.575773
 21
-16.767569
 31
0.0
  0
LINE
  5
4BC
100
AcDbEntity
  8
0
390
0
  6
Continuous
 62
     7
100
AcDbLine
 10
81.581967
 20
-16.784737
 30
0.0
 11
81.578817
 21
-16.773966
 31
0.0
  0
LINE
  5
4BD
100
AcDbEntity
  8
0
390
0
  6
Continuous
 62
     7
100
AcDbLine
 10
81.58435
 20
-16.800448
 30
0.0
 11
81.581967
 21
-16.784737
 31
0.0
  0
LINE
  5
4BE
100
AcDbEntity
  8
0
390
0
  6
Continuous
 62
     7
100
AcDbLine
 10
81.585263
 20
-16.823051
 30
0.0
 11
81.58435
 21
-16.800448
 31
0.0
  0
LINE
  5
4BF
100
AcDbEntity
  8
0
390
0
  6
Continuous
 62
     7
100
AcDbLine
 10
81.577603
 20
-17.921319
 30
0.0
 11
81.585263
 21
-16.823051
 31
0.0
  0
LINE
  5
4C0
100
AcDbEntity
  8
0
390
0
  6
Continuous
 62
     7
100
AcDbLine
 10
81.413846
 20
-16.833246
 30
0.0
 11
80.412282
 21
-17.921319
 31
0.0
  0
LINE
  5
4C1
100
AcDbEntity
  8
0
390
0
  6
Continuous
 62
     7
100
AcDbLine
 10
83.367158
 20
16.722974
 30
0.0
 11
82.591014
 21
17.870261
 31
0.0
  0
LINE
  5
4C2
100
AcDbEntity
  8
0
390
0
  6
Continuous
 62
     7
100
AcDbLine
 10
82.591014
 20
17.870261
 30
0.0
 11
82.556472
 21
17.921321
 31
0.0
  0
LINE
  5
4C3
100
AcDbEntity
  8
0
390
0
  6
Continuous
 62
     7
100
AcDbLine
 10
83.377117
 20
16.703884
 30
0.0
 11
83.367158
 21
16.722974
 31
0.0
  0
LINE
  5
4C4
100
AcDbEntity
  8
0
390
0
  6
Continuous
 62
     7
100
AcDbLine
 10
83.38395
 20
16.686751
 30
0.0
 11
83.377117
 21
16.703884
 31
0.0
  0
LINE
  5
4C5
100
AcDbEntity
  8
0
390
0
  6
Continuous
 62
     7
100
AcDbLine
 10
83.387548
 20
16.67317
 30
0.0
 11
83.38395
 21
16.686751
 31
0.0
  0
LINE
  5
4C6
100
AcDbEntity
  8
0
390
0
  6
Continuous
 62
     7
100
AcDbLine
 10
83.388733
 20
16.663129
 30
0.0
 11
83.387548
 21
16.67317
 31
0.0
  0
LINE
  5
4C7
100
AcDbEntity
  8
0
390
0
  6
Continuous
 62
     7
100
AcDbLine
 10
83.388427
 20
16.656051
 30
0.0
 11
83.388733
 21
16.663129
 31
0.0
  0
LINE
  5
4C8
100
AcDbEntity
  8
0
390
0
  6
Continuous
 62
     7
100
AcDbLine
 10
83.387239
 20
16.650689
 30
0.0
 11
83.388427
 21
16.656051
 31
0.0
  0
LINE
  5
4C9
100
AcDbEntity
  8
0
390
0
  6
Continuous
 62
     7
100
AcDbLine
 10
83.385043
 20
16.645456
 30
0.0
 11
83.387239
 21
16.650689
 31
0.0
  0
LINE
  5
4CA
100
AcDbEntity
  8
0
390
0
  6
Continuous
 62
     7
100
AcDbLine
 10
83.380945
 20
16.639061
 30
0.0
 11
83.385043
 21
16.645456
 31
0.0
  0
LINE
  5
4CB
100
AcDbEntity
  8
0
390
0
  6
Continuous
 62
     7
100
AcDbLine
 10
83.373734
 20
16.630955
 30
0.0
 11
83.380945
 21
16.639061
 31
0.0
  0
LINE
  5
4CC
100
AcDbEntity
  8
0
390
0
  6
Continuous
 62
     7
100
AcDbLine
 10
83.365904
 20
16.62427
 30
0.0
 11
83.373734
 21
16.630955
 31
0.0
  0
LINE
  5
4CD
100
AcDbEntity
  8
0
390
0
  6
Continuous
 62
     7
100
AcDbLine
 10
83.358219
 20
16.620089
 30
0.0
 11
83.365904
 21
16.62427
 31
0.0
  0
LINE
  5
4CE
100
AcDbEntity
  8
0
390
0
  6
Continuous
 62
     7
100
AcDbLine
 10
83.348995
 20
16.616554
 30
0.0
 11
83.358219
 21
16.620089
 31
0.0
  0
LINE
  5
4CF
100
AcDbEntity
  8
0
390
0
  6
Continuous
 62
     7
100
AcDbLine
 10
83.342195
 20
16.615066
 30
0.0
 11
83.348995
 21
16.616554
 31
0.0
  0
LINE
  5
4D0
100
AcDbEntity
  8
0
390
0
  6
Continuous
 62
     7
100
AcDbLine
 10
83.337
 20
16.614801
 30
0.0
 11
83.342195
 21
16.615066
 31
0.0
  0
LINE
  5
4D1
100
AcDbEntity
  8
0
390
0
  6
Continuous
 62
     7
100
AcDbLine
 10
83.332097
 20
16.615392
 30
0.0
 11
83.337
 21
16.614801
 31
0.0
  0
LINE
  5
4D2
100
AcDbEntity
  8
0
390
0
  6
Continuous
 62
     7
100
AcDbLine
 10
83.326128
 20
16.617157
 30
0.0
 11
83.332097
 21
16.615392
 31
0.0
  0
LINE
  5
4D3
100
AcDbEntity
  8
0
390
0
  6
Continuous
 62
     7
100
AcDbLine
 10
83.318176
 20
16.620935
 30
0.0
 11
83.326128
 21
16.617157
 31
0.0
  0
LINE
  5
4D4
100
AcDbEntity
  8
0
390
0
  6
Continuous
 62
     7
100
AcDbLine
 10
83.307944
 20
16.627667
 30
0.0
 11
83.318176
 21
16.620935
 31
0.0
  0
LINE
  5
4D5
100
AcDbEntity
  8
0
390
0
  6
Continuous
 62
     7
100
AcDbLine
 10
83.295607
 20
16.638096
 30
0.0
 11
83.307944
 21
16.627667
 31
0.0
  0
LINE
  5
4D6
100
AcDbEntity
  8
0
390
0
  6
Continuous
 62
     7
100
AcDbLine
 10
83.285011
 20
16.649083
 30
0.0
 11
83.295607
 21
16.638096
 31
0.0
  0
LINE
  5
4D7
100
AcDbEntity
  8
0
390
0
  6
Continuous
 62
     7
100
AcDbLine
 10
82.447258
 20
17.921319
 30
0.0
 11
83.285011
 21
16.649083
 31
0.0
  0
LINE
  5
4D8
100
AcDbEntity
  8
0
390
0
  6
Continuous
 62
     7
100
AcDbLine
 10
80.860657
 20
16.801604
 30
0.0
 11
81.819151
 21
17.921317
 31
0.0
  0
LINE
  5
4D9
100
AcDbEntity
  8
0
390
0
  6
Continuous
 62
     7
100
AcDbLine
 10
80.848767
 20
16.792032
 30
0.0
 11
80.860657
 21
16.801604
 31
0.0
  0
LINE
  5
4DA
100
AcDbEntity
  8
0
390
0
  6
Continuous
 62
     7
100
AcDbLine
 10
80.835218
 20
16.783231
 30
0.0
 11
80.848767
 21
16.792032
 31
0.0
  0
LINE
  5
4DB
100
AcDbEntity
  8
0
390
0
  6
Continuous
 62
     7
100
AcDbLine
 10
80.824222
 20
16.777833
 30
0.0
 11
80.835218
 21
16.783231
 31
0.0
  0
LINE
  5
4DC
100
AcDbEntity
  8
0
390
0
  6
Continuous
 62
     7
100
AcDbLine
 10
80.815858
 20
16.775082
 30
0.0
 11
80.824222
 21
16.777833
 31
0.0
  0
LINE
  5
4DD
100
AcDbEntity
  8
0
390
0
  6
Continuous
 62
     7
100
AcDbLine
 10
80.809713
 20
16.774079
 30
0.0
 11
80.815858
 21
16.775082
 31
0.0
  0
LINE
  5
4DE
100
AcDbEntity
  8
0
390
0
  6
Continuous
 62
     7
100
AcDbLine
 10
80.804774
 20
16.774107
 30
0.0
 11
80.809713
 21
16.774079
 31
0.0
  0
LINE
  5
4DF
100
AcDbEntity
  8
0
390
0
  6
Continuous
 62
     7
100
AcDbLine
 10
80.799654
 20
16.77502
 30
0.0
 11
80.804774
 21
16.774107
 31
0.0
  0
LINE
  5
4E0
100
AcDbEntity
  8
0
390
0
  6
Continuous
 62
     7
100
AcDbLine
 10
80.793094
 20
16.777349
 30
0.0
 11
80.799654
 21
16.77502
 31
0.0
  0
LINE
  5
4E1
100
AcDbEntity
  8
0
390
0
  6
Continuous
 62
     7
100
AcDbLine
 10
80.784388
 20
16.78201
 30
0.0
 11
80.793094
 21
16.777349
 31
0.0
  0
LINE
  5
4E2
100
AcDbEntity
  8
0
390
0
  6
Continuous
 62
     7
100
AcDbLine
 10
80.777288
 20
16.787122
 30
0.0
 11
80.784388
 21
16.78201
 31
0.0
  0
LINE
  5
4E3
100
AcDbEntity
  8
0
390
0
  6
Continuous
 62
     7
100
AcDbLine
 10
80.770355
 20
16.794737
 30
0.0
 11
80.777288
 21
16.787122
 31
0.0
  0
LINE
  5
4E4
100
AcDbEntity
  8
0
390
0
  6
Continuous
 62
     7
100
AcDbLine
 10
80.764215
 20
16.803683
 30
0.0
 11
80.770355
 21
16.794737
 31
0.0
  0
LINE
  5
4E5
100
AcDbEntity
  8
0
390
0
  6
Continuous
 62
     7
100
AcDbLine
 10
80.760951
 20
16.810542
 30
0.0
 11
80.764215
 21
16.803683
 31
0.0
  0
LINE
  5
4E6
100
AcDbEntity
  8
0
390
0
  6
Continuous
 62
     7
100
AcDbLine
 10
80.759428
 20
16.81601
 30
0.0
 11
80.760951
 21
16.810542
 31
0.0
  0
LINE
  5
4E7
100
AcDbEntity
  8
0
390
0
  6
Continuous
 62
     7
100
AcDbLine
 10
80.758921
 20
16.821478
 30
0.0
 11
80.759428
 21
16.81601
 31
0.0
  0
LINE
  5
4E8
100
AcDbEntity
  8
0
390
0
  6
Continuous
 62
     7
100
AcDbLine
 10
80.759505
 20
16.828534
 30
0.0
 11
80.758921
 21
16.821478
 31
0.0
  0
LINE
  5
4E9
100
AcDbEntity
  8
0
390
0
  6
Continuous
 62
     7
100
AcDbLine
 10
80.761939
 20
16.838345
 30
0.0
 11
80.759505
 21
16.828534
 31
0.0
  0
LINE
  5
4EA
100
AcDbEntity
  8
0
390
0
  6
Continuous
 62
     7
100
AcDbLine
 10
80.767211
 20
16.851367
 30
0.0
 11
80.761939
 21
16.838345
 31
0.0
  0
LINE
  5
4EB
100
AcDbEntity
  8
0
390
0
  6
Continuous
 62
     7
100
AcDbLine
 10
80.776138
 20
16.867506
 30
0.0
 11
80.767211
 21
16.851367
 31
0.0
  0
LINE
  5
4EC
100
AcDbEntity
  8
0
390
0
  6
Continuous
 62
     7
100
AcDbLine
 10
80.788416
 20
16.8852
 30
0.0
 11
80.776138
 21
16.867506
 31
0.0
  0
LINE
  5
4ED
100
AcDbEntity
  8
0
390
0
  6
Continuous
 62
     7
100
AcDbLine
 10
81.697951
 20
17.921315
 30
0.0
 11
80.788416
 21
16.8852
 31
0.0
  0
LINE
  5
4EE
100
AcDbEntity
  8
0
390
0
  6
Continuous
 62
     7
100
AcDbLine
 10
94.326067
 20
-13.153611
 30
0.0
 11
94.278522
 21
-13.142407
 31
0.0
  0
LINE
  5
4EF
100
AcDbEntity
  8
0
390
0
  6
Continuous
 62
     7
100
AcDbLine
 10
94.371537
 20
-13.167718
 30
0.0
 11
94.326067
 21
-13.153611
 31
0.0
  0
LINE
  5
4F0
100
AcDbEntity
  8
0
390
0
  6
Continuous
 62
     7
100
AcDbLine
 10
94.415037
 20
-13.184711
 30
0.0
 11
94.371537
 21
-13.167718
 31
0.0
  0
LINE
  5
4F1
100
AcDbEntity
  8
0
390
0
  6
Continuous
 62
     7
100
AcDbLine
 10
92.731829
 20
-14.990509
 30
0.0
 11
92.762738
 21
-15.027516
 31
0.0
  0
LINE
  5
4F2
100
AcDbEntity
  8
0
390
0
  6
Continuous
 62
     7
100
AcDbLine
 10
92.703917
 20
-14.951942
 30
0.0
 11
92.731829
 21
-14.990509
 31
0.0
  0
LINE
  5
4F3
100
AcDbEntity
  8
0
390
0
  6
Continuous
 62
     7
100
AcDbLine
 10
92.679313
 20
-14.912247
 30
0.0
 11
92.703917
 21
-14.951942
 31
0.0
  0
LINE
  5
4F4
100
AcDbEntity
  8
0
390
0
  6
Continuous
 62
     7
100
AcDbLine
 10
92.657932
 20
-14.871352
 30
0.0
 11
92.679313
 21
-14.912247
 31
0.0
  0
LINE
  5
4F5
100
AcDbEntity
  8
0
390
0
  6
Continuous
 62
     7
100
AcDbLine
 10
92.639704
 20
-14.82916
 30
0.0
 11
92.657932
 21
-14.871352
 31
0.0
  0
LINE
  5
4F6
100
AcDbEntity
  8
0
390
0
  6
Continuous
 62
     7
100
AcDbLine
 10
92.624582
 20
-14.785561
 30
0.0
 11
92.639704
 21
-14.82916
 31
0.0
  0
LINE
  5
4F7
100
AcDbEntity
  8
0
390
0
  6
Continuous
 62
     7
100
AcDbLine
 10
92.612543
 20
-14.740438
 30
0.0
 11
92.624582
 21
-14.785561
 31
0.0
  0
LINE
  5
4F8
100
AcDbEntity
  8
0
390
0
  6
Continuous
 62
     7
100
AcDbLine
 10
92.603592
 20
-14.693679
 30
0.0
 11
92.612543
 21
-14.740438
 31
0.0
  0
LINE
  5
4F9
100
AcDbEntity
  8
0
390
0
  6
Continuous
 62
     7
100
AcDbLine
 10
92.597756
 20
-14.645181
 30
0.0
 11
92.603592
 21
-14.693679
 31
0.0
  0
LINE
  5
4FA
100
AcDbEntity
  8
0
390
0
  6
Continuous
 62
     7
100
AcDbLine
 10
92.595117
 20
-14.595542
 30
0.0
 11
92.597756
 21
-14.645181
 31
0.0
  0
LINE
  5
4FB
100
AcDbEntity
  8
0
390
0
  6
Continuous
 62
     7
100
AcDbLine
 10
92.596337
 20
-14.544688
 30
0.0
 11
92.595117
 21
-14.595542
 31
0.0
  0
LINE
  5
4FC
100
AcDbEntity
  8
0
390
0
  6
Continuous
 62
     7
100
AcDbLine
 10
92.602126
 20
-14.491135
 30
0.0
 11
92.596337
 21
-14.544688
 31
0.0
  0
LINE
  5
4FD
100
AcDbEntity
  8
0
390
0
  6
Continuous
 62
     7
100
AcDbLine
 10
92.612696
 20
-14.434137
 30
0.0
 11
92.602126
 21
-14.491135
 31
0.0
  0
LINE
  5
4FE
100
AcDbEntity
  8
0
390
0
  6
Continuous
 62
     7
100
AcDbLine
 10
92.628207
 20
-14.373734
 30
0.0
 11
92.612696
 21
-14.434137
 31
0.0
  0
LINE
  5
4FF
100
AcDbEntity
  8
0
390
0
  6
Continuous
 62
     7
100
AcDbLine
 10
92.648784
 20
-14.309991
 30
0.0
 11
92.628207
 21
-14.373734
 31
0.0
  0
LINE
  5
500
100
AcDbEntity
  8
0
390
0
  6
Continuous
 62
     7
100
AcDbLine
 10
92.674518
 20
-14.242991
 30
0.0
 11
92.648784
 21
-14.309991
 31
0.0
  0
LINE
  5
501
100
AcDbEntity
  8
0
390
0
  6
Continuous
 62
     7
100
AcDbLine
 10
92.705472
 20
-14.172816
 30
0.0
 11
92.674518
 21
-14.242991
 31
0.0
  0
LINE
  5
502
100
AcDbEntity
  8
0
390
0
  6
Continuous
 62
     7
100
AcDbLine
 10
92.741688
 20
-14.099544
 30
0.0
 11
92.705472
 21
-14.172816
 31
0.0
  0
LINE
  5
503
100
AcDbEntity
  8
0
390
0
  6
Continuous
 62
     7
100
AcDbLine
 10
92.783196
 20
-14.023245
 30
0.0
 11
92.741688
 21
-14.099544
 31
0.0
  0
LINE
  5
504
100
AcDbEntity
  8
0
390
0
  6
Continuous
 62
     7
100
AcDbLine
 10
92.83082
 20
-13.94261
 30
0.0
 11
92.783196
 21
-14.023245
 31
0.0
  0
POLYLINE
  5
505
100
AcDbEntity
  8
0
390
0
  6
Continuous
 62
     7
100
AcDb2dPolyline
 66
     1
 10
0.0
 20
0.0
 30
0.0
 40
0.1
 41
0.1
  0
VERTEX
  5
506
100
AcDbEntity
  8
0
390
0
 62
     7
100
AcDbVertex
100
AcDb2dVertex
 10
92.701521
 20
-13.801566
 30
0.0
  0
VERTEX
  5
507
100
AcDbEntity
  8
0
390
0
 62
     7
100
AcDbVertex
100
AcDb2dVertex
 10
92.804866
 20
-13.811869
 30
0.0
  0
VERTEX
  5
508
100
AcDbEntity
  8
0
390
0
 62
     7
100
AcDbVertex
100
AcDb2dVertex
 10
92.843892
 20
-13.904563
 30
0.0
  0
VERTEX
  5
509
100
AcDbEntity
  8
0
390
0
 62
     7
100
AcDbVertex
100
AcDb2dVertex
 10
92.83082
 20
-13.94261
 30
0.0
  0
SEQEND
  5
50A
100
AcDbEntity
  8
0
390
0
  0
LINE
  5
50B
100
AcDbEntity
  8
0
390
0
  6
Continuous
 62
     7
100
AcDbLine
 10
92.64001
 20
-13.831026
 30
0.0
 11
92.701521
 21
-13.801566
 31
0.0
  0
LINE
  5
50C
100
AcDbEntity
  8
0
390
0
  6
Continuous
 62
     7
100
AcDbLine
 10
92.581547
 20
-13.856537
 30
0.0
 11
92.64001
 21
-13.831026
 31
0.0
  0
LINE
  5
50D
100
AcDbEntity
  8
0
390
0
  6
Continuous
 62
     7
100
AcDbLine
 10
92.524686
 20
-13.878827
 30
0.0
 11
92.581547
 21
-13.856537
 31
0.0
  0
LINE
  5
50E
100
AcDbEntity
  8
0
390
0
  6
Continuous
 62
     7
100
AcDbLine
 10
92.469448
 20
-13.897923
 30
0.0
 11
92.524686
 21
-13.878827
 31
0.0
  0
LINE
  5
50F
100
AcDbEntity
  8
0
390
0
  6
Continuous
 62
     7
100
AcDbLine
 10
92.415859
 20
-13.913856
 30
0.0
 11
92.469448
 21
-13.897923
 31
0.0
  0
LINE
  5
510
100
AcDbEntity
  8
0
390
0
  6
Continuous
 62
     7
100
AcDbLine
 10
92.363935
 20
-13.926671
 30
0.0
 11
92.415859
 21
-13.913856
 31
0.0
  0
LINE
  5
511
100
AcDbEntity
  8
0
390
0
  6
Continuous
 62
     7
100
AcDbLine
 10
92.313689
 20
-13.936413
 30
0.0
 11
92.363935
 21
-13.926671
 31
0.0
  0
LINE
  5
512
100
AcDbEntity
  8
0
390
0
  6
Continuous
 62
     7
100
AcDbLine
 10
92.265123
 20
-13.943137
 30
0.0
 11
92.313689
 21
-13.936413
 31
0.0
  0
LINE
  5
513
100
AcDbEntity
  8
0
390
0
  6
Continuous
 62
     7
100
AcDbLine
 10
92.218227
 20
-13.946903
 30
0.0
 11
92.265123
 21
-13.943137
 31
0.0
  0
LINE
  5
514
100
AcDbEntity
  8
0
390
0
  6
Continuous
 62
     7
100
AcDbLine
 10
92.172906
 20
-13.947776
 30
0.0
 11
92.218227
 21
-13.946903
 31
0.0
  0
LINE
  5
515
100
AcDbEntity
  8
0
390
0
  6
Continuous
 62
     7
100
AcDbLine
 10
92.125162
 20
-13.945695
 30
0.0
 11
92.172906
 21
-13.947776
 31
0.0
  0
LINE
  5
516
100
AcDbEntity
  8
0
390
0
  6
Continuous
 62
     7
100
AcDbLine
 10
92.080358
 20
-13.941053
 30
0.0
 11
92.125162
 21
-13.945695
 31
0.0
  0
LINE
  5
517
100
AcDbEntity
  8
0
390
0
  6
Continuous
 62
     7
100
AcDbLine
 10
92.038935
 20
-13.933985
 30
0.0
 11
92.080358
 21
-13.941053
 31
0.0
  0
LINE
  5
518
100
AcDbEntity
  8
0
390
0
  6
Continuous
 62
     7
100
AcDbLine
 10
92.000862
 20
-13.924621
 30
0.0
 11
92.038935
 21
-13.933985
 31
0.0
  0
LINE
  5
519
100
AcDbEntity
  8
0
390
0
  6
Continuous
 62
     7
100
AcDbLine
 10
91.966059
 20
-13.91309
 30
0.0
 11
92.000862
 21
-13.924621
 31
0.0
  0
LINE
  5
51A
100
AcDbEntity
  8
0
390
0
  6
Continuous
 62
     7
100
AcDbLine
 10
91.934388
 20
-13.899511
 30
0.0
 11
91.966059
 21
-13.91309
 31
0.0
  0
LINE
  5
51B
100
AcDbEntity
  8
0
390
0
  6
Continuous
 62
     7
100
AcDbLine
 10
91.905655
 20
-13.883964
 30
0.0
 11
91.934388
 21
-13.899511
 31
0.0
  0
LINE
  5
51C
100
AcDbEntity
  8
0
390
0
  6
Continuous
 62
     7
100
AcDbLine
 10
91.879616
 20
-13.866467
 30
0.0
 11
91.905655
 21
-13.883964
 31
0.0
  0
LINE
  5
51D
100
AcDbEntity
  8
0
390
0
  6
Continuous
 62
     7
100
AcDbLine
 10
91.856004
 20
-13.846954
 30
0.0
 11
91.879616
 21
-13.866467
 31
0.0
  0
LINE
  5
51E
100
AcDbEntity
  8
0
390
0
  6
Continuous
 62
     7
100
AcDbLine
 10
91.834174
 20
-13.824874
 30
0.0
 11
91.856004
 21
-13.846954
 31
0.0
  0
LINE
  5
51F
100
AcDbEntity
  8
0
390
0
  6
Continuous
 62
     7
100
AcDbLine
 10
91.805933
 20
-13.790724
 30
0.0
 11
91.834174
 21
-13.824874
 31
0.0
  0
LINE
  5
520
100
AcDbEntity
  8
0
390
0
  6
Continuous
 62
     7
100
AcDbLine
 10
91.780573
 20
-13.754615
 30
0.0
 11
91.805933
 21
-13.790724
 31
0.0
  0
LINE
  5
521
100
AcDbEntity
  8
0
390
0
  6
Continuous
 62
     7
100
AcDbLine
 10
91.758376
 20
-13.716917
 30
0.0
 11
91.780573
 21
-13.754615
 31
0.0
  0
LINE
  5
522
100
AcDbEntity
  8
0
390
0
  6
Continuous
 62
     7
100
AcDbLine
 10
91.739257
 20
-13.677503
 30
0.0
 11
91.758376
 21
-13.716917
 31
0.0
  0
LINE
  5
523
100
AcDbEntity
  8
0
390
0
  6
Continuous
 62
     7
100
AcDbLine
 10
91.723162
 20
-13.63623
 30
0.0
 11
91.739257
 21
-13.677503
 31
0.0
  0
LINE
  5
524
100
AcDbEntity
  8
0
390
0
  6
Continuous
 62
     7
100
AcDbLine
 10
91.710076
 20
-13.592951
 30
0.0
 11
91.723162
 21
-13.63623
 31
0.0
  0
LINE
  5
525
100
AcDbEntity
  8
0
390
0
  6
Continuous
 62
     7
100
AcDbLine
 10
91.700017
 20
-13.547531
 30
0.0
 11
91.710076
 21
-13.592951
 31
0.0
  0
LINE
  5
526
100
AcDbEntity
  8
0
390
0
  6
Continuous
 62
     7
100
AcDbLine
 10
91.693034
 20
-13.499858
 30
0.0
 11
91.700017
 21
-13.547531
 31
0.0
  0
LINE
  5
527
100
AcDbEntity
  8
0
390
0
  6
Continuous
 62
     7
100
AcDbLine
 10
91.68919
 20
-13.449842
 30
0.0
 11
91.693034
 21
-13.499858
 31
0.0
  0
LINE
  5
528
100
AcDbEntity
  8
0
390
0
  6
Continuous
 62
     7
100
AcDbLine
 10
91.688574
 20
-13.398242
 30
0.0
 11
91.68919
 21
-13.449842
 31
0.0
  0
LINE
  5
529
100
AcDbEntity
  8
0
390
0
  6
Continuous
 62
     7
100
AcDbLine
 10
91.694295
 20
-13.310227
 30
0.0
 11
91.688574
 21
-13.398242
 31
0.0
  0
LINE
  5
52A
100
AcDbEntity
  8
0
390
0
  6
Continuous
 62
     7
100
AcDbLine
 10
91.709406
 20
-13.223593
 30
0.0
 11
91.694295
 21
-13.310227
 31
0.0
  0
LINE
  5
52B
100
AcDbEntity
  8
0
390
0
  6
Continuous
 62
     7
100
AcDbLine
 10
91.734179
 20
-13.136423
 30
0.0
 11
91.709406
 21
-13.223593
 31
0.0
  0
LINE
  5
52C
100
AcDbEntity
  8
0
390
0
  6
Continuous
 62
     7
100
AcDbLine
 10
91.768843
 20
-13.04851
 30
0.0
 11
91.734179
 21
-13.136423
 31
0.0
  0
LINE
  5
52D
100
AcDbEntity
  8
0
390
0
  6
Continuous
 62
     7
100
AcDbLine
 10
91.813647
 20
-12.959746
 30
0.0
 11
91.768843
 21
-13.04851
 31
0.0
  0
LINE
  5
52E
100
AcDbEntity
  8
0
390
0
  6
Continuous
 62
     7
100
AcDbLine
 10
91.868815
 20
-12.87012
 30
0.0
 11
91.813647
 21
-12.959746
 31
0.0
  0
LINE
  5
52F
100
AcDbEntity
  8
0
390
0
  6
Continuous
 62
     7
100
AcDbLine
 10
91.93453
 20
-12.779689
 30
0.0
 11
91.868815
 21
-12.87012
 31
0.0
  0
LINE
  5
530
100
AcDbEntity
  8
0
390
0
  6
Continuous
 62
     7
100
AcDbLine
 10
92.010926
 20
-12.688544
 30
0.0
 11
91.93453
 21
-12.779689
 31
0.0
  0
LINE
  5
531
100
AcDbEntity
  8
0
390
0
  6
Continuous
 62
     7
100
AcDbLine
 10
92.098093
 20
-12.59679
 30
0.0
 11
92.010926
 21
-12.688544
 31
0.0
  0
LINE
  5
532
100
AcDbEntity
  8
0
390
0
  6
Continuous
 62
     7
100
AcDbLine
 10
92.196035
 20
-12.504584
 30
0.0
 11
92.098093
 21
-12.59679
 31
0.0
  0
LINE
  5
533
100
AcDbEntity
  8
0
390
0
  6
Continuous
 62
     7
100
AcDbLine
 10
92.298584
 20
-12.417531
 30
0.0
 11
92.196035
 21
-12.504584
 31
0.0
  0
LINE
  5
534
100
AcDbEntity
  8
0
390
0
  6
Continuous
 62
     7
100
AcDbLine
 10
92.399481
 20
-12.341134
 30
0.0
 11
92.298584
 21
-12.417531
 31
0.0
  0
LINE
  5
535
100
AcDbEntity
  8
0
390
0
  6
Continuous
 62
     7
100
AcDbLine
 10
92.498575
 20
-12.275375
 30
0.0
 11
92.399481
 21
-12.341134
 31
0.0
  0
LINE
  5
536
100
AcDbEntity
  8
0
390
0
  6
Continuous
 62
     7
100
AcDbLine
 10
92.595769
 20
-12.220149
 30
0.0
 11
92.498575
 21
-12.275375
 31
0.0
  0
LINE
  5
537
100
AcDbEntity
  8
0
390
0
  6
Continuous
 62
     7
100
AcDbLine
 10
92.690986
 20
-12.175314
 30
0.0
 11
92.595769
 21
-12.220149
 31
0.0
  0
LINE
  5
538
100
AcDbEntity
  8
0
390
0
  6
Continuous
 62
     7
100
AcDbLine
 10
92.784192
 20
-12.140683
 30
0.0
 11
92.690986
 21
-12.175314
 31
0.0
  0
LINE
  5
539
100
AcDbEntity
  8
0
390
0
  6
Continuous
 62
     7
100
AcDbLine
 10
92.875423
 20
-12.116033
 30
0.0
 11
92.784192
 21
-12.140683
 31
0.0
  0
LINE
  5
53A
100
AcDbEntity
  8
0
390
0
  6
Continuous
 62
     7
100
AcDbLine
 10
92.964812
 20
-12.10113
 30
0.0
 11
92.875423
 21
-12.116033
 31
0.0
  0
LINE
  5
53B
100
AcDbEntity
  8
0
390
0
  6
Continuous
 62
     7
100
AcDbLine
 10
93.052592
 20
-12.095768
 30
0.0
 11
92.964812
 21
-12.10113
 31
0.0
  0
LINE
  5
53C
100
AcDbEntity
  8
0
390
0
  6
Continuous
 62
     7
100
AcDbLine
 10
93.140698
 20
-12.099891
 30
0.0
 11
93.052592
 21
-12.095768
 31
0.0
  0
LINE
  5
53D
100
AcDbEntity
  8
0
390
0
  6
Continuous
 62
     7
100
AcDbLine
 10
93.191904
 20
-12.106257
 30
0.0
 11
93.140698
 21
-12.099891
 31
0.0
  0
LINE
  5
53E
100
AcDbEntity
  8
0
390
0
  6
Continuous
 62
     7
100
AcDbLine
 10
93.241179
 20
-12.115652
 30
0.0
 11
93.191904
 21
-12.106257
 31
0.0
  0
LINE
  5
53F
100
AcDbEntity
  8
0
390
0
  6
Continuous
 62
     7
100
AcDbLine
 10
93.287776
 20
-12.127907
 30
0.0
 11
93.241179
 21
-12.115652
 31
0.0
  0
LINE
  5
540
100
AcDbEntity
  8
0
390
0
  6
Continuous
 62
     7
100
AcDbLine
 10
93.331791
 20
-12.142966
 30
0.0
 11
93.287776
 21
-12.127907
 31
0.0
  0
LINE
  5
541
100
AcDbEntity
  8
0
390
0
  6
Continuous
 62
     7
100
AcDbLine
 10
93.373341
 20
-12.160795
 30
0.0
 11
93.331791
 21
-12.142966
 31
0.0
  0
LINE
  5
542
100
AcDbEntity
  8
0
390
0
  6
Continuous
 62
     7
100
AcDbLine
 10
93.412563
 20
-12.181392
 30
0.0
 11
93.373341
 21
-12.160795
 31
0.0
  0
LINE
  5
543
100
AcDbEntity
  8
0
390
0
  6
Continuous
 62
     7
100
AcDbLine
 10
93.449599
 20
-12.204786
 30
0.0
 11
93.412563
 21
-12.181392
 31
0.0
  0
LINE
  5
544
100
AcDbEntity
  8
0
390
0
  6
Continuous
 62
     7
100
AcDbLine
 10
93.484588
 20
-12.231047
 30
0.0
 11
93.449599
 21
-12.204786
 31
0.0
  0
LINE
  5
545
100
AcDbEntity
  8
0
390
0
  6
Continuous
 62
     7
100
AcDbLine
 10
93.517646
 20
-12.260275
 30
0.0
 11
93.484588
 21
-12.231047
 31
0.0
  0
LINE
  5
546
100
AcDbEntity
  8
0
390
0
  6
Continuous
 62
     7
100
AcDbLine
 10
93.548435
 20
-12.292147
 30
0.0
 11
93.517646
 21
-12.260275
 31
0.0
  0
LINE
  5
547
100
AcDbEntity
  8
0
390
0
  6
Continuous
 62
     7
100
AcDbLine
 10
93.567945
 20
-12.316302
 30
0.0
 11
93.548435
 21
-12.292147
 31
0.0
  0
LINE
  5
548
100
AcDbEntity
  8
0
390
0
  6
Continuous
 62
     7
100
AcDbLine
 10
93.584704
 20
-12.341942
 30
0.0
 11
93.567945
 21
-12.316302
 31
0.0
  0
LINE
  5
549
100
AcDbEntity
  8
0
390
0
  6
Continuous
 62
     7
100
AcDbLine
 10
93.59919
 20
-12.36977
 30
0.0
 11
93.584704
 21
-12.341942
 31
0.0
  0
LINE
  5
54A
100
AcDbEntity
  8
0
390
0
  6
Continuous
 62
     7
100
AcDbLine
 10
93.611438
 20
-12.400056
 30
0.0
 11
93.59919
 21
-12.36977
 31
0.0
  0
LINE
  5
54B
100
AcDbEntity
  8
0
390
0
  6
Continuous
 62
     7
100
AcDbLine
 10
93.621402
 20
-12.433042
 30
0.0
 11
93.611438
 21
-12.400056
 31
0.0
  0
LINE
  5
54C
100
AcDbEntity
  8
0
390
0
  6
Continuous
 62
     7
100
AcDbLine
 10
93.628982
 20
-12.468913
 30
0.0
 11
93.621402
 21
-12.433042
 31
0.0
  0
LINE
  5
54D
100
AcDbEntity
  8
0
390
0
  6
Continuous
 62
     7
100
AcDbLine
 10
93.634046
 20
-12.507792
 30
0.0
 11
93.628982
 21
-12.468913
 31
0.0
  0
LINE
  5
54E
100
AcDbEntity
  8
0
390
0
  6
Continuous
 62
     7
100
AcDbLine
 10
93.636453
 20
-12.549743
 30
0.0
 11
93.634046
 21
-12.507792
 31
0.0
  0
LINE
  5
54F
100
AcDbEntity
  8
0
390
0
  6
Continuous
 62
     7
100
AcDbLine
 10
93.636072
 20
-12.594785
 30
0.0
 11
93.636453
 21
-12.549743
 31
0.0
  0
LINE
  5
550
100
AcDbEntity
  8
0
390
0
  6
Continuous
 62
     7
100
AcDbLine
 10
93.632811
 20
-12.642561
 30
0.0
 11
93.636072
 21
-12.594785
 31
0.0
  0
LINE
  5
551
100
AcDbEntity
  8
0
390
0
  6
Continuous
 62
     7
100
AcDbLine
 10
93.626961
 20
-12.687664
 30
0.0
 11
93.632811
 21
-12.642561
 31
0.0
  0
LINE
  5
552
100
AcDbEntity
  8
0
390
0
  6
Continuous
 62
     7
100
AcDbLine
 10
93.618252
 20
-12.73383
 30
0.0
 11
93.626961
 21
-12.687664
 31
0.0
  0
LINE
  5
553
100
AcDbEntity
  8
0
390
0
  6
Continuous
 62
     7
100
AcDbLine
 10
93.606639
 20
-12.781042
 30
0.0
 11
93.618252
 21
-12.73383
 31
0.0
  0
LINE
  5
554
100
AcDbEntity
  8
0
390
0
  6
Continuous
 62
     7
100
AcDbLine
 10
93.592072
 20
-12.82931
 30
0.0
 11
93.606639
 21
-12.781042
 31
0.0
  0
LINE
  5
555
100
AcDbEntity
  8
0
390
0
  6
Continuous
 62
     7
100
AcDbLine
 10
93.574506
 20
-12.878636
 30
0.0
 11
93.592072
 21
-12.82931
 31
0.0
  0
LINE
  5
556
100
AcDbEntity
  8
0
390
0
  6
Continuous
 62
     7
100
AcDbLine
 10
93.5539
 20
-12.929013
 30
0.0
 11
93.574506
 21
-12.878636
 31
0.0
  0
LINE
  5
557
100
AcDbEntity
  8
0
390
0
  6
Continuous
 62
     7
100
AcDbLine
 10
93.530219
 20
-12.980426
 30
0.0
 11
93.5539
 21
-12.929013
 31
0.0
  0
LINE
  5
558
100
AcDbEntity
  8
0
390
0
  6
Continuous
 62
     7
100
AcDbLine
 10
93.503434
 20
-13.032859
 30
0.0
 11
93.530219
 21
-12.980426
 31
0.0
  0
LINE
  5
559
100
AcDbEntity
  8
0
390
0
  6
Continuous
 62
     7
100
AcDbLine
 10
93.47352
 20
-13.086292
 30
0.0
 11
93.503434
 21
-13.032859
 31
0.0
  0
LINE
  5
55A
100
AcDbEntity
  8
0
390
0
  6
Continuous
 62
     7
100
AcDbLine
 10
93.439593
 20
-13.142128
 30
0.0
 11
93.47352
 21
-13.086292
 31
0.0
  0
POLYLINE
  5
55B
100
AcDbEntity
  8
0
390
0
  6
Continuous
 62
     7
100
AcDb2dPolyline
 66
     1
 10
0.0
 20
0.0
 30
0.0
 40
0.1
 41
0.1
  0
VERTEX
  5
55C
100
AcDbEntity
  8
0
390
0
 62
     7
100
AcDbVertex
100
AcDb2dVertex
 10
93.565106
 20
-13.285684
 30
0.0
  0
VERTEX
  5
55D
100
AcDbEntity
  8
0
390
0
 62
     7
100
AcDbVertex
100
AcDb2dVertex
 10
93.462157
 20
-13.271798
 30
0.0
  0
VERTEX
  5
55E
100
AcDbEntity
  8
0
390
0
 62
     7
100
AcDbVertex
100
AcDb2dVertex
 10
93.426388
 20
-13.177773
 30
0.0
  0
VERTEX
  5
55F
100
AcDbEntity
  8
0
390
0
 62
     7
100
AcDbVertex
100
AcDb2dVertex
 10
93.439593
 20
-13.142128
 30
0.0
  0
SEQEND
  5
560
100
AcDbEntity
  8
0
390
0
  0
LINE
  5
561
100
AcDbEntity
  8
0
390
0
  6
Continuous
 62
     7
100
AcDbLine
 10
93.648308
 20
-13.249316
 30
0.0
 11
93.565106
 21
-13.285684
 31
0.0
  0
LINE
  5
562
100
AcDbEntity
  8
0
390
0
  6
Continuous
 62
     7
100
AcDbLine
 10
93.726731
 20
-13.218318
 30
0.0
 11
93.648308
 21
-13.249316
 31
0.0
  0
LINE
  5
563
100
AcDbEntity
  8
0
390
0
  6
Continuous
 62
     7
100
AcDbLine
 10
93.801802
 20
-13.192023
 30
0.0
 11
93.726731
 21
-13.218318
 31
0.0
  0
LINE
  5
564
100
AcDbEntity
  8
0
390
0
  6
Continuous
 62
     7
100
AcDbLine
 10
93.873463
 20
-13.170391
 30
0.0
 11
93.801802
 21
-13.192023
 31
0.0
  0
LINE
  5
565
100
AcDbEntity
  8
0
390
0
  6
Continuous
 62
     7
100
AcDbLine
 10
93.94165
 20
-13.153372
 30
0.0
 11
93.873463
 21
-13.170391
 31
0.0
  0
LINE
  5
566
100
AcDbEntity
  8
0
390
0
  6
Continuous
 62
     7
100
AcDbLine
 10
94.0063
 20
-13.140896
 30
0.0
 11
93.94165
 21
-13.153372
 31
0.0
  0
LINE
  5
567
100
AcDbEntity
  8
0
390
0
  6
Continuous
 62
     7
100
AcDbLine
 10
94.067358
 20
-13.13287
 30
0.0
 11
94.0063
 21
-13.140896
 31
0.0
  0
LINE
  5
568
100
AcDbEntity
  8
0
390
0
  6
Continuous
 62
     7
100
AcDbLine
 10
94.124785
 20
-13.129175
 30
0.0
 11
94.067358
 21
-13.13287
 31
0.0
  0
LINE
  5
569
100
AcDbEntity
  8
0
390
0
  6
Continuous
 62
     7
100
AcDbLine
 10
94.178572
 20
-13.129665
 30
0.0
 11
94.124785
 21
-13.129175
 31
0.0
  0
LINE
  5
56A
100
AcDbEntity
  8
0
390
0
  6
Continuous
 62
     7
100
AcDbLine
 10
94.229386
 20
-13.134236
 30
0.0
 11
94.178572
 21
-13.129665
 31
0.0
  0
LINE
  5
56B
100
AcDbEntity
  8
0
390
0
  6
Continuous
 62
     7
100
AcDbLine
 10
94.278522
 20
-13.142407
 30
0.0
 11
94.229386
 21
-13.134236
 31
0.0
  0
LINE
  5
56C
100
AcDbEntity
  8
0
390
0
  6
Continuous
 62
     7
100
AcDbLine
 10
91.77944
 20
-13.486806
 30
0.0
 11
91.771942
 21
-13.451062
 31
0.0
  0
LINE
  5
56D
100
AcDbEntity
  8
0
390
0
  6
Continuous
 62
     7
100
AcDbLine
 10
91.788431
 20
-13.521362
 30
0.0
 11
91.77944
 21
-13.486806
 31
0.0
  0
LINE
  5
56E
100
AcDbEntity
  8
0
390
0
  6
Continuous
 62
     7
100
AcDbLine
 10
91.798969
 20
-13.554721
 30
0.0
 11
91.788431
 21
-13.521362
 31
0.0
  0
LINE
  5
56F
100
AcDbEntity
  8
0
390
0
  6
Continuous
 62
     7
100
AcDbLine
 10
91.81111
 20
-13.586857
 30
0.0
 11
91.798969
 21
-13.554721
 31
0.0
  0
LINE
  5
570
100
AcDbEntity
  8
0
390
0
  6
Continuous
 62
     7
100
AcDbLine
 10
91.824908
 20
-13.617733
 30
0.0
 11
91.81111
 21
-13.586857
 31
0.0
  0
LINE
  5
571
100
AcDbEntity
  8
0
390
0
  6
Continuous
 62
     7
100
AcDbLine
 10
91.840414
 20
-13.64729
 30
0.0
 11
91.824908
 21
-13.617733
 31
0.0
  0
LINE
  5
572
100
AcDbEntity
  8
0
390
0
  6
Continuous
 62
     7
100
AcDbLine
 10
91.857666
 20
-13.675449
 30
0.0
 11
91.840414
 21
-13.64729
 31
0.0
  0
LINE
  5
573
100
AcDbEntity
  8
0
390
0
  6
Continuous
 62
     7
100
AcDbLine
 10
91.876686
 20
-13.702115
 30
0.0
 11
91.857666
 21
-13.675449
 31
0.0
  0
LINE
  5
574
100
AcDbEntity
  8
0
390
0
  6
Continuous
 62
     7
100
AcDbLine
 10
91.89786
 20
-13.72765
 30
0.0
 11
91.876686
 21
-13.702115
 31
0.0
  0
LINE
  5
575
100
AcDbEntity
  8
0
390
0
  6
Continuous
 62
     7
100
AcDbLine
 10
91.9242
 20
-13.754303
 30
0.0
 11
91.89786
 21
-13.72765
 31
0.0
  0
LINE
  5
576
100
AcDbEntity
  8
0
390
0
  6
Continuous
 62
     7
100
AcDbLine
 10
91.953601
 20
-13.778685
 30
0.0
 11
91.9242
 21
-13.754303
 31
0.0
  0
LINE
  5
577
100
AcDbEntity
  8
0
390
0
  6
Continuous
 62
     7
100
AcDbLine
 10
91.985361
 20
-13.800239
 30
0.0
 11
91.953601
 21
-13.778685
 31
0.0
  0
LINE
  5
578
100
AcDbEntity
  8
0
390
0
  6
Continuous
 62
     7
100
AcDbLine
 10
92.019234
 20
-13.818945
 30
0.0
 11
91.985361
 21
-13.800239
 31
0.0
  0
LINE
  5
579
100
AcDbEntity
  8
0
390
0
  6
Continuous
 62
     7
100
AcDbLine
 10
92.055008
 20
-13.834851
 30
0.0
 11
92.019234
 21
-13.818945
 31
0.0
  0
LINE
  5
57A
100
AcDbEntity
  8
0
390
0
  6
Continuous
 62
     7
100
AcDbLine
 10
92.092528
 20
-13.848056
 30
0.0
 11
92.055008
 21
-13.834851
 31
0.0
  0
LINE
  5
57B
100
AcDbEntity
  8
0
390
0
  6
Continuous
 62
     7
100
AcDbLine
 10
92.13169
 20
-13.858678
 30
0.0
 11
92.092528
 21
-13.848056
 31
0.0
  0
LINE
  5
57C
100
AcDbEntity
  8
0
390
0
  6
Continuous
 62
     7
100
AcDbLine
 10
92.172441
 20
-13.866843
 30
0.0
 11
92.13169
 21
-13.858678
 31
0.0
  0
LINE
  5
57D
100
AcDbEntity
  8
0
390
0
  6
Continuous
 62
     7
100
AcDbLine
 10
92.214767
 20
-13.872666
 30
0.0
 11
92.172441
 21
-13.866843
 31
0.0
  0
LINE
  5
57E
100
AcDbEntity
  8
0
390
0
  6
Continuous
 62
     7
100
AcDbLine
 10
92.26042
 20
-13.876395
 30
0.0
 11
92.214767
 21
-13.872666
 31
0.0
  0
LINE
  5
57F
100
AcDbEntity
  8
0
390
0
  6
Continuous
 62
     7
100
AcDbLine
 10
92.337425
 20
-13.876126
 30
0.0
 11
92.26042
 21
-13.876395
 31
0.0
  0
LINE
  5
580
100
AcDbEntity
  8
0
390
0
  6
Continuous
 62
     7
100
AcDbLine
 10
92.417141
 20
-13.866744
 30
0.0
 11
92.337425
 21
-13.876126
 31
0.0
  0
LINE
  5
581
100
AcDbEntity
  8
0
390
0
  6
Continuous
 62
     7
100
AcDbLine
 10
92.497552
 20
-13.848554
 30
0.0
 11
92.417141
 21
-13.866744
 31
0.0
  0
LINE
  5
582
100
AcDbEntity
  8
0
390
0
  6
Continuous
 62
     7
100
AcDbLine
 10
92.578553
 20
-13.821873
 30
0.0
 11
92.541994
 21
-13.833916
 31
0.0
  0
LINE
  5
583
100
AcDbEntity
  8
0
390
0
  6
Continuous
 62
     7
100
AcDbLine
 10
92.541994
 20
-13.833916
 30
0.0
 11
92.497552
 21
-13.848554
 31
0.0
  0
LINE
  5
584
100
AcDbEntity
  8
0
390
0
  6
Continuous
 62
     7
100
AcDbLine
 10
92.660158
 20
-13.786974
 30
0.0
 11
92.578553
 21
-13.821873
 31
0.0
  0
LINE
  5
585
100
AcDbEntity
  8
0
390
0
  6
Continuous
 62
     7
100
AcDbLine
 10
92.742456
 20
-13.744067
 30
0.0
 11
92.660158
 21
-13.786974
 31
0.0
  0
LINE
  5
586
100
AcDbEntity
  8
0
390
0
  6
Continuous
 62
     7
100
AcDbLine
 10
92.825573
 20
-13.6933
 30
0.0
 11
92.742456
 21
-13.744067
 31
0.0
  0
LINE
  5
587
100
AcDbEntity
  8
0
390
0
  6
Continuous
 62
     7
100
AcDbLine
 10
92.909643
 20
-13.634767
 30
0.0
 11
92.825573
 21
-13.6933
 31
0.0
  0
LINE
  5
588
100
AcDbEntity
  8
0
390
0
  6
Continuous
 62
     7
100
AcDbLine
 10
92.994792
 20
-13.568524
 30
0.0
 11
92.909643
 21
-13.634767
 31
0.0
  0
LINE
  5
589
100
AcDbEntity
  8
0
390
0
  6
Continuous
 62
     7
100
AcDbLine
 10
93.081178
 20
-13.494558
 30
0.0
 11
92.994792
 21
-13.568524
 31
0.0
  0
LINE
  5
58A
100
AcDbEntity
  8
0
390
0
  6
Continuous
 62
     7
100
AcDbLine
 10
93.164312
 20
-13.416953
 30
0.0
 11
93.081178
 21
-13.494558
 31
0.0
  0
LINE
  5
58B
100
AcDbEntity
  8
0
390
0
  6
Continuous
 62
     7
100
AcDbLine
 10
93.239634
 20
-13.33972
 30
0.0
 11
93.164312
 21
-13.416953
 31
0.0
  0
LINE
  5
58C
100
AcDbEntity
  8
0
390
0
  6
Continuous
 62
     7
100
AcDbLine
 10
93.307174
 20
-13.262698
 30
0.0
 11
93.239634
 21
-13.33972
 31
0.0
  0
LINE
  5
58D
100
AcDbEntity
  8
0
390
0
  6
Continuous
 62
     7
100
AcDbLine
 10
93.36689
 20
-13.185757
 30
0.0
 11
93.307174
 21
-13.262698
 31
0.0
  0
LINE
  5
58E
100
AcDbEntity
  8
0
390
0
  6
Continuous
 62
     7
100
AcDbLine
 10
93.418704
 20
-13.108753
 30
0.0
 11
93.36689
 21
-13.185757
 31
0.0
  0
LINE
  5
58F
100
AcDbEntity
  8
0
390
0
  6
Continuous
 62
     7
100
AcDbLine
 10
93.462482
 20
-13.031547
 30
0.0
 11
93.418704
 21
-13.108753
 31
0.0
  0
LINE
  5
590
100
AcDbEntity
  8
0
390
0
  6
Continuous
 62
     7
100
AcDbLine
 10
93.498027
 20
-12.954025
 30
0.0
 11
93.462482
 21
-13.031547
 31
0.0
  0
LINE
  5
591
100
AcDbEntity
  8
0
390
0
  6
Continuous
 62
     7
100
AcDbLine
 10
93.525067
 20
-12.876141
 30
0.0
 11
93.498027
 21
-12.954025
 31
0.0
  0
LINE
  5
592
100
AcDbEntity
  8
0
390
0
  6
Continuous
 62
     7
100
AcDbLine
 10
93.543278
 20
-12.797967
 30
0.0
 11
93.525067
 21
-12.876141
 31
0.0
  0
LINE
  5
593
100
AcDbEntity
  8
0
390
0
  6
Continuous
 62
     7
100
AcDbLine
 10
93.55213
 20
-12.721469
 30
0.0
 11
93.543278
 21
-12.797967
 31
0.0
  0
LINE
  5
594
100
AcDbEntity
  8
0
390
0
  6
Continuous
 62
     7
100
AcDbLine
 10
93.553512
 20
-12.675683
 30
0.0
 11
93.55213
 21
-12.721469
 31
0.0
  0
LINE
  5
595
100
AcDbEntity
  8
0
390
0
  6
Continuous
 62
     7
100
AcDbLine
 10
93.552441
 20
-12.632974
 30
0.0
 11
93.553512
 21
-12.675683
 31
0.0
  0
LINE
  5
596
100
AcDbEntity
  8
0
390
0
  6
Continuous
 62
     7
100
AcDbLine
 10
93.548868
 20
-12.591567
 30
0.0
 11
93.552441
 21
-12.632974
 31
0.0
  0
LINE
  5
597
100
AcDbEntity
  8
0
390
0
  6
Continuous
 62
     7
100
AcDbLine
 10
93.542676
 20
-12.551465
 30
0.0
 11
93.548868
 21
-12.591567
 31
0.0
  0
LINE
  5
598
100
AcDbEntity
  8
0
390
0
  6
Continuous
 62
     7
100
AcDbLine
 10
93.533736
 20
-12.51271
 30
0.0
 11
93.542676
 21
-12.551465
 31
0.0
  0
LINE
  5
599
100
AcDbEntity
  8
0
390
0
  6
Continuous
 62
     7
100
AcDbLine
 10
93.521915
 20
-12.475386
 30
0.0
 11
93.533736
 21
-12.51271
 31
0.0
  0
LINE
  5
59A
100
AcDbEntity
  8
0
390
0
  6
Continuous
 62
     7
100
AcDbLine
 10
93.507101
 20
-12.43964
 30
0.0
 11
93.521915
 21
-12.475386
 31
0.0
  0
LINE
  5
59B
100
AcDbEntity
  8
0
390
0
  6
Continuous
 62
     7
100
AcDbLine
 10
93.489221
 20
-12.405676
 30
0.0
 11
93.507101
 21
-12.43964
 31
0.0
  0
LINE
  5
59C
100
AcDbEntity
  8
0
390
0
  6
Continuous
 62
     7
100
AcDbLine
 10
93.468268
 20
-12.373741
 30
0.0
 11
93.489221
 21
-12.405676
 31
0.0
  0
LINE
  5
59D
100
AcDbEntity
  8
0
390
0
  6
Continuous
 62
     7
100
AcDbLine
 10
93.44472
 20
-12.344596
 30
0.0
 11
93.468268
 21
-12.373741
 31
0.0
  0
LINE
  5
59E
100
AcDbEntity
  8
0
390
0
  6
Continuous
 62
     7
100
AcDbLine
 10
93.421704
 20
-12.320708
 30
0.0
 11
93.44472
 21
-12.344596
 31
0.0
  0
LINE
  5
59F
100
AcDbEntity
  8
0
390
0
  6
Continuous
 62
     7
100
AcDbLine
 10
93.397324
 20
-12.298834
 30
0.0
 11
93.421704
 21
-12.320708
 31
0.0
  0
LINE
  5
5A0
100
AcDbEntity
  8
0
390
0
  6
Continuous
 62
     7
100
AcDbLine
 10
93.371264
 20
-12.278549
 30
0.0
 11
93.397324
 21
-12.298834
 31
0.0
  0
LINE
  5
5A1
100
AcDbEntity
  8
0
390
0
  6
Continuous
 62
     7
100
AcDbLine
 10
93.34362
 20
-12.259845
 30
0.0
 11
93.371264
 21
-12.278549
 31
0.0
  0
LINE
  5
5A2
100
AcDbEntity
  8
0
390
0
  6
Continuous
 62
     7
100
AcDbLine
 10
93.314475
 20
-12.242691
 30
0.0
 11
93.34362
 21
-12.259845
 31
0.0
  0
LINE
  5
5A3
100
AcDbEntity
  8
0
390
0
  6
Continuous
 62
     7
100
AcDbLine
 10
93.283892
 20
-12.227043
 30
0.0
 11
93.314475
 21
-12.242691
 31
0.0
  0
LINE
  5
5A4
100
AcDbEntity
  8
0
390
0
  6
Continuous
 62
     7
100
AcDbLine
 10
93.251916
 20
-12.212853
 30
0.0
 11
93.283892
 21
-12.227043
 31
0.0
  0
LINE
  5
5A5
100
AcDbEntity
  8
0
390
0
  6
Continuous
 62
     7
100
AcDbLine
 10
93.218577
 20
-12.200065
 30
0.0
 11
93.251916
 21
-12.212853
 31
0.0
  0
LINE
  5
5A6
100
AcDbEntity
  8
0
390
0
  6
Continuous
 62
     7
100
AcDbLine
 10
93.183892
 20
-12.18863
 30
0.0
 11
93.218577
 21
-12.200065
 31
0.0
  0
LINE
  5
5A7
100
AcDbEntity
  8
0
390
0
  6
Continuous
 62
     7
100
AcDbLine
 10
93.145918
 20
-12.17795
 30
0.0
 11
93.183892
 21
-12.18863
 31
0.0
  0
LINE
  5
5A8
100
AcDbEntity
  8
0
390
0
  6
Continuous
 62
     7
100
AcDbLine
 10
93.061788
 20
-12.161533
 30
0.0
 11
93.145918
 21
-12.17795
 31
0.0
  0
LINE
  5
5A9
100
AcDbEntity
  8
0
390
0
  6
Continuous
 62
     7
100
AcDbLine
 10
92.972373
 20
-12.157058
 30
0.0
 11
93.061788
 21
-12.161533
 31
0.0
  0
LINE
  5
5AA
100
AcDbEntity
  8
0
390
0
  6
Continuous
 62
     7
100
AcDbLine
 10
92.881507
 20
-12.164896
 30
0.0
 11
92.972373
 21
-12.157058
 31
0.0
  0
LINE
  5
5AB
100
AcDbEntity
  8
0
390
0
  6
Continuous
 62
     7
100
AcDbLine
 10
92.789689
 20
-12.184596
 30
0.0
 11
92.881507
 21
-12.164896
 31
0.0
  0
LINE
  5
5AC
100
AcDbEntity
  8
0
390
0
  6
Continuous
 62
     7
100
AcDbLine
 10
92.697121
 20
-12.215654
 30
0.0
 11
92.789689
 21
-12.184596
 31
0.0
  0
LINE
  5
5AD
100
AcDbEntity
  8
0
390
0
  6
Continuous
 62
     7
100
AcDbLine
 10
92.603774
 20
-12.257638
 30
0.0
 11
92.697121
 21
-12.215654
 31
0.0
  0
LINE
  5
5AE
100
AcDbEntity
  8
0
390
0
  6
Continuous
 62
     7
100
AcDbLine
 10
92.509489
 20
-12.310233
 30
0.0
 11
92.603774
 21
-12.257638
 31
0.0
  0
LINE
  5
5AF
100
AcDbEntity
  8
0
390
0
  6
Continuous
 62
     7
100
AcDbLine
 10
92.414059
 20
-12.373239
 30
0.0
 11
92.509489
 21
-12.310233
 31
0.0
  0
LINE
  5
5B0
100
AcDbEntity
  8
0
390
0
  6
Continuous
 62
     7
100
AcDbLine
 10
92.317274
 20
-12.446543
 30
0.0
 11
92.414059
 21
-12.373239
 31
0.0
  0
LINE
  5
5B1
100
AcDbEntity
  8
0
390
0
  6
Continuous
 62
     7
100
AcDbLine
 10
92.218885
 20
-12.530141
 30
0.0
 11
92.317274
 21
-12.446543
 31
0.0
  0
LINE
  5
5B2
100
AcDbEntity
  8
0
390
0
  6
Continuous
 62
     7
100
AcDbLine
 10
92.124842
 20
-12.618597
 30
0.0
 11
92.218885
 21
-12.530141
 31
0.0
  0
LINE
  5
5B3
100
AcDbEntity
  8
0
390
0
  6
Continuous
 62
     7
100
AcDbLine
 10
92.041209
 20
-12.706606
 30
0.0
 11
92.124842
 21
-12.618597
 31
0.0
  0
LINE
  5
5B4
100
AcDbEntity
  8
0
390
0
  6
Continuous
 62
     7
100
AcDbLine
 10
91.967959
 20
-12.794417
 30
0.0
 11
92.041209
 21
-12.706606
 31
0.0
  0
LINE
  5
5B5
100
AcDbEntity
  8
0
390
0
  6
Continuous
 62
     7
100
AcDbLine
 10
91.905182
 20
-12.882252
 30
0.0
 11
91.967959
 21
-12.794417
 31
0.0
  0
LINE
  5
5B6
100
AcDbEntity
  8
0
390
0
  6
Continuous
 62
     7
100
AcDbLine
 10
91.853055
 20
-12.970337
 30
0.0
 11
91.905182
 21
-12.882252
 31
0.0
  0
LINE
  5
5B7
100
AcDbEntity
  8
0
390
0
  6
Continuous
 62
     7
100
AcDbLine
 10
91.811872
 20
-13.058866
 30
0.0
 11
91.853055
 21
-12.970337
 31
0.0
  0
LINE
  5
5B8
100
AcDbEntity
  8
0
390
0
  6
Continuous
 62
     7
100
AcDbLine
 10
91.782061
 20
-13.147915
 30
0.0
 11
91.811872
 21
-13.058866
 31
0.0
  0
LINE
  5
5B9
100
AcDbEntity
  8
0
390
0
  6
Continuous
 62
     7
100
AcDbLine
 10
91.764144
 20
-13.237342
 30
0.0
 11
91.782061
 21
-13.147915
 31
0.0
  0
LINE
  5
5BA
100
AcDbEntity
  8
0
390
0
  6
Continuous
 62
     7
100
AcDbLine
 10
91.758624
 20
-13.326699
 30
0.0
 11
91.764144
 21
-13.237342
 31
0.0
  0
LINE
  5
5BB
100
AcDbEntity
  8
0
390
0
  6
Continuous
 62
     7
100
AcDbLine
 10
91.765561
 20
-13.412135
 30
0.0
 11
91.758624
 21
-13.326699
 31
0.0
  0
LINE
  5
5BC
100
AcDbEntity
  8
0
390
0
  6
Continuous
 62
     7
100
AcDbLine
 10
91.771942
 20
-13.451062
 30
0.0
 11
91.765561
 21
-13.412135
 31
0.0
  0
LINE
  5
5BD
100
AcDbEntity
  8
0
390
0
  6
Continuous
 62
     7
100
AcDbLine
 10
94.244732
 20
-13.233229
 30
0.0
 11
94.307676
 21
-13.255101
 31
0.0
  0
LINE
  5
5BE
100
AcDbEntity
  8
0
390
0
  6
Continuous
 62
     7
100
AcDbLine
 10
94.179081
 20
-13.218546
 30
0.0
 11
94.244732
 21
-13.233229
 31
0.0
  0
LINE
  5
5BF
100
AcDbEntity
  8
0
390
0
  6
Continuous
 62
     7
100
AcDbLine
 10
94.111126
 20
-13.210955
 30
0.0
 11
94.179081
 21
-13.218546
 31
0.0
  0
LINE
  5
5C0
100
AcDbEntity
  8
0
390
0
  6
Continuous
 62
     7
100
AcDbLine
 10
94.041159
 20
-13.210254
 30
0.0
 11
94.111126
 21
-13.210955
 31
0.0
  0
LINE
  5
5C1
100
AcDbEntity
  8
0
390
0
  6
Continuous
 62
     7
100
AcDbLine
 10
93.969342
 20
-13.216198
 30
0.0
 11
94.041159
 21
-13.210254
 31
0.0
  0
LINE
  5
5C2
100
AcDbEntity
  8
0
390
0
  6
Continuous
 62
     7
100
AcDbLine
 10
93.895957
 20
-13.22851
 30
0.0
 11
93.969342
 21
-13.216198
 31
0.0
  0
LINE
  5
5C3
100
AcDbEntity
  8
0
390
0
  6
Continuous
 62
     7
100
AcDbLine
 10
93.822436
 20
-13.246233
 30
0.0
 11
93.895957
 21
-13.22851
 31
0.0
  0
LINE
  5
5C4
100
AcDbEntity
  8
0
390
0
  6
Continuous
 62
     7
100
AcDbLine
 10
93.749696
 20
-13.268645
 30
0.0
 11
93.822436
 21
-13.246233
 31
0.0
  0
LINE
  5
5C5
100
AcDbEntity
  8
0
390
0
  6
Continuous
 62
     7
100
AcDbLine
 10
93.677469
 20
-13.295768
 30
0.0
 11
93.749696
 21
-13.268645
 31
0.0
  0
LINE
  5
5C6
100
AcDbEntity
  8
0
390
0
  6
Continuous
 62
     7
100
AcDbLine
 10
93.605787
 20
-13.32755
 30
0.0
 11
93.677469
 21
-13.295768
 31
0.0
  0
LINE
  5
5C7
100
AcDbEntity
  8
0
390
0
  6
Continuous
 62
     7
100
AcDbLine
 10
93.534667
 20
-13.363934
 30
0.0
 11
93.605787
 21
-13.32755
 31
0.0
  0
LINE
  5
5C8
100
AcDbEntity
  8
0
390
0
  6
Continuous
 62
     7
100
AcDbLine
 10
93.464116
 20
-13.404868
 30
0.0
 11
93.534667
 21
-13.363934
 31
0.0
  0
LINE
  5
5C9
100
AcDbEntity
  8
0
390
0
  6
Continuous
 62
     7
100
AcDbLine
 10
93.394126
 20
-13.450309
 30
0.0
 11
93.464116
 21
-13.404868
 31
0.0
  0
LINE
  5
5CA
100
AcDbEntity
  8
0
390
0
  6
Continuous
 62
     7
100
AcDbLine
 10
93.324687
 20
-13.500214
 30
0.0
 11
93.394126
 21
-13.450309
 31
0.0
  0
LINE
  5
5CB
100
AcDbEntity
  8
0
390
0
  6
Continuous
 62
     7
100
AcDbLine
 10
93.255779
 20
-13.55455
 30
0.0
 11
93.324687
 21
-13.500214
 31
0.0
  0
LINE
  5
5CC
100
AcDbEntity
  8
0
390
0
  6
Continuous
 62
     7
100
AcDbLine
 10
93.187356
 20
-13.613312
 30
0.0
 11
93.255779
 21
-13.55455
 31
0.0
  0
LINE
  5
5CD
100
AcDbEntity
  8
0
390
0
  6
Continuous
 62
     7
100
AcDbLine
 10
93.121332
 20
-13.674759
 30
0.0
 11
93.187356
 21
-13.613312
 31
0.0
  0
LINE
  5
5CE
100
AcDbEntity
  8
0
390
0
  6
Continuous
 62
     7
100
AcDbLine
 10
93.059653
 20
-13.737181
 30
0.0
 11
93.121332
 21
-13.674759
 31
0.0
  0
LINE
  5
5CF
100
AcDbEntity
  8
0
390
0
  6
Continuous
 62
     7
100
AcDbLine
 10
93.002319
 20
-13.800625
 30
0.0
 11
93.059653
 21
-13.737181
 31
0.0
  0
LINE
  5
5D0
100
AcDbEntity
  8
0
390
0
  6
Continuous
 62
     7
100
AcDbLine
 10
92.94936
 20
-13.865112
 30
0.0
 11
93.002319
 21
-13.800625
 31
0.0
  0
LINE
  5
5D1
100
AcDbEntity
  8
0
390
0
  6
Continuous
 62
     7
100
AcDbLine
 10
92.900816
 20
-13.930661
 30
0.0
 11
92.94936
 21
-13.865112
 31
0.0
  0
LINE
  5
5D2
100
AcDbEntity
  8
0
390
0
  6
Continuous
 62
     7
100
AcDbLine
 10
92.856732
 20
-13.997282
 30
0.0
 11
92.900816
 21
-13.930661
 31
0.0
  0
LINE
  5
5D3
100
AcDbEntity
  8
0
390
0
  6
Continuous
 62
     7
100
AcDbLine
 10
92.817159
 20
-14.064973
 30
0.0
 11
92.856732
 21
-13.997282
 31
0.0
  0
LINE
  5
5D4
100
AcDbEntity
  8
0
390
0
  6
Continuous
 62
     7
100
AcDbLine
 10
92.782154
 20
-14.133727
 30
0.0
 11
92.817159
 21
-14.064973
 31
0.0
  0
LINE
  5
5D5
100
AcDbEntity
  8
0
390
0
  6
Continuous
 62
     7
100
AcDbLine
 10
92.751775
 20
-14.203515
 30
0.0
 11
92.782154
 21
-14.133727
 31
0.0
  0
LINE
  5
5D6
100
AcDbEntity
  8
0
390
0
  6
Continuous
 62
     7
100
AcDbLine
 10
92.725968
 20
-14.2746
 30
0.0
 11
92.751775
 21
-14.203515
 31
0.0
  0
LINE
  5
5D7
100
AcDbEntity
  8
0
390
0
  6
Continuous
 62
     7
100
AcDbLine
 10
92.705553
 20
-14.346156
 30
0.0
 11
92.725968
 21
-14.2746
 31
0.0
  0
LINE
  5
5D8
100
AcDbEntity
  8
0
390
0
  6
Continuous
 62
     7
100
AcDbLine
 10
92.691641
 20
-14.416862
 30
0.0
 11
92.705553
 21
-14.346156
 31
0.0
  0
LINE
  5
5D9
100
AcDbEntity
  8
0
390
0
  6
Continuous
 62
     7
100
AcDbLine
 10
92.684539
 20
-14.486473
 30
0.0
 11
92.691641
 21
-14.416862
 31
0.0
  0
LINE
  5
5DA
100
AcDbEntity
  8
0
390
0
  6
Continuous
 62
     7
100
AcDbLine
 10
92.684508
 20
-14.55485
 30
0.0
 11
92.684539
 21
-14.486473
 31
0.0
  0
LINE
  5
5DB
100
AcDbEntity
  8
0
390
0
  6
Continuous
 62
     7
100
AcDbLine
 10
92.691781
 20
-14.62173
 30
0.0
 11
92.684508
 21
-14.55485
 31
0.0
  0
LINE
  5
5DC
100
AcDbEntity
  8
0
390
0
  6
Continuous
 62
     7
100
AcDbLine
 10
92.706499
 20
-14.686721
 30
0.0
 11
92.691781
 21
-14.62173
 31
0.0
  0
LINE
  5
5DD
100
AcDbEntity
  8
0
390
0
  6
Continuous
 62
     7
100
AcDbLine
 10
92.728661
 20
-14.749366
 30
0.0
 11
92.706499
 21
-14.686721
 31
0.0
  0
LINE
  5
5DE
100
AcDbEntity
  8
0
390
0
  6
Continuous
 62
     7
100
AcDbLine
 10
92.758099
 20
-14.809223
 30
0.0
 11
92.728661
 21
-14.749366
 31
0.0
  0
LINE
  5
5DF
100
AcDbEntity
  8
0
390
0
  6
Continuous
 62
     7
100
AcDbLine
 10
92.794519
 20
-14.865948
 30
0.0
 11
92.758099
 21
-14.809223
 31
0.0
  0
LINE
  5
5E0
100
AcDbEntity
  8
0
390
0
  6
Continuous
 62
     7
100
AcDbLine
 10
92.83772
 20
-14.919534
 30
0.0
 11
92.794519
 21
-14.865948
 31
0.0
  0
LINE
  5
5E1
100
AcDbEntity
  8
0
390
0
  6
Continuous
 62
     7
100
AcDbLine
 10
77.535973
 20
-18.530723
 30
0.0
 11
77.530795
 21
-18.537016
 31
0.0
  0
LINE
  5
5E2
100
AcDbEntity
  8
0
390
0
  6
Continuous
 62
     7
100
AcDbLine
 10
77.538769
 20
-18.528361
 30
0.0
 11
77.535973
 21
-18.530723
 31
0.0
  0
LINE
  5
5E3
100
AcDbEntity
  8
0
390
0
  6
Continuous
 62
     7
100
AcDbLine
 10
77.539678
 20
-18.527868
 30
0.0
 11
77.538769
 21
-18.528361
 31
0.0
  0
LINE
  5
5E4
100
AcDbEntity
  8
0
390
0
  6
Continuous
 62
     7
100
AcDbLine
 10
77.540671
 20
-18.527579
 30
0.0
 11
77.539678
 21
-18.527868
 31
0.0
  0
LINE
  5
5E5
100
AcDbEntity
  8
0
390
0
  6
Continuous
 62
     7
100
AcDbLine
 10
77.54432
 20
-18.527288
 30
0.0
 11
77.540671
 21
-18.527579
 31
0.0
  0
LINE
  5
5E6
100
AcDbEntity
  8
0
390
0
  6
Continuous
 62
     7
100
AcDbLine
 10
77.552426
 20
-18.528112
 30
0.0
 11
77.54432
 21
-18.527288
 31
0.0
  0
LINE
  5
5E7
100
AcDbEntity
  8
0
390
0
  6
Continuous
 62
     7
100
AcDbLine
 10
77.565542
 20
-18.531504
 30
0.0
 11
77.552426
 21
-18.528112
 31
0.0
  0
LINE
  5
5E8
100
AcDbEntity
  8
0
390
0
  6
Continuous
 62
     7
100
AcDbLine
 10
77.583384
 20
-18.538564
 30
0.0
 11
77.565542
 21
-18.531504
 31
0.0
  0
LINE
  5
5E9
100
AcDbEntity
  8
0
390
0
  6
Continuous
 62
     7
100
AcDbLine
 10
77.59805
 20
-18.54614
 30
0.0
 11
77.583384
 21
-18.538564
 31
0.0
  0
LINE
  5
5EA
100
AcDbEntity
  8
0
390
0
  6
Continuous
 62
     7
100
AcDbLine
 10
77.606587
 20
-18.553649
 30
0.0
 11
77.59805
 21
-18.54614
 31
0.0
  0
LINE
  5
5EB
100
AcDbEntity
  8
0
390
0
  6
Continuous
 62
     7
100
AcDbLine
 10
77.616247
 20
-18.564347
 30
0.0
 11
77.606587
 21
-18.553649
 31
0.0
  0
LINE
  5
5EC
100
AcDbEntity
  8
0
390
0
  6
Continuous
 62
     7
100
AcDbLine
 10
77.622043
 20
-18.57284
 30
0.0
 11
77.616247
 21
-18.564347
 31
0.0
  0
LINE
  5
5ED
100
AcDbEntity
  8
0
390
0
  6
Continuous
 62
     7
100
AcDbLine
 10
77.624996
 20
-18.579072
 30
0.0
 11
77.622043
 21
-18.57284
 31
0.0
  0
LINE
  5
5EE
100
AcDbEntity
  8
0
390
0
  6
Continuous
 62
     7
100
AcDbLine
 10
77.626272
 20
-18.583689
 30
0.0
 11
77.624996
 21
-18.579072
 31
0.0
  0
LINE
  5
5EF
100
AcDbEntity
  8
0
390
0
  6
Continuous
 62
     7
100
AcDbLine
 10
77.626661
 20
-18.588081
 30
0.0
 11
77.626272
 21
-18.583689
 31
0.0
  0
LINE
  5
5F0
100
AcDbEntity
  8
0
390
0
  6
Continuous
 62
     7
100
AcDbLine
 10
77.626142
 20
-18.593896
 30
0.0
 11
77.626661
 21
-18.588081
 31
0.0
  0
LINE
  5
5F1
100
AcDbEntity
  8
0
390
0
  6
Continuous
 62
     7
100
AcDbLine
 10
77.623948
 20
-18.602377
 30
0.0
 11
77.626142
 21
-18.593896
 31
0.0
  0
LINE
  5
5F2
100
AcDbEntity
  8
0
390
0
  6
Continuous
 62
     7
100
AcDbLine
 10
77.619054
 20
-18.614033
 30
0.0
 11
77.623948
 21
-18.602377
 31
0.0
  0
LINE
  5
5F3
100
AcDbEntity
  8
0
390
0
  6
Continuous
 62
     7
100
AcDbLine
 10
77.609831
 20
-18.630111
 30
0.0
 11
77.619054
 21
-18.614033
 31
0.0
  0
LINE
  5
5F4
100
AcDbEntity
  8
0
390
0
  6
Continuous
 62
     7
100
AcDbLine
 10
77.574764
 20
-18.682076
 30
0.0
 11
77.609831
 21
-18.630111
 31
0.0
  0
LINE
  5
5F5
100
AcDbEntity
  8
0
390
0
  6
Continuous
 62
     7
100
AcDbLine
 10
77.537745
 20
-18.732559
 30
0.0
 11
77.574764
 21
-18.682076
 31
0.0
  0
LINE
  5
5F6
100
AcDbEntity
  8
0
390
0
  6
Continuous
 62
     7
100
AcDbLine
 10
77.49979
 20
-18.780102
 30
0.0
 11
77.537745
 21
-18.732559
 31
0.0
  0
LINE
  5
5F7
100
AcDbEntity
  8
0
390
0
  6
Continuous
 62
     7
100
AcDbLine
 10
77.460912
 20
-18.824724
 30
0.0
 11
77.49979
 21
-18.780102
 31
0.0
  0
LINE
  5
5F8
100
AcDbEntity
  8
0
390
0
  6
Continuous
 62
     7
100
AcDbLine
 10
77.421122
 20
-18.866451
 30
0.0
 11
77.460912
 21
-18.824724
 31
0.0
  0
LINE
  5
5F9
100
AcDbEntity
  8
0
390
0
  6
Continuous
 62
     7
100
AcDbLine
 10
77.380426
 20
-18.905316
 30
0.0
 11
77.421122
 21
-18.866451
 31
0.0
  0
LINE
  5
5FA
100
AcDbEntity
  8
0
390
0
  6
Continuous
 62
     7
100
AcDbLine
 10
77.338825
 20
-18.941351
 30
0.0
 11
77.380426
 21
-18.905316
 31
0.0
  0
LINE
  5
5FB
100
AcDbEntity
  8
0
390
0
  6
Continuous
 62
     7
100
AcDbLine
 10
77.296314
 20
-18.974593
 30
0.0
 11
77.338825
 21
-18.941351
 31
0.0
  0
LINE
  5
5FC
100
AcDbEntity
  8
0
390
0
  6
Continuous
 62
     7
100
AcDbLine
 10
77.25288
 20
-19.005079
 30
0.0
 11
77.296314
 21
-18.974593
 31
0.0
  0
LINE
  5
5FD
100
AcDbEntity
  8
0
390
0
  6
Continuous
 62
     7
100
AcDbLine
 10
77.209047
 20
-19.032507
 30
0.0
 11
77.25288
 21
-19.005079
 31
0.0
  0
LINE
  5
5FE
100
AcDbEntity
  8
0
390
0
  6
Continuous
 62
     7
100
AcDbLine
 10
77.115345
 20
-19.082789
 30
0.0
 11
77.209047
 21
-19.032507
 31
0.0
  0
LINE
  5
5FF
100
AcDbEntity
  8
0
390
0
  6
Continuous
 62
     7
100
AcDbLine
 10
77.020185
 20
-19.124236
 30
0.0
 11
77.115345
 21
-19.082789
 31
0.0
  0
LINE
  5
600
100
AcDbEntity
  8
0
390
0
  6
Continuous
 62
     7
100
AcDbLine
 10
76.9229
 20
-19.157247
 30
0.0
 11
77.020185
 21
-19.124236
 31
0.0
  0
LINE
  5
601
100
AcDbEntity
  8
0
390
0
  6
Continuous
 62
     7
100
AcDbLine
 10
76.823332
 20
-19.181895
 30
0.0
 11
76.9229
 21
-19.157247
 31
0.0
  0
LINE
  5
602
100
AcDbEntity
  8
0
390
0
  6
Continuous
 62
     7
100
AcDbLine
 10
76.721305
 20
-19.198215
 30
0.0
 11
76.823332
 21
-19.181895
 31
0.0
  0
LINE
  5
603
100
AcDbEntity
  8
0
390
0
  6
Continuous
 62
     7
100
AcDbLine
 10
76.616648
 20
-19.206194
 30
0.0
 11
76.721305
 21
-19.198215
 31
0.0
  0
LINE
  5
604
100
AcDbEntity
  8
0
390
0
  6
Continuous
 62
     7
100
AcDbLine
 10
76.50921
 20
-19.205784
 30
0.0
 11
76.616648
 21
-19.206194
 31
0.0
  0
LINE
  5
605
100
AcDbEntity
  8
0
390
0
  6
Continuous
 62
     7
100
AcDbLine
 10
76.398871
 20
-19.196903
 30
0.0
 11
76.50921
 21
-19.205784
 31
0.0
  0
LINE
  5
606
100
AcDbEntity
  8
0
390
0
  6
Continuous
 62
     7
100
AcDbLine
 10
76.285545
 20
-19.179455
 30
0.0
 11
76.398871
 21
-19.196903
 31
0.0
  0
LINE
  5
607
100
AcDbEntity
  8
0
390
0
  6
Continuous
 62
     7
100
AcDbLine
 10
76.169228
 20
-19.153348
 30
0.0
 11
76.285545
 21
-19.179455
 31
0.0
  0
LINE
  5
608
100
AcDbEntity
  8
0
390
0
  6
Continuous
 62
     7
100
AcDbLine
 10
76.048952
 20
-19.118103
 30
0.0
 11
76.169228
 21
-19.153348
 31
0.0
  0
LINE
  5
609
100
AcDbEntity
  8
0
390
0
  6
Continuous
 62
     7
100
AcDbLine
 10
75.935849
 20
-19.076496
 30
0.0
 11
76.048952
 21
-19.118103
 31
0.0
  0
LINE
  5
60A
100
AcDbEntity
  8
0
390
0
  6
Continuous
 62
     7
100
AcDbLine
 10
75.829904
 20
-19.028617
 30
0.0
 11
75.935849
 21
-19.076496
 31
0.0
  0
LINE
  5
60B
100
AcDbEntity
  8
0
390
0
  6
Continuous
 62
     7
100
AcDbLine
 10
75.731
 20
-18.974511
 30
0.0
 11
75.829904
 21
-19.028617
 31
0.0
  0
LINE
  5
60C
100
AcDbEntity
  8
0
390
0
  6
Continuous
 62
     7
100
AcDbLine
 10
75.638995
 20
-18.914198
 30
0.0
 11
75.731
 21
-18.974511
 31
0.0
  0
LINE
  5
60D
100
AcDbEntity
  8
0
390
0
  6
Continuous
 62
     7
100
AcDbLine
 10
75.55373
 20
-18.847651
 30
0.0
 11
75.638995
 21
-18.914198
 31
0.0
  0
LINE
  5
60E
100
AcDbEntity
  8
0
390
0
  6
Continuous
 62
     7
100
AcDbLine
 10
75.475049
 20
-18.774802
 30
0.0
 11
75.55373
 21
-18.847651
 31
0.0
  0
LINE
  5
60F
100
AcDbEntity
  8
0
390
0
  6
Continuous
 62
     7
100
AcDbLine
 10
75.40281
 20
-18.69554
 30
0.0
 11
75.475049
 21
-18.774802
 31
0.0
  0
LINE
  5
610
100
AcDbEntity
  8
0
390
0
  6
Continuous
 62
     7
100
AcDbLine
 10
75.336904
 20
-18.609724
 30
0.0
 11
75.40281
 21
-18.69554
 31
0.0
  0
LINE
  5
611
100
AcDbEntity
  8
0
390
0
  6
Continuous
 62
     7
100
AcDbLine
 10
75.277306
 20
-18.517257
 30
0.0
 11
75.336904
 21
-18.609724
 31
0.0
  0
LINE
  5
612
100
AcDbEntity
  8
0
390
0
  6
Continuous
 62
     7
100
AcDbLine
 10
75.221246
 20
-18.412519
 30
0.0
 11
75.277306
 21
-18.517257
 31
0.0
  0
LINE
  5
613
100
AcDbEntity
  8
0
390
0
  6
Continuous
 62
     7
100
AcDbLine
 10
75.174827
 20
-18.305088
 30
0.0
 11
75.221246
 21
-18.412519
 31
0.0
  0
LINE
  5
614
100
AcDbEntity
  8
0
390
0
  6
Continuous
 62
     7
100
AcDbLine
 10
75.137946
 20
-18.194823
 30
0.0
 11
75.174827
 21
-18.305088
 31
0.0
  0
LINE
  5
615
100
AcDbEntity
  8
0
390
0
  6
Continuous
 62
     7
100
AcDbLine
 10
75.110538
 20
-18.081551
 30
0.0
 11
75.137946
 21
-18.194823
 31
0.0
  0
LINE
  5
616
100
AcDbEntity
  8
0
390
0
  6
Continuous
 62
     7
100
AcDbLine
 10
75.092585
 20
-17.965093
 30
0.0
 11
75.110538
 21
-18.081551
 31
0.0
  0
LINE
  5
617
100
AcDbEntity
  8
0
390
0
  6
Continuous
 62
     7
100
AcDbLine
 10
75.084112
 20
-17.845277
 30
0.0
 11
75.092585
 21
-17.965093
 31
0.0
  0
LINE
  5
618
100
AcDbEntity
  8
0
390
0
  6
Continuous
 62
     7
100
AcDbLine
 10
75.085181
 20
-17.721958
 30
0.0
 11
75.084112
 21
-17.845277
 31
0.0
  0
LINE
  5
619
100
AcDbEntity
  8
0
390
0
  6
Continuous
 62
     7
100
AcDbLine
 10
75.095882
 20
-17.595026
 30
0.0
 11
75.085181
 21
-17.721958
 31
0.0
  0
LINE
  5
61A
100
AcDbEntity
  8
0
390
0
  6
Continuous
 62
     7
100
AcDbLine
 10
75.116317
 20
-17.464411
 30
0.0
 11
75.095882
 21
-17.595026
 31
0.0
  0
LINE
  5
61B
100
AcDbEntity
  8
0
390
0
  6
Continuous
 62
     7
100
AcDbLine
 10
75.146571
 20
-17.330148
 30
0.0
 11
75.116317
 21
-17.464411
 31
0.0
  0
LINE
  5
61C
100
AcDbEntity
  8
0
390
0
  6
Continuous
 62
     7
100
AcDbLine
 10
75.183518
 20
-17.203933
 30
0.0
 11
75.146571
 21
-17.330148
 31
0.0
  0
LINE
  5
61D
100
AcDbEntity
  8
0
390
0
  6
Continuous
 62
     7
100
AcDbLine
 10
75.227048
 20
-17.085308
 30
0.0
 11
75.183518
 21
-17.203933
 31
0.0
  0
LINE
  5
61E
100
AcDbEntity
  8
0
390
0
  6
Continuous
 62
     7
100
AcDbLine
 10
75.277078
 20
-16.974233
 30
0.0
 11
75.227048
 21
-17.085308
 31
0.0
  0
LINE
  5
61F
100
AcDbEntity
  8
0
390
0
  6
Continuous
 62
     7
100
AcDbLine
 10
75.333556
 20
-16.870593
 30
0.0
 11
75.277078
 21
-16.974233
 31
0.0
  0
LINE
  5
620
100
AcDbEntity
  8
0
390
0
  6
Continuous
 62
     7
100
AcDbLine
 10
75.396464
 20
-16.774248
 30
0.0
 11
75.333556
 21
-16.870593
 31
0.0
  0
LINE
  5
621
100
AcDbEntity
  8
0
390
0
  6
Continuous
 62
     7
100
AcDbLine
 10
75.465819
 20
-16.68504
 30
0.0
 11
75.396464
 21
-16.774248
 31
0.0
  0
LINE
  5
622
100
AcDbEntity
  8
0
390
0
  6
Continuous
 62
     7
100
AcDbLine
 10
75.541686
 20
-16.602811
 30
0.0
 11
75.465819
 21
-16.68504
 31
0.0
  0
LINE
  5
623
100
AcDbEntity
  8
0
390
0
  6
Continuous
 62
     7
100
AcDbLine
 10
75.624173
 20
-16.527414
 30
0.0
 11
75.541686
 21
-16.602811
 31
0.0
  0
LINE
  5
624
100
AcDbEntity
  8
0
390
0
  6
Continuous
 62
     7
100
AcDbLine
 10
75.71342
 20
-16.458736
 30
0.0
 11
75.624173
 21
-16.527414
 31
0.0
  0
LINE
  5
625
100
AcDbEntity
  8
0
390
0
  6
Continuous
 62
     7
100
AcDbLine
 10
75.809754
 20
-16.396597
 30
0.0
 11
75.71342
 21
-16.458736
 31
0.0
  0
LINE
  5
626
100
AcDbEntity
  8
0
390
0
  6
Continuous
 62
     7
100
AcDbLine
 10
75.914205
 20
-16.340014
 30
0.0
 11
75.809754
 21
-16.396597
 31
0.0
  0
LINE
  5
627
100
AcDbEntity
  8
0
390
0
  6
Continuous
 62
     7
100
AcDbLine
 10
76.019696
 20
-16.292669
 30
0.0
 11
75.914205
 21
-16.340014
 31
0.0
  0
LINE
  5
628
100
AcDbEntity
  8
0
390
0
  6
Continuous
 62
     7
100
AcDbLine
 10
76.126044
 20
-16.254584
 30
0.0
 11
76.019696
 21
-16.292669
 31
0.0
  0
LINE
  5
629
100
AcDbEntity
  8
0
390
0
  6
Continuous
 62
     7
100
AcDbLine
 10
76.233357
 20
-16.225656
 30
0.0
 11
76.126044
 21
-16.254584
 31
0.0
  0
LINE
  5
62A
100
AcDbEntity
  8
0
390
0
  6
Continuous
 62
     7
100
AcDbLine
 10
76.341774
 20
-16.205806
 30
0.0
 11
76.233357
 21
-16.225656
 31
0.0
  0
LINE
  5
62B
100
AcDbEntity
  8
0
390
0
  6
Continuous
 62
     7
100
AcDbLine
 10
76.451457
 20
-16.19499
 30
0.0
 11
76.341774
 21
-16.205806
 31
0.0
  0
LINE
  5
62C
100
AcDbEntity
  8
0
390
0
  6
Continuous
 62
     7
100
AcDbLine
 10
76.562572
 20
-16.193206
 30
0.0
 11
76.451457
 21
-16.19499
 31
0.0
  0
LINE
  5
62D
100
AcDbEntity
  8
0
390
0
  6
Continuous
 62
     7
100
AcDbLine
 10
76.675276
 20
-16.200492
 30
0.0
 11
76.562572
 21
-16.193206
 31
0.0
  0
LINE
  5
62E
100
AcDbEntity
  8
0
390
0
  6
Continuous
 62
     7
100
AcDbLine
 10
76.789701
 20
-16.216915
 30
0.0
 11
76.675276
 21
-16.200492
 31
0.0
  0
LINE
  5
62F
100
AcDbEntity
  8
0
390
0
  6
Continuous
 62
     7
100
AcDbLine
 10
76.906172
 20
-16.242617
 30
0.0
 11
76.789701
 21
-16.216915
 31
0.0
  0
LINE
  5
630
100
AcDbEntity
  8
0
390
0
  6
Continuous
 62
     7
100
AcDbLine
 10
77.02912
 20
-16.278407
 30
0.0
 11
76.906172
 21
-16.242617
 31
0.0
  0
LINE
  5
631
100
AcDbEntity
  8
0
390
0
  6
Continuous
 62
     7
100
AcDbLine
 10
77.14425
 20
-16.320115
 30
0.0
 11
77.02912
 21
-16.278407
 31
0.0
  0
LINE
  5
632
100
AcDbEntity
  8
0
390
0
  6
Continuous
 62
     7
100
AcDbLine
 10
77.251288
 20
-16.367555
 30
0.0
 11
77.14425
 21
-16.320115
 31
0.0
  0
LINE
  5
633
100
AcDbEntity
  8
0
390
0
  6
Continuous
 62
     7
100
AcDbLine
 10
77.350333
 20
-16.420648
 30
0.0
 11
77.251288
 21
-16.367555
 31
0.0
  0
LINE
  5
634
100
AcDbEntity
  8
0
390
0
  6
Continuous
 62
     7
100
AcDbLine
 10
77.441521
 20
-16.479336
 30
0.0
 11
77.350333
 21
-16.420648
 31
0.0
  0
LINE
  5
635
100
AcDbEntity
  8
0
390
0
  6
Continuous
 62
     7
100
AcDbLine
 10
77.525016
 20
-16.543602
 30
0.0
 11
77.441521
 21
-16.479336
 31
0.0
  0
LINE
  5
636
100
AcDbEntity
  8
0
390
0
  6
Continuous
 62
     7
100
AcDbLine
 10
77.601007
 20
-16.613481
 30
0.0
 11
77.525016
 21
-16.543602
 31
0.0
  0
LINE
  5
637
100
AcDbEntity
  8
0
390
0
  6
Continuous
 62
     7
100
AcDbLine
 10
77.669679
 20
-16.689066
 30
0.0
 11
77.601007
 21
-16.613481
 31
0.0
  0
LINE
  5
638
100
AcDbEntity
  8
0
390
0
  6
Continuous
 62
     7
100
AcDbLine
 10
77.731192
 20
-16.7705
 30
0.0
 11
77.669679
 21
-16.689066
 31
0.0
  0
LINE
  5
639
100
AcDbEntity
  8
0
390
0
  6
Continuous
 62
     7
100
AcDbLine
 10
77.786768
 20
-16.859738
 30
0.0
 11
77.731192
 21
-16.7705
 31
0.0
  0
LINE
  5
63A
100
AcDbEntity
  8
0
390
0
  6
Continuous
 62
     7
100
AcDbLine
 10
77.812134
 20
-16.905002
 30
0.0
 11
77.786768
 21
-16.859738
 31
0.0
  0
LINE
  5
63B
100
AcDbEntity
  8
0
390
0
  6
Continuous
 62
     7
100
AcDbLine
 10
77.834529
 20
-16.949587
 30
0.0
 11
77.812134
 21
-16.905002
 31
0.0
  0
LINE
  5
63C
100
AcDbEntity
  8
0
390
0
  6
Continuous
 62
     7
100
AcDbLine
 10
77.853899
 20
-16.993305
 30
0.0
 11
77.834529
 21
-16.949587
 31
0.0
  0
LINE
  5
63D
100
AcDbEntity
  8
0
390
0
  6
Continuous
 62
     7
100
AcDbLine
 10
77.870289
 20
-17.036146
 30
0.0
 11
77.853899
 21
-16.993305
 31
0.0
  0
LINE
  5
63E
100
AcDbEntity
  8
0
390
0
  6
Continuous
 62
     7
100
AcDbLine
 10
77.883753
 20
-17.078103
 30
0.0
 11
77.870289
 21
-17.036146
 31
0.0
  0
LINE
  5
63F
100
AcDbEntity
  8
0
390
0
  6
Continuous
 62
     7
100
AcDbLine
 10
77.894351
 20
-17.119186
 30
0.0
 11
77.883753
 21
-17.078103
 31
0.0
  0
LINE
  5
640
100
AcDbEntity
  8
0
390
0
  6
Continuous
 62
     7
100
AcDbLine
 10
77.902146
 20
-17.159422
 30
0.0
 11
77.894351
 21
-17.119186
 31
0.0
  0
LINE
  5
641
100
AcDbEntity
  8
0
390
0
  6
Continuous
 62
     7
100
AcDbLine
 10
77.907198
 20
-17.198856
 30
0.0
 11
77.902146
 21
-17.159422
 31
0.0
  0
LINE
  5
642
100
AcDbEntity
  8
0
390
0
  6
Continuous
 62
     7
100
AcDbLine
 10
77.909565
 20
-17.237548
 30
0.0
 11
77.907198
 21
-17.198856
 31
0.0
  0
LINE
  5
643
100
AcDbEntity
  8
0
390
0
  6
Continuous
 62
     7
100
AcDbLine
 10
77.909299
 20
-17.274228
 30
0.0
 11
77.909565
 21
-17.237548
 31
0.0
  0
LINE
  5
644
100
AcDbEntity
  8
0
390
0
  6
Continuous
 62
     7
100
AcDbLine
 10
77.907209
 20
-17.294263
 30
0.0
 11
77.909299
 21
-17.274228
 31
0.0
  0
LINE
  5
645
100
AcDbEntity
  8
0
390
0
  6
Continuous
 62
     7
100
AcDbLine
 10
77.903815
 20
-17.30988
 30
0.0
 11
77.907209
 21
-17.294263
 31
0.0
  0
LINE
  5
646
100
AcDbEntity
  8
0
390
0
  6
Continuous
 62
     7
100
AcDbLine
 10
77.899807
 20
-17.321077
 30
0.0
 11
77.903815
 21
-17.30988
 31
0.0
  0
LINE
  5
647
100
AcDbEntity
  8
0
390
0
  6
Continuous
 62
     7
100
AcDbLine
 10
77.895802
 20
-17.328523
 30
0.0
 11
77.899807
 21
-17.321077
 31
0.0
  0
LINE
  5
648
100
AcDbEntity
  8
0
390
0
  6
Continuous
 62
     7
100
AcDbLine
 10
77.892027
 20
-17.33339
 30
0.0
 11
77.895802
 21
-17.328523
 31
0.0
  0
LINE
  5
649
100
AcDbEntity
  8
0
390
0
  6
Continuous
 62
     7
100
AcDbLine
 10
77.887993
 20
-17.337041
 30
0.0
 11
77.892027
 21
-17.33339
 31
0.0
  0
LINE
  5
64A
100
AcDbEntity
  8
0
390
0
  6
Continuous
 62
     7
100
AcDbLine
 10
77.882522
 20
-17.340475
 30
0.0
 11
77.887993
 21
-17.337041
 31
0.0
  0
LINE
  5
64B
100
AcDbEntity
  8
0
390
0
  6
Continuous
 62
     7
100
AcDbLine
 10
77.874229
 20
-17.34395
 30
0.0
 11
77.882522
 21
-17.340475
 31
0.0
  0
LINE
  5
64C
100
AcDbEntity
  8
0
390
0
  6
Continuous
 62
     7
100
AcDbLine
 10
77.862044
 20
-17.347068
 30
0.0
 11
77.874229
 21
-17.34395
 31
0.0
  0
LINE
  5
64D
100
AcDbEntity
  8
0
390
0
  6
Continuous
 62
     7
100
AcDbLine
 10
77.850749
 20
-17.34848
 30
0.0
 11
77.862044
 21
-17.347068
 31
0.0
  0
LINE
  5
64E
100
AcDbEntity
  8
0
390
0
  6
Continuous
 62
     7
100
AcDbLine
 10
77.839878
 20
-17.347512
 30
0.0
 11
77.850749
 21
-17.34848
 31
0.0
  0
LINE
  5
64F
100
AcDbEntity
  8
0
390
0
  6
Continuous
 62
     7
100
AcDbLine
 10
77.827413
 20
-17.344847
 30
0.0
 11
77.839878
 21
-17.347512
 31
0.0
  0
LINE
  5
650
100
AcDbEntity
  8
0
390
0
  6
Continuous
 62
     7
100
AcDbLine
 10
77.818309
 20
-17.341529
 30
0.0
 11
77.827413
 21
-17.344847
 31
0.0
  0
LINE
  5
651
100
AcDbEntity
  8
0
390
0
  6
Continuous
 62
     7
100
AcDbLine
 10
77.811679
 20
-17.337882
 30
0.0
 11
77.818309
 21
-17.341529
 31
0.0
  0
LINE
  5
652
100
AcDbEntity
  8
0
390
0
  6
Continuous
 62
     7
100
AcDbLine
 10
77.806388
 20
-17.333732
 30
0.0
 11
77.811679
 21
-17.337882
 31
0.0
  0
LINE
  5
653
100
AcDbEntity
  8
0
390
0
  6
Continuous
 62
     7
100
AcDbLine
 10
77.80144
 20
-17.328343
 30
0.0
 11
77.806388
 21
-17.333732
 31
0.0
  0
LINE
  5
654
100
AcDbEntity
  8
0
390
0
  6
Continuous
 62
     7
100
AcDbLine
 10
77.796324
 20
-17.320658
 30
0.0
 11
77.80144
 21
-17.328343
 31
0.0
  0
LINE
  5
655
100
AcDbEntity
  8
0
390
0
  6
Continuous
 62
     7
100
AcDbLine
 10
77.791088
 20
-17.309693
 30
0.0
 11
77.796324
 21
-17.320658
 31
0.0
  0
LINE
  5
656
100
AcDbEntity
  8
0
390
0
  6
Continuous
 62
     7
100
AcDbLine
 10
77.78614
 20
-17.294795
 30
0.0
 11
77.791088
 21
-17.309693
 31
0.0
  0
LINE
  5
657
100
AcDbEntity
  8
0
390
0
  6
Continuous
 62
     7
100
AcDbLine
 10
77.78277
 20
-17.279208
 30
0.0
 11
77.78614
 21
-17.294795
 31
0.0
  0
LINE
  5
658
100
AcDbEntity
  8
0
390
0
  6
Continuous
 62
     7
100
AcDbLine
 10
77.780842
 20
-17.239882
 30
0.0
 11
77.78277
 21
-17.279208
 31
0.0
  0
LINE
  5
659
100
AcDbEntity
  8
0
390
0
  6
Continuous
 62
     7
100
AcDbLine
 10
77.776024
 20
-17.190627
 30
0.0
 11
77.780842
 21
-17.239882
 31
0.0
  0
LINE
  5
65A
100
AcDbEntity
  8
0
390
0
  6
Continuous
 62
     7
100
AcDbLine
 10
77.768821
 20
-17.142038
 30
0.0
 11
77.776024
 21
-17.190627
 31
0.0
  0
LINE
  5
65B
100
AcDbEntity
  8
0
390
0
  6
Continuous
 62
     7
100
AcDbLine
 10
77.759224
 20
-17.09415
 30
0.0
 11
77.768821
 21
-17.142038
 31
0.0
  0
LINE
  5
65C
100
AcDbEntity
  8
0
390
0
  6
Continuous
 62
     7
100
AcDbLine
 10
77.747228
 20
-17.047004
 30
0.0
 11
77.759224
 21
-17.09415
 31
0.0
  0
LINE
  5
65D
100
AcDbEntity
  8
0
390
0
  6
Continuous
 62
     7
100
AcDbLine
 10
77.732838
 20
-17.000641
 30
0.0
 11
77.747228
 21
-17.047004
 31
0.0
  0
LINE
  5
65E
100
AcDbEntity
  8
0
390
0
  6
Continuous
 62
     7
100
AcDbLine
 10
77.716063
 20
-16.955101
 30
0.0
 11
77.732838
 21
-17.000641
 31
0.0
  0
LINE
  5
65F
100
AcDbEntity
  8
0
390
0
  6
Continuous
 62
     7
100
AcDbLine
 10
77.696919
 20
-16.910422
 30
0.0
 11
77.716063
 21
-16.955101
 31
0.0
  0
LINE
  5
660
100
AcDbEntity
  8
0
390
0
  6
Continuous
 62
     7
100
AcDbLine
 10
77.675427
 20
-16.866642
 30
0.0
 11
77.696919
 21
-16.910422
 31
0.0
  0
LINE
  5
661
100
AcDbEntity
  8
0
390
0
  6
Continuous
 62
     7
100
AcDbLine
 10
77.651187
 20
-16.823021
 30
0.0
 11
77.675427
 21
-16.866642
 31
0.0
  0
LINE
  5
662
100
AcDbEntity
  8
0
390
0
  6
Continuous
 62
     7
100
AcDbLine
 10
77.601686
 20
-16.746591
 30
0.0
 11
77.651187
 21
-16.823021
 31
0.0
  0
LINE
  5
663
100
AcDbEntity
  8
0
390
0
  6
Continuous
 62
     7
100
AcDbLine
 10
77.545623
 20
-16.674502
 30
0.0
 11
77.601686
 21
-16.746591
 31
0.0
  0
LINE
  5
664
100
AcDbEntity
  8
0
390
0
  6
Continuous
 62
     7
100
AcDbLine
 10
77.483552
 20
-16.607617
 30
0.0
 11
77.545623
 21
-16.674502
 31
0.0
  0
LINE
  5
665
100
AcDbEntity
  8
0
390
0
  6
Continuous
 62
     7
100
AcDbLine
 10
77.415614
 20
-16.546072
 30
0.0
 11
77.483552
 21
-16.607617
 31
0.0
  0
LINE
  5
666
100
AcDbEntity
  8
0
390
0
  6
Continuous
 62
     7
100
AcDbLine
 10
77.341974
 20
-16.489956
 30
0.0
 11
77.415614
 21
-16.546072
 31
0.0
  0
LINE
  5
667
100
AcDbEntity
  8
0
390
0
  6
Continuous
 62
     7
100
AcDbLine
 10
77.2628
 20
-16.439311
 30
0.0
 11
77.341974
 21
-16.489956
 31
0.0
  0
LINE
  5
668
100
AcDbEntity
  8
0
390
0
  6
Continuous
 62
     7
100
AcDbLine
 10
77.178249
 20
-16.39413
 30
0.0
 11
77.2628
 21
-16.439311
 31
0.0
  0
LINE
  5
669
100
AcDbEntity
  8
0
390
0
  6
Continuous
 62
     7
100
AcDbLine
 10
77.08845
 20
-16.354371
 30
0.0
 11
77.178249
 21
-16.39413
 31
0.0
  0
LINE
  5
66A
100
AcDbEntity
  8
0
390
0
  6
Continuous
 62
     7
100
AcDbLine
 10
76.993503
 20
-16.319966
 30
0.0
 11
77.08845
 21
-16.354371
 31
0.0
  0
LINE
  5
66B
100
AcDbEntity
  8
0
390
0
  6
Continuous
 62
     7
100
AcDbLine
 10
76.892855
 20
-16.290656
 30
0.0
 11
76.993503
 21
-16.319966
 31
0.0
  0
LINE
  5
66C
100
AcDbEntity
  8
0
390
0
  6
Continuous
 62
     7
100
AcDbLine
 10
76.794164
 20
-16.269509
 30
0.0
 11
76.892855
 21
-16.290656
 31
0.0
  0
LINE
  5
66D
100
AcDbEntity
  8
0
390
0
  6
Continuous
 62
     7
100
AcDbLine
 10
76.694208
 20
-16.256891
 30
0.0
 11
76.794164
 21
-16.269509
 31
0.0
  0
LINE
  5
66E
100
AcDbEntity
  8
0
390
0
  6
Continuous
 62
     7
100
AcDbLine
 10
76.593708
 20
-16.252967
 30
0.0
 11
76.694208
 21
-16.256891
 31
0.0
  0
LINE
  5
66F
100
AcDbEntity
  8
0
390
0
  6
Continuous
 62
     7
100
AcDbLine
 10
76.492856
 20
-16.25774
 30
0.0
 11
76.593708
 21
-16.252967
 31
0.0
  0
LINE
  5
670
100
AcDbEntity
  8
0
390
0
  6
Continuous
 62
     7
100
AcDbLine
 10
76.391831
 20
-16.271161
 30
0.0
 11
76.492856
 21
-16.25774
 31
0.0
  0
LINE
  5
671
100
AcDbEntity
  8
0
390
0
  6
Continuous
 62
     7
100
AcDbLine
 10
76.290785
 20
-16.293145
 30
0.0
 11
76.391831
 21
-16.271161
 31
0.0
  0
LINE
  5
672
100
AcDbEntity
  8
0
390
0
  6
Continuous
 62
     7
100
AcDbLine
 10
76.189828
 20
-16.323583
 30
0.0
 11
76.290785
 21
-16.293145
 31
0.0
  0
LINE
  5
673
100
AcDbEntity
  8
0
390
0
  6
Continuous
 62
     7
100
AcDbLine
 10
76.089028
 20
-16.362352
 30
0.0
 11
76.189828
 21
-16.323583
 31
0.0
  0
LINE
  5
674
100
AcDbEntity
  8
0
390
0
  6
Continuous
 62
     7
100
AcDbLine
 10
75.988412
 20
-16.409335
 30
0.0
 11
76.089028
 21
-16.362352
 31
0.0
  0
LINE
  5
675
100
AcDbEntity
  8
0
390
0
  6
Continuous
 62
     7
100
AcDbLine
 10
75.887171
 20
-16.464868
 30
0.0
 11
75.988412
 21
-16.409335
 31
0.0
  0
LINE
  5
676
100
AcDbEntity
  8
0
390
0
  6
Continuous
 62
     7
100
AcDbLine
 10
75.802389
 20
-16.520416
 30
0.0
 11
75.887171
 21
-16.464868
 31
0.0
  0
LINE
  5
677
100
AcDbEntity
  8
0
390
0
  6
Continuous
 62
     7
100
AcDbLine
 10
75.722362
 20
-16.584503
 30
0.0
 11
75.802389
 21
-16.520416
 31
0.0
  0
LINE
  5
678
100
AcDbEntity
  8
0
390
0
  6
Continuous
 62
     7
100
AcDbLine
 10
75.647958
 20
-16.656472
 30
0.0
 11
75.722362
 21
-16.584503
 31
0.0
  0
LINE
  5
679
100
AcDbEntity
  8
0
390
0
  6
Continuous
 62
     7
100
AcDbLine
 10
75.579274
 20
-16.736117
 30
0.0
 11
75.647958
 21
-16.656472
 31
0.0
  0
LINE
  5
67A
100
AcDbEntity
  8
0
390
0
  6
Continuous
 62
     7
100
AcDbLine
 10
75.516334
 20
-16.823229
 30
0.0
 11
75.579274
 21
-16.736117
 31
0.0
  0
LINE
  5
67B
100
AcDbEntity
  8
0
390
0
  6
Continuous
 62
     7
100
AcDbLine
 10
75.459106
 20
-16.917632
 30
0.0
 11
75.516334
 21
-16.823229
 31
0.0
  0
LINE
  5
67C
100
AcDbEntity
  8
0
390
0
  6
Continuous
 62
     7
100
AcDbLine
 10
75.407518
 20
-17.01919
 30
0.0
 11
75.459106
 21
-16.917632
 31
0.0
  0
LINE
  5
67D
100
AcDbEntity
  8
0
390
0
  6
Continuous
 62
     7
100
AcDbLine
 10
75.361476
 20
-17.127808
 30
0.0
 11
75.407518
 21
-17.01919
 31
0.0
  0
LINE
  5
67E
100
AcDbEntity
  8
0
390
0
  6
Continuous
 62
     7
100
AcDbLine
 10
75.320879
 20
-17.243431
 30
0.0
 11
75.361476
 21
-17.127808
 31
0.0
  0
LINE
  5
67F
100
AcDbEntity
  8
0
390
0
  6
Continuous
 62
     7
100
AcDbLine
 10
75.28562
 20
-17.366063
 30
0.0
 11
75.320879
 21
-17.243431
 31
0.0
  0
LINE
  5
680
100
AcDbEntity
  8
0
390
0
  6
Continuous
 62
     7
100
AcDbLine
 10
75.256271
 20
-17.493226
 30
0.0
 11
75.28562
 21
-17.366063
 31
0.0
  0
LINE
  5
681
100
AcDbEntity
  8
0
390
0
  6
Continuous
 62
     7
100
AcDbLine
 10
75.235066
 20
-17.616484
 30
0.0
 11
75.256271
 21
-17.493226
 31
0.0
  0
LINE
  5
682
100
AcDbEntity
  8
0
390
0
  6
Continuous
 62
     7
100
AcDbLine
 10
75.22208
 20
-17.735965
 30
0.0
 11
75.235066
 21
-17.616484
 31
0.0
  0
LINE
  5
683
100
AcDbEntity
  8
0
390
0
  6
Continuous
 62
     7
100
AcDbLine
 10
75.217429
 20
-17.85168
 30
0.0
 11
75.22208
 21
-17.735965
 31
0.0
  0
LINE
  5
684
100
AcDbEntity
  8
0
390
0
  6
Continuous
 62
     7
100
AcDbLine
 10
75.221245
 20
-17.963602
 30
0.0
 11
75.217429
 21
-17.85168
 31
0.0
  0
LINE
  5
685
100
AcDbEntity
  8
0
390
0
  6
Continuous
 62
     7
100
AcDbLine
 10
75.233665
 20
-18.071661
 30
0.0
 11
75.221245
 21
-17.963602
 31
0.0
  0
LINE
  5
686
100
AcDbEntity
  8
0
390
0
  6
Continuous
 62
     7
100
AcDbLine
 10
75.254817
 20
-18.175725
 30
0.0
 11
75.233665
 21
-18.071661
 31
0.0
  0
LINE
  5
687
100
AcDbEntity
  8
0
390
0
  6
Continuous
 62
     7
100
AcDbLine
 10
75.284794
 20
-18.275605
 30
0.0
 11
75.254817
 21
-18.175725
 31
0.0
  0
LINE
  5
688
100
AcDbEntity
  8
0
390
0
  6
Continuous
 62
     7
100
AcDbLine
 10
75.323634
 20
-18.371065
 30
0.0
 11
75.284794
 21
-18.275605
 31
0.0
  0
LINE
  5
689
100
AcDbEntity
  8
0
390
0
  6
Continuous
 62
     7
100
AcDbLine
 10
75.370877
 20
-18.461041
 30
0.0
 11
75.323634
 21
-18.371065
 31
0.0
  0
LINE
  5
68A
100
AcDbEntity
  8
0
390
0
  6
Continuous
 62
     7
100
AcDbLine
 10
75.432528
 20
-18.558742
 30
0.0
 11
75.370877
 21
-18.461041
 31
0.0
  0
LINE
  5
68B
100
AcDbEntity
  8
0
390
0
  6
Continuous
 62
     7
100
AcDbLine
 10
75.49775
 20
-18.648615
 30
0.0
 11
75.432528
 21
-18.558742
 31
0.0
  0
LINE
  5
68C
100
AcDbEntity
  8
0
390
0
  6
Continuous
 62
     7
100
AcDbLine
 10
75.567115
 20
-18.731394
 30
0.0
 11
75.49775
 21
-18.648615
 31
0.0
  0
LINE
  5
68D
100
AcDbEntity
  8
0
390
0
  6
Continuous
 62
     7
100
AcDbLine
 10
75.640657
 20
-18.806961
 30
0.0
 11
75.567115
 21
-18.731394
 31
0.0
  0
LINE
  5
68E
100
AcDbEntity
  8
0
390
0
  6
Continuous
 62
     7
100
AcDbLine
 10
75.718374
 20
-18.875178
 30
0.0
 11
75.640657
 21
-18.806961
 31
0.0
  0
LINE
  5
68F
100
AcDbEntity
  8
0
390
0
  6
Continuous
 62
     7
100
AcDbLine
 10
75.800224
 20
-18.935895
 30
0.0
 11
75.718374
 21
-18.875178
 31
0.0
  0
LINE
  5
690
100
AcDbEntity
  8
0
390
0
  6
Continuous
 62
     7
100
AcDbLine
 10
75.886117
 20
-18.988964
 30
0.0
 11
75.800224
 21
-18.935895
 31
0.0
  0
LINE
  5
691
100
AcDbEntity
  8
0
390
0
  6
Continuous
 62
     7
100
AcDbLine
 10
75.975918
 20
-19.034257
 30
0.0
 11
75.886117
 21
-18.988964
 31
0.0
  0
LINE
  5
692
100
AcDbEntity
  8
0
390
0
  6
Continuous
 62
     7
100
AcDbLine
 10
76.069458
 20
-19.071681
 30
0.0
 11
75.975918
 21
-19.034257
 31
0.0
  0
LINE
  5
693
100
AcDbEntity
  8
0
390
0
  6
Continuous
 62
     7
100
AcDbLine
 10
76.1663
 20
-19.101117
 30
0.0
 11
76.069458
 21
-19.071681
 31
0.0
  0
LINE
  5
694
100
AcDbEntity
  8
0
390
0
  6
Continuous
 62
     7
100
AcDbLine
 10
76.26704
 20
-19.123336
 30
0.0
 11
76.1663
 21
-19.101117
 31
0.0
  0
LINE
  5
695
100
AcDbEntity
  8
0
390
0
  6
Continuous
 62
     7
100
AcDbLine
 10
76.366891
 20
-19.137635
 30
0.0
 11
76.26704
 21
-19.123336
 31
0.0
  0
LINE
  5
696
100
AcDbEntity
  8
0
390
0
  6
Continuous
 62
     7
100
AcDbLine
 10
76.466096
 20
-19.143999
 30
0.0
 11
76.366891
 21
-19.137635
 31
0.0
  0
LINE
  5
697
100
AcDbEntity
  8
0
390
0
  6
Continuous
 62
     7
100
AcDbLine
 10
76.564521
 20
-19.142359
 30
0.0
 11
76.466096
 21
-19.143999
 31
0.0
  0
LINE
  5
698
100
AcDbEntity
  8
0
390
0
  6
Continuous
 62
     7
100
AcDbLine
 10
76.662009
 20
-19.132679
 30
0.0
 11
76.564521
 21
-19.142359
 31
0.0
  0
LINE
  5
699
100
AcDbEntity
  8
0
390
0
  6
Continuous
 62
     7
100
AcDbLine
 10
76.758393
 20
-19.114963
 30
0.0
 11
76.662009
 21
-19.132679
 31
0.0
  0
LINE
  5
69A
100
AcDbEntity
  8
0
390
0
  6
Continuous
 62
     7
100
AcDbLine
 10
76.853513
 20
-19.08926
 30
0.0
 11
76.758393
 21
-19.114963
 31
0.0
  0
LINE
  5
69B
100
AcDbEntity
  8
0
390
0
  6
Continuous
 62
     7
100
AcDbLine
 10
76.94723
 20
-19.055646
 30
0.0
 11
76.853513
 21
-19.08926
 31
0.0
  0
LINE
  5
69C
100
AcDbEntity
  8
0
390
0
  6
Continuous
 62
     7
100
AcDbLine
 10
77.039438
 20
-19.014227
 30
0.0
 11
76.94723
 21
-19.055646
 31
0.0
  0
LINE
  5
69D
100
AcDbEntity
  8
0
390
0
  6
Continuous
 62
     7
100
AcDbLine
 10
77.12984
 20
-18.96524
 30
0.0
 11
77.039438
 21
-19.014227
 31
0.0
  0
LINE
  5
69E
100
AcDbEntity
  8
0
390
0
  6
Continuous
 62
     7
100
AcDbLine
 10
77.176317
 20
-18.935985
 30
0.0
 11
77.12984
 21
-18.96524
 31
0.0
  0
LINE
  5
69F
100
AcDbEntity
  8
0
390
0
  6
Continuous
 62
     7
100
AcDbLine
 10
77.221001
 20
-18.904076
 30
0.0
 11
77.176317
 21
-18.935985
 31
0.0
  0
LINE
  5
6A0
100
AcDbEntity
  8
0
390
0
  6
Continuous
 62
     7
100
AcDbLine
 10
77.264118
 20
-18.869396
 30
0.0
 11
77.221001
 21
-18.904076
 31
0.0
  0
LINE
  5
6A1
100
AcDbEntity
  8
0
390
0
  6
Continuous
 62
     7
100
AcDbLine
 10
77.305646
 20
-18.831996
 30
0.0
 11
77.264118
 21
-18.869396
 31
0.0
  0
LINE
  5
6A2
100
AcDbEntity
  8
0
390
0
  6
Continuous
 62
     7
100
AcDbLine
 10
77.345573
 20
-18.791922
 30
0.0
 11
77.305646
 21
-18.831996
 31
0.0
  0
LINE
  5
6A3
100
AcDbEntity
  8
0
390
0
  6
Continuous
 62
     7
100
AcDbLine
 10
77.383895
 20
-18.749223
 30
0.0
 11
77.345573
 21
-18.791922
 31
0.0
  0
LINE
  5
6A4
100
AcDbEntity
  8
0
390
0
  6
Continuous
 62
     7
100
AcDbLine
 10
77.42062
 20
-18.703938
 30
0.0
 11
77.383895
 21
-18.749223
 31
0.0
  0
LINE
  5
6A5
100
AcDbEntity
  8
0
390
0
  6
Continuous
 62
     7
100
AcDbLine
 10
77.455759
 20
-18.656105
 30
0.0
 11
77.42062
 21
-18.703938
 31
0.0
  0
LINE
  5
6A6
100
AcDbEntity
  8
0
390
0
  6
Continuous
 62
     7
100
AcDbLine
 10
77.48933
 20
-18.605753
 30
0.0
 11
77.455759
 21
-18.656105
 31
0.0
  0
LINE
  5
6A7
100
AcDbEntity
  8
0
390
0
  6
Continuous
 62
     7
100
AcDbLine
 10
77.520496
 20
-18.554319
 30
0.0
 11
77.48933
 21
-18.605753
 31
0.0
  0
LINE
  5
6A8
100
AcDbEntity
  8
0
390
0
  6
Continuous
 62
     7
100
AcDbLine
 10
77.530795
 20
-18.537016
 30
0.0
 11
77.520496
 21
-18.554319
 31
0.0
  0
LINE
  5
6A9
100
AcDbEntity
  8
0
390
0
  6
Continuous
 62
     7
100
AcDbLine
 10
86.289822
 20
-16.798057
 30
0.0
 11
86.287168
 21
-16.767543
 31
0.0
  0
LINE
  5
6AA
100
AcDbEntity
  8
0
390
0
  6
Continuous
 62
     7
100
AcDbLine
 10
86.289439
 20
-16.829423
 30
0.0
 11
86.289822
 21
-16.798057
 31
0.0
  0
LINE
  5
6AB
100
AcDbEntity
  8
0
390
0
  6
Continuous
 62
     7
100
AcDbLine
 10
86.285921
 20
-16.8619
 30
0.0
 11
86.289439
 21
-16.829423
 31
0.0
  0
LINE
  5
6AC
100
AcDbEntity
  8
0
390
0
  6
Continuous
 62
     7
100
AcDbLine
 10
86.279116
 20
-16.895677
 30
0.0
 11
86.285921
 21
-16.8619
 31
0.0
  0
LINE
  5
6AD
100
AcDbEntity
  8
0
390
0
  6
Continuous
 62
     7
100
AcDbLine
 10
86.268846
 20
-16.930869
 30
0.0
 11
86.279116
 21
-16.895677
 31
0.0
  0
LINE
  5
6AE
100
AcDbEntity
  8
0
390
0
  6
Continuous
 62
     7
100
AcDbLine
 10
86.254937
 20
-16.967523
 30
0.0
 11
86.268846
 21
-16.930869
 31
0.0
  0
LINE
  5
6AF
100
AcDbEntity
  8
0
390
0
  6
Continuous
 62
     7
100
AcDbLine
 10
86.237235
 20
-17.00563
 30
0.0
 11
86.254937
 21
-16.967523
 31
0.0
  0
LINE
  5
6B0
100
AcDbEntity
  8
0
390
0
  6
Continuous
 62
     7
100
AcDbLine
 10
86.215617
 20
-17.045142
 30
0.0
 11
86.237235
 21
-17.00563
 31
0.0
  0
LINE
  5
6B1
100
AcDbEntity
  8
0
390
0
  6
Continuous
 62
     7
100
AcDbLine
 10
86.190168
 20
-17.085704
 30
0.0
 11
86.215617
 21
-17.045142
 31
0.0
  0
LINE
  5
6B2
100
AcDbEntity
  8
0
390
0
  6
Continuous
 62
     7
100
AcDbLine
 10
86.163701
 20
-17.122686
 30
0.0
 11
86.190168
 21
-17.085704
 31
0.0
  0
LINE
  5
6B3
100
AcDbEntity
  8
0
390
0
  6
Continuous
 62
     7
100
AcDbLine
 10
86.134213
 20
-17.159253
 30
0.0
 11
86.163701
 21
-17.122686
 31
0.0
  0
LINE
  5
6B4
100
AcDbEntity
  8
0
390
0
  6
Continuous
 62
     7
100
AcDbLine
 10
86.101671
 20
-17.195371
 30
0.0
 11
86.134213
 21
-17.159253
 31
0.0
  0
LINE
  5
6B5
100
AcDbEntity
  8
0
390
0
  6
Continuous
 62
     7
100
AcDbLine
 10
86.066028
 20
-17.231023
 30
0.0
 11
86.101671
 21
-17.195371
 31
0.0
  0
LINE
  5
6B6
100
AcDbEntity
  8
0
390
0
  6
Continuous
 62
     7
100
AcDbLine
 10
86.027241
 20
-17.266191
 30
0.0
 11
86.066028
 21
-17.231023
 31
0.0
  0
LINE
  5
6B7
100
AcDbEntity
  8
0
390
0
  6
Continuous
 62
     7
100
AcDbLine
 10
85.985278
 20
-17.300848
 30
0.0
 11
86.027241
 21
-17.266191
 31
0.0
  0
LINE
  5
6B8
100
AcDbEntity
  8
0
390
0
  6
Continuous
 62
     7
100
AcDbLine
 10
85.940116
 20
-17.334965
 30
0.0
 11
85.985278
 21
-17.300848
 31
0.0
  0
LINE
  5
6B9
100
AcDbEntity
  8
0
390
0
  6
Continuous
 62
     7
100
AcDbLine
 10
85.891735
 20
-17.368515
 30
0.0
 11
85.940116
 21
-17.334965
 31
0.0
  0
LINE
  5
6BA
100
AcDbEntity
  8
0
390
0
  6
Continuous
 62
     7
100
AcDbLine
 10
85.840126
 20
-17.401467
 30
0.0
 11
85.891735
 21
-17.368515
 31
0.0
  0
LINE
  5
6BB
100
AcDbEntity
  8
0
390
0
  6
Continuous
 62
     7
100
AcDbLine
 10
85.783844
 20
-17.434641
 30
0.0
 11
85.840126
 21
-17.401467
 31
0.0
  0
POLYLINE
  5
6BC
100
AcDbEntity
  8
0
390
0
  6
Continuous
 62
     7
100
AcDb2dPolyline
 66
     1
 10
0.0
 20
0.0
 30
0.0
 40
0.1
 41
0.1
  0
VERTEX
  5
6BD
100
AcDbEntity
  8
0
390
0
 62
     7
100
AcDbVertex
100
AcDb2dVertex
 10
85.82662
 20
-17.620469
 30
0.0
  0
VERTEX
  5
6BE
100
AcDbEntity
  8
0
390
0
 62
     7
100
AcDbVertex
100
AcDb2dVertex
 10
85.742422
 20
-17.559509
 30
0.0
  0
VERTEX
  5
6BF
100
AcDbEntity
  8
0
390
0
 62
     7
100
AcDbVertex
100
AcDb2dVertex
 10
85.755411
 20
-17.459753
 30
0.0
  0
VERTEX
  5
6C0
100
AcDbEntity
  8
0
390
0
 62
     7
100
AcDbVertex
100
AcDb2dVertex
 10
85.783844
 20
-17.434641
 30
0.0
  0
SEQEND
  5
6C1
100
AcDbEntity
  8
0
390
0
  0
LINE
  5
6C2
100
AcDbEntity
  8
0
390
0
  6
Continuous
 62
     7
100
AcDbLine
 10
85.917126
 20
-17.627735
 30
0.0
 11
85.82662
 21
-17.620469
 31
0.0
  0
LINE
  5
6C3
100
AcDbEntity
  8
0
390
0
  6
Continuous
 62
     7
100
AcDbLine
 10
86.000882
 20
-17.637476
 30
0.0
 11
85.917126
 21
-17.627735
 31
0.0
  0
LINE
  5
6C4
100
AcDbEntity
  8
0
390
0
  6
Continuous
 62
     7
100
AcDbLine
 10
86.079464
 20
-17.649777
 30
0.0
 11
86.000882
 21
-17.637476
 31
0.0
  0
LINE
  5
6C5
100
AcDbEntity
  8
0
390
0
  6
Continuous
 62
     7
100
AcDbLine
 10
86.152837
 20
-17.664576
 30
0.0
 11
86.079464
 21
-17.649777
 31
0.0
  0
LINE
  5
6C6
100
AcDbEntity
  8
0
390
0
  6
Continuous
 62
     7
100
AcDbLine
 10
86.220969
 20
-17.681798
 30
0.0
 11
86.152837
 21
-17.664576
 31
0.0
  0
LINE
  5
6C7
100
AcDbEntity
  8
0
390
0
  6
Continuous
 62
     7
100
AcDbLine
 10
86.283838
 20
-17.701352
 30
0.0
 11
86.220969
 21
-17.681798
 31
0.0
  0
LINE
  5
6C8
100
AcDbEntity
  8
0
390
0
  6
Continuous
 62
     7
100
AcDbLine
 10
86.341438
 20
-17.723131
 30
0.0
 11
86.283838
 21
-17.701352
 31
0.0
  0
LINE
  5
6C9
100
AcDbEntity
  8
0
390
0
  6
Continuous
 62
     7
100
AcDbLine
 10
86.393792
 20
-17.74701
 30
0.0
 11
86.341438
 21
-17.723131
 31
0.0
  0
LINE
  5
6CA
100
AcDbEntity
  8
0
390
0
  6
Continuous
 62
     7
100
AcDbLine
 10
86.440961
 20
-17.772858
 30
0.0
 11
86.393792
 21
-17.74701
 31
0.0
  0
LINE
  5
6CB
100
AcDbEntity
  8
0
390
0
  6
Continuous
 62
     7
100
AcDbLine
 10
86.483581
 20
-17.800894
 30
0.0
 11
86.440961
 21
-17.772858
 31
0.0
  0
LINE
  5
6CC
100
AcDbEntity
  8
0
390
0
  6
Continuous
 62
     7
100
AcDbLine
 10
86.523018
 20
-17.831311
 30
0.0
 11
86.483581
 21
-17.800894
 31
0.0
  0
LINE
  5
6CD
100
AcDbEntity
  8
0
390
0
  6
Continuous
 62
     7
100
AcDbLine
 10
86.55962
 20
-17.863649
 30
0.0
 11
86.523018
 21
-17.831311
 31
0.0
  0
LINE
  5
6CE
100
AcDbEntity
  8
0
390
0
  6
Continuous
 62
     7
100
AcDbLine
 10
86.593024
 20
-17.897566
 30
0.0
 11
86.55962
 21
-17.863649
 31
0.0
  0
LINE
  5
6CF
100
AcDbEntity
  8
0
390
0
  6
Continuous
 62
     7
100
AcDbLine
 10
86.623328
 20
-17.933095
 30
0.0
 11
86.593024
 21
-17.897566
 31
0.0
  0
LINE
  5
6D0
100
AcDbEntity
  8
0
390
0
  6
Continuous
 62
     7
100
AcDbLine
 10
86.650627
 20
-17.970298
 30
0.0
 11
86.623328
 21
-17.933095
 31
0.0
  0
LINE
  5
6D1
100
AcDbEntity
  8
0
390
0
  6
Continuous
 62
     7
100
AcDbLine
 10
86.675004
 20
-18.009258
 30
0.0
 11
86.650627
 21
-17.970298
 31
0.0
  0
LINE
  5
6D2
100
AcDbEntity
  8
0
390
0
  6
Continuous
 62
     7
100
AcDbLine
 10
86.696524
 20
-18.050076
 30
0.0
 11
86.675004
 21
-18.009258
 31
0.0
  0
LINE
  5
6D3
100
AcDbEntity
  8
0
390
0
  6
Continuous
 62
     7
100
AcDbLine
 10
86.715225
 20
-18.092865
 30
0.0
 11
86.696524
 21
-18.050076
 31
0.0
  0
LINE
  5
6D4
100
AcDbEntity
  8
0
390
0
  6
Continuous
 62
     7
100
AcDbLine
 10
86.731121
 20
-18.137738
 30
0.0
 11
86.715225
 21
-18.092865
 31
0.0
  0
LINE
  5
6D5
100
AcDbEntity
  8
0
390
0
  6
Continuous
 62
     7
100
AcDbLine
 10
86.744002
 20
-18.184086
 30
0.0
 11
86.731121
 21
-18.137738
 31
0.0
  0
LINE
  5
6D6
100
AcDbEntity
  8
0
390
0
  6
Continuous
 62
     7
100
AcDbLine
 10
86.753437
 20
-18.233235
 30
0.0
 11
86.744002
 21
-18.184086
 31
0.0
  0
LINE
  5
6D7
100
AcDbEntity
  8
0
390
0
  6
Continuous
 62
     7
100
AcDbLine
 10
86.757967
 20
-18.281885
 30
0.0
 11
86.753437
 21
-18.233235
 31
0.0
  0
LINE
  5
6D8
100
AcDbEntity
  8
0
390
0
  6
Continuous
 62
     7
100
AcDbLine
 10
86.757752
 20
-18.330956
 30
0.0
 11
86.757967
 21
-18.281885
 31
0.0
  0
LINE
  5
6D9
100
AcDbEntity
  8
0
390
0
  6
Continuous
 62
     7
100
AcDbLine
 10
86.752751
 20
-18.380713
 30
0.0
 11
86.757752
 21
-18.330956
 31
0.0
  0
LINE
  5
6DA
100
AcDbEntity
  8
0
390
0
  6
Continuous
 62
     7
100
AcDbLine
 10
86.742856
 20
-18.431377
 30
0.0
 11
86.752751
 21
-18.380713
 31
0.0
  0
LINE
  5
6DB
100
AcDbEntity
  8
0
390
0
  6
Continuous
 62
     7
100
AcDbLine
 10
86.727914
 20
-18.483113
 30
0.0
 11
86.742856
 21
-18.431377
 31
0.0
  0
LINE
  5
6DC
100
AcDbEntity
  8
0
390
0
  6
Continuous
 62
     7
100
AcDbLine
 10
86.707757
 20
-18.536014
 30
0.0
 11
86.727914
 21
-18.483113
 31
0.0
  0
LINE
  5
6DD
100
AcDbEntity
  8
0
390
0
  6
Continuous
 62
     7
100
AcDbLine
 10
86.682221
 20
-18.590115
 30
0.0
 11
86.707757
 21
-18.536014
 31
0.0
  0
LINE
  5
6DE
100
AcDbEntity
  8
0
390
0
  6
Continuous
 62
     7
100
AcDbLine
 10
86.651164
 20
-18.645398
 30
0.0
 11
86.682221
 21
-18.590115
 31
0.0
  0
LINE
  5
6DF
100
AcDbEntity
  8
0
390
0
  6
Continuous
 62
     7
100
AcDbLine
 10
86.614978
 20
-18.701042
 30
0.0
 11
86.651164
 21
-18.645398
 31
0.0
  0
LINE
  5
6E0
100
AcDbEntity
  8
0
390
0
  6
Continuous
 62
     7
100
AcDbLine
 10
86.565972
 20
-18.764965
 30
0.0
 11
86.614978
 21
-18.701042
 31
0.0
  0
LINE
  5
6E1
100
AcDbEntity
  8
0
390
0
  6
Continuous
 62
     7
100
AcDbLine
 10
86.508836
 20
-18.824986
 30
0.0
 11
86.565972
 21
-18.764965
 31
0.0
  0
LINE
  5
6E2
100
AcDbEntity
  8
0
390
0
  6
Continuous
 62
     7
100
AcDbLine
 10
86.44213
 20
-18.882527
 30
0.0
 11
86.508836
 21
-18.824986
 31
0.0
  0
LINE
  5
6E3
100
AcDbEntity
  8
0
390
0
  6
Continuous
 62
     7
100
AcDbLine
 10
86.3656
 20
-18.937472
 30
0.0
 11
86.44213
 21
-18.882527
 31
0.0
  0
LINE
  5
6E4
100
AcDbEntity
  8
0
390
0
  6
Continuous
 62
     7
100
AcDbLine
 10
86.279081
 20
-18.989659
 30
0.0
 11
86.3656
 21
-18.937472
 31
0.0
  0
LINE
  5
6E5
100
AcDbEntity
  8
0
390
0
  6
Continuous
 62
     7
100
AcDbLine
 10
86.182487
 20
-19.038907
 30
0.0
 11
86.279081
 21
-18.989659
 31
0.0
  0
LINE
  5
6E6
100
AcDbEntity
  8
0
390
0
  6
Continuous
 62
     7
100
AcDbLine
 10
86.075786
 20
-19.085053
 30
0.0
 11
86.182487
 21
-19.038907
 31
0.0
  0
LINE
  5
6E7
100
AcDbEntity
  8
0
390
0
  6
Continuous
 62
     7
100
AcDbLine
 10
85.958984
 20
-19.127956
 30
0.0
 11
86.075786
 21
-19.085053
 31
0.0
  0
LINE
  5
6E8
100
AcDbEntity
  8
0
390
0
  6
Continuous
 62
     7
100
AcDbLine
 10
85.832109
 20
-19.167499
 30
0.0
 11
85.958984
 21
-19.127956
 31
0.0
  0
LINE
  5
6E9
100
AcDbEntity
  8
0
390
0
  6
Continuous
 62
     7
100
AcDbLine
 10
85.695292
 20
-19.203563
 30
0.0
 11
85.832109
 21
-19.167499
 31
0.0
  0
LINE
  5
6EA
100
AcDbEntity
  8
0
390
0
  6
Continuous
 62
     7
100
AcDbLine
 10
85.562652
 20
-19.232694
 30
0.0
 11
85.695292
 21
-19.203563
 31
0.0
  0
LINE
  5
6EB
100
AcDbEntity
  8
0
390
0
  6
Continuous
 62
     7
100
AcDbLine
 10
85.436084
 20
-19.254483
 30
0.0
 11
85.562652
 21
-19.232694
 31
0.0
  0
LINE
  5
6EC
100
AcDbEntity
  8
0
390
0
  6
Continuous
 62
     7
100
AcDbLine
 10
85.315653
 20
-19.268992
 30
0.0
 11
85.436084
 21
-19.254483
 31
0.0
  0
LINE
  5
6ED
100
AcDbEntity
  8
0
390
0
  6
Continuous
 62
     7
100
AcDbLine
 10
85.201403
 20
-19.276302
 30
0.0
 11
85.315653
 21
-19.268992
 31
0.0
  0
LINE
  5
6EE
100
AcDbEntity
  8
0
390
0
  6
Continuous
 62
     7
100
AcDbLine
 10
85.093368
 20
-19.276516
 30
0.0
 11
85.201403
 21
-19.276302
 31
0.0
  0
LINE
  5
6EF
100
AcDbEntity
  8
0
390
0
  6
Continuous
 62
     7
100
AcDbLine
 10
84.588419
 20
-19.145507
 30
0.0
 11
84.644582
 21
-19.175529
 31
0.0
  0
LINE
  5
6F0
100
AcDbEntity
  8
0
390
0
  6
Continuous
 62
     7
100
AcDbLine
 10
84.536701
 20
-19.112901
 30
0.0
 11
84.588419
 21
-19.145507
 31
0.0
  0
LINE
  5
6F1
100
AcDbEntity
  8
0
390
0
  6
Continuous
 62
     7
100
AcDbLine
 10
84.49023
 20
-19.078286
 30
0.0
 11
84.536701
 21
-19.112901
 31
0.0
  0
LINE
  5
6F2
100
AcDbEntity
  8
0
390
0
  6
Continuous
 62
     7
100
AcDbLine
 10
84.448849
 20
-19.04172
 30
0.0
 11
84.49023
 21
-19.078286
 31
0.0
  0
LINE
  5
6F3
100
AcDbEntity
  8
0
390
0
  6
Continuous
 62
     7
100
AcDbLine
 10
84.412359
 20
-19.003204
 30
0.0
 11
84.448849
 21
-19.04172
 31
0.0
  0
LINE
  5
6F4
100
AcDbEntity
  8
0
390
0
  6
Continuous
 62
     7
100
AcDbLine
 10
84.380547
 20
-18.962674
 30
0.0
 11
84.412359
 21
-19.003204
 31
0.0
  0
LINE
  5
6F5
100
AcDbEntity
  8
0
390
0
  6
Continuous
 62
     7
100
AcDbLine
 10
84.353204
 20
-18.919993
 30
0.0
 11
84.380547
 21
-18.962674
 31
0.0
  0
LINE
  5
6F6
100
AcDbEntity
  8
0
390
0
  6
Continuous
 62
     7
100
AcDbLine
 10
84.330162
 20
-18.874958
 30
0.0
 11
84.353204
 21
-18.919993
 31
0.0
  0
LINE
  5
6F7
100
AcDbEntity
  8
0
390
0
  6
Continuous
 62
     7
100
AcDbLine
 10
84.311317
 20
-18.827322
 30
0.0
 11
84.330162
 21
-18.874958
 31
0.0
  0
LINE
  5
6F8
100
AcDbEntity
  8
0
390
0
  6
Continuous
 62
     7
100
AcDbLine
 10
84.296491
 20
-18.776319
 30
0.0
 11
84.311317
 21
-18.827322
 31
0.0
  0
LINE
  5
6F9
100
AcDbEntity
  8
0
390
0
  6
Continuous
 62
     7
100
AcDbLine
 10
84.286739
 20
-18.729102
 30
0.0
 11
84.296491
 21
-18.776319
 31
0.0
  0
LINE
  5
6FA
100
AcDbEntity
  8
0
390
0
  6
Continuous
 62
     7
100
AcDbLine
 10
84.280365
 20
-18.681926
 30
0.0
 11
84.286739
 21
-18.729102
 31
0.0
  0
LINE
  5
6FB
100
AcDbEntity
  8
0
390
0
  6
Continuous
 62
     7
100
AcDbLine
 10
84.277439
 20
-18.63532
 30
0.0
 11
84.280365
 21
-18.681926
 31
0.0
  0
LINE
  5
6FC
100
AcDbEntity
  8
0
390
0
  6
Continuous
 62
     7
100
AcDbLine
 10
84.277921
 20
-18.589179
 30
0.0
 11
84.277439
 21
-18.63532
 31
0.0
  0
LINE
  5
6FD
100
AcDbEntity
  8
0
390
0
  6
Continuous
 62
     7
100
AcDbLine
 10
84.281795
 20
-18.543385
 30
0.0
 11
84.277921
 21
-18.589179
 31
0.0
  0
LINE
  5
6FE
100
AcDbEntity
  8
0
390
0
  6
Continuous
 62
     7
100
AcDbLine
 10
84.28907
 20
-18.497818
 30
0.0
 11
84.281795
 21
-18.543385
 31
0.0
  0
LINE
  5
6FF
100
AcDbEntity
  8
0
390
0
  6
Continuous
 62
     7
100
AcDbLine
 10
84.299783
 20
-18.452366
 30
0.0
 11
84.28907
 21
-18.497818
 31
0.0
  0
LINE
  5
700
100
AcDbEntity
  8
0
390
0
  6
Continuous
 62
     7
100
AcDbLine
 10
84.31399
 20
-18.40693
 30
0.0
 11
84.299783
 21
-18.452366
 31
0.0
  0
LINE
  5
701
100
AcDbEntity
  8
0
390
0
  6
Continuous
 62
     7
100
AcDbLine
 10
84.331764
 20
-18.361435
 30
0.0
 11
84.31399
 21
-18.40693
 31
0.0
  0
LINE
  5
702
100
AcDbEntity
  8
0
390
0
  6
Continuous
 62
     7
100
AcDbLine
 10
84.352897
 20
-18.31644
 30
0.0
 11
84.331764
 21
-18.361435
 31
0.0
  0
LINE
  5
703
100
AcDbEntity
  8
0
390
0
  6
Continuous
 62
     7
100
AcDbLine
 10
84.378001
 20
-18.272201
 30
0.0
 11
84.352897
 21
-18.31644
 31
0.0
  0
LINE
  5
704
100
AcDbEntity
  8
0
390
0
  6
Continuous
 62
     7
100
AcDbLine
 10
84.408406
 20
-18.227744
 30
0.0
 11
84.378001
 21
-18.272201
 31
0.0
  0
LINE
  5
705
100
AcDbEntity
  8
0
390
0
  6
Continuous
 62
     7
100
AcDbLine
 10
84.444653
 20
-18.182509
 30
0.0
 11
84.408406
 21
-18.227744
 31
0.0
  0
LINE
  5
706
100
AcDbEntity
  8
0
390
0
  6
Continuous
 62
     7
100
AcDbLine
 10
84.486863
 20
-18.136609
 30
0.0
 11
84.444653
 21
-18.182509
 31
0.0
  0
LINE
  5
707
100
AcDbEntity
  8
0
390
0
  6
Continuous
 62
     7
100
AcDbLine
 10
84.535115
 20
-18.090159
 30
0.0
 11
84.486863
 21
-18.136609
 31
0.0
  0
LINE
  5
708
100
AcDbEntity
  8
0
390
0
  6
Continuous
 62
     7
100
AcDbLine
 10
84.589451
 20
-18.043276
 30
0.0
 11
84.535115
 21
-18.090159
 31
0.0
  0
LINE
  5
709
100
AcDbEntity
  8
0
390
0
  6
Continuous
 62
     7
100
AcDbLine
 10
84.649887
 20
-17.996061
 30
0.0
 11
84.589451
 21
-18.043276
 31
0.0
  0
LINE
  5
70A
100
AcDbEntity
  8
0
390
0
  6
Continuous
 62
     7
100
AcDbLine
 10
84.716425
 20
-17.948603
 30
0.0
 11
84.649887
 21
-17.996061
 31
0.0
  0
LINE
  5
70B
100
AcDbEntity
  8
0
390
0
  6
Continuous
 62
     7
100
AcDbLine
 10
84.789056
 20
-17.900976
 30
0.0
 11
84.716425
 21
-17.948603
 31
0.0
  0
LINE
  5
70C
100
AcDbEntity
  8
0
390
0
  6
Continuous
 62
     7
100
AcDbLine
 10
84.869125
 20
-17.852421
 30
0.0
 11
84.789056
 21
-17.900976
 31
0.0
  0
POLYLINE
  5
70D
100
AcDbEntity
  8
0
390
0
  6
Continuous
 62
     7
100
AcDb2dPolyline
 66
     1
 10
0.0
 20
0.0
 30
0.0
 40
0.1
 41
0.1
  0
VERTEX
  5
70E
100
AcDbEntity
  8
0
390
0
 62
     7
100
AcDbVertex
100
AcDb2dVertex
 10
84.821823
 20
-17.667018
 30
0.0
  0
VERTEX
  5
70F
100
AcDbEntity
  8
0
390
0
 62
     7
100
AcDbVertex
100
AcDb2dVertex
 10
84.90807
 20
-17.725014
 30
0.0
  0
VERTEX
  5
710
100
AcDbEntity
  8
0
390
0
 62
     7
100
AcDbVertex
100
AcDb2dVertex
 10
84.898573
 20
-17.825138
 30
0.0
  0
VERTEX
  5
711
100
AcDbEntity
  8
0
390
0
 62
     7
100
AcDbVertex
100
AcDb2dVertex
 10
84.869125
 20
-17.852421
 30
0.0
  0
SEQEND
  5
712
100
AcDbEntity
  8
0
390
0
  0
LINE
  5
713
100
AcDbEntity
  8
0
390
0
  6
Continuous
 62
     7
100
AcDbLine
 10
84.753697
 20
-17.663913
 30
0.0
 11
84.821823
 21
-17.667018
 31
0.0
  0
LINE
  5
714
100
AcDbEntity
  8
0
390
0
  6
Continuous
 62
     7
100
AcDbLine
 10
84.690124
 20
-17.658772
 30
0.0
 11
84.753697
 21
-17.663913
 31
0.0
  0
LINE
  5
715
100
AcDbEntity
  8
0
390
0
  6
Continuous
 62
     7
100
AcDbLine
 10
84.629483
 20
-17.651546
 30
0.0
 11
84.690124
 21
-17.658772
 31
0.0
  0
LINE
  5
716
100
AcDbEntity
  8
0
390
0
  6
Continuous
 62
     7
100
AcDbLine
 10
84.571783
 20
-17.642273
 30
0.0
 11
84.629483
 21
-17.651546
 31
0.0
  0
LINE
  5
717
100
AcDbEntity
  8
0
390
0
  6
Continuous
 62
     7
100
AcDbLine
 10
84.517028
 20
-17.630993
 30
0.0
 11
84.571783
 21
-17.642273
 31
0.0
  0
LINE
  5
718
100
AcDbEntity
  8
0
390
0
  6
Continuous
 62
     7
100
AcDbLine
 10
84.465216
 20
-17.617751
 30
0.0
 11
84.517028
 21
-17.630993
 31
0.0
  0
LINE
  5
719
100
AcDbEntity
  8
0
390
0
  6
Continuous
 62
     7
100
AcDbLine
 10
84.416334
 20
-17.602593
 30
0.0
 11
84.465216
 21
-17.617751
 31
0.0
  0
LINE
  5
71A
100
AcDbEntity
  8
0
390
0
  6
Continuous
 62
     7
100
AcDbLine
 10
84.370358
 20
-17.58557
 30
0.0
 11
84.416334
 21
-17.602593
 31
0.0
  0
LINE
  5
71B
100
AcDbEntity
  8
0
390
0
  6
Continuous
 62
     7
100
AcDbLine
 10
84.327251
 20
-17.566728
 30
0.0
 11
84.370358
 21
-17.58557
 31
0.0
  0
LINE
  5
71C
100
AcDbEntity
  8
0
390
0
  6
Continuous
 62
     7
100
AcDbLine
 10
84.286898
 20
-17.546084
 30
0.0
 11
84.327251
 21
-17.566728
 31
0.0
  0
LINE
  5
71D
100
AcDbEntity
  8
0
390
0
  6
Continuous
 62
     7
100
AcDbLine
 10
84.245807
 20
-17.52169
 30
0.0
 11
84.286898
 21
-17.546084
 31
0.0
  0
LINE
  5
71E
100
AcDbEntity
  8
0
390
0
  6
Continuous
 62
     7
100
AcDbLine
 10
84.208518
 20
-17.496429
 30
0.0
 11
84.245807
 21
-17.52169
 31
0.0
  0
LINE
  5
71F
100
AcDbEntity
  8
0
390
0
  6
Continuous
 62
     7
100
AcDbLine
 10
84.175354
 20
-17.47063
 30
0.0
 11
84.208518
 21
-17.496429
 31
0.0
  0
LINE
  5
720
100
AcDbEntity
  8
0
390
0
  6
Continuous
 62
     7
100
AcDbLine
 10
84.146228
 20
-17.444386
 30
0.0
 11
84.175354
 21
-17.47063
 31
0.0
  0
LINE
  5
721
100
AcDbEntity
  8
0
390
0
  6
Continuous
 62
     7
100
AcDbLine
 10
84.121007
 20
-17.41778
 30
0.0
 11
84.146228
 21
-17.444386
 31
0.0
  0
LINE
  5
722
100
AcDbEntity
  8
0
390
0
  6
Continuous
 62
     7
100
AcDbLine
 10
84.099514
 20
-17.39085
 30
0.0
 11
84.121007
 21
-17.41778
 31
0.0
  0
LINE
  5
723
100
AcDbEntity
  8
0
390
0
  6
Continuous
 62
     7
100
AcDbLine
 10
84.08154
 20
-17.363573
 30
0.0
 11
84.099514
 21
-17.39085
 31
0.0
  0
LINE
  5
724
100
AcDbEntity
  8
0
390
0
  6
Continuous
 62
     7
100
AcDbLine
 10
84.066861
 20
-17.33585
 30
0.0
 11
84.08154
 21
-17.363573
 31
0.0
  0
LINE
  5
725
100
AcDbEntity
  8
0
390
0
  6
Continuous
 62
     7
100
AcDbLine
 10
84.055274
 20
-17.307497
 30
0.0
 11
84.066861
 21
-17.33585
 31
0.0
  0
LINE
  5
726
100
AcDbEntity
  8
0
390
0
  6
Continuous
 62
     7
100
AcDbLine
 10
84.046469
 20
-17.277726
 30
0.0
 11
84.055274
 21
-17.307497
 31
0.0
  0
LINE
  5
727
100
AcDbEntity
  8
0
390
0
  6
Continuous
 62
     7
100
AcDbLine
 10
84.037718
 20
-17.234288
 30
0.0
 11
84.046469
 21
-17.277726
 31
0.0
  0
LINE
  5
728
100
AcDbEntity
  8
0
390
0
  6
Continuous
 62
     7
100
AcDbLine
 10
84.032432
 20
-17.190484
 30
0.0
 11
84.037718
 21
-17.234288
 31
0.0
  0
LINE
  5
729
100
AcDbEntity
  8
0
390
0
  6
Continuous
 62
     7
100
AcDbLine
 10
84.030684
 20
-17.146774
 30
0.0
 11
84.032432
 21
-17.190484
 31
0.0
  0
LINE
  5
72A
100
AcDbEntity
  8
0
390
0
  6
Continuous
 62
     7
100
AcDbLine
 10
84.032459
 20
-17.103007
 30
0.0
 11
84.030684
 21
-17.146774
 31
0.0
  0
LINE
  5
72B
100
AcDbEntity
  8
0
390
0
  6
Continuous
 62
     7
100
AcDbLine
 10
84.037777
 20
-17.059029
 30
0.0
 11
84.032459
 21
-17.103007
 31
0.0
  0
LINE
  5
72C
100
AcDbEntity
  8
0
390
0
  6
Continuous
 62
     7
100
AcDbLine
 10
84.046695
 20
-17.014707
 30
0.0
 11
84.037777
 21
-17.059029
 31
0.0
  0
LINE
  5
72D
100
AcDbEntity
  8
0
390
0
  6
Continuous
 62
     7
100
AcDbLine
 10
84.059292
 20
-16.969928
 30
0.0
 11
84.046695
 21
-17.014707
 31
0.0
  0
LINE
  5
72E
100
AcDbEntity
  8
0
390
0
  6
Continuous
 62
     7
100
AcDbLine
 10
84.075664
 20
-16.924615
 30
0.0
 11
84.059292
 21
-16.969928
 31
0.0
  0
LINE
  5
72F
100
AcDbEntity
  8
0
390
0
  6
Continuous
 62
     7
100
AcDbLine
 10
84.09591
 20
-16.878722
 30
0.0
 11
84.075664
 21
-16.924615
 31
0.0
  0
LINE
  5
730
100
AcDbEntity
  8
0
390
0
  6
Continuous
 62
     7
100
AcDbLine
 10
84.119747
 20
-16.83296
 30
0.0
 11
84.09591
 21
-16.878722
 31
0.0
  0
LINE
  5
731
100
AcDbEntity
  8
0
390
0
  6
Continuous
 62
     7
100
AcDbLine
 10
84.166379
 20
-16.758102
 30
0.0
 11
84.119747
 21
-16.83296
 31
0.0
  0
LINE
  5
732
100
AcDbEntity
  8
0
390
0
  6
Continuous
 62
     7
100
AcDbLine
 10
84.220633
 20
-16.688896
 30
0.0
 11
84.166379
 21
-16.758102
 31
0.0
  0
LINE
  5
733
100
AcDbEntity
  8
0
390
0
  6
Continuous
 62
     7
100
AcDbLine
 10
84.283652
 20
-16.623786
 30
0.0
 11
84.220633
 21
-16.688896
 31
0.0
  0
LINE
  5
734
100
AcDbEntity
  8
0
390
0
  6
Continuous
 62
     7
100
AcDbLine
 10
84.355742
 20
-16.562692
 30
0.0
 11
84.283652
 21
-16.623786
 31
0.0
  0
LINE
  5
735
100
AcDbEntity
  8
0
390
0
  6
Continuous
 62
     7
100
AcDbLine
 10
84.437168
 20
-16.50564
 30
0.0
 11
84.355742
 21
-16.562692
 31
0.0
  0
LINE
  5
736
100
AcDbEntity
  8
0
390
0
  6
Continuous
 62
     7
100
AcDbLine
 10
84.528134
 20
-16.452727
 30
0.0
 11
84.437168
 21
-16.50564
 31
0.0
  0
LINE
  5
737
100
AcDbEntity
  8
0
390
0
  6
Continuous
 62
     7
100
AcDbLine
 10
84.628776
 20
-16.404085
 30
0.0
 11
84.528134
 21
-16.452727
 31
0.0
  0
LINE
  5
738
100
AcDbEntity
  8
0
390
0
  6
Continuous
 62
     7
100
AcDbLine
 10
84.739168
 20
-16.359863
 30
0.0
 11
84.628776
 21
-16.404085
 31
0.0
  0
LINE
  5
739
100
AcDbEntity
  8
0
390
0
  6
Continuous
 62
     7
100
AcDbLine
 10
84.859339
 20
-16.320193
 30
0.0
 11
84.739168
 21
-16.359863
 31
0.0
  0
LINE
  5
73A
100
AcDbEntity
  8
0
390
0
  6
Continuous
 62
     7
100
AcDbLine
 10
84.989219
 20
-16.285218
 30
0.0
 11
84.859339
 21
-16.320193
 31
0.0
  0
LINE
  5
73B
100
AcDbEntity
  8
0
390
0
  6
Continuous
 62
     7
100
AcDbLine
 10
85.120724
 20
-16.256958
 30
0.0
 11
84.989219
 21
-16.285218
 31
0.0
  0
LINE
  5
73C
100
AcDbEntity
  8
0
390
0
  6
Continuous
 62
     7
100
AcDbLine
 10
85.245738
 20
-16.237309
 30
0.0
 11
85.120724
 21
-16.256958
 31
0.0
  0
LINE
  5
73D
100
AcDbEntity
  8
0
390
0
  6
Continuous
 62
     7
100
AcDbLine
 10
85.364137
 20
-16.226183
 30
0.0
 11
85.245738
 21
-16.237309
 31
0.0
  0
LINE
  5
73E
100
AcDbEntity
  8
0
390
0
  6
Continuous
 62
     7
100
AcDbLine
 10
85.475883
 20
-16.22344
 30
0.0
 11
85.364137
 21
-16.226183
 31
0.0
  0
LINE
  5
73F
100
AcDbEntity
  8
0
390
0
  6
Continuous
 62
     7
100
AcDbLine
 10
85.580977
 20
-16.228921
 30
0.0
 11
85.475883
 21
-16.22344
 31
0.0
  0
LINE
  5
740
100
AcDbEntity
  8
0
390
0
  6
Continuous
 62
     7
100
AcDbLine
 10
85.679477
 20
-16.242445
 30
0.0
 11
85.580977
 21
-16.228921
 31
0.0
  0
LINE
  5
741
100
AcDbEntity
  8
0
390
0
  6
Continuous
 62
     7
100
AcDbLine
 10
85.771521
 20
-16.26383
 30
0.0
 11
85.679477
 21
-16.242445
 31
0.0
  0
LINE
  5
742
100
AcDbEntity
  8
0
390
0
  6
Continuous
 62
     7
100
AcDbLine
 10
85.857334
 20
-16.292935
 30
0.0
 11
85.771521
 21
-16.26383
 31
0.0
  0
LINE
  5
743
100
AcDbEntity
  8
0
390
0
  6
Continuous
 62
     7
100
AcDbLine
 10
85.937222
 20
-16.329686
 30
0.0
 11
85.857334
 21
-16.292935
 31
0.0
  0
LINE
  5
744
100
AcDbEntity
  8
0
390
0
  6
Continuous
 62
     7
100
AcDbLine
 10
86.012915
 20
-16.374952
 30
0.0
 11
85.937222
 21
-16.329686
 31
0.0
  0
LINE
  5
745
100
AcDbEntity
  8
0
390
0
  6
Continuous
 62
     7
100
AcDbLine
 10
86.055033
 20
-16.404758
 30
0.0
 11
86.012915
 21
-16.374952
 31
0.0
  0
LINE
  5
746
100
AcDbEntity
  8
0
390
0
  6
Continuous
 62
     7
100
AcDbLine
 10
86.094018
 20
-16.436321
 30
0.0
 11
86.055033
 21
-16.404758
 31
0.0
  0
LINE
  5
747
100
AcDbEntity
  8
0
390
0
  6
Continuous
 62
     7
100
AcDbLine
 10
86.129291
 20
-16.469139
 30
0.0
 11
86.094018
 21
-16.436321
 31
0.0
  0
LINE
  5
748
100
AcDbEntity
  8
0
390
0
  6
Continuous
 62
     7
100
AcDbLine
 10
86.160963
 20
-16.503207
 30
0.0
 11
86.129291
 21
-16.469139
 31
0.0
  0
LINE
  5
749
100
AcDbEntity
  8
0
390
0
  6
Continuous
 62
     7
100
AcDbLine
 10
86.189154
 20
-16.538551
 30
0.0
 11
86.160963
 21
-16.503207
 31
0.0
  0
LINE
  5
74A
100
AcDbEntity
  8
0
390
0
  6
Continuous
 62
     7
100
AcDbLine
 10
86.213987
 20
-16.575235
 30
0.0
 11
86.189154
 21
-16.538551
 31
0.0
  0
LINE
  5
74B
100
AcDbEntity
  8
0
390
0
  6
Continuous
 62
     7
100
AcDbLine
 10
86.235571
 20
-16.613352
 30
0.0
 11
86.213987
 21
-16.575235
 31
0.0
  0
LINE
  5
74C
100
AcDbEntity
  8
0
390
0
  6
Continuous
 62
     7
100
AcDbLine
 10
86.253995
 20
-16.653027
 30
0.0
 11
86.235571
 21
-16.613352
 31
0.0
  0
LINE
  5
74D
100
AcDbEntity
  8
0
390
0
  6
Continuous
 62
     7
100
AcDbLine
 10
86.269317
 20
-16.694403
 30
0.0
 11
86.253995
 21
-16.653027
 31
0.0
  0
LINE
  5
74E
100
AcDbEntity
  8
0
390
0
  6
Continuous
 62
     7
100
AcDbLine
 10
86.281389
 20
-16.737037
 30
0.0
 11
86.269317
 21
-16.694403
 31
0.0
  0
LINE
  5
74F
100
AcDbEntity
  8
0
390
0
  6
Continuous
 62
     7
100
AcDbLine
 10
86.287168
 20
-16.767543
 30
0.0
 11
86.281389
 21
-16.737037
 31
0.0
  0
LINE
  5
750
100
AcDbEntity
  8
0
390
0
  6
Continuous
 62
     7
100
AcDbLine
 10
84.757314
 20
-16.39008
 30
0.0
 11
84.872602
 21
-16.35204
 31
0.0
  0
LINE
  5
751
100
AcDbEntity
  8
0
390
0
  6
Continuous
 62
     7
100
AcDbLine
 10
84.651269
 20
-16.432852
 30
0.0
 11
84.757314
 21
-16.39008
 31
0.0
  0
LINE
  5
752
100
AcDbEntity
  8
0
390
0
  6
Continuous
 62
     7
100
AcDbLine
 10
84.554443
 20
-16.480591
 30
0.0
 11
84.651269
 21
-16.432852
 31
0.0
  0
LINE
  5
753
100
AcDbEntity
  8
0
390
0
  6
Continuous
 62
     7
100
AcDbLine
 10
84.466883
 20
-16.533585
 30
0.0
 11
84.554443
 21
-16.480591
 31
0.0
  0
LINE
  5
754
100
AcDbEntity
  8
0
390
0
  6
Continuous
 62
     7
100
AcDbLine
 10
84.388758
 20
-16.592142
 30
0.0
 11
84.466883
 21
-16.533585
 31
0.0
  0
LINE
  5
755
100
AcDbEntity
  8
0
390
0
  6
Continuous
 62
     7
100
AcDbLine
 10
84.320408
 20
-16.65653
 30
0.0
 11
84.388758
 21
-16.592142
 31
0.0
  0
LINE
  5
756
100
AcDbEntity
  8
0
390
0
  6
Continuous
 62
     7
100
AcDbLine
 10
84.262362
 20
-16.72687
 30
0.0
 11
84.320408
 21
-16.65653
 31
0.0
  0
LINE
  5
757
100
AcDbEntity
  8
0
390
0
  6
Continuous
 62
     7
100
AcDbLine
 10
84.215274
 20
-16.803006
 30
0.0
 11
84.262362
 21
-16.72687
 31
0.0
  0
LINE
  5
758
100
AcDbEntity
  8
0
390
0
  6
Continuous
 62
     7
100
AcDbLine
 10
84.181015
 20
-16.881576
 30
0.0
 11
84.215274
 21
-16.803006
 31
0.0
  0
LINE
  5
759
100
AcDbEntity
  8
0
390
0
  6
Continuous
 62
     7
100
AcDbLine
 10
84.168244
 20
-16.918897
 30
0.0
 11
84.181015
 21
-16.881576
 31
0.0
  0
LINE
  5
75A
100
AcDbEntity
  8
0
390
0
  6
Continuous
 62
     7
100
AcDbLine
 10
84.157962
 20
-16.953939
 30
0.0
 11
84.168244
 21
-16.918897
 31
0.0
  0
LINE
  5
75B
100
AcDbEntity
  8
0
390
0
  6
Continuous
 62
     7
100
AcDbLine
 10
84.149557
 20
-16.988641
 30
0.0
 11
84.157962
 21
-16.953939
 31
0.0
  0
LINE
  5
75C
100
AcDbEntity
  8
0
390
0
  6
Continuous
 62
     7
100
AcDbLine
 10
84.143081
 20
-17.023018
 30
0.0
 11
84.149557
 21
-16.988641
 31
0.0
  0
LINE
  5
75D
100
AcDbEntity
  8
0
390
0
  6
Continuous
 62
     7
100
AcDbLine
 10
84.138594
 20
-17.057076
 30
0.0
 11
84.143081
 21
-17.023018
 31
0.0
  0
LINE
  5
75E
100
AcDbEntity
  8
0
390
0
  6
Continuous
 62
     7
100
AcDbLine
 10
84.136165
 20
-17.090806
 30
0.0
 11
84.138594
 21
-17.057076
 31
0.0
  0
LINE
  5
75F
100
AcDbEntity
  8
0
390
0
  6
Continuous
 62
     7
100
AcDbLine
 10
84.135864
 20
-17.12418
 30
0.0
 11
84.136165
 21
-17.090806
 31
0.0
  0
LINE
  5
760
100
AcDbEntity
  8
0
390
0
  6
Continuous
 62
     7
100
AcDbLine
 10
84.137762
 20
-17.157146
 30
0.0
 11
84.135864
 21
-17.12418
 31
0.0
  0
LINE
  5
761
100
AcDbEntity
  8
0
390
0
  6
Continuous
 62
     7
100
AcDbLine
 10
84.141922
 20
-17.189634
 30
0.0
 11
84.137762
 21
-17.157146
 31
0.0
  0
LINE
  5
762
100
AcDbEntity
  8
0
390
0
  6
Continuous
 62
     7
100
AcDbLine
 10
84.148516
 20
-17.222145
 30
0.0
 11
84.141922
 21
-17.189634
 31
0.0
  0
LINE
  5
763
100
AcDbEntity
  8
0
390
0
  6
Continuous
 62
     7
100
AcDbLine
 10
84.159135
 20
-17.258077
 30
0.0
 11
84.148516
 21
-17.222145
 31
0.0
  0
LINE
  5
764
100
AcDbEntity
  8
0
390
0
  6
Continuous
 62
     7
100
AcDbLine
 10
84.173524
 20
-17.293457
 30
0.0
 11
84.159135
 21
-17.258077
 31
0.0
  0
LINE
  5
765
100
AcDbEntity
  8
0
390
0
  6
Continuous
 62
     7
100
AcDbLine
 10
84.191328
 20
-17.32746
 30
0.0
 11
84.173524
 21
-17.293457
 31
0.0
  0
LINE
  5
766
100
AcDbEntity
  8
0
390
0
  6
Continuous
 62
     7
100
AcDbLine
 10
84.21234
 20
-17.359951
 30
0.0
 11
84.191328
 21
-17.32746
 31
0.0
  0
LINE
  5
767
100
AcDbEntity
  8
0
390
0
  6
Continuous
 62
     7
100
AcDbLine
 10
84.236351
 20
-17.390873
 30
0.0
 11
84.21234
 21
-17.359951
 31
0.0
  0
LINE
  5
768
100
AcDbEntity
  8
0
390
0
  6
Continuous
 62
     7
100
AcDbLine
 10
84.263176
 20
-17.420238
 30
0.0
 11
84.236351
 21
-17.390873
 31
0.0
  0
LINE
  5
769
100
AcDbEntity
  8
0
390
0
  6
Continuous
 62
     7
100
AcDbLine
 10
84.292668
 20
-17.448104
 30
0.0
 11
84.263176
 21
-17.420238
 31
0.0
  0
LINE
  5
76A
100
AcDbEntity
  8
0
390
0
  6
Continuous
 62
     7
100
AcDbLine
 10
84.324722
 20
-17.474555
 30
0.0
 11
84.292668
 21
-17.448104
 31
0.0
  0
LINE
  5
76B
100
AcDbEntity
  8
0
390
0
  6
Continuous
 62
     7
100
AcDbLine
 10
84.359269
 20
-17.499687
 30
0.0
 11
84.324722
 21
-17.474555
 31
0.0
  0
LINE
  5
76C
100
AcDbEntity
  8
0
390
0
  6
Continuous
 62
     7
100
AcDbLine
 10
84.39774
 20
-17.524545
 30
0.0
 11
84.359269
 21
-17.499687
 31
0.0
  0
LINE
  5
76D
100
AcDbEntity
  8
0
390
0
  6
Continuous
 62
     7
100
AcDbLine
 10
84.465729
 20
-17.560695
 30
0.0
 11
84.39774
 21
-17.524545
 31
0.0
  0
LINE
  5
76E
100
AcDbEntity
  8
0
390
0
  6
Continuous
 62
     7
100
AcDbLine
 10
84.540413
 20
-17.590095
 30
0.0
 11
84.465729
 21
-17.560695
 31
0.0
  0
LINE
  5
76F
100
AcDbEntity
  8
0
390
0
  6
Continuous
 62
     7
100
AcDbLine
 10
84.619872
 20
-17.612061
 30
0.0
 11
84.540413
 21
-17.590095
 31
0.0
  0
LINE
  5
770
100
AcDbEntity
  8
0
390
0
  6
Continuous
 62
     7
100
AcDbLine
 10
84.703862
 20
-17.626825
 30
0.0
 11
84.619872
 21
-17.612061
 31
0.0
  0
LINE
  5
771
100
AcDbEntity
  8
0
390
0
  6
Continuous
 62
     7
100
AcDbLine
 10
84.792268
 20
-17.634628
 30
0.0
 11
84.703862
 21
-17.626825
 31
0.0
  0
LINE
  5
772
100
AcDbEntity
  8
0
390
0
  6
Continuous
 62
     7
100
AcDbLine
 10
84.885068
 20
-17.635705
 30
0.0
 11
84.792268
 21
-17.634628
 31
0.0
  0
LINE
  5
773
100
AcDbEntity
  8
0
390
0
  6
Continuous
 62
     7
100
AcDbLine
 10
84.982305
 20
-17.630241
 30
0.0
 11
84.885068
 21
-17.635705
 31
0.0
  0
LINE
  5
774
100
AcDbEntity
  8
0
390
0
  6
Continuous
 62
     7
100
AcDbLine
 10
85.08405
 20
-17.618383
 30
0.0
 11
84.982305
 21
-17.630241
 31
0.0
  0
LINE
  5
775
100
AcDbEntity
  8
0
390
0
  6
Continuous
 62
     7
100
AcDbLine
 10
85.190389
 20
-17.60024
 30
0.0
 11
85.08405
 21
-17.618383
 31
0.0
  0
LINE
  5
776
100
AcDbEntity
  8
0
390
0
  6
Continuous
 62
     7
100
AcDbLine
 10
85.301467
 20
-17.575877
 30
0.0
 11
85.190389
 21
-17.60024
 31
0.0
  0
LINE
  5
777
100
AcDbEntity
  8
0
390
0
  6
Continuous
 62
     7
100
AcDbLine
 10
85.411397
 20
-17.546772
 30
0.0
 11
85.301467
 21
-17.575877
 31
0.0
  0
LINE
  5
778
100
AcDbEntity
  8
0
390
0
  6
Continuous
 62
     7
100
AcDbLine
 10
85.51427
 20
-17.514301
 30
0.0
 11
85.411397
 21
-17.546772
 31
0.0
  0
LINE
  5
779
100
AcDbEntity
  8
0
390
0
  6
Continuous
 62
     7
100
AcDbLine
 10
85.610183
 20
-17.478338
 30
0.0
 11
85.51427
 21
-17.514301
 31
0.0
  0
LINE
  5
77A
100
AcDbEntity
  8
0
390
0
  6
Continuous
 62
     7
100
AcDbLine
 10
85.699164
 20
-17.438752
 30
0.0
 11
85.610183
 21
-17.478338
 31
0.0
  0
LINE
  5
77B
100
AcDbEntity
  8
0
390
0
  6
Continuous
 62
     7
100
AcDbLine
 10
85.78121
 20
-17.395376
 30
0.0
 11
85.699164
 21
-17.438752
 31
0.0
  0
LINE
  5
77C
100
AcDbEntity
  8
0
390
0
  6
Continuous
 62
     7
100
AcDbLine
 10
85.856272
 20
-17.348024
 30
0.0
 11
85.78121
 21
-17.395376
 31
0.0
  0
LINE
  5
77D
100
AcDbEntity
  8
0
390
0
  6
Continuous
 62
     7
100
AcDbLine
 10
85.924226
 20
-17.296502
 30
0.0
 11
85.856272
 21
-17.348024
 31
0.0
  0
LINE
  5
77E
100
AcDbEntity
  8
0
390
0
  6
Continuous
 62
     7
100
AcDbLine
 10
85.984856
 20
-17.240642
 30
0.0
 11
85.924226
 21
-17.296502
 31
0.0
  0
LINE
  5
77F
100
AcDbEntity
  8
0
390
0
  6
Continuous
 62
     7
100
AcDbLine
 10
86.037843
 20
-17.180356
 30
0.0
 11
85.984856
 21
-17.240642
 31
0.0
  0
LINE
  5
780
100
AcDbEntity
  8
0
390
0
  6
Continuous
 62
     7
100
AcDbLine
 10
86.081789
 20
-17.117124
 30
0.0
 11
86.037843
 21
-17.180356
 31
0.0
  0
LINE
  5
781
100
AcDbEntity
  8
0
390
0
  6
Continuous
 62
     7
100
AcDbLine
 10
86.104642
 20
-17.07743
 30
0.0
 11
86.081789
 21
-17.117124
 31
0.0
  0
LINE
  5
782
100
AcDbEntity
  8
0
390
0
  6
Continuous
 62
     7
100
AcDbLine
 10
86.123879
 20
-17.039285
 30
0.0
 11
86.104642
 21
-17.07743
 31
0.0
  0
LINE
  5
783
100
AcDbEntity
  8
0
390
0
  6
Continuous
 62
     7
100
AcDbLine
 10
86.140297
 20
-17.001107
 30
0.0
 11
86.123879
 21
-17.039285
 31
0.0
  0
LINE
  5
784
100
AcDbEntity
  8
0
390
0
  6
Continuous
 62
     7
100
AcDbLine
 10
86.153789
 20
-16.962842
 30
0.0
 11
86.140297
 21
-17.001107
 31
0.0
  0
LINE
  5
785
100
AcDbEntity
  8
0
390
0
  6
Continuous
 62
     7
100
AcDbLine
 10
86.164224
 20
-16.924461
 30
0.0
 11
86.153789
 21
-16.962842
 31
0.0
  0
LINE
  5
786
100
AcDbEntity
  8
0
390
0
  6
Continuous
 62
     7
100
AcDbLine
 10
86.171443
 20
-16.885984
 30
0.0
 11
86.164224
 21
-16.924461
 31
0.0
  0
LINE
  5
787
100
AcDbEntity
  8
0
390
0
  6
Continuous
 62
     7
100
AcDbLine
 10
86.175279
 20
-16.847483
 30
0.0
 11
86.171443
 21
-16.885984
 31
0.0
  0
LINE
  5
788
100
AcDbEntity
  8
0
390
0
  6
Continuous
 62
     7
100
AcDbLine
 10
86.175571
 20
-16.809102
 30
0.0
 11
86.175279
 21
-16.847483
 31
0.0
  0
LINE
  5
789
100
AcDbEntity
  8
0
390
0
  6
Continuous
 62
     7
100
AcDbLine
 10
86.172195
 20
-16.771057
 30
0.0
 11
86.175571
 21
-16.809102
 31
0.0
  0
LINE
  5
78A
100
AcDbEntity
  8
0
390
0
  6
Continuous
 62
     7
100
AcDbLine
 10
86.165214
 20
-16.734245
 30
0.0
 11
86.172195
 21
-16.771057
 31
0.0
  0
LINE
  5
78B
100
AcDbEntity
  8
0
390
0
  6
Continuous
 62
     7
100
AcDbLine
 10
86.156219
 20
-16.702319
 30
0.0
 11
86.165214
 21
-16.734245
 31
0.0
  0
LINE
  5
78C
100
AcDbEntity
  8
0
390
0
  6
Continuous
 62
     7
100
AcDbLine
 10
86.14507
 20
-16.671522
 30
0.0
 11
86.156219
 21
-16.702319
 31
0.0
  0
LINE
  5
78D
100
AcDbEntity
  8
0
390
0
  6
Continuous
 62
     7
100
AcDbLine
 10
86.131689
 20
-16.641331
 30
0.0
 11
86.14507
 21
-16.671522
 31
0.0
  0
LINE
  5
78E
100
AcDbEntity
  8
0
390
0
  6
Continuous
 62
     7
100
AcDbLine
 10
86.116166
 20
-16.611787
 30
0.0
 11
86.131689
 21
-16.641331
 31
0.0
  0
LINE
  5
78F
100
AcDbEntity
  8
0
390
0
  6
Continuous
 62
     7
100
AcDbLine
 10
86.098587
 20
-16.582898
 30
0.0
 11
86.116166
 21
-16.611787
 31
0.0
  0
LINE
  5
790
100
AcDbEntity
  8
0
390
0
  6
Continuous
 62
     7
100
AcDbLine
 10
86.079029
 20
-16.554657
 30
0.0
 11
86.098587
 21
-16.582898
 31
0.0
  0
LINE
  5
791
100
AcDbEntity
  8
0
390
0
  6
Continuous
 62
     7
100
AcDbLine
 10
86.057555
 20
-16.527043
 30
0.0
 11
86.079029
 21
-16.554657
 31
0.0
  0
LINE
  5
792
100
AcDbEntity
  8
0
390
0
  6
Continuous
 62
     7
100
AcDbLine
 10
86.034217
 20
-16.50002
 30
0.0
 11
86.057555
 21
-16.527043
 31
0.0
  0
LINE
  5
793
100
AcDbEntity
  8
0
390
0
  6
Continuous
 62
     7
100
AcDbLine
 10
86.009054
 20
-16.473553
 30
0.0
 11
86.034217
 21
-16.50002
 31
0.0
  0
LINE
  5
794
100
AcDbEntity
  8
0
390
0
  6
Continuous
 62
     7
100
AcDbLine
 10
85.980637
 20
-16.4462
 30
0.0
 11
86.009054
 21
-16.473553
 31
0.0
  0
LINE
  5
795
100
AcDbEntity
  8
0
390
0
  6
Continuous
 62
     7
100
AcDbLine
 10
85.914256
 20
-16.39198
 30
0.0
 11
85.980637
 21
-16.4462
 31
0.0
  0
LINE
  5
796
100
AcDbEntity
  8
0
390
0
  6
Continuous
 62
     7
100
AcDbLine
 10
85.837574
 20
-16.345785
 30
0.0
 11
85.914256
 21
-16.39198
 31
0.0
  0
LINE
  5
797
100
AcDbEntity
  8
0
390
0
  6
Continuous
 62
     7
100
AcDbLine
 10
85.753795
 20
-16.309757
 30
0.0
 11
85.837574
 21
-16.345785
 31
0.0
  0
LINE
  5
798
100
AcDbEntity
  8
0
390
0
  6
Continuous
 62
     7
100
AcDbLine
 10
85.663572
 20
-16.283732
 30
0.0
 11
85.753795
 21
-16.309757
 31
0.0
  0
LINE
  5
799
100
AcDbEntity
  8
0
390
0
  6
Continuous
 62
     7
100
AcDbLine
 10
85.567321
 20
-16.267361
 30
0.0
 11
85.663572
 21
-16.283732
 31
0.0
  0
LINE
  5
79A
100
AcDbEntity
  8
0
390
0
  6
Continuous
 62
     7
100
AcDbLine
 10
85.46522
 20
-16.260251
 30
0.0
 11
85.567321
 21
-16.267361
 31
0.0
  0
LINE
  5
79B
100
AcDbEntity
  8
0
390
0
  6
Continuous
 62
     7
100
AcDbLine
 10
85.35728
 20
-16.26205
 30
0.0
 11
85.46522
 21
-16.260251
 31
0.0
  0
LINE
  5
79C
100
AcDbEntity
  8
0
390
0
  6
Continuous
 62
     7
100
AcDbLine
 10
85.24341
 20
-16.272481
 30
0.0
 11
85.35728
 21
-16.26205
 31
0.0
  0
LINE
  5
79D
100
AcDbEntity
  8
0
390
0
  6
Continuous
 62
     7
100
AcDbLine
 10
85.123482
 20
-16.291345
 30
0.0
 11
85.24341
 21
-16.272481
 31
0.0
  0
LINE
  5
79E
100
AcDbEntity
  8
0
390
0
  6
Continuous
 62
     7
100
AcDbLine
 10
84.997275
 20
-16.318525
 30
0.0
 11
85.123482
 21
-16.291345
 31
0.0
  0
LINE
  5
79F
100
AcDbEntity
  8
0
390
0
  6
Continuous
 62
     7
100
AcDbLine
 10
84.872602
 20
-16.35204
 30
0.0
 11
84.997275
 21
-16.318525
 31
0.0
  0
LINE
  5
7A0
100
AcDbEntity
  8
0
390
0
  6
Continuous
 62
     7
100
AcDbLine
 10
85.863962
 20
-19.10399
 30
0.0
 11
85.775986
 21
-19.130831
 31
0.0
  0
LINE
  5
7A1
100
AcDbEntity
  8
0
390
0
  6
Continuous
 62
     7
100
AcDbLine
 10
85.947487
 20
-19.074462
 30
0.0
 11
85.863962
 21
-19.10399
 31
0.0
  0
LINE
  5
7A2
100
AcDbEntity
  8
0
390
0
  6
Continuous
 62
     7
100
AcDbLine
 10
86.026564
 20
-19.042188
 30
0.0
 11
85.947487
 21
-19.074462
 31
0.0
  0
LINE
  5
7A3
100
AcDbEntity
  8
0
390
0
  6
Continuous
 62
     7
100
AcDbLine
 10
86.101188
 20
-19.007099
 30
0.0
 11
86.026564
 21
-19.042188
 31
0.0
  0
LINE
  5
7A4
100
AcDbEntity
  8
0
390
0
  6
Continuous
 62
     7
100
AcDbLine
 10
86.171334
 20
-18.969125
 30
0.0
 11
86.101188
 21
-19.007099
 31
0.0
  0
LINE
  5
7A5
100
AcDbEntity
  8
0
390
0
  6
Continuous
 62
     7
100
AcDbLine
 10
86.23696
 20
-18.928189
 30
0.0
 11
86.171334
 21
-18.969125
 31
0.0
  0
LINE
  5
7A6
100
AcDbEntity
  8
0
390
0
  6
Continuous
 62
     7
100
AcDbLine
 10
86.297997
 20
-18.884223
 30
0.0
 11
86.23696
 21
-18.928189
 31
0.0
  0
LINE
  5
7A7
100
AcDbEntity
  8
0
390
0
  6
Continuous
 62
     7
100
AcDbLine
 10
86.354348
 20
-18.83717
 30
0.0
 11
86.297997
 21
-18.884223
 31
0.0
  0
LINE
  5
7A8
100
AcDbEntity
  8
0
390
0
  6
Continuous
 62
     7
100
AcDbLine
 10
86.405216
 20
-18.787657
 30
0.0
 11
86.354348
 21
-18.83717
 31
0.0
  0
LINE
  5
7A9
100
AcDbEntity
  8
0
390
0
  6
Continuous
 62
     7
100
AcDbLine
 10
86.455528
 20
-18.73224
 30
0.0
 11
86.405216
 21
-18.787657
 31
0.0
  0
LINE
  5
7AA
100
AcDbEntity
  8
0
390
0
  6
Continuous
 62
     7
100
AcDbLine
 10
86.499922
 20
-18.675642
 30
0.0
 11
86.455528
 21
-18.73224
 31
0.0
  0
LINE
  5
7AB
100
AcDbEntity
  8
0
390
0
  6
Continuous
 62
     7
100
AcDbLine
 10
86.538174
 20
-18.61781
 30
0.0
 11
86.499922
 21
-18.675642
 31
0.0
  0
LINE
  5
7AC
100
AcDbEntity
  8
0
390
0
  6
Continuous
 62
     7
100
AcDbLine
 10
86.570064
 20
-18.558656
 30
0.0
 11
86.538174
 21
-18.61781
 31
0.0
  0
LINE
  5
7AD
100
AcDbEntity
  8
0
390
0
  6
Continuous
 62
     7
100
AcDbLine
 10
86.595309
 20
-18.498167
 30
0.0
 11
86.570064
 21
-18.558656
 31
0.0
  0
LINE
  5
7AE
100
AcDbEntity
  8
0
390
0
  6
Continuous
 62
     7
100
AcDbLine
 10
86.613586
 20
-18.436459
 30
0.0
 11
86.595309
 21
-18.498167
 31
0.0
  0
LINE
  5
7AF
100
AcDbEntity
  8
0
390
0
  6
Continuous
 62
     7
100
AcDbLine
 10
86.624588
 20
-18.373801
 30
0.0
 11
86.613586
 21
-18.436459
 31
0.0
  0
LINE
  5
7B0
100
AcDbEntity
  8
0
390
0
  6
Continuous
 62
     7
100
AcDbLine
 10
86.6281
 20
-18.310604
 30
0.0
 11
86.624588
 21
-18.373801
 31
0.0
  0
LINE
  5
7B1
100
AcDbEntity
  8
0
390
0
  6
Continuous
 62
     7
100
AcDbLine
 10
86.624062
 20
-18.247359
 30
0.0
 11
86.6281
 21
-18.310604
 31
0.0
  0
LINE
  5
7B2
100
AcDbEntity
  8
0
390
0
  6
Continuous
 62
     7
100
AcDbLine
 10
86.612618
 20
-18.184733
 30
0.0
 11
86.624062
 21
-18.247359
 31
0.0
  0
LINE
  5
7B3
100
AcDbEntity
  8
0
390
0
  6
Continuous
 62
     7
100
AcDbLine
 10
86.593003
 20
-18.118611
 30
0.0
 11
86.612618
 21
-18.184733
 31
0.0
  0
LINE
  5
7B4
100
AcDbEntity
  8
0
390
0
  6
Continuous
 62
     7
100
AcDbLine
 10
86.566994
 20
-18.056424
 30
0.0
 11
86.593003
 21
-18.118611
 31
0.0
  0
LINE
  5
7B5
100
AcDbEntity
  8
0
390
0
  6
Continuous
 62
     7
100
AcDbLine
 10
86.534443
 20
-17.998206
 30
0.0
 11
86.566994
 21
-18.056424
 31
0.0
  0
LINE
  5
7B6
100
AcDbEntity
  8
0
390
0
  6
Continuous
 62
     7
100
AcDbLine
 10
86.495465
 20
-17.944394
 30
0.0
 11
86.534443
 21
-17.998206
 31
0.0
  0
LINE
  5
7B7
100
AcDbEntity
  8
0
390
0
  6
Continuous
 62
     7
100
AcDbLine
 10
86.45033
 20
-17.895375
 30
0.0
 11
86.495465
 21
-17.944394
 31
0.0
  0
LINE
  5
7B8
100
AcDbEntity
  8
0
390
0
  6
Continuous
 62
     7
100
AcDbLine
 10
86.399414
 20
-17.851413
 30
0.0
 11
86.45033
 21
-17.895375
 31
0.0
  0
LINE
  5
7B9
100
AcDbEntity
  8
0
390
0
  6
Continuous
 62
     7
100
AcDbLine
 10
86.343116
 20
-17.812614
 30
0.0
 11
86.399414
 21
-17.851413
 31
0.0
  0
LINE
  5
7BA
100
AcDbEntity
  8
0
390
0
  6
Continuous
 62
     7
100
AcDbLine
 10
86.281789
 20
-17.778934
 30
0.0
 11
86.343116
 21
-17.812614
 31
0.0
  0
LINE
  5
7BB
100
AcDbEntity
  8
0
390
0
  6
Continuous
 62
     7
100
AcDbLine
 10
86.215693
 20
-17.750237
 30
0.0
 11
86.281789
 21
-17.778934
 31
0.0
  0
LINE
  5
7BC
100
AcDbEntity
  8
0
390
0
  6
Continuous
 62
     7
100
AcDbLine
 10
86.145205
 20
-17.72641
 30
0.0
 11
86.215693
 21
-17.750237
 31
0.0
  0
LINE
  5
7BD
100
AcDbEntity
  8
0
390
0
  6
Continuous
 62
     7
100
AcDbLine
 10
86.072039
 20
-17.707288
 30
0.0
 11
86.145205
 21
-17.72641
 31
0.0
  0
LINE
  5
7BE
100
AcDbEntity
  8
0
390
0
  6
Continuous
 62
     7
100
AcDbLine
 10
85.997346
 20
-17.692667
 30
0.0
 11
86.072039
 21
-17.707288
 31
0.0
  0
LINE
  5
7BF
100
AcDbEntity
  8
0
390
0
  6
Continuous
 62
     7
100
AcDbLine
 10
85.920878
 20
-17.682441
 30
0.0
 11
85.997346
 21
-17.692667
 31
0.0
  0
LINE
  5
7C0
100
AcDbEntity
  8
0
390
0
  6
Continuous
 62
     7
100
AcDbLine
 10
85.84269
 20
-17.676576
 30
0.0
 11
85.920878
 21
-17.682441
 31
0.0
  0
LINE
  5
7C1
100
AcDbEntity
  8
0
390
0
  6
Continuous
 62
     7
100
AcDbLine
 10
85.762823
 20
-17.675033
 30
0.0
 11
85.84269
 21
-17.676576
 31
0.0
  0
LINE
  5
7C2
100
AcDbEntity
  8
0
390
0
  6
Continuous
 62
     7
100
AcDbLine
 10
85.681306
 20
-17.67777
 30
0.0
 11
85.762823
 21
-17.675033
 31
0.0
  0
LINE
  5
7C3
100
AcDbEntity
  8
0
390
0
  6
Continuous
 62
     7
100
AcDbLine
 10
85.598156
 20
-17.684743
 30
0.0
 11
85.681306
 21
-17.67777
 31
0.0
  0
LINE
  5
7C4
100
AcDbEntity
  8
0
390
0
  6
Continuous
 62
     7
100
AcDbLine
 10
85.513381
 20
-17.69591
 30
0.0
 11
85.598156
 21
-17.684743
 31
0.0
  0
LINE
  5
7C5
100
AcDbEntity
  8
0
390
0
  6
Continuous
 62
     7
100
AcDbLine
 10
85.42698
 20
-17.711234
 30
0.0
 11
85.513381
 21
-17.69591
 31
0.0
  0
LINE
  5
7C6
100
AcDbEntity
  8
0
390
0
  6
Continuous
 62
     7
100
AcDbLine
 10
85.338915
 20
-17.730687
 30
0.0
 11
85.42698
 21
-17.711234
 31
0.0
  0
LINE
  5
7C7
100
AcDbEntity
  8
0
390
0
  6
Continuous
 62
     7
100
AcDbLine
 10
85.251697
 20
-17.75364
 30
0.0
 11
85.338915
 21
-17.730687
 31
0.0
  0
LINE
  5
7C8
100
AcDbEntity
  8
0
390
0
  6
Continuous
 62
     7
100
AcDbLine
 10
85.167847
 20
-17.779505
 30
0.0
 11
85.251697
 21
-17.75364
 31
0.0
  0
LINE
  5
7C9
100
AcDbEntity
  8
0
390
0
  6
Continuous
 62
     7
100
AcDbLine
 10
85.087343
 20
-17.808324
 30
0.0
 11
85.167847
 21
-17.779505
 31
0.0
  0
LINE
  5
7CA
100
AcDbEntity
  8
0
390
0
  6
Continuous
 62
     7
100
AcDbLine
 10
85.010201
 20
-17.84013
 30
0.0
 11
85.087343
 21
-17.808324
 31
0.0
  0
LINE
  5
7CB
100
AcDbEntity
  8
0
390
0
  6
Continuous
 62
     7
100
AcDbLine
 10
84.936449
 20
-17.874958
 30
0.0
 11
85.010201
 21
-17.84013
 31
0.0
  0
LINE
  5
7CC
100
AcDbEntity
  8
0
390
0
  6
Continuous
 62
     7
100
AcDbLine
 10
84.866121
 20
-17.912837
 30
0.0
 11
84.936449
 21
-17.874958
 31
0.0
  0
LINE
  5
7CD
100
AcDbEntity
  8
0
390
0
  6
Continuous
 62
     7
100
AcDbLine
 10
84.799261
 20
-17.953793
 30
0.0
 11
84.866121
 21
-17.912837
 31
0.0
  0
LINE
  5
7CE
100
AcDbEntity
  8
0
390
0
  6
Continuous
 62
     7
100
AcDbLine
 10
84.735926
 20
-17.997841
 30
0.0
 11
84.799261
 21
-17.953793
 31
0.0
  0
LINE
  5
7CF
100
AcDbEntity
  8
0
390
0
  6
Continuous
 62
     7
100
AcDbLine
 10
84.676179
 20
-18.044987
 30
0.0
 11
84.735926
 21
-17.997841
 31
0.0
  0
LINE
  5
7D0
100
AcDbEntity
  8
0
390
0
  6
Continuous
 62
     7
100
AcDbLine
 10
84.619849
 20
-18.095438
 30
0.0
 11
84.676179
 21
-18.044987
 31
0.0
  0
LINE
  5
7D1
100
AcDbEntity
  8
0
390
0
  6
Continuous
 62
     7
100
AcDbLine
 10
84.568047
 20
-18.148849
 30
0.0
 11
84.619849
 21
-18.095438
 31
0.0
  0
LINE
  5
7D2
100
AcDbEntity
  8
0
390
0
  6
Continuous
 62
     7
100
AcDbLine
 10
84.522375
 20
-18.204585
 30
0.0
 11
84.568047
 21
-18.148849
 31
0.0
  0
LINE
  5
7D3
100
AcDbEntity
  8
0
390
0
  6
Continuous
 62
     7
100
AcDbLine
 10
84.483222
 20
-18.262573
 30
0.0
 11
84.522375
 21
-18.204585
 31
0.0
  0
LINE
  5
7D4
100
AcDbEntity
  8
0
390
0
  6
Continuous
 62
     7
100
AcDbLine
 10
84.450884
 20
-18.322816
 30
0.0
 11
84.483222
 21
-18.262573
 31
0.0
  0
LINE
  5
7D5
100
AcDbEntity
  8
0
390
0
  6
Continuous
 62
     7
100
AcDbLine
 10
84.425691
 20
-18.385191
 30
0.0
 11
84.450884
 21
-18.322816
 31
0.0
  0
LINE
  5
7D6
100
AcDbEntity
  8
0
390
0
  6
Continuous
 62
     7
100
AcDbLine
 10
84.407952
 20
-18.44942
 30
0.0
 11
84.425691
 21
-18.385191
 31
0.0
  0
LINE
  5
7D7
100
AcDbEntity
  8
0
390
0
  6
Continuous
 62
     7
100
AcDbLine
 10
84.39788
 20
-18.515099
 30
0.0
 11
84.407952
 21
-18.44942
 31
0.0
  0
LINE
  5
7D8
100
AcDbEntity
  8
0
390
0
  6
Continuous
 62
     7
100
AcDbLine
 10
84.395538
 20
-18.581758
 30
0.0
 11
84.39788
 21
-18.515099
 31
0.0
  0
LINE
  5
7D9
100
AcDbEntity
  8
0
390
0
  6
Continuous
 62
     7
100
AcDbLine
 10
84.40083
 20
-18.648958
 30
0.0
 11
84.395538
 21
-18.581758
 31
0.0
  0
LINE
  5
7DA
100
AcDbEntity
  8
0
390
0
  6
Continuous
 62
     7
100
AcDbLine
 10
84.413581
 20
-18.716595
 30
0.0
 11
84.40083
 21
-18.648958
 31
0.0
  0
LINE
  5
7DB
100
AcDbEntity
  8
0
390
0
  6
Continuous
 62
     7
100
AcDbLine
 10
84.43256
 20
-18.779932
 30
0.0
 11
84.413581
 21
-18.716595
 31
0.0
  0
LINE
  5
7DC
100
AcDbEntity
  8
0
390
0
  6
Continuous
 62
     7
100
AcDbLine
 10
84.458207
 20
-18.839927
 30
0.0
 11
84.43256
 21
-18.779932
 31
0.0
  0
LINE
  5
7DD
100
AcDbEntity
  8
0
390
0
  6
Continuous
 62
     7
100
AcDbLine
 10
84.490498
 20
-18.896095
 30
0.0
 11
84.458207
 21
-18.839927
 31
0.0
  0
LINE
  5
7DE
100
AcDbEntity
  8
0
390
0
  6
Continuous
 62
     7
100
AcDbLine
 10
84.529248
 20
-18.947978
 30
0.0
 11
84.490498
 21
-18.896095
 31
0.0
  0
LINE
  5
7DF
100
AcDbEntity
  8
0
390
0
  6
Continuous
 62
     7
100
AcDbLine
 10
84.574123
 20
-18.995213
 30
0.0
 11
84.529248
 21
-18.947978
 31
0.0
  0
LINE
  5
7E0
100
AcDbEntity
  8
0
390
0
  6
Continuous
 62
     7
100
AcDbLine
 10
84.624711
 20
-19.037592
 30
0.0
 11
84.574123
 21
-18.995213
 31
0.0
  0
LINE
  5
7E1
100
AcDbEntity
  8
0
390
0
  6
Continuous
 62
     7
100
AcDbLine
 10
84.680611
 20
-19.075071
 30
0.0
 11
84.624711
 21
-19.037592
 31
0.0
  0
LINE
  5
7E2
100
AcDbEntity
  8
0
390
0
  6
Continuous
 62
     7
100
AcDbLine
 10
84.741499
 20
-19.107746
 30
0.0
 11
84.680611
 21
-19.075071
 31
0.0
  0
LINE
  5
7E3
100
AcDbEntity
  8
0
390
0
  6
Continuous
 62
     7
100
AcDbLine
 10
84.807155
 20
-19.135787
 30
0.0
 11
84.741499
 21
-19.107746
 31
0.0
  0
LINE
  5
7E4
100
AcDbEntity
  8
0
390
0
  6
Continuous
 62
     7
100
AcDbLine
 10
84.877328
 20
-19.159351
 30
0.0
 11
84.807155
 21
-19.135787
 31
0.0
  0
LINE
  5
7E5
100
AcDbEntity
  8
0
390
0
  6
Continuous
 62
     7
100
AcDbLine
 10
84.950394
 20
-19.178448
 30
0.0
 11
84.877328
 21
-19.159351
 31
0.0
  0
LINE
  5
7E6
100
AcDbEntity
  8
0
390
0
  6
Continuous
 62
     7
100
AcDbLine
 10
85.025085
 20
-19.193071
 30
0.0
 11
84.950394
 21
-19.178448
 31
0.0
  0
LINE
  5
7E7
100
AcDbEntity
  8
0
390
0
  6
Continuous
 62
     7
100
AcDbLine
 10
85.101552
 20
-19.203298
 30
0.0
 11
85.025085
 21
-19.193071
 31
0.0
  0
LINE
  5
7E8
100
AcDbEntity
  8
0
390
0
  6
Continuous
 62
     7
100
AcDbLine
 10
85.179739
 20
-19.209162
 30
0.0
 11
85.101552
 21
-19.203298
 31
0.0
  0
LINE
  5
7E9
100
AcDbEntity
  8
0
390
0
  6
Continuous
 62
     7
100
AcDbLine
 10
85.259605
 20
-19.210705
 30
0.0
 11
85.179739
 21
-19.209162
 31
0.0
  0
LINE
  5
7EA
100
AcDbEntity
  8
0
390
0
  6
Continuous
 62
     7
100
AcDbLine
 10
85.341122
 20
-19.207968
 30
0.0
 11
85.259605
 21
-19.210705
 31
0.0
  0
LINE
  5
7EB
100
AcDbEntity
  8
0
390
0
  6
Continuous
 62
     7
100
AcDbLine
 10
85.424271
 20
-19.200995
 30
0.0
 11
85.341122
 21
-19.207968
 31
0.0
  0
LINE
  5
7EC
100
AcDbEntity
  8
0
390
0
  6
Continuous
 62
     7
100
AcDbLine
 10
85.509046
 20
-19.189827
 30
0.0
 11
85.424271
 21
-19.200995
 31
0.0
  0
LINE
  5
7ED
100
AcDbEntity
  8
0
390
0
  6
Continuous
 62
     7
100
AcDbLine
 10
85.595447
 20
-19.174502
 30
0.0
 11
85.509046
 21
-19.189827
 31
0.0
  0
LINE
  5
7EE
100
AcDbEntity
  8
0
390
0
  6
Continuous
 62
     7
100
AcDbLine
 10
85.68345
 20
-19.155062
 30
0.0
 11
85.595447
 21
-19.174502
 31
0.0
  0
LINE
  5
7EF
100
AcDbEntity
  8
0
390
0
  6
Continuous
 62
     7
100
AcDbLine
 10
85.775986
 20
-19.130831
 30
0.0
 11
85.68345
 21
-19.155062
 31
0.0
  0
LINE
  5
7F0
100
AcDbEntity
  8
0
390
0
  6
Continuous
 62
     7
100
AcDbLine
 10
88.159893
 20
-16.855992
 30
0.0
 11
88.161797
 21
-16.862506
 31
0.0
  0
LINE
  5
7F1
100
AcDbEntity
  8
0
390
0
  6
Continuous
 62
     7
100
AcDbLine
 10
88.159486
 20
-16.852604
 30
0.0
 11
88.159893
 21
-16.855992
 31
0.0
  0
LINE
  5
7F2
100
AcDbEntity
  8
0
390
0
  6
Continuous
 62
     7
100
AcDbLine
 10
88.159563
 20
-16.851477
 30
0.0
 11
88.159486
 21
-16.852604
 31
0.0
  0
LINE
  5
7F3
100
AcDbEntity
  8
0
390
0
  6
Continuous
 62
     7
100
AcDbLine
 10
88.159697
 20
-16.85099
 30
0.0
 11
88.159563
 21
-16.851477
 31
0.0
  0
LINE
  5
7F4
100
AcDbEntity
  8
0
390
0
  6
Continuous
 62
     7
100
AcDbLine
 10
88.160469
 20
-16.849455
 30
0.0
 11
88.159697
 21
-16.85099
 31
0.0
  0
LINE
  5
7F5
100
AcDbEntity
  8
0
390
0
  6
Continuous
 62
     7
100
AcDbLine
 10
88.163138
 20
-16.845923
 30
0.0
 11
88.160469
 21
-16.849455
 31
0.0
  0
LINE
  5
7F6
100
AcDbEntity
  8
0
390
0
  6
Continuous
 62
     7
100
AcDbLine
 10
88.168914
 20
-16.840352
 30
0.0
 11
88.163138
 21
-16.845923
 31
0.0
  0
LINE
  5
7F7
100
AcDbEntity
  8
0
390
0
  6
Continuous
 62
     7
100
AcDbLine
 10
88.178545
 20
-16.833231
 30
0.0
 11
88.168914
 21
-16.840352
 31
0.0
  0
LINE
  5
7F8
100
AcDbEntity
  8
0
390
0
  6
Continuous
 62
     7
100
AcDbLine
 10
88.193769
 20
-16.824322
 30
0.0
 11
88.178545
 21
-16.833231
 31
0.0
  0
LINE
  5
7F9
100
AcDbEntity
  8
0
390
0
  6
Continuous
 62
     7
100
AcDbLine
 10
90.818747
 20
-15.446183
 30
0.0
 11
88.193769
 21
-16.824322
 31
0.0
  0
LINE
  5
7FA
100
AcDbEntity
  8
0
390
0
  6
Continuous
 62
     7
100
AcDbLine
 10
90.834726
 20
-15.438711
 30
0.0
 11
90.818747
 21
-15.446183
 31
0.0
  0
LINE
  5
7FB
100
AcDbEntity
  8
0
390
0
  6
Continuous
 62
     7
100
AcDbLine
 10
90.846056
 20
-15.434826
 30
0.0
 11
90.834726
 21
-15.438711
 31
0.0
  0
LINE
  5
7FC
100
AcDbEntity
  8
0
390
0
  6
Continuous
 62
     7
100
AcDbLine
 10
90.853921
 20
-15.433235
 30
0.0
 11
90.846056
 21
-15.434826
 31
0.0
  0
LINE
  5
7FD
100
AcDbEntity
  8
0
390
0
  6
Continuous
 62
     7
100
AcDbLine
 10
90.858344
 20
-15.433044
 30
0.0
 11
90.853921
 21
-15.433235
 31
0.0
  0
LINE
  5
7FE
100
AcDbEntity
  8
0
390
0
  6
Continuous
 62
     7
100
AcDbLine
 10
90.860045
 20
-15.43328
 30
0.0
 11
90.858344
 21
-15.433044
 31
0.0
  0
LINE
  5
7FF
100
AcDbEntity
  8
0
390
0
  6
Continuous
 62
     7
100
AcDbLine
 10
90.860522
 20
-15.433446
 30
0.0
 11
90.860045
 21
-15.43328
 31
0.0
  0
LINE
  5
800
100
AcDbEntity
  8
0
390
0
  6
Continuous
 62
     7
100
AcDbLine
 10
90.861493
 20
-15.434023
 30
0.0
 11
90.860522
 21
-15.433446
 31
0.0
  0
LINE
  5
801
100
AcDbEntity
  8
0
390
0
  6
Continuous
 62
     7
100
AcDbLine
 10
90.864051
 20
-15.436281
 30
0.0
 11
90.861493
 21
-15.434023
 31
0.0
  0
LINE
  5
802
100
AcDbEntity
  8
0
390
0
  6
Continuous
 62
     7
100
AcDbLine
 10
90.868331
 20
-15.441548
 30
0.0
 11
90.864051
 21
-15.436281
 31
0.0
  0
LINE
  5
803
100
AcDbEntity
  8
0
390
0
  6
Continuous
 62
     7
100
AcDbLine
 10
90.87373
 20
-15.450482
 30
0.0
 11
90.868331
 21
-15.441548
 31
0.0
  0
LINE
  5
804
100
AcDbEntity
  8
0
390
0
  6
Continuous
 62
     7
100
AcDbLine
 10
90.878018
 20
-15.459999
 30
0.0
 11
90.87373
 21
-15.450482
 31
0.0
  0
LINE
  5
805
100
AcDbEntity
  8
0
390
0
  6
Continuous
 62
     7
100
AcDbLine
 10
90.879923
 20
-15.466513
 30
0.0
 11
90.878018
 21
-15.459999
 31
0.0
  0
LINE
  5
806
100
AcDbEntity
  8
0
390
0
  6
Continuous
 62
     7
100
AcDbLine
 10
90.88033
 20
-15.469901
 30
0.0
 11
90.879923
 21
-15.466513
 31
0.0
  0
LINE
  5
807
100
AcDbEntity
  8
0
390
0
  6
Continuous
 62
     7
100
AcDbLine
 10
90.880253
 20
-15.471028
 30
0.0
 11
90.88033
 21
-15.469901
 31
0.0
  0
LINE
  5
808
100
AcDbEntity
  8
0
390
0
  6
Continuous
 62
     7
100
AcDbLine
 10
90.880119
 20
-15.471515
 30
0.0
 11
90.880253
 21
-15.471028
 31
0.0
  0
LINE
  5
809
100
AcDbEntity
  8
0
390
0
  6
Continuous
 62
     7
100
AcDbLine
 10
90.879347
 20
-15.47305
 30
0.0
 11
90.880119
 21
-15.471515
 31
0.0
  0
LINE
  5
80A
100
AcDbEntity
  8
0
390
0
  6
Continuous
 62
     7
100
AcDbLine
 10
90.876678
 20
-15.476582
 30
0.0
 11
90.879347
 21
-15.47305
 31
0.0
  0
LINE
  5
80B
100
AcDbEntity
  8
0
390
0
  6
Continuous
 62
     7
100
AcDbLine
 10
90.870901
 20
-15.482153
 30
0.0
 11
90.876678
 21
-15.476582
 31
0.0
  0
LINE
  5
80C
100
AcDbEntity
  8
0
390
0
  6
Continuous
 62
     7
100
AcDbLine
 10
90.861271
 20
-15.489273
 30
0.0
 11
90.870901
 21
-15.482153
 31
0.0
  0
LINE
  5
80D
100
AcDbEntity
  8
0
390
0
  6
Continuous
 62
     7
100
AcDbLine
 10
90.846046
 20
-15.498183
 30
0.0
 11
90.861271
 21
-15.489273
 31
0.0
  0
LINE
  5
80E
100
AcDbEntity
  8
0
390
0
  6
Continuous
 62
     7
100
AcDbLine
 10
88.221069
 20
-16.876321
 30
0.0
 11
90.846046
 21
-15.498183
 31
0.0
  0
LINE
  5
80F
100
AcDbEntity
  8
0
390
0
  6
Continuous
 62
     7
100
AcDbLine
 10
88.20509
 20
-16.883794
 30
0.0
 11
88.221069
 21
-16.876321
 31
0.0
  0
LINE
  5
810
100
AcDbEntity
  8
0
390
0
  6
Continuous
 62
     7
100
AcDbLine
 10
88.19376
 20
-16.887678
 30
0.0
 11
88.20509
 21
-16.883794
 31
0.0
  0
LINE
  5
811
100
AcDbEntity
  8
0
390
0
  6
Continuous
 62
     7
100
AcDbLine
 10
88.185895
 20
-16.889269
 30
0.0
 11
88.19376
 21
-16.887678
 31
0.0
  0
LINE
  5
812
100
AcDbEntity
  8
0
390
0
  6
Continuous
 62
     7
100
AcDbLine
 10
88.181472
 20
-16.889461
 30
0.0
 11
88.185895
 21
-16.889269
 31
0.0
  0
LINE
  5
813
100
AcDbEntity
  8
0
390
0
  6
Continuous
 62
     7
100
AcDbLine
 10
88.17977
 20
-16.889224
 30
0.0
 11
88.181472
 21
-16.889461
 31
0.0
  0
LINE
  5
814
100
AcDbEntity
  8
0
390
0
  6
Continuous
 62
     7
100
AcDbLine
 10
88.179294
 20
-16.889059
 30
0.0
 11
88.17977
 21
-16.889224
 31
0.0
  0
LINE
  5
815
100
AcDbEntity
  8
0
390
0
  6
Continuous
 62
     7
100
AcDbLine
 10
88.178323
 20
-16.888481
 30
0.0
 11
88.179294
 21
-16.889059
 31
0.0
  0
LINE
  5
816
100
AcDbEntity
  8
0
390
0
  6
Continuous
 62
     7
100
AcDbLine
 10
88.175765
 20
-16.886224
 30
0.0
 11
88.178323
 21
-16.888481
 31
0.0
  0
LINE
  5
817
100
AcDbEntity
  8
0
390
0
  6
Continuous
 62
     7
100
AcDbLine
 10
88.171485
 20
-16.880957
 30
0.0
 11
88.175765
 21
-16.886224
 31
0.0
  0
LINE
  5
818
100
AcDbEntity
  8
0
390
0
  6
Continuous
 62
     7
100
AcDbLine
 10
88.166086
 20
-16.872023
 30
0.0
 11
88.171485
 21
-16.880957
 31
0.0
  0
LINE
  5
819
100
AcDbEntity
  8
0
390
0
  6
Continuous
 62
     7
100
AcDbLine
 10
88.161797
 20
-16.862506
 30
0.0
 11
88.166086
 21
-16.872023
 31
0.0
  0
LINE
  5
81A
100
AcDbEntity
  8
0
390
0
  6
Continuous
 62
     7
100
AcDbLine
 10
63.113865
 20
-1.62132
 30
0.0
 11
63.113865
 21
1.62132
 31
0.0
  0
LINE
  5
81B
100
AcDbEntity
  8
0
390
0
  6
Continuous
 62
     7
100
AcDbLine
 10
79.413865
 20
17.921322
 30
0.0
 11
82.656505
 21
17.921322
 31
0.0
  0
LINE
  5
81C
100
AcDbEntity
  8
0
390
0
  6
Continuous
 62
     7
100
AcDbLine
 10
98.956506
 20
1.621321
 30
0.0
 11
98.956506
 21
-1.62132
 31
0.0
  0
LINE
  5
81D
100
AcDbEntity
  8
0
390
0
  6
Continuous
 62
     7
100
AcDbLine
 10
82.656506
 20
-17.92132
 30
0.0
 11
79.413866
 21
-17.92132
 31
0.0
  0
CIRCLE
  5
81E
100
AcDbEntity
  8
0
390
0
  6
Continuous
 62
     7
100
AcDbCircle
 10
-79.39693
 20
0.0
 30
0.0
 40
23.16188
210
0.0
220
0.0
230
0.9999999999999999
  0
CIRCLE
  5
81F
100
AcDbEntity
  8
0
390
0
  6
Continuous
 62
     7
100
AcDbCircle
 10
-79.39693
 20
0.0
 30
0.0
 40
13.5
210
0.0
220
0.0
230
1.0
  0
ARC
  5
820
100
AcDbEntity
  8
0
390
0
  6
Continuous
 62
     7
100
AcDbCircle
 10
-63.275243
 20
-6.677821
 30
0.0
 40
8.500009
210
0.0
220
0.0
230
1.0
100
AcDbArc
 50
300.795595
 51
14.204421
  0
LINE
  5
821
100
AcDbEntity
  8
0
390
0
  6
Continuous
 62
     7
100
AcDbLine
 10
-58.923435
 20
-13.979323
 30
0.0
 11
-60.231051
 21
-14.758681
 31
0.0
  0
ARC
  5
822
100
AcDbEntity
  8
0
390
0
  6
Continuous
 62
     7
100
AcDbCircle
 10
-53.728708
 20
-25.668222
 30
0.0
 40
12.700337
210
0.0
220
0.0
230
1.0
100
AcDbArc
 50
120.795935
 51
149.204073
  0
LINE
  5
823
100
AcDbEntity
  8
0
390
0
  6
Continuous
 62
     7
100
AcDbLine
 10
-64.63825
 20
-19.165881
 30
0.0
 11
-65.417606
 21
-20.473493
 31
0.0
  0
ARC
  5
824
100
AcDbEntity
  8
0
390
0
  6
Continuous
 62
     7
100
AcDbCircle
 10
-72.719108
 20
-16.121687
 30
0.0
 40
8.500009
210
0.0
220
0.0
230
1.0
100
AcDbArc
 50
255.795587
 51
329.204413
  0
LINE
  5
825
100
AcDbEntity
  8
0
390
0
  6
Continuous
 62
     7
100
AcDbLine
 10
-74.804858
 20
-24.361821
 30
0.0
 11
-76.280568
 21
-23.988286
 31
0.0
  0
ARC
  5
826
100
AcDbEntity
  8
0
390
0
  6
Continuous
 62
     7
100
AcDbCircle
 10
-79.39693
 20
-36.3
 30
0.0
 40
12.7
210
0.0
220
0.0
230
1.0
100
AcDbArc
 50
75.79554
 51
104.204468
  0
LINE
  5
827
100
AcDbEntity
  8
0
390
0
  6
Continuous
 62
     7
100
AcDbLine
 10
-82.513294
 20
-23.988287
 30
0.0
 11
-83.989
 21
-24.36182
 31
0.0
  0
ARC
  5
828
100
AcDbEntity
  8
0
390
0
  6
Continuous
 62
     7
100
AcDbCircle
 10
-86.074751
 20
-16.121687
 30
0.0
 40
8.500009
210
0.0
220
0.0
230
1.0
100
AcDbArc
 50
210.795595
 51
284.204421
  0
LINE
  5
829
100
AcDbEntity
  8
0
390
0
  6
Continuous
 62
     7
100
AcDbLine
 10
-93.376253
 20
-20.473494
 30
0.0
 11
-94.155611
 21
-19.165879
 31
0.0
  0
ARC
  5
82A
100
AcDbEntity
  8
0
390
0
  6
Continuous
 62
     7
100
AcDbCircle
 10
-105.065153
 20
-25.668222
 30
0.0
 40
12.700337
210
0.0
220
0.0
230
1.0
100
AcDbArc
 50
30.795935
 51
59.204073
  0
LINE
  5
82B
100
AcDbEntity
  8
0
390
0
  6
Continuous
 62
     7
100
AcDbLine
 10
-98.562811
 20
-14.758679
 30
0.0
 11
-99.870424
 21
-13.979323
 31
0.0
  0
ARC
  5
82C
100
AcDbEntity
  8
0
390
0
  6
Continuous
 62
     7
100
AcDbCircle
 10
-95.518617
 20
-6.677821
 30
0.0
 40
8.500009
210
0.0
220
0.0
230
1.0
100
AcDbArc
 50
165.795587
 51
239.204413
  0
LINE
  5
82D
100
AcDbEntity
  8
0
390
0
  6
Continuous
 62
     7
100
AcDbLine
 10
-103.758751
 20
-4.59207
 30
0.0
 11
-103.385217
 21
-3.11636
 31
0.0
  0
ARC
  5
82E
100
AcDbEntity
  8
0
390
0
  6
Continuous
 62
     7
100
AcDbCircle
 10
-115.697279
 20
0.000001
 30
0.0
 40
12.700338
210
0.0
220
0.0
230
1.0
100
AcDbArc
 50
345.795927
 51
14.204081
  0
LINE
  5
82F
100
AcDbEntity
  8
0
390
0
  6
Continuous
 62
     7
100
AcDbLine
 10
-103.385217
 20
3.116365
 30
0.0
 11
-103.758751
 21
4.592071
 31
0.0
  0
ARC
  5
830
100
AcDbEntity
  8
0
390
0
  6
Continuous
 62
     7
100
AcDbCircle
 10
-95.518617
 20
6.677822
 30
0.0
 40
8.500009
210
0.0
220
0.0
230
0.9999999999999999
100
AcDbArc
 50
120.795595
 51
194.204421
  0
LINE
  5
831
100
AcDbEntity
  8
0
390
0
  6
Continuous
 62
     7
100
AcDbLine
 10
-99.870425
 20
13.979325
 30
0.0
 11
-98.562809
 21
14.758681
 31
0.0
  0
ARC
  5
832
100
AcDbEntity
  8
0
390
0
  6
Continuous
 62
     7
100
AcDbCircle
 10
-105.064905
 20
25.667976
 30
0.0
 40
12.699999
210
0.0
220
0.0
230
0.9999999999999999
100
AcDbArc
 50
300.795549
 51
329.20446
  0
LINE
  5
833
100
AcDbEntity
  8
0
390
0
  6
Continuous
 62
     7
100
AcDbLine
 10
-94.155609
 20
19.165883
 30
0.0
 11
-93.376254
 21
20.473495
 31
0.0
  0
ARC
  5
834
100
AcDbEntity
  8
0
390
0
  6
Continuous
 62
     7
100
AcDbCircle
 10
-86.074751
 20
16.121689
 30
0.0
 40
8.500009
210
0.0
220
0.0
230
1.0
100
AcDbArc
 50
75.795587
 51
149.204413
  0
LINE
  5
835
100
AcDbEntity
  8
0
390
0
  6
Continuous
 62
     7
100
AcDbLine
 10
-83.989002
 20
24.361821
 30
0.0
 11
-82.513291
 21
23.988287
 31
0.0
  0
ARC
  5
836
100
AcDbEntity
  8
0
390
0
  6
Continuous
 62
     7
100
AcDbCircle
 10
-79.396929
 20
36.3
 30
0.0
 40
12.7
210
0.0
220
0.0
230
0.9999999999999999
100
AcDbArc
 50
255.79554
 51
284.204468
  0
LINE
  5
837
100
AcDbEntity
  8
0
390
0
  6
Continuous
 62
     7
100
AcDbLine
 10
-76.280566
 20
23.988289
 30
0.0
 11
-74.804859
 21
24.361821
 31
0.0
  0
ARC
  5
838
100
AcDbEntity
  8
0
390
0
  6
Continuous
 62
     7
100
AcDbCircle
 10
-72.719108
 20
16.121689
 30
0.0
 40
8.500009
210
0.0
220
0.0
230
1.0
100
AcDbArc
 50
30.795595
 51
104.204421
  0
LINE
  5
839
100
AcDbEntity
  8
0
390
0
  6
Continuous
 62
     7
100
AcDbLine
 10
-65.417607
 20
20.473495
 30
0.0
 11
-64.638249
 21
19.165879
 31
0.0
  0
ARC
  5
83A
100
AcDbEntity
  8
0
390
0
  6
Continuous
 62
     7
100
AcDbCircle
 10
-53.728707
 20
25.668223
 30
0.0
 40
12.700337
210
0.0
220
0.0
230
1.0
100
AcDbArc
 50
210.795935
 51
239.204073
  0
LINE
  5
83B
100
AcDbEntity
  8
0
390
0
  6
Continuous
 62
     7
100
AcDbLine
 10
-60.231049
 20
14.75868
 30
0.0
 11
-58.923436
 21
13.979325
 31
0.0
  0
ARC
  5
83C
100
AcDbEntity
  8
0
390
0
  6
Continuous
 62
     7
100
AcDbCircle
 10
-63.275243
 20
6.677822
 30
0.0
 40
8.500009
210
0.0
220
0.0
230
1.0
100
AcDbArc
 50
345.795587
 51
59.204413
  0
LINE
  5
83D
100
AcDbEntity
  8
0
390
0
  6
Continuous
 62
     7
100
AcDbLine
 10
-55.035109
 20
4.592072
 30
0.0
 11
-55.408643
 21
3.116362
 31
0.0
  0
ARC
  5
83E
100
AcDbEntity
  8
0
390
0
  6
Continuous
 62
     7
100
AcDbCircle
 10
-43.096581
 20
0.0
 30
0.0
 40
12.700338
210
0.0
220
0.0
230
1.0
100
AcDbArc
 50
165.795927
 51
194.204081
  0
LINE
  5
83F
100
AcDbEntity
  8
0
390
0
  6
Continuous
 62
     7
100
AcDbLine
 10
-55.408643
 20
-3.116363
 30
0.0
 11
-55.035109
 21
-4.592069
 31
0.0
  0
POINT
  5
840
100
AcDbEntity
  8
0
390
0
 62
     7
100
AcDbPoint
 10
0.0
 20
0.0
 30
0.0
  0
ENDSEC
  0
SECTION
  2
OBJECTS
  0
DICTIONARY
  5
19
100
AcDbDictionary
280
     0
281
     1
  3
ACAD_GROUP
350
1A
  3
ACAD_MLINESTYLE
350
1B
  3
ACAD_LAYOUT
350
1E
  3
ACAD_PLOTSETTINGS
350
22
  3
ACAD_PLOTSTYLENAME
350
1F
  3
ACAD_WIPEOUT_VARS
350
23
  0
DICTIONARY
  5
1A
102
{ACAD_REACTORS
330
19
102
}
100
AcDbDictionary
280
     0
281
     1
  0
DICTIONARY
  5
1B
102
{ACAD_REACTORS
330
19
102
}
100
AcDbDictionary
280
     0
281
     1
  3
Standard
350
1C
  0
MLINESTYLE
  5
1C
102
{ACAD_REACTORS
330
1B
102
}
100
AcDbMlineStyle
  2
Standard
 70
     0
  3

 62
     0
 51
90.0
 52
90.0
 71
     2
 49
0.5
 62
   256
  6
ByLayer
 49
-0.5
 62
   256
  6
ByLayer
  0
ACDBDICTIONARYWDFLT
  5
1F
102
{ACAD_REACTORS
330
19
102
}
100
AcDbDictionary
281
     1
  3
Normal
350
1D
100
AcDbDictionaryWithDefault
340
1D
  0
ACDBPLACEHOLDER
  5
1D
102
{ACAD_REACTORS
330
1F
102
}
  0
LAYOUT
  5
20
102
{ACAD_REACTORS
330
1E
102
}
100
AcDbPlotSettings
  1

  2

  4

  6

 40
0.0
 41
0.0
 42
0.0
 43
0.0
 44
0.0
 45
0.0
 46
0.0
 47
0.0
 48
0.0
 49
0.0
140
0.0
141
0.0
142
1.0
143
1.0
 70
  1024
 72
     0
 73
     0
 74
     0
  7

 75
     0
147
1.0
148
0.0
149
0.0
100
AcDbLayout
  1
Model
 70
     0
 71
     1
 10
0.0
 20
0.0
 11
0.0
 21
0.0
 12
0.0
 22
0.0
 32
0.0
 14
0.0
 24
0.0
 34
0.0
 15
0.0
 25
0.0
 35
0.0
146
0.0
 13
0.0
 23
0.0
 33
0.0
 16
0.0
 26
0.0
 36
0.0
 17
0.0
 27
0.0
 37
0.0
 76
     0
330
A
331
0
345
0
346
0
  0
LAYOUT
  5
21
102
{ACAD_REACTORS
330
1E
102
}
100
AcDbPlotSettings
  1

  2

  4

  6

 40
0.0
 41
0.0
 42
0.0
 43
0.0
 44
0.0
 45
0.0
 46
0.0
 47
0.0
 48
0.0
 49
0.0
140
0.0
141
0.0
142
1.0
143
1.0
 70
     0
 72
     0
 73
     0
 74
     0
  7

 75
     0
147
1.0
148
0.0
149
0.0
100
AcDbLayout
  1
Layout1
 70
     0
 71
     2
 10
0.0
 20
0.0
 11
0.0
 21
0.0
 12
0.0
 22
0.0
 32
0.0
 14
0.0
 24
0.0
 34
0.0
 15
0.0
 25
0.0
 35
0.0
146
0.0
 13
0.0
 23
0.0
 33
0.0
 16
0.0
 26
0.0
 36
0.0
 17
0.0
 27
0.0
 37
0.0
 76
     0
330
B
331
0
345
0
346
0
  0
DICTIONARY
  5
1E
102
{ACAD_REACTORS
330
19
102
}
100
AcDbDictionary
280
     0
281
     1
  3
Layout1
350
21
  3
Model
350
20
  0
DICTIONARY
  5
22
102
{ACAD_REACTORS
330
19
102
}
100
AcDbDictionary
280
     0
281
     1
  0
WIPEOUTVARIABLES
  5
23
100
AcDbWipeoutVariables
 70
     1
  0
ENDSEC
  0
EOF
