  0
SECTION
  2
HEADER
  9
$ACADVER
  1
AC1015
  9
$ACADMAINTVER
 70
     6
  9
$DWGCODEPAGE
  3
DOS932
  9
$INSBASE
 10
0.0
 20
0.0
 30
0.0
  9
$EXTMIN
 10
-167.6604
 20
-165.113632
 30
0.0
  9
$EXTMAX
 10
470.485354
 20
367.457751
 30
9.906
  9
$LIMMIN
 10
-167.6604
 20
-165.113632
  9
$LIMMAX
 10
470.485354
 20
367.457751
  9
$ORTHOMODE
 70
     0
  9
$REGENMODE
 70
     1
  9
$FILLMODE
 70
     1
  9
$QTEXTMODE
 70
     0
  9
$MIRRTEXT
 70
     1
  9
$LTSCALE
 40
10.0
  9
$ATTMODE
 70
     1
  9
$TEXTSIZE
 40
0.2
  9
$TRACEWID
 40
0.05
  9
$TEXTSTYLE
  7
Standard
  9
$CLAYER
  8
0
  9
$CELTYPE
  6
Continuous
  9
$CECOLOR
 62
   256
  9
$CELTSCALE
 40
1.0
  9
$DISPSILH
 70
     0
  9
$DIMSCALE
 40
1.0
  9
$DIMASZ
 40
1.40208
  9
$DIMEXO
 40
1.40208
  9
$DIMDLI
 40
0.38
  9
$DIMRND
 40
0.0
  9
$DIMDLE
 40
0.0
  9
$DIMEXE
 40
1.05156
  9
$DIMTP
 40
0.0
  9
$DIMTM
 40
0.0
  9
$DIMTXT
 40
3.5052
  9
$DIMCEN
 40
0.09
  9
$DIMTSZ
 40
0.0
  9
$DIMTOL
 70
     0
  9
$DIMLIM
 70
     0
  9
$DIMTIH
 70
     0
  9
$DIMTOH
 70
     0
  9
$DIMSE1
 70
     0
  9
$DIMSE2
 70
     0
  9
$DIMTAD
 70
     1
  9
$DIMZIN
 70
     0
  9
$DIMBLK
  1

  9
$DIMASO
 70
     1
  9
$DIMSHO
 70
     1
  9
$DIMPOST
  1

  9
$DIMAPOST
  1

  9
$DIMALT
 70
     0
  9
$DIMALTD
 70
     2
  9
$DIMALTF
 40
25.4
  9
$DIMLFAC
 40
1.0
  9
$DIMTOFL
 70
     0
  9
$DIMTVP
 40
0.0
  9
$DIMTIX
 70
     0
  9
$DIMSOXD
 70
     0
  9
$DIMSAH
 70
     0
  9
$DIMBLK1
  1

  9
$DIMBLK2
  1

  9
$DIMSTYLE
  2
Standard
  9
$DIMCLRD
 70
     7
  9
$DIMCLRE
 70
     7
  9
$DIMCLRT
 70
     7
  9
$DIMTFAC
 40
0.5
  9
$DIMGAP
 40
1.7526
  9
$DIMJUST
 70
     0
  9
$DIMSD1
 70
     0
  9
$DIMSD2
 70
     0
  9
$DIMTOLJ
 70
     1
  9
$DIMTZIN
 70
     0
  9
$DIMALTZ
 70
     0
  9
$DIMALTTZ
 70
     0
  9
$DIMUPT
 70
     0
  9
$DIMDEC
 70
     2
  9
$DIMTDEC
 70
     4
  9
$DIMALTU
 70
     2
  9
$DIMALTTD
 70
     2
  9
$DIMTXSTY
  7
Standard
  9
$DIMAUNIT
 70
     0
  9
$DIMADEC
 70
     0
  9
$DIMALTRND
 40
0.0
  9
$DIMAZIN
 70
     0
  9
$DIMDSEP
 70
     0
  9
$DIMATFIT
 70
     3
  9
$DIMFRAC
 70
     0
  9
$DIMLDRBLK
  1

  9
$DIMLUNIT
 70
     2
  9
$DIMLWD
 70
     0
  9
$DIMLWE
 70
     0
  9
$DIMTMOVE
 70
     0
  9
$LUNITS
 70
     2
  9
$LUPREC
 70
     4
  9
$SKETCHINC
 40
0.1
  9
$FILLETRAD
 40
0.0
  9
$AUNITS
 70
     0
  9
$AUPREC
 70
     0
  9
$MENU
  1
acad
  9
$ELEVATION
 40
0.0
  9
$PELEVATION
 40
0.0
  9
$THICKNESS
 40
0.0
  9
$LIMCHECK
 70
     0
  9
$CHAMFERA
 40
0.0
  9
$CHAMFERB
 40
0.0
  9
$CHAMFERC
 40
0.0
  9
$CHAMFERD
 40
0.0
  9
$SKPOLY
 70
     0
  9
$TDCREATE
 40
2459765.583009259
  9
$TDUCREATE
 40
0.000000000
  9
$TDUPDATE
 40
2459765.207928241
  9
$TDUUPDATE
 40
0.000000000
  9
$TDINDWG
 40
0.0000000000
  9
$TDUSRTIMER
 40
0.0000000000
  9
$USRTIMER
 70
     1
  9
$ANGBASE
 50
0.0
  9
$ANGDIR
 70
     0
  9
$PDMODE
 70
     0
  9
$PDSIZE
 40
0.0
  9
$PLINEWID
 40
0.0
  9
$SPLFRAME
 70
     0
  9
$SPLINETYPE
 70
     6
  9
$SPLINESEGS
 70
     8
  9
$HANDSEED
  5
202
  9
$SURFTAB1
 70
     6
  9
$SURFTAB2
 70
     6
  9
$SURFTYPE
 70
     6
  9
$SURFU
 70
     6
  9
$SURFV
 70
     6
  9
$UCSBASE
  2

  9
$UCSNAME
  2

  9
$UCSORG
 10
0.0
 20
0.0
 30
0.0
  9
$UCSXDIR
 10
1.0
 20
0.0
 30
0.0
  9
$UCSYDIR
 10
0.0
 20
1.0
 30
0.0
  9
$UCSORTHOREF
  2

  9
$UCSORTHOVIEW
 70
     0
  9
$UCSORGTOP
 10
0.0
 20
0.0
 30
0.0
  9
$UCSORGBOTTOM
 10
0.0
 20
0.0
 30
0.0
  9
$UCSORGLEFT
 10
0.0
 20
0.0
 30
0.0
  9
$UCSORGRIGHT
 10
0.0
 20
0.0
 30
0.0
  9
$UCSORGFRONT
 10
0.0
 20
0.0
 30
0.0
  9
$UCSORGBACK
 10
0.0
 20
0.0
 30
0.0
  9
$PUCSBASE
  2

  9
$PUCSNAME
  2

  9
$PUCSORG
 10
0.0
 20
0.0
 30
0.0
  9
$PUCSXDIR
 10
1.0
 20
0.0
 30
0.0
  9
$PUCSYDIR
 10
0.0
 20
1.0
 30
0.0
  9
$PUCSORTHOREF
  2

  9
$PUCSORTHOVIEW
 70
     0
  9
$PUCSORGTOP
 10
0.0
 20
0.0
 30
0.0
  9
$PUCSORGBOTTOM
 10
0.0
 20
0.0
 30
0.0
  9
$PUCSORGLEFT
 10
0.0
 20
0.0
 30
0.0
  9
$PUCSORGRIGHT
 10
0.0
 20
0.0
 30
0.0
  9
$PUCSORGFRONT
 10
0.0
 20
0.0
 30
0.0
  9
$PUCSORGBACK
 10
0.0
 20
0.0
 30
0.0
  9
$USERI1
 70
     0
  9
$USERI2
 70
     0
  9
$USERI3
 70
     0
  9
$USERI4
 70
     0
  9
$USERI5
 70
     0
  9
$USERR1
 40
0.0
  9
$USERR2
 40
0.0
  9
$USERR3
 40
0.0
  9
$USERR4
 40
0.0
  9
$USERR5
 40
0.0
  9
$WORLDVIEW
 70
     1
  9
$SHADEDGE
 70
     3
  9
$SHADEDIF
 70
    70
  9
$TILEMODE
 70
     1
  9
$MAXACTVP
 70
    16
  9
$PINSBASE
 10
0.0
 20
0.0
 30
0.0
  9
$PLIMCHECK
 70
     0
  9
$PEXTMIN
 10
1.000000E+20
 20
1.000000E+20
 30
1.000000E+20
  9
$PEXTMAX
 10
-1.000000E+20
 20
-1.000000E+20
 30
-1.000000E+20
  9
$PLIMMIN
 10
0.0
 20
0.0
  9
$PLIMMAX
 10
12.0
 20
9.0
  9
$UNITMODE
 70
     0
  9
$VISRETAIN
 70
     0
  9
$PLINEGEN
 70
     1
  9
$PSLTSCALE
 70
     0
  9
$TREEDEPTH
 70
  3020
  9
$CMLSTYLE
  2
Standard
  9
$CMLJUST
 70
     0
  9
$CMLSCALE
 40
1.0
  9
$PROXYGRAPHICS
 70
     0
  9
$MEASUREMENT
 70
     0
  9
$CELWEIGHT
370
     0
  9
$ENDCAPS
280
     0
  9
$JOINSTYLE
280
     0
  9
$LWDISPLAY
290
     0
  9
$INSUNITS
 70
     0
  9
$HYPERLINKBASE
  1

  9
$STYLESHEET
  1

  9
$XEDIT
290
     1
  9
$CEPSNTYPE
380
     0
  9
$PSTYLEMODE
290
     1
  9
$FINGERPRINTGUID
  2

  9
$VERSIONGUID
  2

  9
$EXTNAMES
290
     1
  9
$PSVPSCALE
 40
0.0
  0
ENDSEC
  0
SECTION
  2
CLASSES
  0
CLASS
  1
LWPOLYLINE
  2
AcDbPolyline
  3
AutoCAD 2000
 90
        0
280
     0
281
     1
  0
CLASS
  1
IMAGE
  2
AcDbRasterImage
  3
ISM
 90
      127
280
     0
281
     1
  0
CLASS
  1
OLE2FRAME
  2
AcDbOle2Frame
  3
AutoCAD 2000
 90
        0
280
     0
281
     1
  0
CLASS
  1
HATCH
  2
AcDbHatch
  3
AutoCAD 2000
 90
        0
280
     0
281
     1
  0
CLASS
  1
DICTIONARYVAR
  2
AcDbDictionaryVar
  3
AutoCAD 2000
 90
        0
280
     0
281
     0
  0
CLASS
  1
RASTERVARIABLES
  2
AcDbRasterVariables
  3
ISM
 90
        0
280
     0
281
     0
  0
CLASS
  1
IMAGEDEF
  2
AcDbRasterImageDef
  3
ISM
 90
        0
280
     0
281
     0
  0
CLASS
  1
IMAGEDEF_REACTOR
  2
AcDbRasterImageDefReactor
  3
ISM
 90
        1
280
     0
281
     0
  0
CLASS
  1
IDBUFFER
  2
AcDbIdBuffer
  3
AutoCAD 2000
 90
        0
280
     0
281
     0
  0
CLASS
  1
SPATIAL_FILTER
  2
AcDbSpatialFilter
  3
AutoCAD 2000
 90
        0
280
     0
281
     0
  0
CLASS
  1
XRECORD
  2
AcDbXrecord
  3
AutoCAD 2000
 90
        0
280
     0
281
     0
  0
CLASS
  1
SORTENTSTABLE
  2
AcDbSortentsTable
  3
AutoCAD 2000
 90
        0
280
     0
281
     0
  0
CLASS
  1
LAYER_INDEX
  2
AcDbLayerIndex
  3
AutoCAD 2000
 90
        0
280
     0
281
     0
  0
CLASS
  1
SPATIAL_INDEX
  2
AcDbSpatialIndex
  3
AutoCAD 2000
 90
        0
280
     0
281
     0
  0
CLASS
  1
OBJECT_PTR
  2
CAseDLPNTableRecord
  3
"ASE-LPNTableRecord"
 90
        1
280
     0
281
     0
  0
CLASS
  1
LAYOUT
  2
AcDbLayout
  3
AutoCAD 2000
 90
        0
280
     0
281
     0
  0
CLASS
  1
PLOTSETTINGS
  2
AcDbPlotSettings
  3
AutoCAD 2000
 90
        0
280
     0
281
     0
  0
CLASS
  1
ACDBDICTIONARYWDFLT
  2
AcDbDictionaryWithDefault
  3
AutoCAD 2000
 90
        0
280
     0
281
     0
  0
CLASS
  1
ACDBPLACEHOLDER
  2
AcDbPlaceHolder
  3
AutoCAD 2000
 90
        0
280
     0
281
     0
  0
CLASS
  1
VBA_PROJECT
  2
AcDbVbaProject
  3
acadvba
 90
        0
280
     0
281
     0
  0
CLASS
  1
WIPEOUT
  2
AcDbWipeout
  3
WipeOut|AutoCAD Express Tool|expresstools@autodesk.com
 90
      127
280
     0
281
     1
  0
CLASS
  1
WIPEOUTVARIABLES
  2
AcDbWipeoutVariables
  3
WipeOut|AutoCAD Express Tool|expresstools@autodesk.com
 90
        0
280
     0
281
     0
  0
CLASS
  1
RTEXT
  2
RText
  3
RText|AutoCAD Express Tool|expresstools@autodesk.com
 90
        0
280
     0
281
     1
  0
CLASS
  1
ARCALIGNEDTEXT
  2
AcDbArcAlignedText
  3
ATEXT|AutoCAD Express Tool|expresstools@autodesk.com
 90
        0
280
     0
281
     1
  0
ENDSEC
  0
SECTION
  2
TABLES
  0
TABLE
  2
VPORT
  5
7
100
AcDbSymbolTable
 70
     1
  0
VPORT
  5
15
100
AcDbSymbolTableRecord
100
AcDbViewportTableRecord
  2
*ACTIVE
 70
     0
 10
0.0
 20
0.0
 11
1.0
 21
1.0
 12
6.591288
 22
4.579184
 13
0.0
 23
0.0
 14
1.0
 24
1.0
 15
0.0
 25
0.0
 16
0.0
 26
0.0
 36
1.0
 17
0.0
 27
0.0
 37
0.0
 40
9.158369
 41
0.688564
 42
50.0
 43
0.0
 44
0.0
 50
0.0
 51
0.0
 71
     0
 72
   100
 73
     1
 74
     1
 75
     0
 76
     0
 77
     0
 78
     0
281
     0
 65
     0
110
0.0
120
0.0
130
0.0
111
1.0
121
0.0
131
0.0
112
0.0
122
1.0
132
0.0
345
0
346
0
 79
     0
146
0.0
  0
ENDTAB
  0
TABLE
  2
LTYPE
  5
4
100
AcDbSymbolTable
 70
     3
  0
LTYPE
  5
11
100
AcDbSymbolTableRecord
100
AcDbLinetypeTableRecord
  2
ByBlock
 70
    64
  3

 72
    65
 73
     0
 40
0.0
  0
LTYPE
  5
12
100
AcDbSymbolTableRecord
100
AcDbLinetypeTableRecord
  2
ByLayer
 70
    64
  3

 72
    65
 73
     0
 40
0.0
  0
LTYPE
  5
13
100
AcDbSymbolTableRecord
100
AcDbLinetypeTableRecord
  2
Continuous
 70
    64
  3
Solid line
 72
    65
 73
     0
 40
0.0
  0
ENDTAB
  0
TABLE
  2
LAYER
  5
2
100
AcDbSymbolTable
 70
     1
  0
LAYER
  5
14
100
AcDbSymbolTableRecord
100
AcDbLayerTableRecord
  2
0
 70
     0
 62
     7
  6
Continuous
290
     1
370
    -3
390
1D
  0
ENDTAB
  0
TABLE
  2
STYLE
  5
3
100
AcDbSymbolTable
 70
     1
  0
STYLE
  5
17
100
AcDbSymbolTableRecord
100
AcDbTextStyleTableRecord
  2
Standard
 70
     0
 40
0.0
 41
1.0
 50
0.0
 71
     0
 42
0.0
  3
FG教科書体NT-M
  4

1001
ACAD
1000
FG教科書体NT-M
1071
        0
  0
ENDTAB
  0
TABLE
  2
VIEW
  5
5
100
AcDbSymbolTable
 70
     0
  0
ENDTAB
  0
TABLE
  2
UCS
  5
6
100
AcDbSymbolTable
 70
     0
  0
ENDTAB
  0
TABLE
  2
APPID
  5
8
100
AcDbSymbolTable
 70
     2
  0
APPID
  5
16
100
AcDbSymbolTableRecord
100
AcDbRegAppTableRecord
  2
ACAD
 70
     0
  0
APPID
  5
26
100
AcDbSymbolTableRecord
100
AcDbRegAppTableRecord
  2
TOPsolid_Design
 70
     0
  0
ENDTAB
  0
TABLE
  2
DIMSTYLE
  5
9
100
AcDbSymbolTable
 70
     1
100
AcDbDimStyleTable
 71
     0
  0
DIMSTYLE
105
18
100
AcDbSymbolTableRecord
100
AcDbDimStyleTableRecord
  2
Standard
 70
     0
  3

  4

 40
1.0
 41
1.40208
 42
1.40208
 43
0.38
 44
1.05156
 45
0.0
 46
0.0
 47
0.0
 48
0.0
 71
     0
 72
     0
 73
     0
 74
     0
 75
     0
 76
     0
 77
     1
 78
     0
 79
     0
140
3.5052
141
0.09
142
0.0
143
25.4
144
1.0
145
0.0
146
0.5
147
1.7526
148
0.0
170
     0
171
     2
172
     0
173
     0
174
     0
175
     0
176
     7
177
     7
178
     7
179
     0
271
     2
272
     4
273
     2
274
     2
275
     0
276
     0
277
     2
278
    46
279
     0
280
     0
281
     0
282
     0
283
     1
284
     0
285
     0
286
     0
288
     0
289
     3
340
17
341
0
342
0
343
0
344
0
371
    -2
372
    -2
  0
ENDTAB
  0
TABLE
  2
BLOCK_RECORD
  5
1
100
AcDbSymbolTable
 70
     0
  0
BLOCK_RECORD
  5
A
100
AcDbSymbolTableRecord
100
AcDbBlockTableRecord
  2
*MODEL_SPACE
340
20
  0
BLOCK_RECORD
  5
B
100
AcDbSymbolTableRecord
100
AcDbBlockTableRecord
  2
*PAPER_SPACE
340
21
  0
ENDTAB
  0
ENDSEC
  0
SECTION
  2
BLOCKS
  0
BLOCK
  5
D
100
AcDbEntity
  8
0
390
0
100
AcDbBlockBegin
  2
*MODEL_SPACE
 70
     0
 10
0.0
 20
0.0
 30
0.0
  3
*MODEL_SPACE
  1

  0
ENDBLK
  5
E
100
AcDbEntity
  8
0
390
0
100
AcDbBlockEnd
  0
BLOCK
  5
F
100
AcDbEntity
 67
     1
  8
0
390
0
100
AcDbBlockBegin
  2
*PAPER_SPACE
 70
     0
 10
0.0
 20
0.0
 30
0.0
  3
*PAPER_SPACE
  1

  0
ENDBLK
  5
10
100
AcDbEntity
 67
     1
  8
0
390
0
100
AcDbBlockEnd
  0
ENDSEC
  0
SECTION
  2
ENTITIES
  0
LINE
  5
27
100
AcDbEntity
  8
0
390
0
  6
Continuous
 62
     7
100
AcDbLine
 10
-3.0
 20
93.239565
 30
0.0
 11
-6.2
 21
93.239565
 31
0.0
  0
LINE
  5
28
100
AcDbEntity
  8
0
390
0
  6
Continuous
 62
     7
100
AcDbLine
 10
-6.2
 20
93.239565
 30
0.0
 11
-6.2
 21
94.172996
 31
0.0
  0
LINE
  5
29
100
AcDbEntity
  8
0
390
0
  6
Continuous
 62
     7
100
AcDbLine
 10
-6.2
 20
94.172996
 30
0.0
 11
-3.0
 21
94.172996
 31
0.0
  0
LINE
  5
2A
100
AcDbEntity
  8
0
390
0
  6
Continuous
 62
     7
100
AcDbLine
 10
-3.0
 20
94.172996
 30
0.0
 11
-3.0
 21
93.239565
 31
0.0
  0
LINE
  5
2B
100
AcDbEntity
  8
0
390
0
  6
Continuous
 62
     7
100
AcDbLine
 10
-6.2
 20
54.196109
 30
0.0
 11
-3.0
 21
54.196109
 31
0.0
  0
LINE
  5
2C
100
AcDbEntity
  8
0
390
0
  6
Continuous
 62
     7
100
AcDbLine
 10
-6.2
 20
54.196109
 30
0.0
 11
-6.2
 21
93.239565
 31
0.0
  0
LINE
  5
2D
100
AcDbEntity
  8
0
390
0
  6
Continuous
 62
     7
100
AcDbLine
 10
-3.0
 20
93.239565
 30
0.0
 11
-3.0
 21
54.196109
 31
0.0
  0
LINE
  5
2E
100
AcDbEntity
  8
0
390
0
  6
Continuous
 62
     7
100
AcDbLine
 10
-6.2
 20
94.172996
 30
0.0
 11
-6.2
 21
96.596109
 31
0.0
  0
LINE
  5
2F
100
AcDbEntity
  8
0
390
0
  6
Continuous
 62
     7
100
AcDbLine
 10
-3.0
 20
94.172996
 30
0.0
 11
-3.0
 21
96.596109
 31
0.0
  0
LINE
  5
30
100
AcDbEntity
  8
0
390
0
  6
Continuous
 62
     7
100
AcDbLine
 10
-6.2
 20
60.809848
 30
0.0
 11
-9.978504
 21
60.90886
 31
0.0
  0
LINE
  5
31
100
AcDbEntity
  8
0
390
0
  6
Continuous
 62
     7
100
AcDbLine
 10
-9.978504
 20
62.483357
 30
0.0
 11
-9.978504
 21
60.90886
 31
0.0
  0
LINE
  5
32
100
AcDbEntity
  8
0
390
0
  6
Continuous
 62
     7
100
AcDbLine
 10
-6.2
 20
62.582369
 30
0.0
 11
-9.978504
 21
62.483357
 31
0.0
  0
LINE
  5
33
100
AcDbEntity
  8
0
390
0
  6
Continuous
 62
     7
100
AcDbLine
 10
-6.2
 20
80.809848
 30
0.0
 11
-9.978504
 21
80.90886
 31
0.0
  0
LINE
  5
34
100
AcDbEntity
  8
0
390
0
  6
Continuous
 62
     7
100
AcDbLine
 10
-9.978504
 20
82.483357
 30
0.0
 11
-9.978504
 21
80.90886
 31
0.0
  0
LINE
  5
35
100
AcDbEntity
  8
0
390
0
  6
Continuous
 62
     7
100
AcDbLine
 10
-6.2
 20
82.582369
 30
0.0
 11
-9.978504
 21
82.483357
 31
0.0
  0
ELLIPSE
  5
36
100
AcDbEntity
  8
0
390
0
  6
Continuous
 62
     7
100
AcDbEllipse
 10
-9.9
 20
81.657832
 30
0.0
 11
1.5000000000000013
 21
0.0
 31
0.0
210
0.0
220
0.0
230
1.0
 40
0.5
 41
3.1415926535897931
 42
4.6600291028248613
  0
LINE
  5
37
100
AcDbEntity
  8
0
390
0
  6
Continuous
 62
     7
100
AcDbLine
 10
-11.4
 20
81.657832
 30
0.0
 11
-11.4
 21
81.734385
 31
0.0
  0
ELLIPSE
  5
38
100
AcDbEntity
  8
0
390
0
  6
Continuous
 62
     7
100
AcDbEllipse
 10
-9.9
 20
81.734385
 30
0.0
 11
1.5000000000000013
 21
0.0
 31
0.0
210
0.0
220
0.0
230
1.0
 40
0.5
 41
1.6231562043547263
 42
3.1415926535898122
  0
ELLIPSE
  5
39
100
AcDbEntity
  8
0
390
0
  6
Continuous
 62
     7
100
AcDbEllipse
 10
-9.9
 20
61.657832
 30
0.0
 11
1.5000000000000013
 21
0.0
 31
0.0
210
0.0
220
0.0
230
1.0
 40
0.5
 41
3.1415926535897931
 42
4.6600291028248613
  0
LINE
  5
3A
100
AcDbEntity
  8
0
390
0
  6
Continuous
 62
     7
100
AcDbLine
 10
-11.4
 20
61.657832
 30
0.0
 11
-11.4
 21
61.734385
 31
0.0
  0
ELLIPSE
  5
3B
100
AcDbEntity
  8
0
390
0
  6
Continuous
 62
     7
100
AcDbEllipse
 10
-9.9
 20
61.734385
 30
0.0
 11
1.5000000000000013
 21
0.0
 31
0.0
210
0.0
220
0.0
230
1.0
 40
0.5
 41
1.6231562043547263
 42
3.1415926535897931
  0
LINE
  5
3C
100
AcDbEntity
  8
0
390
0
  6
Continuous
 62
     7
100
AcDbLine
 10
-6.2
 20
76.109848
 30
0.0
 11
-9.978504
 21
76.20886
 31
0.0
  0
LINE
  5
3D
100
AcDbEntity
  8
0
390
0
  6
Continuous
 62
     7
100
AcDbLine
 10
-9.978504
 20
80.90886
 30
0.0
 11
-9.978504
 21
76.20886
 31
0.0
  0
LINE
  5
3E
100
AcDbEntity
  8
0
390
0
  6
Continuous
 62
     7
100
AcDbLine
 10
-6.2
 20
56.109848
 30
0.0
 11
-9.978504
 21
56.20886
 31
0.0
  0
LINE
  5
3F
100
AcDbEntity
  8
0
390
0
  6
Continuous
 62
     7
100
AcDbLine
 10
-9.978504
 20
60.90886
 30
0.0
 11
-9.978504
 21
56.20886
 31
0.0
  0
LINE
  5
40
100
AcDbEntity
  8
0
390
0
  6
Continuous
 62
     7
100
AcDbLine
 10
-9.978504
 20
67.183357
 30
0.0
 11
-9.978504
 21
62.483357
 31
0.0
  0
LINE
  5
41
100
AcDbEntity
  8
0
390
0
  6
Continuous
 62
     7
100
AcDbLine
 10
-6.2
 20
67.282369
 30
0.0
 11
-9.978504
 21
67.183357
 31
0.0
  0
LINE
  5
42
100
AcDbEntity
  8
0
390
0
  6
Continuous
 62
     7
100
AcDbLine
 10
-9.978504
 20
87.183357
 30
0.0
 11
-9.978504
 21
82.483357
 31
0.0
  0
LINE
  5
43
100
AcDbEntity
  8
0
390
0
  6
Continuous
 62
     7
100
AcDbLine
 10
-6.2
 20
87.282369
 30
0.0
 11
-9.978504
 21
87.183357
 31
0.0
  0
ELLIPSE
  5
44
100
AcDbEntity
  8
0
390
0
  6
Continuous
 62
     7
100
AcDbEllipse
 10
-9.9
 20
76.957832
 30
0.0
 11
1.5000000000000013
 21
0.0
 31
0.0
210
0.0
220
0.0
230
1.0
 40
0.5
 41
3.1415926535897931
 42
4.6600291028248577
  0
LINE
  5
45
100
AcDbEntity
  8
0
390
0
  6
Continuous
 62
     7
100
AcDbLine
 10
-11.4
 20
76.957832
 30
0.0
 11
-11.4
 21
81.657832
 31
0.0
  0
ELLIPSE
  5
46
100
AcDbEntity
  8
0
390
0
  6
Continuous
 62
     7
100
AcDbEllipse
 10
-9.9
 20
56.957832
 30
0.0
 11
1.5000000000000013
 21
0.0
 31
0.0
210
0.0
220
0.0
230
1.0
 40
0.5
 41
3.1415926535897931
 42
4.6600291028248613
  0
LINE
  5
47
100
AcDbEntity
  8
0
390
0
  6
Continuous
 62
     7
100
AcDbLine
 10
-11.4
 20
56.957832
 30
0.0
 11
-11.4
 21
61.657832
 31
0.0
  0
LINE
  5
48
100
AcDbEntity
  8
0
390
0
  6
Continuous
 62
     7
100
AcDbLine
 10
-11.4
 20
61.734385
 30
0.0
 11
-11.4
 21
66.434385
 31
0.0
  0
ELLIPSE
  5
49
100
AcDbEntity
  8
0
390
0
  6
Continuous
 62
     7
100
AcDbEllipse
 10
-9.9
 20
66.434385
 30
0.0
 11
-1.5000000000000013
 21
0.0
 31
0.0
210
0.0
220
0.0
230
1.0
 40
0.5
 41
4.7647488579445199
 42
6.2831853071795862
  0
LINE
  5
4A
100
AcDbEntity
  8
0
390
0
  6
Continuous
 62
     7
100
AcDbLine
 10
-11.4
 20
81.734385
 30
0.0
 11
-11.4
 21
86.434385
 31
0.0
  0
ELLIPSE
  5
4B
100
AcDbEntity
  8
0
390
0
  6
Continuous
 62
     7
100
AcDbEllipse
 10
-9.9
 20
86.434385
 30
0.0
 11
-1.5000000000000013
 21
0.0
 31
0.0
210
0.0
220
0.0
230
1.0
 40
0.5
 41
4.7647488579445207
 42
6.2831853071795862
  0
LINE
  5
4C
100
AcDbEntity
  8
0
390
0
  6
Continuous
 62
     7
100
AcDbLine
 10
-9.978504
 20
87.970606
 30
0.0
 11
-9.978504
 21
87.183357
 31
0.0
  0
LINE
  5
4D
100
AcDbEntity
  8
0
390
0
  6
Continuous
 62
     7
100
AcDbLine
 10
-6.2
 20
88.168629
 30
0.0
 11
-9.978504
 21
87.970606
 31
0.0
  0
LINE
  5
4E
100
AcDbEntity
  8
0
390
0
  6
Continuous
 62
     7
100
AcDbLine
 10
-6.2
 20
75.223588
 30
0.0
 11
-9.978504
 21
75.421611
 31
0.0
  0
LINE
  5
4F
100
AcDbEntity
  8
0
390
0
  6
Continuous
 62
     7
100
AcDbLine
 10
-9.978504
 20
76.20886
 30
0.0
 11
-9.978504
 21
75.421611
 31
0.0
  0
LINE
  5
50
100
AcDbEntity
  8
0
390
0
  6
Continuous
 62
     7
100
AcDbLine
 10
-9.978504
 20
67.970606
 30
0.0
 11
-9.978504
 21
67.183357
 31
0.0
  0
LINE
  5
51
100
AcDbEntity
  8
0
390
0
  6
Continuous
 62
     7
100
AcDbLine
 10
-6.2
 20
68.168629
 30
0.0
 11
-9.978504
 21
67.970606
 31
0.0
  0
LINE
  5
52
100
AcDbEntity
  8
0
390
0
  6
Continuous
 62
     7
100
AcDbLine
 10
-6.2
 20
55.223588
 30
0.0
 11
-9.978504
 21
55.421611
 31
0.0
  0
LINE
  5
53
100
AcDbEntity
  8
0
390
0
  6
Continuous
 62
     7
100
AcDbLine
 10
-9.978504
 20
56.20886
 30
0.0
 11
-9.978504
 21
55.421611
 31
0.0
  0
ARC
  5
54
100
AcDbEntity
  8
0
390
0
  6
Continuous
 62
     7
100
AcDbCircle
 10
-9.9
 20
86.472662
 30
0.0
 40
1.5
210
0.0
220
0.0
230
1.0
100
AcDbArc
 50
93.0
 51
180.0
  0
LINE
  5
55
100
AcDbEntity
  8
0
390
0
  6
Continuous
 62
     7
100
AcDbLine
 10
-11.4
 20
86.434385
 30
0.0
 11
-11.4
 21
86.472662
 31
0.0
  0
ARC
  5
56
100
AcDbEntity
  8
0
390
0
  6
Continuous
 62
     7
100
AcDbCircle
 10
-9.9
 20
76.919555
 30
0.0
 40
1.5
210
0.0
220
0.0
230
1.0
100
AcDbArc
 50
180.0
 51
267.0
  0
LINE
  5
57
100
AcDbEntity
  8
0
390
0
  6
Continuous
 62
     7
100
AcDbLine
 10
-11.4
 20
76.919555
 30
0.0
 11
-11.4
 21
76.957832
 31
0.0
  0
ARC
  5
58
100
AcDbEntity
  8
0
390
0
  6
Continuous
 62
     7
100
AcDbCircle
 10
-9.9
 20
56.919555
 30
0.0
 40
1.5
210
0.0
220
0.0
230
1.0
100
AcDbArc
 50
180.0
 51
267.0
  0
LINE
  5
59
100
AcDbEntity
  8
0
390
0
  6
Continuous
 62
     7
100
AcDbLine
 10
-11.4
 20
56.919555
 30
0.0
 11
-11.4
 21
56.957832
 31
0.0
  0
ARC
  5
5A
100
AcDbEntity
  8
0
390
0
  6
Continuous
 62
     7
100
AcDbCircle
 10
-9.9
 20
66.472662
 30
0.0
 40
1.5
210
0.0
220
0.0
230
1.0
100
AcDbArc
 50
93.0
 51
180.0
  0
LINE
  5
5B
100
AcDbEntity
  8
0
390
0
  6
Continuous
 62
     7
100
AcDbLine
 10
-11.4
 20
66.434385
 30
0.0
 11
-11.4
 21
66.472662
 31
0.0
  0
LINE
  5
5C
100
AcDbEntity
  8
0
390
0
  6
Continuous
 62
     7
100
AcDbLine
 10
9.0
 20
64.58286
 30
0.0
 11
5.0
 21
64.58286
 31
0.0
  0
LINE
  5
5D
100
AcDbEntity
  8
0
390
0
  6
Continuous
 62
     7
100
AcDbLine
 10
9.0
 20
64.58286
 30
0.0
 11
9.0
 21
58.809357
 31
0.0
  0
LINE
  5
5E
100
AcDbEntity
  8
0
390
0
  6
Continuous
 62
     7
100
AcDbLine
 10
9.0
 20
58.809357
 30
0.0
 11
5.0
 21
58.809357
 31
0.0
  0
LINE
  5
5F
100
AcDbEntity
  8
0
390
0
  6
Continuous
 62
     7
100
AcDbLine
 10
9.0
 20
58.809357
 30
0.0
 11
9.0
 21
55.922606
 31
0.0
  0
LINE
  5
60
100
AcDbEntity
  8
0
390
0
  6
Continuous
 62
     7
100
AcDbLine
 10
9.0
 20
55.922606
 30
0.0
 11
5.0
 21
55.922606
 31
0.0
  0
LINE
  5
61
100
AcDbEntity
  8
0
390
0
  6
Continuous
 62
     7
100
AcDbLine
 10
9.0
 20
67.469611
 30
0.0
 11
5.0
 21
67.469611
 31
0.0
  0
LINE
  5
62
100
AcDbEntity
  8
0
390
0
  6
Continuous
 62
     7
100
AcDbLine
 10
9.0
 20
67.469611
 30
0.0
 11
9.0
 21
64.58286
 31
0.0
  0
LINE
  5
63
100
AcDbEntity
  8
0
390
0
  6
Continuous
 62
     7
100
AcDbLine
 10
-14.5
 20
64.696109
 30
0.0
 11
-14.5
 21
58.696109
 31
0.0
  0
LINE
  5
64
100
AcDbEntity
  8
0
390
0
  6
Continuous
 62
     7
100
AcDbLine
 10
-15.0
 20
59.196109
 30
0.0
 11
-15.0
 21
64.196109
 31
0.0
  0
LINE
  5
65
100
AcDbEntity
  8
0
390
0
  6
Continuous
 62
     7
100
AcDbLine
 10
9.0
 20
87.469611
 30
0.0
 11
5.0
 21
87.469611
 31
0.0
  0
LINE
  5
66
100
AcDbEntity
  8
0
390
0
  6
Continuous
 62
     7
100
AcDbLine
 10
9.0
 20
87.469611
 30
0.0
 11
9.0
 21
84.58286
 31
0.0
  0
LINE
  5
67
100
AcDbEntity
  8
0
390
0
  6
Continuous
 62
     7
100
AcDbLine
 10
9.0
 20
84.58286
 30
0.0
 11
5.0
 21
84.58286
 31
0.0
  0
LINE
  5
68
100
AcDbEntity
  8
0
390
0
  6
Continuous
 62
     7
100
AcDbLine
 10
9.0
 20
84.58286
 30
0.0
 11
9.0
 21
78.809357
 31
0.0
  0
LINE
  5
69
100
AcDbEntity
  8
0
390
0
  6
Continuous
 62
     7
100
AcDbLine
 10
9.0
 20
78.809357
 30
0.0
 11
5.0
 21
78.809357
 31
0.0
  0
LINE
  5
6A
100
AcDbEntity
  8
0
390
0
  6
Continuous
 62
     7
100
AcDbLine
 10
9.0
 20
78.809357
 30
0.0
 11
9.0
 21
75.922606
 31
0.0
  0
LINE
  5
6B
100
AcDbEntity
  8
0
390
0
  6
Continuous
 62
     7
100
AcDbLine
 10
9.0
 20
75.922606
 30
0.0
 11
5.0
 21
75.922606
 31
0.0
  0
LINE
  5
6C
100
AcDbEntity
  8
0
390
0
  6
Continuous
 62
     7
100
AcDbLine
 10
-15.0
 20
79.196109
 30
0.0
 11
-15.0
 21
84.196109
 31
0.0
  0
LINE
  5
6D
100
AcDbEntity
  8
0
390
0
  6
Continuous
 62
     7
100
AcDbLine
 10
-14.5
 20
84.696109
 30
0.0
 11
-14.5
 21
78.696109
 31
0.0
  0
ARC
  5
6E
100
AcDbEntity
  8
0
390
0
  6
Continuous
 62
     7
100
AcDbCircle
 10
-5.0
 20
46.230401
 30
0.0
 40
2.0
210
0.0
220
0.0
230
1.0
100
AcDbArc
 50
276.172771
 51
360.0
  0
ARC
  5
6F
100
AcDbEntity
  8
0
390
0
  6
Continuous
 62
     7
100
AcDbCircle
 10
0.0
 20
0.0
 30
0.0
 40
44.5
210
0.0
220
0.0
230
1.0
100
AcDbArc
 50
96.172771
 51
83.827229
  0
ARC
  5
70
100
AcDbEntity
  8
0
390
0
  6
Continuous
 62
     7
100
AcDbCircle
 10
5.0
 20
46.230401
 30
0.0
 40
2.0
210
0.0
220
0.0
230
1.0
100
AcDbArc
 50
180.0
 51
263.827229
  0
LINE
  5
71
100
AcDbEntity
  8
0
390
0
  6
Continuous
 62
     7
100
AcDbLine
 10
3.0
 20
52.55
 30
0.0
 11
3.0
 21
46.230401
 31
0.0
  0
LINE
  5
72
100
AcDbEntity
  8
0
390
0
  6
Continuous
 62
     7
100
AcDbLine
 10
6.0
 20
52.55
 30
0.0
 11
6.0
 21
49.638694
 31
0.0
  0
ARC
  5
73
100
AcDbEntity
  8
0
390
0
  6
Continuous
 62
     7
100
AcDbCircle
 10
0.0
 20
0.0
 30
0.0
 40
50.0
210
0.0
220
0.0
230
1.0
100
AcDbArc
 50
96.892103
 51
83.107897
  0
LINE
  5
74
100
AcDbEntity
  8
0
390
0
  6
Continuous
 62
     7
100
AcDbLine
 10
-6.0
 20
49.638694
 30
0.0
 11
-6.0
 21
52.55
 31
0.0
  0
LINE
  5
75
100
AcDbEntity
  8
0
390
0
  6
Continuous
 62
     7
100
AcDbLine
 10
-3.0
 20
46.230401
 30
0.0
 11
-3.0
 21
52.55
 31
0.0
  0
LINE
  5
76
100
AcDbEntity
  8
0
390
0
  6
Continuous
 62
     7
100
AcDbLine
 10
-6.0
 20
52.55
 30
0.0
 11
-3.0
 21
52.55
 31
0.0
  0
LINE
  5
77
100
AcDbEntity
  8
0
390
0
  6
Continuous
 62
     7
100
AcDbLine
 10
3.0
 20
52.55
 30
0.0
 11
6.0
 21
52.55
 31
0.0
  0
ARC
  5
78
100
AcDbEntity
  8
0
390
0
  6
Continuous
 62
     7
100
AcDbCircle
 10
0.0
 20
0.0
 30
0.0
 40
51.0
210
0.0
220
0.0
230
1.0
100
AcDbArc
 50
96.756327
 51
251.315557
  0
LINE
  5
79
100
AcDbEntity
  8
0
390
0
  6
Continuous
 62
     7
100
AcDbLine
 10
-11.853164
 20
-49.05
 30
0.0
 11
-9.700387
 21
-49.05
 31
0.0
  0
ARC
  5
7A
100
AcDbEntity
  8
0
390
0
  6
Continuous
 62
     7
100
AcDbCircle
 10
-11.853164
 20
-35.05
 30
0.0
 40
14.0
210
0.0
220
0.0
230
1.0
100
AcDbArc
 50
251.315557
 51
270.0
  0
LINE
  5
7B
100
AcDbEntity
  8
0
390
0
  6
Continuous
 62
     7
100
AcDbLine
 10
11.853164
 20
-50.05
 30
0.0
 11
2.5
 21
-50.05
 31
0.0
  0
LINE
  5
7C
100
AcDbEntity
  8
0
390
0
  6
Continuous
 62
     7
100
AcDbLine
 10
2.5
 20
-50.05
 30
0.0
 11
2.5
 21
-49.937461
 31
0.0
  0
LINE
  5
7D
100
AcDbEntity
  8
0
390
0
  6
Continuous
 62
     7
100
AcDbLine
 10
9.700386
 20
-49.05
 30
0.0
 11
11.853164
 21
-49.05
 31
0.0
  0
LINE
  5
7E
100
AcDbEntity
  8
0
390
0
  6
Continuous
 62
     7
100
AcDbLine
 10
11.853164
 20
-50.05
 30
0.0
 11
11.853164
 21
-49.05
 31
0.0
  0
LINE
  5
7F
100
AcDbEntity
  8
0
390
0
  6
Continuous
 62
     7
100
AcDbLine
 10
-2.5
 20
-49.937461
 30
0.0
 11
-2.5
 21
-50.05
 31
0.0
  0
LINE
  5
80
100
AcDbEntity
  8
0
390
0
  6
Continuous
 62
     7
100
AcDbLine
 10
-2.5
 20
-50.05
 30
0.0
 11
-11.853164
 21
-50.05
 31
0.0
  0
LINE
  5
81
100
AcDbEntity
  8
0
390
0
  6
Continuous
 62
     7
100
AcDbLine
 10
-11.853164
 20
-49.05
 30
0.0
 11
-11.853164
 21
-50.05
 31
0.0
  0
ARC
  5
82
100
AcDbEntity
  8
0
390
0
  6
Continuous
 62
     7
100
AcDbCircle
 10
11.853164
 20
-35.05
 30
0.0
 40
15.0
210
0.0
220
0.0
230
1.0
100
AcDbArc
 50
270.0
 51
288.684443
  0
ARC
  5
83
100
AcDbEntity
  8
0
390
0
  6
Continuous
 62
     7
100
AcDbCircle
 10
11.853164
 20
-35.05
 30
0.0
 40
14.0
210
0.0
220
0.0
230
1.0
100
AcDbArc
 50
270.0
 51
288.684443
  0
LINE
  5
84
100
AcDbEntity
  8
0
390
0
  6
Continuous
 62
     7
100
AcDbLine
 10
16.658501
 20
-49.25946
 30
0.0
 11
16.338145
 21
-48.312163
 31
0.0
  0
LINE
  5
85
100
AcDbEntity
  8
0
390
0
  6
Continuous
 62
     7
100
AcDbLine
 10
-16.338145
 20
-48.312163
 30
0.0
 11
-16.658501
 21
-49.25946
 31
0.0
  0
ARC
  5
86
100
AcDbEntity
  8
0
390
0
  6
Continuous
 62
     7
100
AcDbCircle
 10
0.0
 20
0.0
 30
0.0
 40
52.0
210
0.0
220
0.0
230
1.0
100
AcDbArc
 50
96.62581
 51
251.315557
  0
ARC
  5
87
100
AcDbEntity
  8
0
390
0
  6
Continuous
 62
     7
100
AcDbCircle
 10
-11.853164
 20
-35.05
 30
0.0
 40
15.0
210
0.0
220
0.0
230
1.0
100
AcDbArc
 50
251.315557
 51
270.0
  0
ARC
  5
88
100
AcDbEntity
  8
0
390
0
  6
Continuous
 62
     7
100
AcDbCircle
 10
0.0
 20
0.0
 30
0.0
 40
52.0
210
0.0
220
0.0
230
1.0
100
AcDbArc
 50
288.684443
 51
83.37419
  0
ARC
  5
89
100
AcDbEntity
  8
0
390
0
  6
Continuous
 62
     7
100
AcDbCircle
 10
0.0
 20
0.0
 30
0.0
 40
51.0
210
0.0
220
0.0
230
1.0
100
AcDbArc
 50
288.684443
 51
83.243673
  0
LINE
  5
8A
100
AcDbEntity
  8
0
390
0
  6
Continuous
 62
     7
100
AcDbLine
 10
4.0
 20
91.956292
 30
0.0
 11
5.0
 21
91.956292
 31
0.0
  0
LINE
  5
8B
100
AcDbEntity
  8
0
390
0
  6
Continuous
 62
     7
100
AcDbLine
 10
-4.0
 20
52.55
 30
0.0
 11
-4.0
 21
54.196109
 31
0.0
  0
LINE
  5
8C
100
AcDbEntity
  8
0
390
0
  6
Continuous
 62
     7
100
AcDbLine
 10
4.0
 20
91.956292
 30
0.0
 11
4.0
 21
52.55
 31
0.0
  0
LINE
  5
8D
100
AcDbEntity
  8
0
390
0
  6
Continuous
 62
     7
100
AcDbLine
 10
5.0
 20
52.55
 30
0.0
 11
5.0
 21
91.956292
 31
0.0
  0
LINE
  5
8E
100
AcDbEntity
  8
0
390
0
  6
Continuous
 62
     7
100
AcDbLine
 10
-5.0
 20
54.196109
 30
0.0
 11
-5.0
 21
52.55
 31
0.0
  0
LINE
  5
8F
100
AcDbEntity
  8
0
390
0
  6
Continuous
 62
     7
100
AcDbLine
 10
5.0
 20
94.196109
 30
0.0
 11
5.0
 21
91.956292
 31
0.0
  0
LINE
  5
90
100
AcDbEntity
  8
0
390
0
  6
Continuous
 62
     7
100
AcDbLine
 10
4.0
 20
91.956292
 30
0.0
 11
4.0
 21
94.196109
 31
0.0
  0
LINE
  5
91
100
AcDbEntity
  8
0
390
0
  6
Continuous
 62
     7
100
AcDbLine
 10
-3.0
 20
96.596109
 30
0.0
 11
-6.2
 21
96.596109
 31
0.0
  0
LINE
  5
92
100
AcDbEntity
  8
0
390
0
  6
Continuous
 62
     7
100
AcDbLine
 10
-14.5
 20
58.696109
 30
0.0
 11
-11.4
 21
58.696109
 31
0.0
  0
LINE
  5
93
100
AcDbEntity
  8
0
390
0
  6
Continuous
 62
     7
100
AcDbLine
 10
-3.0
 20
58.696109
 30
0.0
 11
4.0
 21
58.696109
 31
0.0
  0
LINE
  5
94
100
AcDbEntity
  8
0
390
0
  6
Continuous
 62
     7
100
AcDbLine
 10
4.0
 20
64.696109
 30
0.0
 11
-3.0
 21
64.696109
 31
0.0
  0
LINE
  5
95
100
AcDbEntity
  8
0
390
0
  6
Continuous
 62
     7
100
AcDbLine
 10
-11.4
 20
64.696109
 30
0.0
 11
-14.5
 21
64.696109
 31
0.0
  0
LINE
  5
96
100
AcDbEntity
  8
0
390
0
  6
Continuous
 62
     7
100
AcDbLine
 10
-14.5
 20
64.696109
 30
0.0
 11
-15.0
 21
64.196109
 31
0.0
  0
LINE
  5
97
100
AcDbEntity
  8
0
390
0
  6
Continuous
 62
     7
100
AcDbLine
 10
-15.0
 20
59.196109
 30
0.0
 11
-14.5
 21
58.696109
 31
0.0
  0
LINE
  5
98
100
AcDbEntity
  8
0
390
0
  6
Continuous
 62
     7
100
AcDbLine
 10
-14.5
 20
84.696109
 30
0.0
 11
-15.0
 21
84.196109
 31
0.0
  0
LINE
  5
99
100
AcDbEntity
  8
0
390
0
  6
Continuous
 62
     7
100
AcDbLine
 10
-15.0
 20
79.196109
 30
0.0
 11
-14.5
 21
78.696109
 31
0.0
  0
LINE
  5
9A
100
AcDbEntity
  8
0
390
0
  6
Continuous
 62
     7
100
AcDbLine
 10
-14.5
 20
78.696109
 30
0.0
 11
-11.4
 21
78.696109
 31
0.0
  0
LINE
  5
9B
100
AcDbEntity
  8
0
390
0
  6
Continuous
 62
     7
100
AcDbLine
 10
-3.0
 20
78.696109
 30
0.0
 11
4.0
 21
78.696109
 31
0.0
  0
LINE
  5
9C
100
AcDbEntity
  8
0
390
0
  6
Continuous
 62
     7
100
AcDbLine
 10
4.0
 20
84.696109
 30
0.0
 11
-3.0
 21
84.696109
 31
0.0
  0
LINE
  5
9D
100
AcDbEntity
  8
0
390
0
  6
Continuous
 62
     7
100
AcDbLine
 10
-11.4
 20
84.696109
 30
0.0
 11
-14.5
 21
84.696109
 31
0.0
  0
LINE
  5
9E
100
AcDbEntity
  8
0
390
0
  6
Continuous
 62
     7
100
AcDbLine
 10
5.0
 20
94.196109
 30
0.0
 11
4.0
 21
94.196109
 31
0.0
  0
LINE
  5
9F
100
AcDbEntity
  8
0
390
0
  6
Continuous
 62
     7
100
AcDbLine
 10
-16.658501
 20
-158.613632
 30
0.0
 11
-11.853164
 21
-158.613632
 31
0.0
  0
LINE
  5
A0
100
AcDbEntity
  8
0
390
0
  6
Continuous
 62
     7
100
AcDbLine
 10
-16.658501
 20
-158.613632
 30
0.0
 11
-16.658501
 21
-143.613632
 31
0.0
  0
LINE
  5
A1
100
AcDbEntity
  8
0
390
0
  6
Continuous
 62
     7
100
AcDbLine
 10
-11.853164
 20
-143.613632
 30
0.0
 11
-16.658501
 21
-143.613632
 31
0.0
  0
LINE
  5
A2
100
AcDbEntity
  8
0
390
0
  6
Continuous
 62
     7
100
AcDbLine
 10
-11.853164
 20
-158.613632
 30
0.0
 11
-11.853164
 21
-143.613632
 31
0.0
  0
LINE
  5
A3
100
AcDbEntity
  8
0
390
0
  6
Continuous
 62
     7
100
AcDbLine
 10
-11.853164
 20
-158.613632
 30
0.0
 11
-2.5
 21
-158.613632
 31
0.0
  0
LINE
  5
A4
100
AcDbEntity
  8
0
390
0
  6
Continuous
 62
     7
100
AcDbLine
 10
-2.5
 20
-143.613632
 30
0.0
 11
-11.853164
 21
-143.613632
 31
0.0
  0
LINE
  5
A5
100
AcDbEntity
  8
0
390
0
  6
Continuous
 62
     7
100
AcDbLine
 10
-2.5
 20
-158.613632
 30
0.0
 11
-2.5
 21
-143.613632
 31
0.0
  0
LINE
  5
A6
100
AcDbEntity
  8
0
390
0
  6
Continuous
 62
     7
100
AcDbLine
 10
2.5
 20
-158.613632
 30
0.0
 11
11.853164
 21
-158.613632
 31
0.0
  0
LINE
  5
A7
100
AcDbEntity
  8
0
390
0
  6
Continuous
 62
     7
100
AcDbLine
 10
2.5
 20
-158.613632
 30
0.0
 11
2.5
 21
-143.613632
 31
0.0
  0
LINE
  5
A8
100
AcDbEntity
  8
0
390
0
  6
Continuous
 62
     7
100
AcDbLine
 10
11.853164
 20
-143.613632
 30
0.0
 11
2.5
 21
-143.613632
 31
0.0
  0
LINE
  5
A9
100
AcDbEntity
  8
0
390
0
  6
Continuous
 62
     7
100
AcDbLine
 10
11.853164
 20
-158.613632
 30
0.0
 11
11.853164
 21
-143.613632
 31
0.0
  0
LINE
  5
AA
100
AcDbEntity
  8
0
390
0
  6
Continuous
 62
     7
100
AcDbLine
 10
11.853164
 20
-158.613632
 30
0.0
 11
16.658501
 21
-158.613632
 31
0.0
  0
LINE
  5
AB
100
AcDbEntity
  8
0
390
0
  6
Continuous
 62
     7
100
AcDbLine
 10
16.658501
 20
-143.613632
 30
0.0
 11
11.853164
 21
-143.613632
 31
0.0
  0
LINE
  5
AC
100
AcDbEntity
  8
0
390
0
  6
Continuous
 62
     7
100
AcDbLine
 10
16.658501
 20
-158.613632
 30
0.0
 11
16.658501
 21
-143.613632
 31
0.0
  0
LINE
  5
AD
100
AcDbEntity
  8
0
390
0
  6
Continuous
 62
     7
100
AcDbLine
 10
-16.338145
 20
-142.613632
 30
0.0
 11
-11.853164
 21
-142.613632
 31
0.0
  0
LINE
  5
AE
100
AcDbEntity
  8
0
390
0
  6
Continuous
 62
     7
100
AcDbLine
 10
-11.853164
 20
-142.613632
 30
0.0
 11
-11.853164
 21
-143.613632
 31
0.0
  0
LINE
  5
AF
100
AcDbEntity
  8
0
390
0
  6
Continuous
 62
     7
100
AcDbLine
 10
-16.338145
 20
-142.613632
 30
0.0
 11
-16.658501
 21
-143.613632
 31
0.0
  0
LINE
  5
B0
100
AcDbEntity
  8
0
390
0
  6
Continuous
 62
     7
100
AcDbLine
 10
-11.853164
 20
-142.613632
 30
0.0
 11
-9.700387
 21
-142.613632
 31
0.0
  0
ARC
  5
B1
100
AcDbEntity
  8
0
390
0
  6
Continuous
 62
     7
100
AcDbCircle
 10
0.0
 20
-93.563632
 30
0.0
 40
50.0
210
0.0
220
0.0
230
1.0
100
AcDbArc
 50
258.813236
 51
267.134016
  0
LINE
  5
B2
100
AcDbEntity
  8
0
390
0
  6
Continuous
 62
     7
100
AcDbLine
 10
-2.5
 20
-143.501093
 30
0.0
 11
-2.5
 21
-143.613632
 31
0.0
  0
LINE
  5
B3
100
AcDbEntity
  8
0
390
0
  6
Continuous
 62
     7
100
AcDbLine
 10
-2.5
 20
-158.613632
 30
0.0
 11
-2.5
 21
-158.726171
 31
0.0
  0
ARC
  5
B4
100
AcDbEntity
  8
0
390
0
  6
Continuous
 62
     7
100
AcDbCircle
 10
0.0
 20
-208.663632
 30
0.0
 40
50.0
210
0.0
220
0.0
230
1.0
100
AcDbArc
 50
92.865984
 51
101.186764
  0
LINE
  5
B5
100
AcDbEntity
  8
0
390
0
  6
Continuous
 62
     7
100
AcDbLine
 10
-9.700387
 20
-159.613632
 30
0.0
 11
-11.853164
 21
-159.613632
 31
0.0
  0
LINE
  5
B6
100
AcDbEntity
  8
0
390
0
  6
Continuous
 62
     7
100
AcDbLine
 10
-11.853164
 20
-158.613632
 30
0.0
 11
-11.853164
 21
-159.613632
 31
0.0
  0
LINE
  5
B7
100
AcDbEntity
  8
0
390
0
  6
Continuous
 62
     7
100
AcDbLine
 10
-11.853164
 20
-159.613632
 30
0.0
 11
-16.338145
 21
-159.613632
 31
0.0
  0
LINE
  5
B8
100
AcDbEntity
  8
0
390
0
  6
Continuous
 62
     7
100
AcDbLine
 10
-16.658501
 20
-158.613632
 30
0.0
 11
-16.338145
 21
-159.613632
 31
0.0
  0
LINE
  5
B9
100
AcDbEntity
  8
0
390
0
  6
Continuous
 62
     7
100
AcDbLine
 10
2.5
 20
-143.613632
 30
0.0
 11
2.5
 21
-143.501093
 31
0.0
  0
ARC
  5
BA
100
AcDbEntity
  8
0
390
0
  6
Continuous
 62
     7
100
AcDbCircle
 10
0.0
 20
-93.563632
 30
0.0
 40
50.0
210
0.0
220
0.0
230
1.0
100
AcDbArc
 50
272.865984
 51
281.186764
  0
LINE
  5
BB
100
AcDbEntity
  8
0
390
0
  6
Continuous
 62
     7
100
AcDbLine
 10
9.700386
 20
-142.613632
 30
0.0
 11
11.853164
 21
-142.613632
 31
0.0
  0
LINE
  5
BC
100
AcDbEntity
  8
0
390
0
  6
Continuous
 62
     7
100
AcDbLine
 10
11.853164
 20
-143.613632
 30
0.0
 11
11.853164
 21
-142.613632
 31
0.0
  0
LINE
  5
BD
100
AcDbEntity
  8
0
390
0
  6
Continuous
 62
     7
100
AcDbLine
 10
11.853164
 20
-142.613632
 30
0.0
 11
16.338145
 21
-142.613632
 31
0.0
  0
LINE
  5
BE
100
AcDbEntity
  8
0
390
0
  6
Continuous
 62
     7
100
AcDbLine
 10
16.658501
 20
-143.613632
 30
0.0
 11
16.338145
 21
-142.613632
 31
0.0
  0
LINE
  5
BF
100
AcDbEntity
  8
0
390
0
  6
Continuous
 62
     7
100
AcDbLine
 10
16.338145
 20
-159.613632
 30
0.0
 11
11.853164
 21
-159.613632
 31
0.0
  0
LINE
  5
C0
100
AcDbEntity
  8
0
390
0
  6
Continuous
 62
     7
100
AcDbLine
 10
11.853164
 20
-159.613632
 30
0.0
 11
11.853164
 21
-158.613632
 31
0.0
  0
LINE
  5
C1
100
AcDbEntity
  8
0
390
0
  6
Continuous
 62
     7
100
AcDbLine
 10
16.338145
 20
-159.613632
 30
0.0
 11
16.658501
 21
-158.613632
 31
0.0
  0
LINE
  5
C2
100
AcDbEntity
  8
0
390
0
  6
Continuous
 62
     7
100
AcDbLine
 10
11.853164
 20
-159.613632
 30
0.0
 11
9.700386
 21
-159.613632
 31
0.0
  0
ARC
  5
C3
100
AcDbEntity
  8
0
390
0
  6
Continuous
 62
     7
100
AcDbCircle
 10
0.0
 20
-208.663632
 30
0.0
 40
50.0
210
0.0
220
0.0
230
1.0
100
AcDbArc
 50
78.813236
 51
87.134016
  0
LINE
  5
C4
100
AcDbEntity
  8
0
390
0
  6
Continuous
 62
     7
100
AcDbLine
 10
2.5
 20
-158.726171
 30
0.0
 11
2.5
 21
-158.613632
 31
0.0
  0
LINE
  5
C5
100
AcDbEntity
  8
0
390
0
  6
Continuous
 62
     7
100
AcDbLine
 10
50.0
 20
-165.113632
 30
0.0
 11
-50.0
 21
-165.113632
 31
0.0
  0
LINE
  5
C6
100
AcDbEntity
  8
0
390
0
  6
Continuous
 62
     7
100
AcDbLine
 10
50.0
 20
-137.113632
 30
0.0
 11
-50.0
 21
-137.113632
 31
0.0
  0
LINE
  5
C7
100
AcDbEntity
  8
0
390
0
  6
Continuous
 62
     7
100
AcDbLine
 10
52.0
 20
-143.613632
 30
0.0
 11
16.658501
 21
-143.613632
 31
0.0
  0
LINE
  5
C8
100
AcDbEntity
  8
0
390
0
  6
Continuous
 62
     7
100
AcDbLine
 10
16.658501
 20
-158.613632
 30
0.0
 11
52.0
 21
-158.613632
 31
0.0
  0
LINE
  5
C9
100
AcDbEntity
  8
0
390
0
  6
Continuous
 62
     7
100
AcDbLine
 10
51.0
 20
-159.613632
 30
0.0
 11
16.338145
 21
-159.613632
 31
0.0
  0
LINE
  5
CA
100
AcDbEntity
  8
0
390
0
  6
Continuous
 62
     7
100
AcDbLine
 10
-52.0
 20
-158.613632
 30
0.0
 11
-16.658501
 21
-158.613632
 31
0.0
  0
LINE
  5
CB
100
AcDbEntity
  8
0
390
0
  6
Continuous
 62
     7
100
AcDbLine
 10
-16.338145
 20
-159.613632
 30
0.0
 11
-51.0
 21
-159.613632
 31
0.0
  0
LINE
  5
CC
100
AcDbEntity
  8
0
390
0
  6
Continuous
 62
     7
100
AcDbLine
 10
-51.0
 20
-142.613632
 30
0.0
 11
-16.338145
 21
-142.613632
 31
0.0
  0
LINE
  5
CD
100
AcDbEntity
  8
0
390
0
  6
Continuous
 62
     7
100
AcDbLine
 10
-16.658501
 20
-143.613632
 30
0.0
 11
-52.0
 21
-143.613632
 31
0.0
  0
LINE
  5
CE
100
AcDbEntity
  8
0
390
0
  6
Continuous
 62
     7
100
AcDbLine
 10
16.338145
 20
-142.613632
 30
0.0
 11
51.0
 21
-142.613632
 31
0.0
  0
LINE
  5
CF
100
AcDbEntity
  8
0
390
0
  6
Continuous
 62
     7
100
AcDbLine
 10
-50.0
 20
-159.613632
 30
0.0
 11
-50.0
 21
-165.113632
 31
0.0
  0
LINE
  5
D0
100
AcDbEntity
  8
0
390
0
  6
Continuous
 62
     7
100
AcDbLine
 10
-50.0
 20
-137.113632
 30
0.0
 11
-50.0
 21
-142.613632
 31
0.0
  0
LINE
  5
D1
100
AcDbEntity
  8
0
390
0
  6
Continuous
 62
     7
100
AcDbLine
 10
50.0
 20
-142.613632
 30
0.0
 11
50.0
 21
-137.113632
 31
0.0
  0
LINE
  5
D2
100
AcDbEntity
  8
0
390
0
  6
Continuous
 62
     7
100
AcDbLine
 10
50.0
 20
-165.113632
 30
0.0
 11
50.0
 21
-159.613632
 31
0.0
  0
LINE
  5
D3
100
AcDbEntity
  8
0
390
0
  6
Continuous
 62
     7
100
AcDbLine
 10
52.0
 20
-158.613632
 30
0.0
 11
52.0
 21
-143.613632
 31
0.0
  0
LINE
  5
D4
100
AcDbEntity
  8
0
390
0
  6
Continuous
 62
     7
100
AcDbLine
 10
51.0
 20
-159.613632
 30
0.0
 11
52.0
 21
-158.613632
 31
0.0
  0
LINE
  5
D5
100
AcDbEntity
  8
0
390
0
  6
Continuous
 62
     7
100
AcDbLine
 10
-52.0
 20
-158.613632
 30
0.0
 11
-51.0
 21
-159.613632
 31
0.0
  0
LINE
  5
D6
100
AcDbEntity
  8
0
390
0
  6
Continuous
 62
     7
100
AcDbLine
 10
-51.0
 20
-142.613632
 30
0.0
 11
-52.0
 21
-143.613632
 31
0.0
  0
LINE
  5
D7
100
AcDbEntity
  8
0
390
0
  6
Continuous
 62
     7
100
AcDbLine
 10
-52.0
 20
-143.613632
 30
0.0
 11
-52.0
 21
-158.613632
 31
0.0
  0
LINE
  5
D8
100
AcDbEntity
  8
0
390
0
  6
Continuous
 62
     7
100
AcDbLine
 10
52.0
 20
-143.613632
 30
0.0
 11
51.0
 21
-142.613632
 31
0.0
  0
LINE
  5
D9
100
AcDbEntity
  8
0
390
0
  6
Continuous
 62
     7
100
AcDbLine
 10
147.107394
 20
54.196109
 30
0.0
 11
148.307394
 21
54.196109
 31
0.0
  0
LINE
  5
DA
100
AcDbEntity
  8
0
390
0
  6
Continuous
 62
     7
100
AcDbLine
 10
147.107394
 20
93.239565
 30
0.0
 11
147.107394
 21
54.196109
 31
0.0
  0
ARC
  5
DB
100
AcDbEntity
  8
0
390
0
  6
Continuous
 62
     7
100
AcDbCircle
 10
148.107394
 20
93.239565
 30
0.0
 40
1.0
210
0.0
220
0.0
230
1.0
100
AcDbArc
 50
111.023883
 51
180.0
  0
ARC
  5
DC
100
AcDbEntity
  8
0
390
0
  6
Continuous
 62
     7
100
AcDbCircle
 10
173.507394
 20
93.239565
 30
0.0
 40
1.0
210
0.0
220
0.0
230
1.0
100
AcDbArc
 50
0.0
 51
68.976117
  0
LINE
  5
DD
100
AcDbEntity
  8
0
390
0
  6
Continuous
 62
     7
100
AcDbLine
 10
174.507394
 20
54.196109
 30
0.0
 11
174.507394
 21
93.239565
 31
0.0
  0
LINE
  5
DE
100
AcDbEntity
  8
0
390
0
  6
Continuous
 62
     7
100
AcDbLine
 10
173.307394
 20
54.196109
 30
0.0
 11
174.507394
 21
54.196109
 31
0.0
  0
LINE
  5
DF
100
AcDbEntity
  8
0
390
0
  6
Continuous
 62
     7
100
AcDbLine
 10
170.807394
 20
92.779342
 30
0.0
 11
170.807394
 21
93.945775
 31
0.0
  0
ARC
  5
E0
100
AcDbEntity
  8
0
390
0
  6
Continuous
 62
     7
100
AcDbCircle
 10
160.807394
 20
60.196109
 30
0.0
 40
35.2
210
0.0
220
0.0
230
1.0
100
AcDbArc
 50
73.495484
 51
106.504516
  0
LINE
  5
E1
100
AcDbEntity
  8
0
390
0
  6
Continuous
 62
     7
100
AcDbLine
 10
150.807394
 20
92.779342
 30
0.0
 11
150.807394
 21
93.945775
 31
0.0
  0
ARC
  5
E2
100
AcDbEntity
  8
0
390
0
  6
Continuous
 62
     7
100
AcDbCircle
 10
160.807394
 20
60.196109
 30
0.0
 40
36.4
210
0.0
220
0.0
230
1.0
100
AcDbArc
 50
68.976117
 51
111.023883
  0
LINE
  5
E3
100
AcDbEntity
  8
0
390
0
  6
Continuous
 62
     7
100
AcDbLine
 10
151.307394
 20
92.92002
 30
0.0
 11
151.307394
 21
94.089913
 31
0.0
  0
LINE
  5
E4
100
AcDbEntity
  8
0
390
0
  6
Continuous
 62
     7
100
AcDbLine
 10
170.307394
 20
94.089913
 30
0.0
 11
170.307394
 21
92.92002
 31
0.0
  0
LINE
  5
E5
100
AcDbEntity
  8
0
390
0
  6
Continuous
 62
     7
100
AcDbLine
 10
160.807394
 20
55.922606
 30
0.0
 11
165.807394
 21
58.809357
 31
0.0
  0
LINE
  5
E6
100
AcDbEntity
  8
0
390
0
  6
Continuous
 62
     7
100
AcDbLine
 10
155.807394
 20
58.809357
 30
0.0
 11
160.807394
 21
55.922606
 31
0.0
  0
LINE
  5
E7
100
AcDbEntity
  8
0
390
0
  6
Continuous
 62
     7
100
AcDbLine
 10
155.807394
 20
64.58286
 30
0.0
 11
155.807394
 21
58.809357
 31
0.0
  0
LINE
  5
E8
100
AcDbEntity
  8
0
390
0
  6
Continuous
 62
     7
100
AcDbLine
 10
160.807394
 20
67.469611
 30
0.0
 11
155.807394
 21
64.58286
 31
0.0
  0
LINE
  5
E9
100
AcDbEntity
  8
0
390
0
  6
Continuous
 62
     7
100
AcDbLine
 10
165.807394
 20
64.58286
 30
0.0
 11
160.807394
 21
67.469611
 31
0.0
  0
LINE
  5
EA
100
AcDbEntity
  8
0
390
0
  6
Continuous
 62
     7
100
AcDbLine
 10
165.807394
 20
58.809357
 30
0.0
 11
165.807394
 21
64.58286
 31
0.0
  0
LINE
  5
EB
100
AcDbEntity
  8
0
390
0
  6
Continuous
 62
     7
100
AcDbLine
 10
160.807394
 20
75.922606
 30
0.0
 11
165.807394
 21
78.809357
 31
0.0
  0
LINE
  5
EC
100
AcDbEntity
  8
0
390
0
  6
Continuous
 62
     7
100
AcDbLine
 10
155.807394
 20
78.809357
 30
0.0
 11
160.807394
 21
75.922606
 31
0.0
  0
LINE
  5
ED
100
AcDbEntity
  8
0
390
0
  6
Continuous
 62
     7
100
AcDbLine
 10
155.807394
 20
84.58286
 30
0.0
 11
155.807394
 21
78.809357
 31
0.0
  0
LINE
  5
EE
100
AcDbEntity
  8
0
390
0
  6
Continuous
 62
     7
100
AcDbLine
 10
160.807394
 20
87.469611
 30
0.0
 11
155.807394
 21
84.58286
 31
0.0
  0
LINE
  5
EF
100
AcDbEntity
  8
0
390
0
  6
Continuous
 62
     7
100
AcDbLine
 10
165.807394
 20
84.58286
 30
0.0
 11
160.807394
 21
87.469611
 31
0.0
  0
LINE
  5
F0
100
AcDbEntity
  8
0
390
0
  6
Continuous
 62
     7
100
AcDbLine
 10
165.807394
 20
78.809357
 30
0.0
 11
165.807394
 21
84.58286
 31
0.0
  0
LINE
  5
F1
100
AcDbEntity
  8
0
390
0
  6
Continuous
 62
     7
100
AcDbLine
 10
168.307394
 20
-49.25946
 30
0.0
 11
168.307394
 21
51.652686
 31
0.0
  0
LINE
  5
F2
100
AcDbEntity
  8
0
390
0
  6
Continuous
 62
     7
100
AcDbLine
 10
168.307394
 20
-49.25946
 30
0.0
 11
153.307394
 21
-49.25946
 31
0.0
  0
LINE
  5
F3
100
AcDbEntity
  8
0
390
0
  6
Continuous
 62
     7
100
AcDbLine
 10
153.307394
 20
51.652686
 30
0.0
 11
153.307394
 21
-49.25946
 31
0.0
  0
LINE
  5
F4
100
AcDbEntity
  8
0
390
0
  6
Continuous
 62
     7
100
AcDbLine
 10
153.307394
 20
51.652686
 30
0.0
 11
168.307394
 21
51.652686
 31
0.0
  0
LINE
  5
F5
100
AcDbEntity
  8
0
390
0
  6
Continuous
 62
     7
100
AcDbLine
 10
153.307394
 20
-49.25946
 30
0.0
 11
152.307394
 21
-48.312163
 31
0.0
  0
LINE
  5
F6
100
AcDbEntity
  8
0
390
0
  6
Continuous
 62
     7
100
AcDbLine
 10
152.307394
 20
-48.312163
 30
0.0
 11
152.307394
 21
50.645829
 31
0.0
  0
LINE
  5
F7
100
AcDbEntity
  8
0
390
0
  6
Continuous
 62
     7
100
AcDbLine
 10
152.307394
 20
50.645829
 30
0.0
 11
153.307394
 21
51.652686
 31
0.0
  0
LINE
  5
F8
100
AcDbEntity
  8
0
390
0
  6
Continuous
 62
     7
100
AcDbLine
 10
169.307394
 20
50.645829
 30
0.0
 11
169.307394
 21
-48.312163
 31
0.0
  0
LINE
  5
F9
100
AcDbEntity
  8
0
390
0
  6
Continuous
 62
     7
100
AcDbLine
 10
169.307394
 20
-48.312163
 30
0.0
 11
168.307394
 21
-49.25946
 31
0.0
  0
LINE
  5
FA
100
AcDbEntity
  8
0
390
0
  6
Continuous
 62
     7
100
AcDbLine
 10
168.307394
 20
51.652686
 30
0.0
 11
169.307394
 21
50.645829
 31
0.0
  0
LINE
  5
FB
100
AcDbEntity
  8
0
390
0
  6
Continuous
 62
     7
100
AcDbLine
 10
174.807394
 20
49.638694
 30
0.0
 11
169.307394
 21
49.638694
 31
0.0
  0
LINE
  5
FC
100
AcDbEntity
  8
0
390
0
  6
Continuous
 62
     7
100
AcDbLine
 10
174.807394
 20
49.638694
 30
0.0
 11
174.807394
 21
-50.0
 31
0.0
  0
LINE
  5
FD
100
AcDbEntity
  8
0
390
0
  6
Continuous
 62
     7
100
AcDbLine
 10
146.807394
 20
49.638694
 30
0.0
 11
146.807394
 21
-50.0
 31
0.0
  0
LINE
  5
FE
100
AcDbEntity
  8
0
390
0
  6
Continuous
 62
     7
100
AcDbLine
 10
152.307394
 20
49.638694
 30
0.0
 11
146.807394
 21
49.638694
 31
0.0
  0
LINE
  5
FF
100
AcDbEntity
  8
0
390
0
  6
Continuous
 62
     7
100
AcDbLine
 10
153.307394
 20
-49.25946
 30
0.0
 11
153.307394
 21
-50.05
 31
0.0
  0
LINE
  5
100
100
AcDbEntity
  8
0
390
0
  6
Continuous
 62
     7
100
AcDbLine
 10
153.307394
 20
-50.05
 30
0.0
 11
152.307394
 21
-49.05
 31
0.0
  0
LINE
  5
101
100
AcDbEntity
  8
0
390
0
  6
Continuous
 62
     7
100
AcDbLine
 10
152.307394
 20
-49.05
 30
0.0
 11
152.307394
 21
-48.312163
 31
0.0
  0
LINE
  5
102
100
AcDbEntity
  8
0
390
0
  6
Continuous
 62
     7
100
AcDbLine
 10
169.307394
 20
-49.05
 30
0.0
 11
168.307394
 21
-50.05
 31
0.0
  0
LINE
  5
103
100
AcDbEntity
  8
0
390
0
  6
Continuous
 62
     7
100
AcDbLine
 10
168.307394
 20
-50.05
 30
0.0
 11
168.307394
 21
-49.25946
 31
0.0
  0
LINE
  5
104
100
AcDbEntity
  8
0
390
0
  6
Continuous
 62
     7
100
AcDbLine
 10
169.307394
 20
-48.312163
 30
0.0
 11
169.307394
 21
-49.05
 31
0.0
  0
LINE
  5
105
100
AcDbEntity
  8
0
390
0
  6
Continuous
 62
     7
100
AcDbLine
 10
168.307394
 20
-50.05
 30
0.0
 11
153.307394
 21
-50.05
 31
0.0
  0
LINE
  5
106
100
AcDbEntity
  8
0
390
0
  6
Continuous
 62
     7
100
AcDbLine
 10
174.807394
 20
52.55
 30
0.0
 11
146.807394
 21
52.55
 31
0.0
  0
LINE
  5
107
100
AcDbEntity
  8
0
390
0
  6
Continuous
 62
     7
100
AcDbLine
 10
146.807394
 20
52.55
 30
0.0
 11
146.807394
 21
49.638694
 31
0.0
  0
LINE
  5
108
100
AcDbEntity
  8
0
390
0
  6
Continuous
 62
     7
100
AcDbLine
 10
174.807394
 20
52.55
 30
0.0
 11
174.807394
 21
49.638694
 31
0.0
  0
ARC
  5
109
100
AcDbEntity
  8
0
390
0
  6
Continuous
 62
     7
100
AcDbCircle
 10
160.807394
 20
58.196109
 30
0.0
 40
36.0
210
0.0
220
0.0
230
1.0
100
AcDbArc
 50
69.682492
 51
110.317508
  0
LINE
  5
10A
100
AcDbEntity
  8
0
390
0
  6
Continuous
 62
     7
100
AcDbLine
 10
173.307394
 20
52.55
 30
0.0
 11
173.307394
 21
91.956292
 31
0.0
  0
LINE
  5
10B
100
AcDbEntity
  8
0
390
0
  6
Continuous
 62
     7
100
AcDbLine
 10
148.307394
 20
52.55
 30
0.0
 11
148.307394
 21
91.956292
 31
0.0
  0
LINE
  5
10C
100
AcDbEntity
  8
0
390
0
  6
Continuous
 62
     7
100
AcDbLine
 10
146.807394
 20
-50.0
 30
0.0
 11
153.257394
 21
-50.0
 31
0.0
  0
LINE
  5
10D
100
AcDbEntity
  8
0
390
0
  6
Continuous
 62
     7
100
AcDbLine
 10
168.357394
 20
-50.0
 30
0.0
 11
174.807394
 21
-50.0
 31
0.0
  0
ARC
  5
10E
100
AcDbEntity
  8
0
390
0
  6
Continuous
 62
     7
100
AcDbCircle
 10
-153.6604
 20
61.696109
 30
0.0
 40
2.5
210
0.0
220
0.0
230
1.0
100
AcDbArc
 50
0.0
 51
180.0
  0
ARC
  5
10F
100
AcDbEntity
  8
0
390
0
  6
Continuous
 62
     7
100
AcDbCircle
 10
-153.6604
 20
61.696109
 30
0.0
 40
2.5
210
0.0
220
0.0
230
1.0
100
AcDbArc
 50
180.0
 51
270.0
  0
ARC
  5
110
100
AcDbEntity
  8
0
390
0
  6
Continuous
 62
     7
100
AcDbCircle
 10
-153.6604
 20
81.696109
 30
0.0
 40
2.5
210
0.0
220
0.0
230
1.0
100
AcDbArc
 50
0.0
 51
180.0
  0
ARC
  5
111
100
AcDbEntity
  8
0
390
0
  6
Continuous
 62
     7
100
AcDbCircle
 10
-153.6604
 20
81.696109
 30
0.0
 40
2.5
210
0.0
220
0.0
230
1.0
100
AcDbArc
 50
180.0
 51
270.0
  0
ARC
  5
112
100
AcDbEntity
  8
0
390
0
  6
Continuous
 62
     7
100
AcDbCircle
 10
-156.373946
 20
56.996109
 30
0.0
 40
1.574497
210
0.0
220
0.0
230
1.0
100
AcDbArc
 50
210.0
 51
270.0
  0
LINE
  5
113
100
AcDbEntity
  8
0
390
0
  6
Continuous
 62
     7
100
AcDbLine
 10
-157.737501
 20
56.20886
 30
0.0
 11
-156.440243
 21
56.957832
 31
0.0
  0
ARC
  5
114
100
AcDbEntity
  8
0
390
0
  6
Continuous
 62
     7
100
AcDbCircle
 10
-156.373946
 20
56.996109
 30
0.0
 40
0.076553
210
0.0
220
0.0
230
1.0
100
AcDbArc
 50
210.0
 51
270.0
  0
LINE
  5
115
100
AcDbEntity
  8
0
390
0
  6
Continuous
 62
     7
100
AcDbLine
 10
-156.373946
 20
55.421611
 30
0.0
 11
-156.373946
 21
56.919555
 31
0.0
  0
LINE
  5
116
100
AcDbEntity
  8
0
390
0
  6
Continuous
 62
     7
100
AcDbLine
 10
-159.153789
 20
61.657832
 30
0.0
 11
-156.440243
 21
56.957832
 31
0.0
  0
LINE
  5
117
100
AcDbEntity
  8
0
390
0
  6
Continuous
 62
     7
100
AcDbLine
 10
-157.737501
 20
56.20886
 30
0.0
 11
-160.451047
 21
60.90886
 31
0.0
  0
LINE
  5
118
100
AcDbEntity
  8
0
390
0
  6
Continuous
 62
     7
100
AcDbLine
 10
-159.153789
 20
61.657832
 30
0.0
 11
-160.451047
 21
60.90886
 31
0.0
  0
CIRCLE
  5
119
100
AcDbEntity
  8
0
390
0
  6
Continuous
 62
     7
100
AcDbCircle
 10
-153.6604
 20
81.696109
 30
0.0
 40
3.5
210
0.0
220
0.0
230
1.0
  0
LINE
  5
11A
100
AcDbEntity
  8
0
390
0
  6
Continuous
 62
     7
100
AcDbLine
 10
-156.440243
 20
86.434385
 30
0.0
 11
-159.153789
 21
81.734385
 31
0.0
  0
ARC
  5
11B
100
AcDbEntity
  8
0
390
0
  6
Continuous
 62
     7
100
AcDbCircle
 10
-156.373946
 20
86.396109
 30
0.0
 40
0.076553
210
0.0
220
0.0
230
1.0
100
AcDbArc
 50
90.0
 51
150.0
  0
LINE
  5
11C
100
AcDbEntity
  8
0
390
0
  6
Continuous
 62
     7
100
AcDbLine
 10
-150.946853
 20
86.472662
 30
0.0
 11
-156.373946
 21
86.472662
 31
0.0
  0
ARC
  5
11D
100
AcDbEntity
  8
0
390
0
  6
Continuous
 62
     7
100
AcDbCircle
 10
-150.946853
 20
86.396109
 30
0.0
 40
0.076553
210
0.0
220
0.0
230
1.0
100
AcDbArc
 50
30.0
 51
90.0
  0
LINE
  5
11E
100
AcDbEntity
  8
0
390
0
  6
Continuous
 62
     7
100
AcDbLine
 10
-148.16701
 20
81.734385
 30
0.0
 11
-150.880556
 21
86.434385
 31
0.0
  0
ARC
  5
11F
100
AcDbEntity
  8
0
390
0
  6
Continuous
 62
     7
100
AcDbCircle
 10
-148.233307
 20
81.696109
 30
0.0
 40
0.076553
210
0.0
220
0.0
230
1.0
100
AcDbArc
 50
330.0
 51
30.0
  0
LINE
  5
120
100
AcDbEntity
  8
0
390
0
  6
Continuous
 62
     7
100
AcDbLine
 10
-150.880556
 20
76.957832
 30
0.0
 11
-148.16701
 21
81.657832
 31
0.0
  0
ARC
  5
121
100
AcDbEntity
  8
0
390
0
  6
Continuous
 62
     7
100
AcDbCircle
 10
-150.946853
 20
76.996109
 30
0.0
 40
0.076553
210
0.0
220
0.0
230
1.0
100
AcDbArc
 50
270.0
 51
330.0
  0
LINE
  5
122
100
AcDbEntity
  8
0
390
0
  6
Continuous
 62
     7
100
AcDbLine
 10
-156.373946
 20
76.919555
 30
0.0
 11
-150.946853
 21
76.919555
 31
0.0
  0
ARC
  5
123
100
AcDbEntity
  8
0
390
0
  6
Continuous
 62
     7
100
AcDbCircle
 10
-156.373946
 20
76.996109
 30
0.0
 40
0.076553
210
0.0
220
0.0
230
1.0
100
AcDbArc
 50
210.0
 51
270.0
  0
LINE
  5
124
100
AcDbEntity
  8
0
390
0
  6
Continuous
 62
     7
100
AcDbLine
 10
-159.153789
 20
81.657832
 30
0.0
 11
-156.440243
 21
76.957832
 31
0.0
  0
ARC
  5
125
100
AcDbEntity
  8
0
390
0
  6
Continuous
 62
     7
100
AcDbCircle
 10
-159.087492
 20
81.696109
 30
0.0
 40
0.076553
210
0.0
220
0.0
230
1.0
100
AcDbArc
 50
150.0
 51
210.0
  0
ARC
  5
126
100
AcDbEntity
  8
0
390
0
  6
Continuous
 62
     7
100
AcDbCircle
 10
-159.087492
 20
61.696109
 30
0.0
 40
0.076553
210
0.0
220
0.0
230
1.0
100
AcDbArc
 50
150.0
 51
210.0
  0
ARC
  5
127
100
AcDbEntity
  8
0
390
0
  6
Continuous
 62
     7
100
AcDbCircle
 10
-159.087492
 20
61.696109
 30
0.0
 40
1.574497
210
0.0
220
0.0
230
1.0
100
AcDbArc
 50
150.0
 51
210.0
  0
LINE
  5
128
100
AcDbEntity
  8
0
390
0
  6
Continuous
 62
     7
100
AcDbLine
 10
-159.153789
 20
61.734385
 30
0.0
 11
-160.451047
 21
62.483357
 31
0.0
  0
LINE
  5
129
100
AcDbEntity
  8
0
390
0
  6
Continuous
 62
     7
100
AcDbLine
 10
-150.946853
 20
55.421611
 30
0.0
 11
-156.373946
 21
55.421611
 31
0.0
  0
LINE
  5
12A
100
AcDbEntity
  8
0
390
0
  6
Continuous
 62
     7
100
AcDbLine
 10
-156.373946
 20
56.919555
 30
0.0
 11
-150.946853
 21
56.919555
 31
0.0
  0
LINE
  5
12B
100
AcDbEntity
  8
0
390
0
  6
Continuous
 62
     7
100
AcDbLine
 10
-150.946853
 20
55.421611
 30
0.0
 11
-150.946853
 21
56.919555
 31
0.0
  0
LINE
  5
12C
100
AcDbEntity
  8
0
390
0
  6
Continuous
 62
     7
100
AcDbLine
 10
-157.737501
 20
76.20886
 30
0.0
 11
-156.440243
 21
76.957832
 31
0.0
  0
LINE
  5
12D
100
AcDbEntity
  8
0
390
0
  6
Continuous
 62
     7
100
AcDbLine
 10
-157.737501
 20
76.20886
 30
0.0
 11
-160.451047
 21
80.90886
 31
0.0
  0
LINE
  5
12E
100
AcDbEntity
  8
0
390
0
  6
Continuous
 62
     7
100
AcDbLine
 10
-159.153789
 20
81.657832
 30
0.0
 11
-160.451047
 21
80.90886
 31
0.0
  0
ARC
  5
12F
100
AcDbEntity
  8
0
390
0
  6
Continuous
 62
     7
100
AcDbCircle
 10
-150.946853
 20
56.996109
 30
0.0
 40
1.574497
210
0.0
220
0.0
230
1.0
100
AcDbArc
 50
270.0
 51
330.0
  0
ARC
  5
130
100
AcDbEntity
  8
0
390
0
  6
Continuous
 62
     7
100
AcDbCircle
 10
-150.946853
 20
56.996109
 30
0.0
 40
0.076553
210
0.0
220
0.0
230
1.0
100
AcDbArc
 50
270.0
 51
330.0
  0
LINE
  5
131
100
AcDbEntity
  8
0
390
0
  6
Continuous
 62
     7
100
AcDbLine
 10
-149.583298
 20
56.20886
 30
0.0
 11
-150.880556
 21
56.957832
 31
0.0
  0
LINE
  5
132
100
AcDbEntity
  8
0
390
0
  6
Continuous
 62
     7
100
AcDbLine
 10
-156.440243
 20
66.434385
 30
0.0
 11
-159.153789
 21
61.734385
 31
0.0
  0
LINE
  5
133
100
AcDbEntity
  8
0
390
0
  6
Continuous
 62
     7
100
AcDbLine
 10
-160.451047
 20
62.483357
 30
0.0
 11
-157.737501
 21
67.183357
 31
0.0
  0
LINE
  5
134
100
AcDbEntity
  8
0
390
0
  6
Continuous
 62
     7
100
AcDbLine
 10
-156.440243
 20
66.434385
 30
0.0
 11
-157.737501
 21
67.183357
 31
0.0
  0
LINE
  5
135
100
AcDbEntity
  8
0
390
0
  6
Continuous
 62
     7
100
AcDbLine
 10
-148.16701
 20
61.734385
 30
0.0
 11
-150.880556
 21
66.434385
 31
0.0
  0
LINE
  5
136
100
AcDbEntity
  8
0
390
0
  6
Continuous
 62
     7
100
AcDbLine
 10
-150.880556
 20
66.434385
 30
0.0
 11
-149.583298
 21
67.183357
 31
0.0
  0
LINE
  5
137
100
AcDbEntity
  8
0
390
0
  6
Continuous
 62
     7
100
AcDbLine
 10
-149.583298
 20
67.183357
 30
0.0
 11
-146.869752
 21
62.483357
 31
0.0
  0
LINE
  5
138
100
AcDbEntity
  8
0
390
0
  6
Continuous
 62
     7
100
AcDbLine
 10
-146.869752
 20
62.483357
 30
0.0
 11
-148.16701
 21
61.734385
 31
0.0
  0
ARC
  5
139
100
AcDbEntity
  8
0
390
0
  6
Continuous
 62
     7
100
AcDbCircle
 10
-150.946853
 20
66.396109
 30
0.0
 40
0.076553
210
0.0
220
0.0
230
1.0
100
AcDbArc
 50
30.0
 51
90.0
  0
LINE
  5
13A
100
AcDbEntity
  8
0
390
0
  6
Continuous
 62
     7
100
AcDbLine
 10
-150.946853
 20
66.472662
 30
0.0
 11
-150.946853
 21
67.970606
 31
0.0
  0
ARC
  5
13B
100
AcDbEntity
  8
0
390
0
  6
Continuous
 62
     7
100
AcDbCircle
 10
-150.946853
 20
66.396109
 30
0.0
 40
1.574497
210
0.0
220
0.0
230
1.0
100
AcDbArc
 50
30.0
 51
90.0
  0
CIRCLE
  5
13C
100
AcDbEntity
  8
0
390
0
  6
Continuous
 62
     7
100
AcDbCircle
 10
-153.6604
 20
61.696109
 30
0.0
 40
3.5
210
0.0
220
0.0
230
1.0
  0
ARC
  5
13D
100
AcDbEntity
  8
0
390
0
  6
Continuous
 62
     7
100
AcDbCircle
 10
-156.373946
 20
66.396109
 30
0.0
 40
0.076553
210
0.0
220
0.0
230
1.0
100
AcDbArc
 50
90.0
 51
150.0
  0
LINE
  5
13E
100
AcDbEntity
  8
0
390
0
  6
Continuous
 62
     7
100
AcDbLine
 10
-150.946853
 20
66.472662
 30
0.0
 11
-156.373946
 21
66.472662
 31
0.0
  0
ARC
  5
13F
100
AcDbEntity
  8
0
390
0
  6
Continuous
 62
     7
100
AcDbCircle
 10
-148.233307
 20
61.696109
 30
0.0
 40
0.076553
210
0.0
220
0.0
230
1.0
100
AcDbArc
 50
330.0
 51
30.0
  0
LINE
  5
140
100
AcDbEntity
  8
0
390
0
  6
Continuous
 62
     7
100
AcDbLine
 10
-150.880556
 20
56.957832
 30
0.0
 11
-148.16701
 21
61.657832
 31
0.0
  0
LINE
  5
141
100
AcDbEntity
  8
0
390
0
  6
Continuous
 62
     7
100
AcDbLine
 10
-156.440243
 20
86.434385
 30
0.0
 11
-157.737501
 21
87.183357
 31
0.0
  0
ARC
  5
142
100
AcDbEntity
  8
0
390
0
  6
Continuous
 62
     7
100
AcDbCircle
 10
-156.373946
 20
86.396109
 30
0.0
 40
1.574497
210
0.0
220
0.0
230
1.0
100
AcDbArc
 50
90.0
 51
150.0
  0
LINE
  5
143
100
AcDbEntity
  8
0
390
0
  6
Continuous
 62
     7
100
AcDbLine
 10
-156.373946
 20
86.472662
 30
0.0
 11
-156.373946
 21
87.970606
 31
0.0
  0
ARC
  5
144
100
AcDbEntity
  8
0
390
0
  6
Continuous
 62
     7
100
AcDbCircle
 10
-159.087492
 20
81.696109
 30
0.0
 40
1.574497
210
0.0
220
0.0
230
1.0
100
AcDbArc
 50
150.0
 51
210.0
  0
LINE
  5
145
100
AcDbEntity
  8
0
390
0
  6
Continuous
 62
     7
100
AcDbLine
 10
-159.153789
 20
81.734385
 30
0.0
 11
-160.451047
 21
82.483357
 31
0.0
  0
LINE
  5
146
100
AcDbEntity
  8
0
390
0
  6
Continuous
 62
     7
100
AcDbLine
 10
-150.946853
 20
86.472662
 30
0.0
 11
-150.946853
 21
87.970606
 31
0.0
  0
ARC
  5
147
100
AcDbEntity
  8
0
390
0
  6
Continuous
 62
     7
100
AcDbCircle
 10
-150.946853
 20
86.396109
 30
0.0
 40
1.574497
210
0.0
220
0.0
230
1.0
100
AcDbArc
 50
30.0
 51
90.0
  0
LINE
  5
148
100
AcDbEntity
  8
0
390
0
  6
Continuous
 62
     7
100
AcDbLine
 10
-150.880556
 20
86.434385
 30
0.0
 11
-149.583298
 21
87.183357
 31
0.0
  0
LINE
  5
149
100
AcDbEntity
  8
0
390
0
  6
Continuous
 62
     7
100
AcDbLine
 10
-156.373946
 20
87.970606
 30
0.0
 11
-150.946853
 21
87.970606
 31
0.0
  0
LINE
  5
14A
100
AcDbEntity
  8
0
390
0
  6
Continuous
 62
     7
100
AcDbLine
 10
-156.373946
 20
66.472662
 30
0.0
 11
-156.373946
 21
67.970606
 31
0.0
  0
LINE
  5
14B
100
AcDbEntity
  8
0
390
0
  6
Continuous
 62
     7
100
AcDbLine
 10
-156.373946
 20
67.970606
 30
0.0
 11
-150.946853
 21
67.970606
 31
0.0
  0
ARC
  5
14C
100
AcDbEntity
  8
0
390
0
  6
Continuous
 62
     7
100
AcDbCircle
 10
-148.233307
 20
61.696109
 30
0.0
 40
1.574497
210
0.0
220
0.0
230
1.0
100
AcDbArc
 50
330.0
 51
30.0
  0
LINE
  5
14D
100
AcDbEntity
  8
0
390
0
  6
Continuous
 62
     7
100
AcDbLine
 10
-146.869752
 20
60.90886
 30
0.0
 11
-148.16701
 21
61.657832
 31
0.0
  0
ARC
  5
14E
100
AcDbEntity
  8
0
390
0
  6
Continuous
 62
     7
100
AcDbCircle
 10
-156.373946
 20
66.396109
 30
0.0
 40
1.574497
210
0.0
220
0.0
230
1.0
100
AcDbArc
 50
90.0
 51
150.0
  0
LINE
  5
14F
100
AcDbEntity
  8
0
390
0
  6
Continuous
 62
     7
100
AcDbLine
 10
-146.869752
 20
60.90886
 30
0.0
 11
-149.583298
 21
56.20886
 31
0.0
  0
LINE
  5
150
100
AcDbEntity
  8
0
390
0
  6
Continuous
 62
     7
100
AcDbLine
 10
-160.451047
 20
82.483357
 30
0.0
 11
-157.737501
 21
87.183357
 31
0.0
  0
LINE
  5
151
100
AcDbEntity
  8
0
390
0
  6
Continuous
 62
     7
100
AcDbLine
 10
-149.583298
 20
87.183357
 30
0.0
 11
-146.869752
 21
82.483357
 31
0.0
  0
LINE
  5
152
100
AcDbEntity
  8
0
390
0
  6
Continuous
 62
     7
100
AcDbLine
 10
-146.869752
 20
82.483357
 30
0.0
 11
-148.16701
 21
81.734385
 31
0.0
  0
ARC
  5
153
100
AcDbEntity
  8
0
390
0
  6
Continuous
 62
     7
100
AcDbCircle
 10
-148.233307
 20
81.696109
 30
0.0
 40
1.574497
210
0.0
220
0.0
230
1.0
100
AcDbArc
 50
330.0
 51
30.0
  0
LINE
  5
154
100
AcDbEntity
  8
0
390
0
  6
Continuous
 62
     7
100
AcDbLine
 10
-146.869752
 20
80.90886
 30
0.0
 11
-148.16701
 21
81.657832
 31
0.0
  0
LINE
  5
155
100
AcDbEntity
  8
0
390
0
  6
Continuous
 62
     7
100
AcDbLine
 10
-146.869752
 20
80.90886
 30
0.0
 11
-149.583298
 21
76.20886
 31
0.0
  0
LINE
  5
156
100
AcDbEntity
  8
0
390
0
  6
Continuous
 62
     7
100
AcDbLine
 10
-149.583298
 20
76.20886
 30
0.0
 11
-150.880556
 21
76.957832
 31
0.0
  0
ARC
  5
157
100
AcDbEntity
  8
0
390
0
  6
Continuous
 62
     7
100
AcDbCircle
 10
-156.373946
 20
76.996109
 30
0.0
 40
1.574497
210
0.0
220
0.0
230
1.0
100
AcDbArc
 50
210.0
 51
270.0
  0
LINE
  5
158
100
AcDbEntity
  8
0
390
0
  6
Continuous
 62
     7
100
AcDbLine
 10
-156.373946
 20
75.421611
 30
0.0
 11
-156.373946
 21
76.919555
 31
0.0
  0
LINE
  5
159
100
AcDbEntity
  8
0
390
0
  6
Continuous
 62
     7
100
AcDbLine
 10
-150.946853
 20
75.421611
 30
0.0
 11
-156.373946
 21
75.421611
 31
0.0
  0
LINE
  5
15A
100
AcDbEntity
  8
0
390
0
  6
Continuous
 62
     7
100
AcDbLine
 10
-150.946853
 20
75.421611
 30
0.0
 11
-150.946853
 21
76.919555
 31
0.0
  0
ARC
  5
15B
100
AcDbEntity
  8
0
390
0
  6
Continuous
 62
     7
100
AcDbCircle
 10
-150.946853
 20
76.996109
 30
0.0
 40
1.574497
210
0.0
220
0.0
230
1.0
100
AcDbArc
 50
270.0
 51
330.0
  0
ARC
  5
15C
100
AcDbEntity
  8
0
390
0
  6
Continuous
 62
     7
100
AcDbCircle
 10
-159.087492
 20
61.696109
 30
0.0
 40
1.77252
210
0.0
220
0.0
230
1.0
100
AcDbArc
 50
150.0
 51
210.0
  0
LINE
  5
15D
100
AcDbEntity
  8
0
390
0
  6
Continuous
 62
     7
100
AcDbLine
 10
-160.62254
 20
62.582369
 30
0.0
 11
-160.451047
 21
62.483357
 31
0.0
  0
LINE
  5
15E
100
AcDbEntity
  8
0
390
0
  6
Continuous
 62
     7
100
AcDbLine
 10
-160.62254
 20
60.809848
 30
0.0
 11
-160.451047
 21
60.90886
 31
0.0
  0
ARC
  5
15F
100
AcDbEntity
  8
0
390
0
  6
Continuous
 62
     7
100
AcDbCircle
 10
-156.373946
 20
56.996109
 30
0.0
 40
1.77252
210
0.0
220
0.0
230
1.0
100
AcDbArc
 50
210.0
 51
270.0
  0
LINE
  5
160
100
AcDbEntity
  8
0
390
0
  6
Continuous
 62
     7
100
AcDbLine
 10
-157.908994
 20
56.109848
 30
0.0
 11
-157.737501
 21
56.20886
 31
0.0
  0
LINE
  5
161
100
AcDbEntity
  8
0
390
0
  6
Continuous
 62
     7
100
AcDbLine
 10
-156.373946
 20
55.223588
 30
0.0
 11
-156.373946
 21
55.421611
 31
0.0
  0
LINE
  5
162
100
AcDbEntity
  8
0
390
0
  6
Continuous
 62
     7
100
AcDbLine
 10
-160.62254
 20
60.809848
 30
0.0
 11
-157.908994
 21
56.109848
 31
0.0
  0
LINE
  5
163
100
AcDbEntity
  8
0
390
0
  6
Continuous
 62
     7
100
AcDbLine
 10
-156.373946
 20
55.223588
 30
0.0
 11
-150.946853
 21
55.223588
 31
0.0
  0
LINE
  5
164
100
AcDbEntity
  8
0
390
0
  6
Continuous
 62
     7
100
AcDbLine
 10
-150.946853
 20
55.223588
 30
0.0
 11
-150.946853
 21
55.421611
 31
0.0
  0
ARC
  5
165
100
AcDbEntity
  8
0
390
0
  6
Continuous
 62
     7
100
AcDbCircle
 10
-156.373946
 20
66.396109
 30
0.0
 40
1.77252
210
0.0
220
0.0
230
1.0
100
AcDbArc
 50
90.0
 51
150.0
  0
LINE
  5
166
100
AcDbEntity
  8
0
390
0
  6
Continuous
 62
     7
100
AcDbLine
 10
-156.373946
 20
68.168629
 30
0.0
 11
-156.373946
 21
67.970606
 31
0.0
  0
LINE
  5
167
100
AcDbEntity
  8
0
390
0
  6
Continuous
 62
     7
100
AcDbLine
 10
-157.908994
 20
67.282369
 30
0.0
 11
-157.737501
 21
67.183357
 31
0.0
  0
ARC
  5
168
100
AcDbEntity
  8
0
390
0
  6
Continuous
 62
     7
100
AcDbCircle
 10
-150.946853
 20
66.396109
 30
0.0
 40
1.77252
210
0.0
220
0.0
230
1.0
100
AcDbArc
 50
30.0
 51
90.0
  0
LINE
  5
169
100
AcDbEntity
  8
0
390
0
  6
Continuous
 62
     7
100
AcDbLine
 10
-149.411806
 20
67.282369
 30
0.0
 11
-149.583298
 21
67.183357
 31
0.0
  0
LINE
  5
16A
100
AcDbEntity
  8
0
390
0
  6
Continuous
 62
     7
100
AcDbLine
 10
-150.946853
 20
68.168629
 30
0.0
 11
-150.946853
 21
67.970606
 31
0.0
  0
ARC
  5
16B
100
AcDbEntity
  8
0
390
0
  6
Continuous
 62
     7
100
AcDbCircle
 10
-148.233307
 20
61.696109
 30
0.0
 40
1.77252
210
0.0
220
0.0
230
1.0
100
AcDbArc
 50
330.0
 51
30.0
  0
LINE
  5
16C
100
AcDbEntity
  8
0
390
0
  6
Continuous
 62
     7
100
AcDbLine
 10
-146.698259
 20
60.809848
 30
0.0
 11
-146.869752
 21
60.90886
 31
0.0
  0
LINE
  5
16D
100
AcDbEntity
  8
0
390
0
  6
Continuous
 62
     7
100
AcDbLine
 10
-146.698259
 20
62.582369
 30
0.0
 11
-146.869752
 21
62.483357
 31
0.0
  0
ARC
  5
16E
100
AcDbEntity
  8
0
390
0
  6
Continuous
 62
     7
100
AcDbCircle
 10
-150.946853
 20
86.396109
 30
0.0
 40
1.77252
210
0.0
220
0.0
230
1.0
100
AcDbArc
 50
30.0
 51
90.0
  0
LINE
  5
16F
100
AcDbEntity
  8
0
390
0
  6
Continuous
 62
     7
100
AcDbLine
 10
-149.411806
 20
87.282369
 30
0.0
 11
-149.583298
 21
87.183357
 31
0.0
  0
LINE
  5
170
100
AcDbEntity
  8
0
390
0
  6
Continuous
 62
     7
100
AcDbLine
 10
-150.946853
 20
88.168629
 30
0.0
 11
-150.946853
 21
87.970606
 31
0.0
  0
LINE
  5
171
100
AcDbEntity
  8
0
390
0
  6
Continuous
 62
     7
100
AcDbLine
 10
-146.698259
 20
82.582369
 30
0.0
 11
-149.411806
 21
87.282369
 31
0.0
  0
LINE
  5
172
100
AcDbEntity
  8
0
390
0
  6
Continuous
 62
     7
100
AcDbLine
 10
-146.698259
 20
82.582369
 30
0.0
 11
-146.869752
 21
82.483357
 31
0.0
  0
LINE
  5
173
100
AcDbEntity
  8
0
390
0
  6
Continuous
 62
     7
100
AcDbLine
 10
-149.411806
 20
56.109848
 30
0.0
 11
-146.698259
 21
60.809848
 31
0.0
  0
LINE
  5
174
100
AcDbEntity
  8
0
390
0
  6
Continuous
 62
     7
100
AcDbLine
 10
-149.411806
 20
56.109848
 30
0.0
 11
-149.583298
 21
56.20886
 31
0.0
  0
LINE
  5
175
100
AcDbEntity
  8
0
390
0
  6
Continuous
 62
     7
100
AcDbLine
 10
-150.946853
 20
68.168629
 30
0.0
 11
-156.373946
 21
68.168629
 31
0.0
  0
LINE
  5
176
100
AcDbEntity
  8
0
390
0
  6
Continuous
 62
     7
100
AcDbLine
 10
-157.908994
 20
87.282369
 30
0.0
 11
-160.62254
 21
82.582369
 31
0.0
  0
LINE
  5
177
100
AcDbEntity
  8
0
390
0
  6
Continuous
 62
     7
100
AcDbLine
 10
-157.908994
 20
87.282369
 30
0.0
 11
-157.737501
 21
87.183357
 31
0.0
  0
LINE
  5
178
100
AcDbEntity
  8
0
390
0
  6
Continuous
 62
     7
100
AcDbLine
 10
-160.62254
 20
82.582369
 30
0.0
 11
-160.451047
 21
82.483357
 31
0.0
  0
ARC
  5
179
100
AcDbEntity
  8
0
390
0
  6
Continuous
 62
     7
100
AcDbCircle
 10
-150.946853
 20
56.996109
 30
0.0
 40
1.77252
210
0.0
220
0.0
230
1.0
100
AcDbArc
 50
270.0
 51
330.0
  0
LINE
  5
17A
100
AcDbEntity
  8
0
390
0
  6
Continuous
 62
     7
100
AcDbLine
 10
-146.698259
 20
62.582369
 30
0.0
 11
-149.411806
 21
67.282369
 31
0.0
  0
LINE
  5
17B
100
AcDbEntity
  8
0
390
0
  6
Continuous
 62
     7
100
AcDbLine
 10
-157.908994
 20
67.282369
 30
0.0
 11
-160.62254
 21
62.582369
 31
0.0
  0
LINE
  5
17C
100
AcDbEntity
  8
0
390
0
  6
Continuous
 62
     7
100
AcDbLine
 10
-150.946853
 20
88.168629
 30
0.0
 11
-156.373946
 21
88.168629
 31
0.0
  0
LINE
  5
17D
100
AcDbEntity
  8
0
390
0
  6
Continuous
 62
     7
100
AcDbLine
 10
-156.373946
 20
88.168629
 30
0.0
 11
-156.373946
 21
87.970606
 31
0.0
  0
ARC
  5
17E
100
AcDbEntity
  8
0
390
0
  6
Continuous
 62
     7
100
AcDbCircle
 10
-156.373946
 20
86.396109
 30
0.0
 40
1.77252
210
0.0
220
0.0
230
1.0
100
AcDbArc
 50
90.0
 51
150.0
  0
ARC
  5
17F
100
AcDbEntity
  8
0
390
0
  6
Continuous
 62
     7
100
AcDbCircle
 10
-159.087492
 20
81.696109
 30
0.0
 40
1.77252
210
0.0
220
0.0
230
1.0
100
AcDbArc
 50
150.0
 51
210.0
  0
LINE
  5
180
100
AcDbEntity
  8
0
390
0
  6
Continuous
 62
     7
100
AcDbLine
 10
-160.62254
 20
80.809848
 30
0.0
 11
-160.451047
 21
80.90886
 31
0.0
  0
LINE
  5
181
100
AcDbEntity
  8
0
390
0
  6
Continuous
 62
     7
100
AcDbLine
 10
-160.62254
 20
80.809848
 30
0.0
 11
-157.908994
 21
76.109848
 31
0.0
  0
LINE
  5
182
100
AcDbEntity
  8
0
390
0
  6
Continuous
 62
     7
100
AcDbLine
 10
-157.908994
 20
76.109848
 30
0.0
 11
-157.737501
 21
76.20886
 31
0.0
  0
ARC
  5
183
100
AcDbEntity
  8
0
390
0
  6
Continuous
 62
     7
100
AcDbCircle
 10
-148.233307
 20
81.696109
 30
0.0
 40
1.77252
210
0.0
220
0.0
230
1.0
100
AcDbArc
 50
330.0
 51
30.0
  0
LINE
  5
184
100
AcDbEntity
  8
0
390
0
  6
Continuous
 62
     7
100
AcDbLine
 10
-146.698259
 20
80.809848
 30
0.0
 11
-146.869752
 21
80.90886
 31
0.0
  0
LINE
  5
185
100
AcDbEntity
  8
0
390
0
  6
Continuous
 62
     7
100
AcDbLine
 10
-149.411806
 20
76.109848
 30
0.0
 11
-146.698259
 21
80.809848
 31
0.0
  0
LINE
  5
186
100
AcDbEntity
  8
0
390
0
  6
Continuous
 62
     7
100
AcDbLine
 10
-149.411806
 20
76.109848
 30
0.0
 11
-149.583298
 21
76.20886
 31
0.0
  0
ARC
  5
187
100
AcDbEntity
  8
0
390
0
  6
Continuous
 62
     7
100
AcDbCircle
 10
-150.946853
 20
76.996109
 30
0.0
 40
1.77252
210
0.0
220
0.0
230
1.0
100
AcDbArc
 50
270.0
 51
330.0
  0
LINE
  5
188
100
AcDbEntity
  8
0
390
0
  6
Continuous
 62
     7
100
AcDbLine
 10
-150.946853
 20
75.223588
 30
0.0
 11
-150.946853
 21
75.421611
 31
0.0
  0
LINE
  5
189
100
AcDbEntity
  8
0
390
0
  6
Continuous
 62
     7
100
AcDbLine
 10
-156.373946
 20
75.223588
 30
0.0
 11
-150.946853
 21
75.223588
 31
0.0
  0
LINE
  5
18A
100
AcDbEntity
  8
0
390
0
  6
Continuous
 62
     7
100
AcDbLine
 10
-156.373946
 20
75.223588
 30
0.0
 11
-156.373946
 21
75.421611
 31
0.0
  0
ARC
  5
18B
100
AcDbEntity
  8
0
390
0
  6
Continuous
 62
     7
100
AcDbCircle
 10
-156.373946
 20
76.996109
 30
0.0
 40
1.77252
210
0.0
220
0.0
230
1.0
100
AcDbArc
 50
210.0
 51
270.0
  0
LINE
  5
18C
100
AcDbEntity
  8
0
390
0
  6
Continuous
 62
     7
100
AcDbLine
 10
-157.259618
 20
93.69824
 30
0.0
 11
-156.355861
 21
93.69824
 31
0.0
  0
LINE
  5
18D
100
AcDbEntity
  8
0
390
0
  6
Continuous
 62
     7
100
AcDbLine
 10
-155.846205
 20
90.199801
 30
0.0
 11
-157.259618
 21
93.69824
 31
0.0
  0
LINE
  5
18E
100
AcDbEntity
  8
0
390
0
  6
Continuous
 62
     7
100
AcDbLine
 10
-154.942249
 20
90.199801
 30
0.0
 11
-155.846205
 21
90.199801
 31
0.0
  0
LINE
  5
18F
100
AcDbEntity
  8
0
390
0
  6
Continuous
 62
     7
100
AcDbLine
 10
-156.355861
 20
93.69824
 30
0.0
 11
-154.942249
 21
90.199801
 31
0.0
  0
LINE
  5
190
100
AcDbEntity
  8
0
390
0
  6
Continuous
 62
     7
100
AcDbLine
 10
-153.005484
 20
93.101132
 30
0.0
 11
-152.259532
 21
91.254922
 31
0.0
  0
LINE
  5
191
100
AcDbEntity
  8
0
390
0
  6
Continuous
 62
     7
100
AcDbLine
 10
-153.457499
 20
91.982157
 30
0.0
 11
-153.005484
 21
93.101132
 31
0.0
  0
LINE
  5
192
100
AcDbEntity
  8
0
390
0
  6
Continuous
 62
     7
100
AcDbLine
 10
-152.737255
 20
90.199801
 30
0.0
 11
-153.457499
 21
91.982157
 31
0.0
  0
LINE
  5
193
100
AcDbEntity
  8
0
390
0
  6
Continuous
 62
     7
100
AcDbLine
 10
-151.78161
 20
90.199801
 30
0.0
 11
-152.737255
 21
90.199801
 31
0.0
  0
LINE
  5
194
100
AcDbEntity
  8
0
390
0
  6
Continuous
 62
     7
100
AcDbLine
 10
-150.368219
 20
93.69824
 30
0.0
 11
-151.78161
 21
90.199801
 31
0.0
  0
LINE
  5
195
100
AcDbEntity
  8
0
390
0
  6
Continuous
 62
     7
100
AcDbLine
 10
-151.272251
 20
93.69824
 30
0.0
 11
-150.368219
 21
93.69824
 31
0.0
  0
LINE
  5
196
100
AcDbEntity
  8
0
390
0
  6
Continuous
 62
     7
100
AcDbLine
 10
-152.259532
 20
91.254922
 30
0.0
 11
-151.272251
 21
93.69824
 31
0.0
  0
ARC
  5
197
100
AcDbEntity
  8
0
390
0
  6
Continuous
 62
     7
100
AcDbCircle
 10
-149.903508
 20
91.36693
 30
0.0
 40
1.167129
210
0.0
220
0.0
230
1.0
100
AcDbArc
 50
270.006335
 51
359.993661
  0
LINE
  5
198
100
AcDbEntity
  8
0
390
0
  6
Continuous
 62
     7
100
AcDbLine
 10
-148.736379
 20
93.69824
 30
0.0
 11
-148.736379
 21
91.366801
 31
0.0
  0
LINE
  5
199
100
AcDbEntity
  8
0
390
0
  6
Continuous
 62
     7
100
AcDbLine
 10
-149.650664
 20
93.69824
 30
0.0
 11
-148.736379
 21
93.69824
 31
0.0
  0
LINE
  5
19A
100
AcDbEntity
  8
0
390
0
  6
Continuous
 62
     7
100
AcDbLine
 10
-149.650664
 20
91.48654
 30
0.0
 11
-149.650664
 21
93.69824
 31
0.0
  0
LINE
  5
19B
100
AcDbEntity
  8
0
390
0
  6
Continuous
 62
     7
100
AcDbLine
 10
-149.651592
 20
91.44893
 30
0.0
 11
-149.650664
 21
91.48654
 31
0.0
  0
LINE
  5
19C
100
AcDbEntity
  8
0
390
0
  6
Continuous
 62
     7
100
AcDbLine
 10
-149.654359
 20
91.411338
 30
0.0
 11
-149.651592
 21
91.44893
 31
0.0
  0
LINE
  5
19D
100
AcDbEntity
  8
0
390
0
  6
Continuous
 62
     7
100
AcDbLine
 10
-149.658939
 20
91.373891
 30
0.0
 11
-149.654359
 21
91.411338
 31
0.0
  0
LINE
  5
19E
100
AcDbEntity
  8
0
390
0
  6
Continuous
 62
     7
100
AcDbLine
 10
-149.665303
 20
91.336718
 30
0.0
 11
-149.658939
 21
91.373891
 31
0.0
  0
LINE
  5
19F
100
AcDbEntity
  8
0
390
0
  6
Continuous
 62
     7
100
AcDbLine
 10
-149.673425
 20
91.299946
 30
0.0
 11
-149.665303
 21
91.336718
 31
0.0
  0
LINE
  5
1A0
100
AcDbEntity
  8
0
390
0
  6
Continuous
 62
     7
100
AcDbLine
 10
-149.683279
 20
91.263703
 30
0.0
 11
-149.673425
 21
91.299946
 31
0.0
  0
LINE
  5
1A1
100
AcDbEntity
  8
0
390
0
  6
Continuous
 62
     7
100
AcDbLine
 10
-149.694836
 20
91.228118
 30
0.0
 11
-149.683279
 21
91.263703
 31
0.0
  0
LINE
  5
1A2
100
AcDbEntity
  8
0
390
0
  6
Continuous
 62
     7
100
AcDbLine
 10
-149.708102
 20
91.193198
 30
0.0
 11
-149.694836
 21
91.228118
 31
0.0
  0
LINE
  5
1A3
100
AcDbEntity
  8
0
390
0
  6
Continuous
 62
     7
100
AcDbLine
 10
-149.723074
 20
91.158889
 30
0.0
 11
-149.708102
 21
91.193198
 31
0.0
  0
LINE
  5
1A4
100
AcDbEntity
  8
0
390
0
  6
Continuous
 62
     7
100
AcDbLine
 10
-149.739691
 20
91.125298
 30
0.0
 11
-149.723074
 21
91.158889
 31
0.0
  0
LINE
  5
1A5
100
AcDbEntity
  8
0
390
0
  6
Continuous
 62
     7
100
AcDbLine
 10
-149.757891
 20
91.092531
 30
0.0
 11
-149.739691
 21
91.125298
 31
0.0
  0
LINE
  5
1A6
100
AcDbEntity
  8
0
390
0
  6
Continuous
 62
     7
100
AcDbLine
 10
-149.777613
 20
91.060694
 30
0.0
 11
-149.757891
 21
91.092531
 31
0.0
  0
LINE
  5
1A7
100
AcDbEntity
  8
0
390
0
  6
Continuous
 62
     7
100
AcDbLine
 10
-149.798797
 20
91.029893
 30
0.0
 11
-149.777613
 21
91.060694
 31
0.0
  0
LINE
  5
1A8
100
AcDbEntity
  8
0
390
0
  6
Continuous
 62
     7
100
AcDbLine
 10
-149.82138
 20
91.000236
 30
0.0
 11
-149.798797
 21
91.029893
 31
0.0
  0
LINE
  5
1A9
100
AcDbEntity
  8
0
390
0
  6
Continuous
 62
     7
100
AcDbLine
 10
-149.845748
 20
90.971307
 30
0.0
 11
-149.82138
 21
91.000236
 31
0.0
  0
LINE
  5
1AA
100
AcDbEntity
  8
0
390
0
  6
Continuous
 62
     7
100
AcDbLine
 10
-149.87159
 20
90.943517
 30
0.0
 11
-149.845748
 21
90.971307
 31
0.0
  0
LINE
  5
1AB
100
AcDbEntity
  8
0
390
0
  6
Continuous
 62
     7
100
AcDbLine
 10
-149.898813
 20
90.916953
 30
0.0
 11
-149.87159
 21
90.943517
 31
0.0
  0
LINE
  5
1AC
100
AcDbEntity
  8
0
390
0
  6
Continuous
 62
     7
100
AcDbLine
 10
-149.927323
 20
90.891705
 30
0.0
 11
-149.898813
 21
90.916953
 31
0.0
  0
LINE
  5
1AD
100
AcDbEntity
  8
0
390
0
  6
Continuous
 62
     7
100
AcDbLine
 10
-149.957025
 20
90.867862
 30
0.0
 11
-149.927323
 21
90.891705
 31
0.0
  0
LINE
  5
1AE
100
AcDbEntity
  8
0
390
0
  6
Continuous
 62
     7
100
AcDbLine
 10
-149.987826
 20
90.845511
 30
0.0
 11
-149.957025
 21
90.867862
 31
0.0
  0
LINE
  5
1AF
100
AcDbEntity
  8
0
390
0
  6
Continuous
 62
     7
100
AcDbLine
 10
-150.019631
 20
90.824742
 30
0.0
 11
-149.987826
 21
90.845511
 31
0.0
  0
LINE
  5
1B0
100
AcDbEntity
  8
0
390
0
  6
Continuous
 62
     7
100
AcDbLine
 10
-150.052301
 20
90.805657
 30
0.0
 11
-150.019631
 21
90.824742
 31
0.0
  0
LINE
  5
1B1
100
AcDbEntity
  8
0
390
0
  6
Continuous
 62
     7
100
AcDbLine
 10
-150.086015
 20
90.788124
 30
0.0
 11
-150.052301
 21
90.805657
 31
0.0
  0
LINE
  5
1B2
100
AcDbEntity
  8
0
390
0
  6
Continuous
 62
     7
100
AcDbLine
 10
-150.120647
 20
90.772202
 30
0.0
 11
-150.086015
 21
90.788124
 31
0.0
  0
LINE
  5
1B3
100
AcDbEntity
  8
0
390
0
  6
Continuous
 62
     7
100
AcDbLine
 10
-150.156068
 20
90.757949
 30
0.0
 11
-150.120647
 21
90.772202
 31
0.0
  0
LINE
  5
1B4
100
AcDbEntity
  8
0
390
0
  6
Continuous
 62
     7
100
AcDbLine
 10
-150.192152
 20
90.745422
 30
0.0
 11
-150.156068
 21
90.757949
 31
0.0
  0
LINE
  5
1B5
100
AcDbEntity
  8
0
390
0
  6
Continuous
 62
     7
100
AcDbLine
 10
-150.228771
 20
90.73468
 30
0.0
 11
-150.192152
 21
90.745422
 31
0.0
  0
LINE
  5
1B6
100
AcDbEntity
  8
0
390
0
  6
Continuous
 62
     7
100
AcDbLine
 10
-150.2658
 20
90.725778
 30
0.0
 11
-150.228771
 21
90.73468
 31
0.0
  0
LINE
  5
1B7
100
AcDbEntity
  8
0
390
0
  6
Continuous
 62
     7
100
AcDbLine
 10
-150.297965
 20
90.719603
 30
0.0
 11
-150.2658
 21
90.725778
 31
0.0
  0
LINE
  5
1B8
100
AcDbEntity
  8
0
390
0
  6
Continuous
 62
     7
100
AcDbLine
 10
-150.330428
 20
90.71478
 30
0.0
 11
-150.297965
 21
90.719603
 31
0.0
  0
LINE
  5
1B9
100
AcDbEntity
  8
0
390
0
  6
Continuous
 62
     7
100
AcDbLine
 10
-150.363094
 20
90.711321
 30
0.0
 11
-150.330428
 21
90.71478
 31
0.0
  0
LINE
  5
1BA
100
AcDbEntity
  8
0
390
0
  6
Continuous
 62
     7
100
AcDbLine
 10
-150.39587
 20
90.709237
 30
0.0
 11
-150.363094
 21
90.711321
 31
0.0
  0
LINE
  5
1BB
100
AcDbEntity
  8
0
390
0
  6
Continuous
 62
     7
100
AcDbLine
 10
-150.428664
 20
90.70854
 30
0.0
 11
-150.39587
 21
90.709237
 31
0.0
  0
LINE
  5
1BC
100
AcDbEntity
  8
0
390
0
  6
Continuous
 62
     7
100
AcDbLine
 10
-150.92559
 20
90.70854
 30
0.0
 11
-150.428664
 21
90.70854
 31
0.0
  0
LINE
  5
1BD
100
AcDbEntity
  8
0
390
0
  6
Continuous
 62
     7
100
AcDbLine
 10
-151.131134
 20
90.199801
 30
0.0
 11
-150.92559
 21
90.70854
 31
0.0
  0
LINE
  5
1BE
100
AcDbEntity
  8
0
390
0
  6
Continuous
 62
     7
100
AcDbLine
 10
-149.903379
 20
90.199801
 30
0.0
 11
-151.131134
 21
90.199801
 31
0.0
  0
LINE
  5
1BF
100
AcDbEntity
  8
0
390
0
  6
Continuous
 62
     7
100
AcDbLine
 10
-166.1604
 20
93.101883
 30
0.0
 11
-166.1604
 21
57.196109
 31
0.0
  0
LINE
  5
1C0
100
AcDbEntity
  8
0
390
0
  6
Continuous
 62
     7
100
AcDbLine
 10
-165.6604
 20
57.196109
 30
0.0
 11
-166.1604
 21
57.196109
 31
0.0
  0
ARC
  5
1C1
100
AcDbEntity
  8
0
390
0
  6
Continuous
 62
     7
100
AcDbCircle
 10
-165.6604
 20
59.696109
 30
0.0
 40
2.5
210
0.0
220
0.0
230
1.0
100
AcDbArc
 50
270.0
 51
360.0
  0
LINE
  5
1C2
100
AcDbEntity
  8
0
390
0
  6
Continuous
 62
     7
100
AcDbLine
 10
-163.1604
 20
94.089913
 30
0.0
 11
-163.1604
 21
59.696109
 31
0.0
  0
ARC
  5
1C3
100
AcDbEntity
  8
0
390
0
  6
Continuous
 62
     7
100
AcDbCircle
 10
-153.6604
 20
60.196109
 30
0.0
 40
35.2
210
0.0
220
0.0
230
1.0
100
AcDbArc
 50
105.657505
 51
110.800409
  0
ARC
  5
1C4
100
AcDbEntity
  8
0
390
0
  6
Continuous
 62
     7
100
AcDbCircle
 10
-140.9604
 20
93.239565
 30
0.0
 40
1.0
210
0.0
220
0.0
230
1.0
100
AcDbArc
 50
0.0
 51
68.976117
  0
LINE
  5
1C5
100
AcDbEntity
  8
0
390
0
  6
Continuous
 62
     7
100
AcDbLine
 10
-139.9604
 20
54.196109
 30
0.0
 11
-139.9604
 21
93.239565
 31
0.0
  0
LINE
  5
1C6
100
AcDbEntity
  8
0
390
0
  6
Continuous
 62
     7
100
AcDbLine
 10
-167.3604
 20
54.196109
 30
0.0
 11
-139.9604
 21
54.196109
 31
0.0
  0
LINE
  5
1C7
100
AcDbEntity
  8
0
390
0
  6
Continuous
 62
     7
100
AcDbLine
 10
-167.3604
 20
93.239565
 30
0.0
 11
-167.3604
 21
54.196109
 31
0.0
  0
ARC
  5
1C8
100
AcDbEntity
  8
0
390
0
  6
Continuous
 62
     7
100
AcDbCircle
 10
-166.3604
 20
93.239565
 30
0.0
 40
1.0
210
0.0
220
0.0
230
1.0
100
AcDbArc
 50
111.023883
 51
180.0
  0
ARC
  5
1C9
100
AcDbEntity
  8
0
390
0
  6
Continuous
 62
     7
100
AcDbCircle
 10
-153.6604
 20
60.196109
 30
0.0
 40
36.4
210
0.0
220
0.0
230
1.0
100
AcDbArc
 50
68.976117
 51
111.023883
  0
LINE
  5
1CA
100
AcDbEntity
  8
0
390
0
  6
Continuous
 62
     7
100
AcDbLine
 10
-144.1604
 20
59.696109
 30
0.0
 11
-144.1604
 21
94.089913
 31
0.0
  0
ARC
  5
1CB
100
AcDbEntity
  8
0
390
0
  6
Continuous
 62
     7
100
AcDbCircle
 10
-141.6604
 20
59.696109
 30
0.0
 40
2.5
210
0.0
220
0.0
230
1.0
100
AcDbArc
 50
180.0
 51
270.0
  0
LINE
  5
1CC
100
AcDbEntity
  8
0
390
0
  6
Continuous
 62
     7
100
AcDbLine
 10
-141.1604
 20
57.196109
 30
0.0
 11
-141.6604
 21
57.196109
 31
0.0
  0
LINE
  5
1CD
100
AcDbEntity
  8
0
390
0
  6
Continuous
 62
     7
100
AcDbLine
 10
-141.1604
 20
57.196109
 30
0.0
 11
-141.1604
 21
93.101883
 31
0.0
  0
ARC
  5
1CE
100
AcDbEntity
  8
0
390
0
  6
Continuous
 62
     7
100
AcDbCircle
 10
-153.6604
 20
60.196109
 30
0.0
 40
35.2
210
0.0
220
0.0
230
1.0
100
AcDbArc
 50
69.199591
 51
74.342495
  0
LINE
  5
1CF
100
AcDbEntity
  8
0
390
0
  6
Continuous
 62
     7
100
AcDbLine
 10
-154.29175
 20
90.199801
 30
0.0
 11
-155.705362
 21
93.69824
 31
0.0
  0
LINE
  5
1D0
100
AcDbEntity
  8
0
390
0
  6
Continuous
 62
     7
100
AcDbLine
 10
-153.38773
 20
90.199801
 30
0.0
 11
-154.29175
 21
90.199801
 31
0.0
  0
LINE
  5
1D1
100
AcDbEntity
  8
0
390
0
  6
Continuous
 62
     7
100
AcDbLine
 10
-154.801343
 20
93.69824
 30
0.0
 11
-153.38773
 21
90.199801
 31
0.0
  0
LINE
  5
1D2
100
AcDbEntity
  8
0
390
0
  6
Continuous
 62
     7
100
AcDbLine
 10
-155.705362
 20
93.69824
 30
0.0
 11
-154.801343
 21
93.69824
 31
0.0
  0
LINE
  5
1D3
100
AcDbEntity
  8
0
390
0
  6
Continuous
 62
     7
100
AcDbLine
 10
-157.536112
 20
92.822838
 30
0.0
 11
-156.803131
 21
91.007807
 31
0.0
  0
LINE
  5
1D4
100
AcDbEntity
  8
0
390
0
  6
Continuous
 62
     7
100
AcDbLine
 10
-158.595751
 20
90.199801
 30
0.0
 11
-157.536112
 21
92.822838
 31
0.0
  0
LINE
  5
1D5
100
AcDbEntity
  8
0
390
0
  6
Continuous
 62
     7
100
AcDbLine
 10
-157.691994
 20
90.199801
 30
0.0
 11
-158.595751
 21
90.199801
 31
0.0
  0
LINE
  5
1D6
100
AcDbEntity
  8
0
390
0
  6
Continuous
 62
     7
100
AcDbLine
 10
-157.365301
 20
91.007807
 30
0.0
 11
-157.691994
 21
90.199801
 31
0.0
  0
LINE
  5
1D7
100
AcDbEntity
  8
0
390
0
  6
Continuous
 62
     7
100
AcDbLine
 10
-156.803131
 20
91.007807
 30
0.0
 11
-157.365301
 21
91.007807
 31
0.0
  0
LINE
  5
1D8
100
AcDbEntity
  8
0
390
0
  6
Continuous
 62
     7
100
AcDbLine
 10
-143.6604
 20
92.779342
 30
0.0
 11
-143.6604
 21
93.945775
 31
0.0
  0
LINE
  5
1D9
100
AcDbEntity
  8
0
390
0
  6
Continuous
 62
     7
100
AcDbLine
 10
-163.6604
 20
92.779342
 30
0.0
 11
-163.6604
 21
93.945775
 31
0.0
  0
ARC
  5
1DA
100
AcDbEntity
  8
0
390
0
  6
Continuous
 62
     7
100
AcDbCircle
 10
-153.6604
 20
61.696109
 30
0.0
 40
2.5
210
0.0
220
0.0
230
1.0
100
AcDbArc
 50
180.0
 51
270.0
  0
ARC
  5
1DB
100
AcDbEntity
  8
0
390
0
  6
Continuous
 62
     7
100
AcDbCircle
 10
-153.6604
 20
61.696109
 30
0.0
 40
2.5
210
0.0
220
0.0
230
1.0
100
AcDbArc
 50
270.0
 51
360.0
  0
ARC
  5
1DC
100
AcDbEntity
  8
0
390
0
  6
Continuous
 62
     7
100
AcDbCircle
 10
-153.6604
 20
61.696109
 30
0.0
 40
2.5
210
0.0
220
0.0
230
1.0
100
AcDbArc
 50
0.0
 51
180.0
  0
CIRCLE
  5
1DD
100
AcDbEntity
  8
0
390
0
  6
Continuous
 62
     7
100
AcDbCircle
 10
-153.6604
 20
61.696109
 30
0.0
 40
3.0
210
0.0
220
0.0
230
1.0
  0
CIRCLE
  5
1DE
100
AcDbEntity
  8
0
390
0
  6
Continuous
 62
     7
100
AcDbCircle
 10
-153.6604
 20
81.696109
 30
0.0
 40
3.0
210
0.0
220
0.0
230
1.0
  0
ARC
  5
1DF
100
AcDbEntity
  8
0
390
0
  6
Continuous
 62
     7
100
AcDbCircle
 10
-153.6604
 20
81.696109
 30
0.0
 40
2.5
210
0.0
220
0.0
230
1.0
100
AcDbArc
 50
180.0
 51
270.0
  0
ARC
  5
1E0
100
AcDbEntity
  8
0
390
0
  6
Continuous
 62
     7
100
AcDbCircle
 10
-153.6604
 20
81.696109
 30
0.0
 40
2.5
210
0.0
220
0.0
230
1.0
100
AcDbArc
 50
270.0
 51
360.0
  0
ARC
  5
1E1
100
AcDbEntity
  8
0
390
0
  6
Continuous
 62
     7
100
AcDbCircle
 10
-153.6604
 20
81.696109
 30
0.0
 40
2.5
210
0.0
220
0.0
230
1.0
100
AcDbArc
 50
0.0
 51
180.0
  0
LINE
  5
1E2
100
AcDbEntity
  8
0
390
0
  6
Continuous
 62
     7
100
AcDbLine
 10
-161.1604
 20
51.652686
 30
0.0
 11
-161.1604
 21
-49.25946
 31
0.0
  0
LINE
  5
1E3
100
AcDbEntity
  8
0
390
0
  6
Continuous
 62
     7
100
AcDbLine
 10
-161.1604
 20
51.652686
 30
0.0
 11
-146.1604
 21
51.652686
 31
0.0
  0
LINE
  5
1E4
100
AcDbEntity
  8
0
390
0
  6
Continuous
 62
     7
100
AcDbLine
 10
-146.1604
 20
-49.25946
 30
0.0
 11
-146.1604
 21
51.652686
 31
0.0
  0
LINE
  5
1E5
100
AcDbEntity
  8
0
390
0
  6
Continuous
 62
     7
100
AcDbLine
 10
-161.1604
 20
-49.25946
 30
0.0
 11
-146.1604
 21
-49.25946
 31
0.0
  0
LINE
  5
1E6
100
AcDbEntity
  8
0
390
0
  6
Continuous
 62
     7
100
AcDbLine
 10
-145.1604
 20
50.645829
 30
0.0
 11
-145.1604
 21
-48.312163
 31
0.0
  0
LINE
  5
1E7
100
AcDbEntity
  8
0
390
0
  6
Continuous
 62
     7
100
AcDbLine
 10
-145.1604
 20
-48.312163
 30
0.0
 11
-146.1604
 21
-49.25946
 31
0.0
  0
LINE
  5
1E8
100
AcDbEntity
  8
0
390
0
  6
Continuous
 62
     7
100
AcDbLine
 10
-146.1604
 20
51.652686
 30
0.0
 11
-145.1604
 21
50.645829
 31
0.0
  0
LINE
  5
1E9
100
AcDbEntity
  8
0
390
0
  6
Continuous
 62
     7
100
AcDbLine
 10
-161.1604
 20
-49.25946
 30
0.0
 11
-162.1604
 21
-48.312163
 31
0.0
  0
LINE
  5
1EA
100
AcDbEntity
  8
0
390
0
  6
Continuous
 62
     7
100
AcDbLine
 10
-162.1604
 20
-48.312163
 30
0.0
 11
-162.1604
 21
50.645829
 31
0.0
  0
LINE
  5
1EB
100
AcDbEntity
  8
0
390
0
  6
Continuous
 62
     7
100
AcDbLine
 10
-162.1604
 20
50.645829
 30
0.0
 11
-161.1604
 21
51.652686
 31
0.0
  0
LINE
  5
1EC
100
AcDbEntity
  8
0
390
0
  6
Continuous
 62
     7
100
AcDbLine
 10
-167.6604
 20
-50.0
 30
0.0
 11
-167.6604
 21
49.638694
 31
0.0
  0
LINE
  5
1ED
100
AcDbEntity
  8
0
390
0
  6
Continuous
 62
     7
100
AcDbLine
 10
-139.6604
 20
-50.0
 30
0.0
 11
-139.6604
 21
49.638694
 31
0.0
  0
LINE
  5
1EE
100
AcDbEntity
  8
0
390
0
  6
Continuous
 62
     7
100
AcDbLine
 10
-167.6604
 20
49.638694
 30
0.0
 11
-162.1604
 21
49.638694
 31
0.0
  0
LINE
  5
1EF
100
AcDbEntity
  8
0
390
0
  6
Continuous
 62
     7
100
AcDbLine
 10
-145.1604
 20
49.638694
 30
0.0
 11
-139.6604
 21
49.638694
 31
0.0
  0
LINE
  5
1F0
100
AcDbEntity
  8
0
390
0
  6
Continuous
 62
     7
100
AcDbLine
 10
-161.1604
 20
-49.25946
 30
0.0
 11
-161.1604
 21
-50.05
 31
0.0
  0
LINE
  5
1F1
100
AcDbEntity
  8
0
390
0
  6
Continuous
 62
     7
100
AcDbLine
 10
-146.1604
 20
-50.05
 30
0.0
 11
-146.1604
 21
-49.25946
 31
0.0
  0
LINE
  5
1F2
100
AcDbEntity
  8
0
390
0
  6
Continuous
 62
     7
100
AcDbLine
 10
-161.1604
 20
-50.05
 30
0.0
 11
-146.1604
 21
-50.05
 31
0.0
  0
LINE
  5
1F3
100
AcDbEntity
  8
0
390
0
  6
Continuous
 62
     7
100
AcDbLine
 10
-161.1604
 20
-50.05
 30
0.0
 11
-162.1604
 21
-49.05
 31
0.0
  0
LINE
  5
1F4
100
AcDbEntity
  8
0
390
0
  6
Continuous
 62
     7
100
AcDbLine
 10
-162.1604
 20
-49.05
 30
0.0
 11
-162.1604
 21
-48.312163
 31
0.0
  0
LINE
  5
1F5
100
AcDbEntity
  8
0
390
0
  6
Continuous
 62
     7
100
AcDbLine
 10
-145.1604
 20
-49.05
 30
0.0
 11
-146.1604
 21
-50.05
 31
0.0
  0
LINE
  5
1F6
100
AcDbEntity
  8
0
390
0
  6
Continuous
 62
     7
100
AcDbLine
 10
-145.1604
 20
-48.312163
 30
0.0
 11
-145.1604
 21
-49.05
 31
0.0
  0
LINE
  5
1F7
100
AcDbEntity
  8
0
390
0
  6
Continuous
 62
     7
100
AcDbLine
 10
-167.6604
 20
52.55
 30
0.0
 11
-139.6604
 21
52.55
 31
0.0
  0
LINE
  5
1F8
100
AcDbEntity
  8
0
390
0
  6
Continuous
 62
     7
100
AcDbLine
 10
-167.6604
 20
49.638694
 30
0.0
 11
-167.6604
 21
52.55
 31
0.0
  0
LINE
  5
1F9
100
AcDbEntity
  8
0
390
0
  6
Continuous
 62
     7
100
AcDbLine
 10
-139.6604
 20
49.638694
 30
0.0
 11
-139.6604
 21
52.55
 31
0.0
  0
ARC
  5
1FA
100
AcDbEntity
  8
0
390
0
  6
Continuous
 62
     7
100
AcDbCircle
 10
-153.6604
 20
58.196109
 30
0.0
 40
36.0
210
0.0
220
0.0
230
0.9999999999999999
100
AcDbArc
 50
69.682492
 51
74.699059
  0
ARC
  5
1FB
100
AcDbEntity
  8
0
390
0
  6
Continuous
 62
     7
100
AcDbCircle
 10
-153.6604
 20
58.196109
 30
0.0
 40
36.0
210
0.0
220
0.0
230
1.0
100
AcDbArc
 50
105.300941
 51
110.317508
  0
LINE
  5
1FC
100
AcDbEntity
  8
0
390
0
  6
Continuous
 62
     7
100
AcDbLine
 10
-166.1604
 20
54.196109
 30
0.0
 11
-166.1604
 21
52.55
 31
0.0
  0
LINE
  5
1FD
100
AcDbEntity
  8
0
390
0
  6
Continuous
 62
     7
100
AcDbLine
 10
-141.1604
 20
54.196109
 30
0.0
 11
-141.1604
 21
52.55
 31
0.0
  0
LINE
  5
1FE
100
AcDbEntity
  8
0
390
0
  6
Continuous
 62
     7
100
AcDbLine
 10
-167.6604
 20
-50.0
 30
0.0
 11
-161.2104
 21
-50.0
 31
0.0
  0
LINE
  5
1FF
100
AcDbEntity
  8
0
390
0
  6
Continuous
 62
     7
100
AcDbLine
 10
-146.1104
 20
-50.0
 30
0.0
 11
-139.6604
 21
-50.0
 31
0.0
  0
POINT
  5
200
100
AcDbEntity
  8
0
390
0
 62
     7
100
AcDbPoint
 10
0.0
 20
0.0
 30
0.0
  0
POINT
  5
201
100
AcDbEntity
  8
0
390
0
 62
     7
100
AcDbPoint
 10
0.0
 20
0.0
 30
0.0
  0
ENDSEC
  0
SECTION
  2
OBJECTS
  0
DICTIONARY
  5
19
100
AcDbDictionary
280
     0
281
     1
  3
ACAD_GROUP
350
1A
  3
ACAD_MLINESTYLE
350
1B
  3
ACAD_LAYOUT
350
1E
  3
ACAD_PLOTSETTINGS
350
22
  3
ACAD_PLOTSTYLENAME
350
1F
  3
ACAD_WIPEOUT_VARS
350
23
  0
DICTIONARY
  5
1A
102
{ACAD_REACTORS
330
19
102
}
100
AcDbDictionary
280
     0
281
     1
  0
DICTIONARY
  5
1B
102
{ACAD_REACTORS
330
19
102
}
100
AcDbDictionary
280
     0
281
     1
  3
Standard
350
1C
  0
MLINESTYLE
  5
1C
102
{ACAD_REACTORS
330
1B
102
}
100
AcDbMlineStyle
  2
Standard
 70
     0
  3

 62
     0
 51
90.0
 52
90.0
 71
     2
 49
0.5
 62
   256
  6
ByLayer
 49
-0.5
 62
   256
  6
ByLayer
  0
ACDBDICTIONARYWDFLT
  5
1F
102
{ACAD_REACTORS
330
19
102
}
100
AcDbDictionary
281
     1
  3
Normal
350
1D
100
AcDbDictionaryWithDefault
340
1D
  0
ACDBPLACEHOLDER
  5
1D
102
{ACAD_REACTORS
330
1F
102
}
  0
LAYOUT
  5
20
102
{ACAD_REACTORS
330
1E
102
}
100
AcDbPlotSettings
  1

  2

  4

  6

 40
0.0
 41
0.0
 42
0.0
 43
0.0
 44
0.0
 45
0.0
 46
0.0
 47
0.0
 48
0.0
 49
0.0
140
0.0
141
0.0
142
1.0
143
1.0
 70
  1024
 72
     0
 73
     0
 74
     0
  7

 75
     0
147
1.0
148
0.0
149
0.0
100
AcDbLayout
  1
Model
 70
     0
 71
     1
 10
0.0
 20
0.0
 11
0.0
 21
0.0
 12
0.0
 22
0.0
 32
0.0
 14
0.0
 24
0.0
 34
0.0
 15
0.0
 25
0.0
 35
0.0
146
0.0
 13
0.0
 23
0.0
 33
0.0
 16
0.0
 26
0.0
 36
0.0
 17
0.0
 27
0.0
 37
0.0
 76
     0
330
A
331
0
345
0
346
0
  0
LAYOUT
  5
21
102
{ACAD_REACTORS
330
1E
102
}
100
AcDbPlotSettings
  1

  2

  4

  6

 40
0.0
 41
0.0
 42
0.0
 43
0.0
 44
0.0
 45
0.0
 46
0.0
 47
0.0
 48
0.0
 49
0.0
140
0.0
141
0.0
142
1.0
143
1.0
 70
     0
 72
     0
 73
     0
 74
     0
  7

 75
     0
147
1.0
148
0.0
149
0.0
100
AcDbLayout
  1
Layout1
 70
     0
 71
     2
 10
0.0
 20
0.0
 11
0.0
 21
0.0
 12
0.0
 22
0.0
 32
0.0
 14
0.0
 24
0.0
 34
0.0
 15
0.0
 25
0.0
 35
0.0
146
0.0
 13
0.0
 23
0.0
 33
0.0
 16
0.0
 26
0.0
 36
0.0
 17
0.0
 27
0.0
 37
0.0
 76
     0
330
B
331
0
345
0
346
0
  0
DICTIONARY
  5
1E
102
{ACAD_REACTORS
330
19
102
}
100
AcDbDictionary
280
     0
281
     1
  3
Layout1
350
21
  3
Model
350
20
  0
DICTIONARY
  5
22
102
{ACAD_REACTORS
330
19
102
}
100
AcDbDictionary
280
     0
281
     1
  0
WIPEOUTVARIABLES
  5
23
100
AcDbWipeoutVariables
 70
     1
  0
ENDSEC
  0
EOF
