  0
SECTION
  2
HEADER
  9
$ACADVER
  1
AC1015
  9
$ACADMAINTVER
 70
     6
  9
$DWGCODEPAGE
  3
DOS932
  9
$INSBASE
 10
0.0
 20
0.0
 30
0.0
  9
$EXTMIN
 10
-32.792242
 20
-185.642919
 30
0.0
  9
$EXTMAX
 10
160.624866
 20
28.607862
 30
9.906
  9
$LIMMIN
 10
-32.792242
 20
-185.642919
  9
$LIMMAX
 10
160.624866
 20
28.607862
  9
$ORTHOMODE
 70
     0
  9
$REGENMODE
 70
     1
  9
$FILLMODE
 70
     1
  9
$QTEXTMODE
 70
     0
  9
$MIRRTEXT
 70
     1
  9
$LTSCALE
 40
10.0
  9
$ATTMODE
 70
     1
  9
$TEXTSIZE
 40
0.2
  9
$TRACEWID
 40
0.05
  9
$TEXTSTYLE
  7
Standard
  9
$CLAYER
  8
0
  9
$CELTYPE
  6
Continuous
  9
$CECOLOR
 62
   256
  9
$CELTSCALE
 40
1.0
  9
$DISPSILH
 70
     0
  9
$DIMSCALE
 40
1.0
  9
$DIMASZ
 40
1.40208
  9
$DIMEXO
 40
1.40208
  9
$DIMDLI
 40
0.38
  9
$DIMRND
 40
0.0
  9
$DIMDLE
 40
0.0
  9
$DIMEXE
 40
1.05156
  9
$DIMTP
 40
0.0
  9
$DIMTM
 40
0.0
  9
$DIMTXT
 40
3.5052
  9
$DIMCEN
 40
0.09
  9
$DIMTSZ
 40
0.0
  9
$DIMTOL
 70
     0
  9
$DIMLIM
 70
     0
  9
$DIMTIH
 70
     0
  9
$DIMTOH
 70
     0
  9
$DIMSE1
 70
     0
  9
$DIMSE2
 70
     0
  9
$DIMTAD
 70
     1
  9
$DIMZIN
 70
     0
  9
$DIMBLK
  1

  9
$DIMASO
 70
     1
  9
$DIMSHO
 70
     1
  9
$DIMPOST
  1

  9
$DIMAPOST
  1

  9
$DIMALT
 70
     0
  9
$DIMALTD
 70
     2
  9
$DIMALTF
 40
25.4
  9
$DIMLFAC
 40
1.0
  9
$DIMTOFL
 70
     0
  9
$DIMTVP
 40
0.0
  9
$DIMTIX
 70
     0
  9
$DIMSOXD
 70
     0
  9
$DIMSAH
 70
     0
  9
$DIMBLK1
  1

  9
$DIMBLK2
  1

  9
$DIMSTYLE
  2
Standard
  9
$DIMCLRD
 70
     7
  9
$DIMCLRE
 70
     7
  9
$DIMCLRT
 70
     7
  9
$DIMTFAC
 40
0.5
  9
$DIMGAP
 40
1.7526
  9
$DIMJUST
 70
     0
  9
$DIMSD1
 70
     0
  9
$DIMSD2
 70
     0
  9
$DIMTOLJ
 70
     1
  9
$DIMTZIN
 70
     0
  9
$DIMALTZ
 70
     0
  9
$DIMALTTZ
 70
     0
  9
$DIMUPT
 70
     0
  9
$DIMDEC
 70
     2
  9
$DIMTDEC
 70
     4
  9
$DIMALTU
 70
     2
  9
$DIMALTTD
 70
     2
  9
$DIMTXSTY
  7
Standard
  9
$DIMAUNIT
 70
     0
  9
$DIMADEC
 70
     0
  9
$DIMALTRND
 40
0.0
  9
$DIMAZIN
 70
     0
  9
$DIMDSEP
 70
     0
  9
$DIMATFIT
 70
     3
  9
$DIMFRAC
 70
     0
  9
$DIMLDRBLK
  1

  9
$DIMLUNIT
 70
     2
  9
$DIMLWD
 70
     0
  9
$DIMLWE
 70
     0
  9
$DIMTMOVE
 70
     0
  9
$LUNITS
 70
     2
  9
$LUPREC
 70
     4
  9
$SKETCHINC
 40
0.1
  9
$FILLETRAD
 40
0.0
  9
$AUNITS
 70
     0
  9
$AUPREC
 70
     0
  9
$MENU
  1
acad
  9
$ELEVATION
 40
0.0
  9
$PELEVATION
 40
0.0
  9
$THICKNESS
 40
0.0
  9
$LIMCHECK
 70
     0
  9
$CHAMFERA
 40
0.0
  9
$CHAMFERB
 40
0.0
  9
$CHAMFERC
 40
0.0
  9
$CHAMFERD
 40
0.0
  9
$SKPOLY
 70
     0
  9
$TDCREATE
 40
2459761.416678241
  9
$TDUCREATE
 40
0.000000000
  9
$TDUPDATE
 40
2459761.041666667
  9
$TDUUPDATE
 40
0.000000000
  9
$TDINDWG
 40
0.0000000000
  9
$TDUSRTIMER
 40
0.0000000000
  9
$USRTIMER
 70
     1
  9
$ANGBASE
 50
0.0
  9
$ANGDIR
 70
     0
  9
$PDMODE
 70
     0
  9
$PDSIZE
 40
0.0
  9
$PLINEWID
 40
0.0
  9
$SPLFRAME
 70
     0
  9
$SPLINETYPE
 70
     6
  9
$SPLINESEGS
 70
     8
  9
$HANDSEED
  5
FA
  9
$SURFTAB1
 70
     6
  9
$SURFTAB2
 70
     6
  9
$SURFTYPE
 70
     6
  9
$SURFU
 70
     6
  9
$SURFV
 70
     6
  9
$UCSBASE
  2

  9
$UCSNAME
  2

  9
$UCSORG
 10
0.0
 20
0.0
 30
0.0
  9
$UCSXDIR
 10
1.0
 20
0.0
 30
0.0
  9
$UCSYDIR
 10
0.0
 20
1.0
 30
0.0
  9
$UCSORTHOREF
  2

  9
$UCSORTHOVIEW
 70
     0
  9
$UCSORGTOP
 10
0.0
 20
0.0
 30
0.0
  9
$UCSORGBOTTOM
 10
0.0
 20
0.0
 30
0.0
  9
$UCSORGLEFT
 10
0.0
 20
0.0
 30
0.0
  9
$UCSORGRIGHT
 10
0.0
 20
0.0
 30
0.0
  9
$UCSORGFRONT
 10
0.0
 20
0.0
 30
0.0
  9
$UCSORGBACK
 10
0.0
 20
0.0
 30
0.0
  9
$PUCSBASE
  2

  9
$PUCSNAME
  2

  9
$PUCSORG
 10
0.0
 20
0.0
 30
0.0
  9
$PUCSXDIR
 10
1.0
 20
0.0
 30
0.0
  9
$PUCSYDIR
 10
0.0
 20
1.0
 30
0.0
  9
$PUCSORTHOREF
  2

  9
$PUCSORTHOVIEW
 70
     0
  9
$PUCSORGTOP
 10
0.0
 20
0.0
 30
0.0
  9
$PUCSORGBOTTOM
 10
0.0
 20
0.0
 30
0.0
  9
$PUCSORGLEFT
 10
0.0
 20
0.0
 30
0.0
  9
$PUCSORGRIGHT
 10
0.0
 20
0.0
 30
0.0
  9
$PUCSORGFRONT
 10
0.0
 20
0.0
 30
0.0
  9
$PUCSORGBACK
 10
0.0
 20
0.0
 30
0.0
  9
$USERI1
 70
     0
  9
$USERI2
 70
     0
  9
$USERI3
 70
     0
  9
$USERI4
 70
     0
  9
$USERI5
 70
     0
  9
$USERR1
 40
0.0
  9
$USERR2
 40
0.0
  9
$USERR3
 40
0.0
  9
$USERR4
 40
0.0
  9
$USERR5
 40
0.0
  9
$WORLDVIEW
 70
     1
  9
$SHADEDGE
 70
     3
  9
$SHADEDIF
 70
    70
  9
$TILEMODE
 70
     1
  9
$MAXACTVP
 70
    16
  9
$PINSBASE
 10
0.0
 20
0.0
 30
0.0
  9
$PLIMCHECK
 70
     0
  9
$PEXTMIN
 10
1.000000E+20
 20
1.000000E+20
 30
1.000000E+20
  9
$PEXTMAX
 10
-1.000000E+20
 20
-1.000000E+20
 30
-1.000000E+20
  9
$PLIMMIN
 10
0.0
 20
0.0
  9
$PLIMMAX
 10
12.0
 20
9.0
  9
$UNITMODE
 70
     0
  9
$VISRETAIN
 70
     0
  9
$PLINEGEN
 70
     1
  9
$PSLTSCALE
 70
     0
  9
$TREEDEPTH
 70
  3020
  9
$CMLSTYLE
  2
Standard
  9
$CMLJUST
 70
     0
  9
$CMLSCALE
 40
1.0
  9
$PROXYGRAPHICS
 70
     0
  9
$MEASUREMENT
 70
     0
  9
$CELWEIGHT
370
     0
  9
$ENDCAPS
280
     0
  9
$JOINSTYLE
280
     0
  9
$LWDISPLAY
290
     0
  9
$INSUNITS
 70
     0
  9
$HYPERLINKBASE
  1

  9
$STYLESHEET
  1

  9
$XEDIT
290
     1
  9
$CEPSNTYPE
380
     0
  9
$PSTYLEMODE
290
     1
  9
$FINGERPRINTGUID
  2

  9
$VERSIONGUID
  2

  9
$EXTNAMES
290
     1
  9
$PSVPSCALE
 40
0.0
  0
ENDSEC
  0
SECTION
  2
CLASSES
  0
CLASS
  1
LWPOLYLINE
  2
AcDbPolyline
  3
AutoCAD 2000
 90
        0
280
     0
281
     1
  0
CLASS
  1
IMAGE
  2
AcDbRasterImage
  3
ISM
 90
      127
280
     0
281
     1
  0
CLASS
  1
OLE2FRAME
  2
AcDbOle2Frame
  3
AutoCAD 2000
 90
        0
280
     0
281
     1
  0
CLASS
  1
HATCH
  2
AcDbHatch
  3
AutoCAD 2000
 90
        0
280
     0
281
     1
  0
CLASS
  1
DICTIONARYVAR
  2
AcDbDictionaryVar
  3
AutoCAD 2000
 90
        0
280
     0
281
     0
  0
CLASS
  1
RASTERVARIABLES
  2
AcDbRasterVariables
  3
ISM
 90
        0
280
     0
281
     0
  0
CLASS
  1
IMAGEDEF
  2
AcDbRasterImageDef
  3
ISM
 90
        0
280
     0
281
     0
  0
CLASS
  1
IMAGEDEF_REACTOR
  2
AcDbRasterImageDefReactor
  3
ISM
 90
        1
280
     0
281
     0
  0
CLASS
  1
IDBUFFER
  2
AcDbIdBuffer
  3
AutoCAD 2000
 90
        0
280
     0
281
     0
  0
CLASS
  1
SPATIAL_FILTER
  2
AcDbSpatialFilter
  3
AutoCAD 2000
 90
        0
280
     0
281
     0
  0
CLASS
  1
XRECORD
  2
AcDbXrecord
  3
AutoCAD 2000
 90
        0
280
     0
281
     0
  0
CLASS
  1
SORTENTSTABLE
  2
AcDbSortentsTable
  3
AutoCAD 2000
 90
        0
280
     0
281
     0
  0
CLASS
  1
LAYER_INDEX
  2
AcDbLayerIndex
  3
AutoCAD 2000
 90
        0
280
     0
281
     0
  0
CLASS
  1
SPATIAL_INDEX
  2
AcDbSpatialIndex
  3
AutoCAD 2000
 90
        0
280
     0
281
     0
  0
CLASS
  1
OBJECT_PTR
  2
CAseDLPNTableRecord
  3
"ASE-LPNTableRecord"
 90
        1
280
     0
281
     0
  0
CLASS
  1
LAYOUT
  2
AcDbLayout
  3
AutoCAD 2000
 90
        0
280
     0
281
     0
  0
CLASS
  1
PLOTSETTINGS
  2
AcDbPlotSettings
  3
AutoCAD 2000
 90
        0
280
     0
281
     0
  0
CLASS
  1
ACDBDICTIONARYWDFLT
  2
AcDbDictionaryWithDefault
  3
AutoCAD 2000
 90
        0
280
     0
281
     0
  0
CLASS
  1
ACDBPLACEHOLDER
  2
AcDbPlaceHolder
  3
AutoCAD 2000
 90
        0
280
     0
281
     0
  0
CLASS
  1
VBA_PROJECT
  2
AcDbVbaProject
  3
acadvba
 90
        0
280
     0
281
     0
  0
CLASS
  1
WIPEOUT
  2
AcDbWipeout
  3
WipeOut|AutoCAD Express Tool|expresstools@autodesk.com
 90
      127
280
     0
281
     1
  0
CLASS
  1
WIPEOUTVARIABLES
  2
AcDbWipeoutVariables
  3
WipeOut|AutoCAD Express Tool|expresstools@autodesk.com
 90
        0
280
     0
281
     0
  0
CLASS
  1
RTEXT
  2
RText
  3
RText|AutoCAD Express Tool|expresstools@autodesk.com
 90
        0
280
     0
281
     1
  0
CLASS
  1
ARCALIGNEDTEXT
  2
AcDbArcAlignedText
  3
ATEXT|AutoCAD Express Tool|expresstools@autodesk.com
 90
        0
280
     0
281
     1
  0
ENDSEC
  0
SECTION
  2
TABLES
  0
TABLE
  2
VPORT
  5
7
100
AcDbSymbolTable
 70
     1
  0
VPORT
  5
15
100
AcDbSymbolTableRecord
100
AcDbViewportTableRecord
  2
*ACTIVE
 70
     0
 10
0.0
 20
0.0
 11
1.0
 21
1.0
 12
6.591288
 22
4.579184
 13
0.0
 23
0.0
 14
1.0
 24
1.0
 15
0.0
 25
0.0
 16
0.0
 26
0.0
 36
1.0
 17
0.0
 27
0.0
 37
0.0
 40
9.158369
 41
0.688564
 42
50.0
 43
0.0
 44
0.0
 50
0.0
 51
0.0
 71
     0
 72
   100
 73
     1
 74
     1
 75
     0
 76
     0
 77
     0
 78
     0
281
     0
 65
     0
110
0.0
120
0.0
130
0.0
111
1.0
121
0.0
131
0.0
112
0.0
122
1.0
132
0.0
345
0
346
0
 79
     0
146
0.0
  0
ENDTAB
  0
TABLE
  2
LTYPE
  5
4
100
AcDbSymbolTable
 70
     3
  0
LTYPE
  5
11
100
AcDbSymbolTableRecord
100
AcDbLinetypeTableRecord
  2
ByBlock
 70
    64
  3

 72
    65
 73
     0
 40
0.0
  0
LTYPE
  5
12
100
AcDbSymbolTableRecord
100
AcDbLinetypeTableRecord
  2
ByLayer
 70
    64
  3

 72
    65
 73
     0
 40
0.0
  0
LTYPE
  5
13
100
AcDbSymbolTableRecord
100
AcDbLinetypeTableRecord
  2
Continuous
 70
    64
  3
Solid line
 72
    65
 73
     0
 40
0.0
  0
ENDTAB
  0
TABLE
  2
LAYER
  5
2
100
AcDbSymbolTable
 70
     1
  0
LAYER
  5
14
100
AcDbSymbolTableRecord
100
AcDbLayerTableRecord
  2
0
 70
     0
 62
     7
  6
Continuous
290
     1
370
    -3
390
1D
  0
ENDTAB
  0
TABLE
  2
STYLE
  5
3
100
AcDbSymbolTable
 70
     1
  0
STYLE
  5
17
100
AcDbSymbolTableRecord
100
AcDbTextStyleTableRecord
  2
Standard
 70
     0
 40
0.0
 41
1.0
 50
0.0
 71
     0
 42
0.0
  3
FG教科書体NT-M
  4

1001
ACAD
1000
FG教科書体NT-M
1071
        0
  0
ENDTAB
  0
TABLE
  2
VIEW
  5
5
100
AcDbSymbolTable
 70
     0
  0
ENDTAB
  0
TABLE
  2
UCS
  5
6
100
AcDbSymbolTable
 70
     0
  0
ENDTAB
  0
TABLE
  2
APPID
  5
8
100
AcDbSymbolTable
 70
     2
  0
APPID
  5
16
100
AcDbSymbolTableRecord
100
AcDbRegAppTableRecord
  2
ACAD
 70
     0
  0
APPID
  5
26
100
AcDbSymbolTableRecord
100
AcDbRegAppTableRecord
  2
TOPsolid_Design
 70
     0
  0
ENDTAB
  0
TABLE
  2
DIMSTYLE
  5
9
100
AcDbSymbolTable
 70
     1
100
AcDbDimStyleTable
 71
     0
  0
DIMSTYLE
105
18
100
AcDbSymbolTableRecord
100
AcDbDimStyleTableRecord
  2
Standard
 70
     0
  3

  4

 40
1.0
 41
1.40208
 42
1.40208
 43
0.38
 44
1.05156
 45
0.0
 46
0.0
 47
0.0
 48
0.0
 71
     0
 72
     0
 73
     0
 74
     0
 75
     0
 76
     0
 77
     1
 78
     0
 79
     0
140
3.5052
141
0.09
142
0.0
143
25.4
144
1.0
145
0.0
146
0.5
147
1.7526
148
0.0
170
     0
171
     2
172
     0
173
     0
174
     0
175
     0
176
     7
177
     7
178
     7
179
     0
271
     2
272
     4
273
     2
274
     2
275
     0
276
     0
277
     2
278
    46
279
     0
280
     0
281
     0
282
     0
283
     1
284
     0
285
     0
286
     0
288
     0
289
     3
340
17
341
0
342
0
343
0
344
0
371
    -2
372
    -2
  0
ENDTAB
  0
TABLE
  2
BLOCK_RECORD
  5
1
100
AcDbSymbolTable
 70
     0
  0
BLOCK_RECORD
  5
A
100
AcDbSymbolTableRecord
100
AcDbBlockTableRecord
  2
*MODEL_SPACE
340
20
  0
BLOCK_RECORD
  5
B
100
AcDbSymbolTableRecord
100
AcDbBlockTableRecord
  2
*PAPER_SPACE
340
21
  0
ENDTAB
  0
ENDSEC
  0
SECTION
  2
BLOCKS
  0
BLOCK
  5
D
100
AcDbEntity
  8
0
390
0
100
AcDbBlockBegin
  2
*MODEL_SPACE
 70
     0
 10
0.0
 20
0.0
 30
0.0
  3
*MODEL_SPACE
  1

  0
ENDBLK
  5
E
100
AcDbEntity
  8
0
390
0
100
AcDbBlockEnd
  0
BLOCK
  5
F
100
AcDbEntity
 67
     1
  8
0
390
0
100
AcDbBlockBegin
  2
*PAPER_SPACE
 70
     0
 10
0.0
 20
0.0
 30
0.0
  3
*PAPER_SPACE
  1

  0
ENDBLK
  5
10
100
AcDbEntity
 67
     1
  8
0
390
0
100
AcDbBlockEnd
  0
ENDSEC
  0
SECTION
  2
ENTITIES
  0
LINE
  5
27
100
AcDbEntity
  8
0
390
0
  6
Continuous
 62
     7
100
AcDbLine
 10
18.130259
 20
-69.991294
 30
0.0
 11
18.130259
 21
-62.741849
 31
0.0
  0
LINE
  5
28
100
AcDbEntity
  8
0
390
0
  6
Continuous
 62
     7
100
AcDbLine
 10
27.885257
 20
-62.741849
 30
0.0
 11
27.885257
 21
-69.991294
 31
0.0
  0
ARC
  5
29
100
AcDbEntity
  8
0
390
0
  6
Continuous
 62
     7
100
AcDbCircle
 10
22.81276
 20
-53.251109
 30
0.0
 40
17.491827
210
0.0
220
0.0
230
1.0
100
AcDbArc
 50
270.638743
 51
286.857502
  0
ARC
  5
2A
100
AcDbEntity
  8
0
390
0
  6
Continuous
 62
     7
100
AcDbCircle
 10
23.145701
 20
-53.621883
 30
0.0
 40
17.120522
210
0.0
220
0.0
230
1.0
100
AcDbArc
 50
252.965401
 51
269.538354
  0
LINE
  5
2B
100
AcDbEntity
  8
0
390
0
  6
Continuous
 62
     7
100
AcDbLine
 10
18.130259
 20
-62.741849
 30
0.0
 11
27.885257
 21
-62.741849
 31
0.0
  0
ARC
  5
2C
100
AcDbEntity
  8
0
390
0
  6
Continuous
 62
     7
100
AcDbCircle
 10
15.475919
 20
-65.850106
 30
0.0
 40
4.894718
210
0.0
220
0.0
230
0.9999999999999999
100
AcDbArc
 50
271.997657
 51
302.215134
  0
LINE
  5
2D
100
AcDbEntity
  8
0
390
0
  6
Continuous
 62
     7
100
AcDbLine
 10
18.085292
 20
-69.991294
 30
0.0
 11
18.130259
 21
-69.991294
 31
0.0
  0
LINE
  5
2E
100
AcDbEntity
  8
0
390
0
  6
Continuous
 62
     7
100
AcDbLine
 10
15.646542
 20
-70.741849
 30
0.0
 11
23.007758
 21
-70.741849
 31
0.0
  0
LINE
  5
2F
100
AcDbEntity
  8
0
390
0
  6
Continuous
 62
     7
100
AcDbLine
 10
27.885257
 20
-69.991294
 30
0.0
 11
27.930224
 21
-69.991294
 31
0.0
  0
ARC
  5
30
100
AcDbEntity
  8
0
390
0
  6
Continuous
 62
     7
100
AcDbCircle
 10
30.48874
 20
-66.015354
 30
0.0
 40
4.728012
210
0.0
220
0.0
230
1.0
100
AcDbArc
 50
237.238733
 51
268.548476
  0
LINE
  5
31
100
AcDbEntity
  8
0
390
0
  6
Continuous
 62
     7
100
AcDbLine
 10
23.007758
 20
-70.741849
 30
0.0
 11
30.368974
 21
-70.741849
 31
0.0
  0
LINE
  5
32
100
AcDbEntity
  8
0
390
0
  6
Continuous
 62
     7
100
AcDbLine
 10
18.085292
 20
-62.741849
 30
0.0
 11
18.085292
 21
-69.991294
 31
0.0
  0
LINE
  5
33
100
AcDbEntity
  8
0
390
0
  6
Continuous
 62
     7
100
AcDbLine
 10
18.085292
 20
-62.741849
 30
0.0
 11
18.130259
 21
-62.741849
 31
0.0
  0
LINE
  5
34
100
AcDbEntity
  8
0
390
0
  6
Continuous
 62
     7
100
AcDbLine
 10
27.930224
 20
-69.991294
 30
0.0
 11
27.930224
 21
-62.741849
 31
0.0
  0
LINE
  5
35
100
AcDbEntity
  8
0
390
0
  6
Continuous
 62
     7
100
AcDbLine
 10
27.885257
 20
-62.741849
 30
0.0
 11
27.930224
 21
-62.741849
 31
0.0
  0
LINE
  5
36
100
AcDbEntity
  8
0
390
0
  6
Continuous
 62
     7
100
AcDbLine
 10
32.807724
 20
-62.741849
 30
0.0
 11
32.807724
 21
-69.991294
 31
0.0
  0
ARC
  5
37
100
AcDbEntity
  8
0
390
0
  6
Continuous
 62
     7
100
AcDbCircle
 10
30.198351
 20
-65.850106
 30
0.0
 40
4.894718
210
0.0
220
0.0
230
1.0
100
AcDbArc
 50
271.997657
 51
302.215134
  0
LINE
  5
38
100
AcDbEntity
  8
0
390
0
  6
Continuous
 62
     7
100
AcDbLine
 10
27.930224
 20
-62.741849
 30
0.0
 11
32.807724
 21
-62.741849
 31
0.0
  0
LINE
  5
39
100
AcDbEntity
  8
0
390
0
  6
Continuous
 62
     7
100
AcDbLine
 10
13.207792
 20
-69.991294
 30
0.0
 11
13.207792
 21
-62.741849
 31
0.0
  0
ARC
  5
3A
100
AcDbEntity
  8
0
390
0
  6
Continuous
 62
     7
100
AcDbCircle
 10
15.816725
 20
-65.851536
 30
0.0
 40
4.893274
210
0.0
220
0.0
230
1.0
100
AcDbArc
 50
237.780302
 51
268.006908
  0
LINE
  5
3B
100
AcDbEntity
  8
0
390
0
  6
Continuous
 62
     7
100
AcDbLine
 10
13.207792
 20
-62.741849
 30
0.0
 11
18.085292
 21
-62.741849
 31
0.0
  0
LINE
  5
3C
100
AcDbEntity
  8
0
390
0
  6
Continuous
 62
     7
100
AcDbLine
 10
30.368974
 20
-70.741849
 30
0.0
 11
31.507758
 21
-70.741849
 31
0.0
  0
LINE
  5
3D
100
AcDbEntity
  8
0
390
0
  6
Continuous
 62
     7
100
AcDbLine
 10
14.507758
 20
-70.741849
 30
0.0
 11
15.646542
 21
-70.741849
 31
0.0
  0
LINE
  5
3E
100
AcDbEntity
  8
0
390
0
  6
Continuous
 62
     7
100
AcDbLine
 10
-27.869741
 20
-69.991294
 30
0.0
 11
-27.869741
 21
-62.741849
 31
0.0
  0
LINE
  5
3F
100
AcDbEntity
  8
0
390
0
  6
Continuous
 62
     7
100
AcDbLine
 10
-18.114743
 20
-62.741849
 30
0.0
 11
-18.114743
 21
-69.991294
 31
0.0
  0
ARC
  5
40
100
AcDbEntity
  8
0
390
0
  6
Continuous
 62
     7
100
AcDbCircle
 10
-23.18724
 20
-53.251109
 30
0.0
 40
17.491827
210
0.0
220
0.0
230
1.0
100
AcDbArc
 50
270.638743
 51
286.857502
  0
ARC
  5
41
100
AcDbEntity
  8
0
390
0
  6
Continuous
 62
     7
100
AcDbCircle
 10
-22.854299
 20
-53.621883
 30
0.0
 40
17.120522
210
0.0
220
0.0
230
1.0
100
AcDbArc
 50
252.965401
 51
269.538354
  0
LINE
  5
42
100
AcDbEntity
  8
0
390
0
  6
Continuous
 62
     7
100
AcDbLine
 10
-27.869741
 20
-62.741849
 30
0.0
 11
-18.114743
 21
-62.741849
 31
0.0
  0
ARC
  5
43
100
AcDbEntity
  8
0
390
0
  6
Continuous
 62
     7
100
AcDbCircle
 10
-30.524081
 20
-65.850106
 30
0.0
 40
4.894718
210
0.0
220
0.0
230
1.0
100
AcDbArc
 50
271.997657
 51
302.215134
  0
LINE
  5
44
100
AcDbEntity
  8
0
390
0
  6
Continuous
 62
     7
100
AcDbLine
 10
-27.914708
 20
-69.991294
 30
0.0
 11
-27.869741
 21
-69.991294
 31
0.0
  0
LINE
  5
45
100
AcDbEntity
  8
0
390
0
  6
Continuous
 62
     7
100
AcDbLine
 10
-30.353458
 20
-70.741849
 30
0.0
 11
-22.992242
 21
-70.741849
 31
0.0
  0
LINE
  5
46
100
AcDbEntity
  8
0
390
0
  6
Continuous
 62
     7
100
AcDbLine
 10
-18.114743
 20
-69.991294
 30
0.0
 11
-18.069776
 21
-69.991294
 31
0.0
  0
ARC
  5
47
100
AcDbEntity
  8
0
390
0
  6
Continuous
 62
     7
100
AcDbCircle
 10
-15.51126
 20
-66.015354
 30
0.0
 40
4.728012
210
0.0
220
0.0
230
1.0
100
AcDbArc
 50
237.238733
 51
268.548476
  0
LINE
  5
48
100
AcDbEntity
  8
0
390
0
  6
Continuous
 62
     7
100
AcDbLine
 10
-22.992242
 20
-70.741849
 30
0.0
 11
-15.631026
 21
-70.741849
 31
0.0
  0
LINE
  5
49
100
AcDbEntity
  8
0
390
0
  6
Continuous
 62
     7
100
AcDbLine
 10
-27.914708
 20
-62.741849
 30
0.0
 11
-27.914708
 21
-69.991294
 31
0.0
  0
LINE
  5
4A
100
AcDbEntity
  8
0
390
0
  6
Continuous
 62
     7
100
AcDbLine
 10
-27.914708
 20
-62.741849
 30
0.0
 11
-27.869741
 21
-62.741849
 31
0.0
  0
LINE
  5
4B
100
AcDbEntity
  8
0
390
0
  6
Continuous
 62
     7
100
AcDbLine
 10
-18.069776
 20
-69.991294
 30
0.0
 11
-18.069776
 21
-62.741849
 31
0.0
  0
LINE
  5
4C
100
AcDbEntity
  8
0
390
0
  6
Continuous
 62
     7
100
AcDbLine
 10
-18.114743
 20
-62.741849
 30
0.0
 11
-18.069776
 21
-62.741849
 31
0.0
  0
LINE
  5
4D
100
AcDbEntity
  8
0
390
0
  6
Continuous
 62
     7
100
AcDbLine
 10
-13.192276
 20
-62.741849
 30
0.0
 11
-13.192276
 21
-69.991294
 31
0.0
  0
ARC
  5
4E
100
AcDbEntity
  8
0
390
0
  6
Continuous
 62
     7
100
AcDbCircle
 10
-15.801649
 20
-65.850106
 30
0.0
 40
4.894718
210
0.0
220
0.0
230
1.0
100
AcDbArc
 50
271.997657
 51
302.215134
  0
LINE
  5
4F
100
AcDbEntity
  8
0
390
0
  6
Continuous
 62
     7
100
AcDbLine
 10
-18.069776
 20
-62.741849
 30
0.0
 11
-13.192276
 21
-62.741849
 31
0.0
  0
LINE
  5
50
100
AcDbEntity
  8
0
390
0
  6
Continuous
 62
     7
100
AcDbLine
 10
-32.792208
 20
-69.991294
 30
0.0
 11
-32.792208
 21
-62.741849
 31
0.0
  0
ARC
  5
51
100
AcDbEntity
  8
0
390
0
  6
Continuous
 62
     7
100
AcDbCircle
 10
-30.183275
 20
-65.851536
 30
0.0
 40
4.893274
210
0.0
220
0.0
230
1.0
100
AcDbArc
 50
237.780302
 51
268.006908
  0
LINE
  5
52
100
AcDbEntity
  8
0
390
0
  6
Continuous
 62
     7
100
AcDbLine
 10
-32.792208
 20
-62.741849
 30
0.0
 11
-27.914708
 21
-62.741849
 31
0.0
  0
LINE
  5
53
100
AcDbEntity
  8
0
390
0
  6
Continuous
 62
     7
100
AcDbLine
 10
-15.631026
 20
-70.741849
 30
0.0
 11
-14.492242
 21
-70.741849
 31
0.0
  0
LINE
  5
54
100
AcDbEntity
  8
0
390
0
  6
Continuous
 62
     7
100
AcDbLine
 10
-31.492242
 20
-70.741849
 30
0.0
 11
-30.353458
 21
-70.741849
 31
0.0
  0
LINE
  5
55
100
AcDbEntity
  8
0
390
0
  6
Continuous
 62
     7
100
AcDbLine
 10
-18.392242
 20
-90.741849
 30
0.0
 11
-27.592242
 21
-90.741849
 31
0.0
  0
LINE
  5
56
100
AcDbEntity
  8
0
390
0
  6
Continuous
 62
     7
100
AcDbLine
 10
-18.392242
 20
-24.741849
 30
0.0
 11
-27.592242
 21
-24.741849
 31
0.0
  0
LINE
  5
57
100
AcDbEntity
  8
0
390
0
  6
Continuous
 62
     7
100
AcDbLine
 10
27.607758
 20
-90.741849
 30
0.0
 11
18.407758
 21
-90.741849
 31
0.0
  0
LINE
  5
58
100
AcDbEntity
  8
0
390
0
  6
Continuous
 62
     7
100
AcDbLine
 10
27.607758
 20
-24.741849
 30
0.0
 11
18.407758
 21
-24.741849
 31
0.0
  0
POLYLINE
  5
59
100
AcDbEntity
  8
0
390
0
  6
Continuous
 62
     7
100
AcDb2dPolyline
 66
     1
 10
0.0
 20
0.0
 30
0.0
 40
0.1
 41
0.1
  0
VERTEX
  5
5A
100
AcDbEntity
  8
0
390
0
 62
     7
100
AcDbVertex
100
AcDb2dVertex
 10
18.257758
 20
-15.441849
 30
0.0
  0
VERTEX
  5
5B
100
AcDbEntity
  8
0
390
0
 62
     7
100
AcDbVertex
100
AcDb2dVertex
 10
18.257758
 20
0.008151
 30
0.0
 42
1.0
  0
VERTEX
  5
5C
100
AcDbEntity
  8
0
390
0
 62
     7
100
AcDbVertex
100
AcDb2dVertex
 10
-18.242242
 20
0.008151
 30
0.0
  0
VERTEX
  5
5D
100
AcDbEntity
  8
0
390
0
 62
     7
100
AcDbVertex
100
AcDb2dVertex
 10
-18.242242
 20
-15.441849
 30
0.0
  0
SEQEND
  5
5E
100
AcDbEntity
  8
0
390
0
  0
POLYLINE
  5
5F
100
AcDbEntity
  8
0
390
0
  6
Continuous
 62
     7
100
AcDb2dPolyline
 66
     1
 10
0.0
 20
0.0
 30
0.0
 40
0.1
 41
0.1
  0
VERTEX
  5
60
100
AcDbEntity
  8
0
390
0
 62
     7
100
AcDbVertex
100
AcDb2dVertex
 10
-16.242242
 20
-15.441849
 30
0.0
  0
VERTEX
  5
61
100
AcDbEntity
  8
0
390
0
 62
     7
100
AcDbVertex
100
AcDb2dVertex
 10
-16.242242
 20
0.008151
 30
0.0
 42
-1.0
  0
VERTEX
  5
62
100
AcDbEntity
  8
0
390
0
 62
     7
100
AcDbVertex
100
AcDb2dVertex
 10
16.257758
 20
0.008151
 30
0.0
  0
VERTEX
  5
63
100
AcDbEntity
  8
0
390
0
 62
     7
100
AcDbVertex
100
AcDb2dVertex
 10
16.257758
 20
-15.441849
 30
0.0
  0
SEQEND
  5
64
100
AcDbEntity
  8
0
390
0
  0
LINE
  5
65
100
AcDbEntity
  8
0
390
0
  6
Continuous
 62
     7
100
AcDbLine
 10
-18.242242
 20
-15.441849
 30
0.0
 11
-16.242242
 21
-15.441849
 31
0.0
  0
LINE
  5
66
100
AcDbEntity
  8
0
390
0
  6
Continuous
 62
     7
100
AcDbLine
 10
16.257758
 20
-15.441849
 30
0.0
 11
18.257758
 21
-15.441849
 31
0.0
  0
LINE
  5
67
100
AcDbEntity
  8
0
390
0
  6
Continuous
 62
     7
100
AcDbLine
 10
28.607758
 20
-15.441849
 30
0.0
 11
18.229907
 21
-15.441849
 31
0.0
  0
LINE
  5
68
100
AcDbEntity
  8
0
390
0
  6
Continuous
 62
     7
100
AcDbLine
 10
-18.23291
 20
-15.441849
 30
0.0
 11
-28.592242
 21
-15.441849
 31
0.0
  0
LINE
  5
69
100
AcDbEntity
  8
0
390
0
  6
Continuous
 62
     7
100
AcDbLine
 10
31.507758
 20
-70.741849
 30
0.0
 11
32.807758
 21
-69.991294
 31
0.0
  0
LINE
  5
6A
100
AcDbEntity
  8
0
390
0
  6
Continuous
 62
     7
100
AcDbLine
 10
32.807758
 20
-69.991294
 30
0.0
 11
32.822713
 21
-69.98266
 31
0.0
  0
LINE
  5
6B
100
AcDbEntity
  8
0
390
0
  6
Continuous
 62
     7
100
AcDbLine
 10
13.207758
 20
-69.991294
 30
0.0
 11
14.507758
 21
-70.741849
 31
0.0
  0
LINE
  5
6C
100
AcDbEntity
  8
0
390
0
  6
Continuous
 62
     7
100
AcDbLine
 10
32.807758
 20
-69.991294
 30
0.0
 11
32.807758
 21
-62.741849
 31
0.0
  0
LINE
  5
6D
100
AcDbEntity
  8
0
390
0
  6
Continuous
 62
     7
100
AcDbLine
 10
13.207758
 20
-62.741849
 30
0.0
 11
13.207758
 21
-69.991294
 31
0.0
  0
LINE
  5
6E
100
AcDbEntity
  8
0
390
0
  6
Continuous
 62
     7
100
AcDbLine
 10
-14.492242
 20
-70.741849
 30
0.0
 11
-13.192242
 21
-69.991294
 31
0.0
  0
LINE
  5
6F
100
AcDbEntity
  8
0
390
0
  6
Continuous
 62
     7
100
AcDbLine
 10
-13.192242
 20
-69.991294
 30
0.0
 11
-13.177287
 21
-69.98266
 31
0.0
  0
LINE
  5
70
100
AcDbEntity
  8
0
390
0
  6
Continuous
 62
     7
100
AcDbLine
 10
-32.792242
 20
-69.991294
 30
0.0
 11
-31.492242
 21
-70.741849
 31
0.0
  0
LINE
  5
71
100
AcDbEntity
  8
0
390
0
  6
Continuous
 62
     7
100
AcDbLine
 10
-13.192242
 20
-69.991294
 30
0.0
 11
-13.192242
 21
-62.741849
 31
0.0
  0
LINE
  5
72
100
AcDbEntity
  8
0
390
0
  6
Continuous
 62
     7
100
AcDbLine
 10
-32.792242
 20
-62.741849
 30
0.0
 11
-32.792242
 21
-69.991294
 31
0.0
  0
LINE
  5
73
100
AcDbEntity
  8
0
390
0
  6
Continuous
 62
     7
100
AcDbLine
 10
-18.392242
 20
-90.741849
 30
0.0
 11
-18.392242
 21
-70.741849
 31
0.0
  0
LINE
  5
74
100
AcDbEntity
  8
0
390
0
  6
Continuous
 62
     7
100
AcDbLine
 10
-18.392242
 20
-62.741849
 30
0.0
 11
-18.392242
 21
-24.741849
 31
0.0
  0
LINE
  5
75
100
AcDbEntity
  8
0
390
0
  6
Continuous
 62
     7
100
AcDbLine
 10
-27.592242
 20
-24.741849
 30
0.0
 11
-27.592242
 21
-62.741849
 31
0.0
  0
LINE
  5
76
100
AcDbEntity
  8
0
390
0
  6
Continuous
 62
     7
100
AcDbLine
 10
-27.592242
 20
-70.741849
 30
0.0
 11
-27.592242
 21
-90.741849
 31
0.0
  0
LINE
  5
77
100
AcDbEntity
  8
0
390
0
  6
Continuous
 62
     7
100
AcDbLine
 10
27.607758
 20
-90.741849
 30
0.0
 11
27.607758
 21
-70.741849
 31
0.0
  0
LINE
  5
78
100
AcDbEntity
  8
0
390
0
  6
Continuous
 62
     7
100
AcDbLine
 10
27.607758
 20
-62.741849
 30
0.0
 11
27.607758
 21
-24.741849
 31
0.0
  0
LINE
  5
79
100
AcDbEntity
  8
0
390
0
  6
Continuous
 62
     7
100
AcDbLine
 10
18.407758
 20
-24.741849
 30
0.0
 11
18.407758
 21
-62.741849
 31
0.0
  0
LINE
  5
7A
100
AcDbEntity
  8
0
390
0
  6
Continuous
 62
     7
100
AcDbLine
 10
18.407758
 20
-70.741849
 30
0.0
 11
18.407758
 21
-90.741849
 31
0.0
  0
LINE
  5
7B
100
AcDbEntity
  8
0
390
0
  6
Continuous
 62
     7
100
AcDbLine
 10
-18.892242
 20
-24.741849
 30
0.0
 11
-18.892242
 21
-15.441849
 31
0.0
  0
LINE
  5
7C
100
AcDbEntity
  8
0
390
0
  6
Continuous
 62
     7
100
AcDbLine
 10
-27.092242
 20
-15.441849
 30
0.0
 11
-27.092242
 21
-24.741849
 31
0.0
  0
LINE
  5
7D
100
AcDbEntity
  8
0
390
0
  6
Continuous
 62
     7
100
AcDbLine
 10
27.107758
 20
-24.741849
 30
0.0
 11
27.107758
 21
-15.441849
 31
0.0
  0
LINE
  5
7E
100
AcDbEntity
  8
0
390
0
  6
Continuous
 62
     7
100
AcDbLine
 10
18.907758
 20
-15.441849
 30
0.0
 11
18.907758
 21
-24.741849
 31
0.0
  0
POLYLINE
  5
7F
100
AcDbEntity
  8
0
390
0
  6
Continuous
 62
     7
100
AcDb2dPolyline
 66
     1
 10
0.0
 20
0.0
 30
0.0
 40
0.1
 41
0.1
  0
VERTEX
  5
80
100
AcDbEntity
  8
0
390
0
 62
     7
100
AcDbVertex
100
AcDb2dVertex
 10
28.607758
 20
-15.441849
 30
0.0
  0
VERTEX
  5
81
100
AcDbEntity
  8
0
390
0
 62
     7
100
AcDbVertex
100
AcDb2dVertex
 10
28.607758
 20
-0.091781
 30
0.0
  0
VERTEX
  5
82
100
AcDbEntity
  8
0
390
0
 62
     7
100
AcDbVertex
100
AcDb2dVertex
 10
28.595024
 20
0.856964
 30
0.0
 42
1.001545
  0
VERTEX
  5
83
100
AcDbEntity
  8
0
390
0
 62
     7
100
AcDbVertex
100
AcDb2dVertex
 10
-28.592242
 20
-0.945251
 30
0.0
  0
VERTEX
  5
84
100
AcDbEntity
  8
0
390
0
 62
     7
100
AcDbVertex
100
AcDb2dVertex
 10
-28.592242
 20
-15.441849
 30
0.0
  0
SEQEND
  5
85
100
AcDbEntity
  8
0
390
0
  0
CIRCLE
  5
86
100
AcDbEntity
  8
0
390
0
  6
Continuous
 62
     7
100
AcDbCircle
 10
-22.992242
 20
-173.142919
 30
0.0
 40
4.25
210
0.0
220
0.0
230
1.0
  0
CIRCLE
  5
87
100
AcDbEntity
  8
0
390
0
  6
Continuous
 62
     7
100
AcDbCircle
 10
23.007758
 20
-173.142919
 30
0.0
 40
4.25
210
0.0
220
0.0
230
1.0
  0
LINE
  5
88
100
AcDbEntity
  8
0
390
0
  6
Continuous
 62
     7
100
AcDbLine
 10
18.085292
 20
-164.668881
 30
0.0
 11
15.646542
 21
-168.892919
 31
0.0
  0
ARC
  5
89
100
AcDbEntity
  8
0
390
0
  6
Continuous
 62
     7
100
AcDbCircle
 10
23.007758
 20
-173.142919
 30
0.0
 40
9.8
210
0.0
220
0.0
230
1.0
100
AcDbArc
 50
119.848215
 51
120.151785
  0
LINE
  5
8A
100
AcDbEntity
  8
0
390
0
  6
Continuous
 62
     7
100
AcDbLine
 10
23.007758
 20
-164.642919
 30
0.0
 11
18.130259
 21
-164.642919
 31
0.0
  0
ARC
  5
8B
100
AcDbEntity
  8
0
390
0
  6
Continuous
 62
     7
100
AcDbCircle
 10
23.007758
 20
-173.142919
 30
0.0
 40
8.5
210
0.0
220
0.0
230
1.0
100
AcDbArc
 50
90.0
 51
150.0
  0
LINE
  5
8C
100
AcDbEntity
  8
0
390
0
  6
Continuous
 62
     7
100
AcDbLine
 10
32.807724
 20
-173.116957
 30
0.0
 11
30.368974
 21
-168.892919
 31
0.0
  0
ARC
  5
8D
100
AcDbEntity
  8
0
390
0
  6
Continuous
 62
     7
100
AcDbCircle
 10
23.007758
 20
-173.142919
 30
0.0
 40
9.8
210
0.0
220
0.0
230
1.0
100
AcDbArc
 50
359.848215
 51
0.151785
  0
LINE
  5
8E
100
AcDbEntity
  8
0
390
0
  6
Continuous
 62
     7
100
AcDbLine
 10
30.368974
 20
-177.392919
 30
0.0
 11
32.807724
 21
-173.168881
 31
0.0
  0
ARC
  5
8F
100
AcDbEntity
  8
0
390
0
  6
Continuous
 62
     7
100
AcDbCircle
 10
23.007758
 20
-173.142919
 30
0.0
 40
8.5
210
0.0
220
0.0
230
1.0
100
AcDbArc
 50
330.0
 51
30.0
  0
CIRCLE
  5
90
100
AcDbEntity
  8
0
390
0
  6
Continuous
 62
     7
100
AcDbCircle
 10
23.007758
 20
-173.142919
 30
0.0
 40
5.0
210
0.0
220
0.0
230
1.0
  0
ARC
  5
91
100
AcDbEntity
  8
0
390
0
  6
Continuous
 62
     7
100
AcDbCircle
 10
23.007758
 20
-173.142919
 30
0.0
 40
8.5
210
0.0
220
0.0
230
1.0
100
AcDbArc
 50
270.0
 51
330.0
  0
ARC
  5
92
100
AcDbEntity
  8
0
390
0
  6
Continuous
 62
     7
100
AcDbCircle
 10
23.007758
 20
-173.142919
 30
0.0
 40
8.5
210
0.0
220
0.0
230
1.0
100
AcDbArc
 50
210.0
 51
270.0
  0
ARC
  5
93
100
AcDbEntity
  8
0
390
0
  6
Continuous
 62
     7
100
AcDbCircle
 10
23.007758
 20
-173.142919
 30
0.0
 40
8.5
210
0.0
220
0.0
230
1.0
100
AcDbArc
 50
150.0
 51
210.0
  0
ARC
  5
94
100
AcDbEntity
  8
0
390
0
  6
Continuous
 62
     7
100
AcDbCircle
 10
23.007758
 20
-173.142919
 30
0.0
 40
8.5
210
0.0
220
0.0
230
1.0
100
AcDbArc
 50
30.0
 51
90.0
  0
ARC
  5
95
100
AcDbEntity
  8
0
390
0
  6
Continuous
 62
     7
100
AcDbCircle
 10
23.007758
 20
-173.142919
 30
0.0
 40
9.8
210
0.0
220
0.0
230
0.9999999999999999
100
AcDbArc
 50
59.848215
 51
60.151785
  0
LINE
  5
96
100
AcDbEntity
  8
0
390
0
  6
Continuous
 62
     7
100
AcDbLine
 10
30.368974
 20
-168.892919
 30
0.0
 11
27.930224
 21
-164.668881
 31
0.0
  0
LINE
  5
97
100
AcDbEntity
  8
0
390
0
  6
Continuous
 62
     7
100
AcDbLine
 10
27.885257
 20
-164.642919
 30
0.0
 11
23.007758
 21
-164.642919
 31
0.0
  0
ARC
  5
98
100
AcDbEntity
  8
0
390
0
  6
Continuous
 62
     7
100
AcDbCircle
 10
23.007758
 20
-173.142919
 30
0.0
 40
9.8
210
0.0
220
0.0
230
1.0
100
AcDbArc
 50
299.848215
 51
300.151785
  0
LINE
  5
99
100
AcDbEntity
  8
0
390
0
  6
Continuous
 62
     7
100
AcDbLine
 10
23.007758
 20
-181.642919
 30
0.0
 11
27.885257
 21
-181.642919
 31
0.0
  0
LINE
  5
9A
100
AcDbEntity
  8
0
390
0
  6
Continuous
 62
     7
100
AcDbLine
 10
27.930224
 20
-181.616957
 30
0.0
 11
30.368974
 21
-177.392919
 31
0.0
  0
ARC
  5
9B
100
AcDbEntity
  8
0
390
0
  6
Continuous
 62
     7
100
AcDbCircle
 10
23.007758
 20
-173.142919
 30
0.0
 40
9.8
210
0.0
220
0.0
230
1.0
100
AcDbArc
 50
179.848215
 51
180.151785
  0
LINE
  5
9C
100
AcDbEntity
  8
0
390
0
  6
Continuous
 62
     7
100
AcDbLine
 10
15.646542
 20
-168.892919
 30
0.0
 11
13.207792
 21
-173.116957
 31
0.0
  0
LINE
  5
9D
100
AcDbEntity
  8
0
390
0
  6
Continuous
 62
     7
100
AcDbLine
 10
13.207792
 20
-173.168881
 30
0.0
 11
15.646542
 21
-177.392919
 31
0.0
  0
ARC
  5
9E
100
AcDbEntity
  8
0
390
0
  6
Continuous
 62
     7
100
AcDbCircle
 10
23.007758
 20
-173.142919
 30
0.0
 40
9.8
210
0.0
220
0.0
230
1.0
100
AcDbArc
 50
239.848215
 51
240.151785
  0
LINE
  5
9F
100
AcDbEntity
  8
0
390
0
  6
Continuous
 62
     7
100
AcDbLine
 10
15.646542
 20
-177.392919
 30
0.0
 11
18.085292
 21
-181.616957
 31
0.0
  0
LINE
  5
A0
100
AcDbEntity
  8
0
390
0
  6
Continuous
 62
     7
100
AcDbLine
 10
18.130259
 20
-181.642919
 30
0.0
 11
23.007758
 21
-181.642919
 31
0.0
  0
CIRCLE
  5
A1
100
AcDbEntity
  8
0
390
0
  6
Continuous
 62
     7
100
AcDbCircle
 10
-22.992242
 20
-173.142919
 30
0.0
 40
5.0
210
0.0
220
0.0
230
1.0
  0
ARC
  5
A2
100
AcDbEntity
  8
0
390
0
  6
Continuous
 62
     7
100
AcDbCircle
 10
-22.992242
 20
-173.142919
 30
0.0
 40
8.5
210
0.0
220
0.0
230
1.0
100
AcDbArc
 50
270.0
 51
330.0
  0
ARC
  5
A3
100
AcDbEntity
  8
0
390
0
  6
Continuous
 62
     7
100
AcDbCircle
 10
-22.992242
 20
-173.142919
 30
0.0
 40
8.5
210
0.0
220
0.0
230
1.0
100
AcDbArc
 50
210.0
 51
270.0
  0
ARC
  5
A4
100
AcDbEntity
  8
0
390
0
  6
Continuous
 62
     7
100
AcDbCircle
 10
-22.992242
 20
-173.142919
 30
0.0
 40
8.5
210
0.0
220
0.0
230
1.0
100
AcDbArc
 50
150.0
 51
210.0
  0
ARC
  5
A5
100
AcDbEntity
  8
0
390
0
  6
Continuous
 62
     7
100
AcDbCircle
 10
-22.992242
 20
-173.142919
 30
0.0
 40
8.5
210
0.0
220
0.0
230
1.0
100
AcDbArc
 50
30.0
 51
90.0
  0
LINE
  5
A6
100
AcDbEntity
  8
0
390
0
  6
Continuous
 62
     7
100
AcDbLine
 10
-13.192276
 20
-173.116957
 30
0.0
 11
-15.631026
 21
-168.892919
 31
0.0
  0
ARC
  5
A7
100
AcDbEntity
  8
0
390
0
  6
Continuous
 62
     7
100
AcDbCircle
 10
-22.992242
 20
-173.142919
 30
0.0
 40
9.8
210
0.0
220
0.0
230
1.0
100
AcDbArc
 50
359.848215
 51
0.151785
  0
LINE
  5
A8
100
AcDbEntity
  8
0
390
0
  6
Continuous
 62
     7
100
AcDbLine
 10
-15.631026
 20
-177.392919
 30
0.0
 11
-13.192276
 21
-173.168881
 31
0.0
  0
ARC
  5
A9
100
AcDbEntity
  8
0
390
0
  6
Continuous
 62
     7
100
AcDbCircle
 10
-22.992242
 20
-173.142919
 30
0.0
 40
8.5
210
0.0
220
0.0
230
1.0
100
AcDbArc
 50
330.0
 51
30.0
  0
ARC
  5
AA
100
AcDbEntity
  8
0
390
0
  6
Continuous
 62
     7
100
AcDbCircle
 10
-22.992242
 20
-173.142919
 30
0.0
 40
9.8
210
0.0
220
0.0
230
0.9999999999999999
100
AcDbArc
 50
59.848215
 51
60.151785
  0
LINE
  5
AB
100
AcDbEntity
  8
0
390
0
  6
Continuous
 62
     7
100
AcDbLine
 10
-15.631026
 20
-168.892919
 30
0.0
 11
-18.069776
 21
-164.668881
 31
0.0
  0
LINE
  5
AC
100
AcDbEntity
  8
0
390
0
  6
Continuous
 62
     7
100
AcDbLine
 10
-18.114743
 20
-164.642919
 30
0.0
 11
-22.992242
 21
-164.642919
 31
0.0
  0
LINE
  5
AD
100
AcDbEntity
  8
0
390
0
  6
Continuous
 62
     7
100
AcDbLine
 10
-27.914708
 20
-164.668881
 30
0.0
 11
-30.353458
 21
-168.892919
 31
0.0
  0
ARC
  5
AE
100
AcDbEntity
  8
0
390
0
  6
Continuous
 62
     7
100
AcDbCircle
 10
-22.992242
 20
-173.142919
 30
0.0
 40
9.8
210
0.0
220
0.0
230
0.9999999999999999
100
AcDbArc
 50
119.848215
 51
120.151785
  0
LINE
  5
AF
100
AcDbEntity
  8
0
390
0
  6
Continuous
 62
     7
100
AcDbLine
 10
-22.992242
 20
-164.642919
 30
0.0
 11
-27.869741
 21
-164.642919
 31
0.0
  0
ARC
  5
B0
100
AcDbEntity
  8
0
390
0
  6
Continuous
 62
     7
100
AcDbCircle
 10
-22.992242
 20
-173.142919
 30
0.0
 40
8.5
210
0.0
220
0.0
230
1.0
100
AcDbArc
 50
90.0
 51
150.0
  0
ARC
  5
B1
100
AcDbEntity
  8
0
390
0
  6
Continuous
 62
     7
100
AcDbCircle
 10
-22.992242
 20
-173.142919
 30
0.0
 40
9.8
210
0.0
220
0.0
230
1.0
100
AcDbArc
 50
179.848215
 51
180.151785
  0
LINE
  5
B2
100
AcDbEntity
  8
0
390
0
  6
Continuous
 62
     7
100
AcDbLine
 10
-30.353458
 20
-168.892919
 30
0.0
 11
-32.792208
 21
-173.116957
 31
0.0
  0
LINE
  5
B3
100
AcDbEntity
  8
0
390
0
  6
Continuous
 62
     7
100
AcDbLine
 10
-32.792208
 20
-173.168881
 30
0.0
 11
-30.353458
 21
-177.392919
 31
0.0
  0
ARC
  5
B4
100
AcDbEntity
  8
0
390
0
  6
Continuous
 62
     7
100
AcDbCircle
 10
-22.992242
 20
-173.142919
 30
0.0
 40
9.8
210
0.0
220
0.0
230
1.0
100
AcDbArc
 50
299.848215
 51
300.151785
  0
LINE
  5
B5
100
AcDbEntity
  8
0
390
0
  6
Continuous
 62
     7
100
AcDbLine
 10
-22.992242
 20
-181.642919
 30
0.0
 11
-18.114743
 21
-181.642919
 31
0.0
  0
LINE
  5
B6
100
AcDbEntity
  8
0
390
0
  6
Continuous
 62
     7
100
AcDbLine
 10
-18.069776
 20
-181.616957
 30
0.0
 11
-15.631026
 21
-177.392919
 31
0.0
  0
ARC
  5
B7
100
AcDbEntity
  8
0
390
0
  6
Continuous
 62
     7
100
AcDbCircle
 10
-22.992242
 20
-173.142919
 30
0.0
 40
9.8
210
0.0
220
0.0
230
1.0
100
AcDbArc
 50
239.848215
 51
240.151785
  0
LINE
  5
B8
100
AcDbEntity
  8
0
390
0
  6
Continuous
 62
     7
100
AcDbLine
 10
-30.353458
 20
-177.392919
 30
0.0
 11
-27.914708
 21
-181.616957
 31
0.0
  0
LINE
  5
B9
100
AcDbEntity
  8
0
390
0
  6
Continuous
 62
     7
100
AcDbLine
 10
-27.869741
 20
-181.642919
 30
0.0
 11
-22.992242
 21
-181.642919
 31
0.0
  0
CIRCLE
  5
BA
100
AcDbEntity
  8
0
390
0
  6
Continuous
 62
     7
100
AcDbCircle
 10
23.007758
 20
-173.142919
 30
0.0
 40
4.6
210
0.0
220
0.0
230
0.9999999999999999
  0
CIRCLE
  5
BB
100
AcDbEntity
  8
0
390
0
  6
Continuous
 62
     7
100
AcDbCircle
 10
-22.992242
 20
-173.142919
 30
0.0
 40
4.6
210
0.0
220
0.0
230
0.9999999999999999
  0
LINE
  5
BC
100
AcDbEntity
  8
0
390
0
  6
Continuous
 62
     7
100
AcDbLine
 10
-18.242242
 20
-181.642919
 30
0.0
 11
-18.242242
 21
-185.642919
 31
0.0
  0
LINE
  5
BD
100
AcDbEntity
  8
0
390
0
  6
Continuous
 62
     7
100
AcDbLine
 10
18.257758
 20
-164.642919
 30
0.0
 11
18.257758
 21
-160.642919
 31
0.0
  0
LINE
  5
BE
100
AcDbEntity
  8
0
390
0
  6
Continuous
 62
     7
100
AcDbLine
 10
18.257758
 20
-185.642919
 30
0.0
 11
18.257758
 21
-181.642919
 31
0.0
  0
LINE
  5
BF
100
AcDbEntity
  8
0
390
0
  6
Continuous
 62
     7
100
AcDbLine
 10
-18.242242
 20
-160.642919
 30
0.0
 11
-18.242242
 21
-164.642919
 31
0.0
  0
LINE
  5
C0
100
AcDbEntity
  8
0
390
0
  6
Continuous
 62
     7
100
AcDbLine
 10
16.257758
 20
-160.642919
 30
0.0
 11
18.257758
 21
-160.642919
 31
0.0
  0
LINE
  5
C1
100
AcDbEntity
  8
0
390
0
  6
Continuous
 62
     7
100
AcDbLine
 10
16.257758
 20
-185.642919
 30
0.0
 11
18.257758
 21
-185.642919
 31
0.0
  0
LINE
  5
C2
100
AcDbEntity
  8
0
390
0
  6
Continuous
 62
     7
100
AcDbLine
 10
16.257758
 20
-185.642919
 30
0.0
 11
16.257758
 21
-178.451576
 31
0.0
  0
LINE
  5
C3
100
AcDbEntity
  8
0
390
0
  6
Continuous
 62
     7
100
AcDbLine
 10
16.257758
 20
-167.834262
 30
0.0
 11
16.257758
 21
-160.642919
 31
0.0
  0
LINE
  5
C4
100
AcDbEntity
  8
0
390
0
  6
Continuous
 62
     7
100
AcDbLine
 10
-18.242242
 20
-185.642919
 30
0.0
 11
-16.242242
 21
-185.642919
 31
0.0
  0
LINE
  5
C5
100
AcDbEntity
  8
0
390
0
  6
Continuous
 62
     7
100
AcDbLine
 10
-18.242242
 20
-160.642919
 30
0.0
 11
-16.242242
 21
-160.642919
 31
0.0
  0
LINE
  5
C6
100
AcDbEntity
  8
0
390
0
  6
Continuous
 62
     7
100
AcDbLine
 10
-16.242242
 20
-185.642919
 30
0.0
 11
-16.242242
 21
-178.451576
 31
0.0
  0
LINE
  5
C7
100
AcDbEntity
  8
0
390
0
  6
Continuous
 62
     7
100
AcDbLine
 10
-16.242242
 20
-167.834262
 30
0.0
 11
-16.242242
 21
-160.642919
 31
0.0
  0
LINE
  5
C8
100
AcDbEntity
  8
0
390
0
  6
Continuous
 62
     7
100
AcDbLine
 10
-16.242242
 20
-160.642919
 30
0.0
 11
16.257758
 21
-160.642919
 31
0.0
  0
LINE
  5
C9
100
AcDbEntity
  8
0
390
0
  6
Continuous
 62
     7
100
AcDbLine
 10
-16.242242
 20
-185.642919
 30
0.0
 11
16.257758
 21
-185.642919
 31
0.0
  0
LINE
  5
CA
100
AcDbEntity
  8
0
390
0
  6
Continuous
 62
     7
100
AcDbLine
 10
139.650827
 20
-69.991294
 30
0.0
 11
139.650827
 21
-62.741849
 31
0.0
  0
LINE
  5
CB
100
AcDbEntity
  8
0
390
0
  6
Continuous
 62
     7
100
AcDbLine
 10
148.098904
 20
-62.741849
 30
0.0
 11
148.098904
 21
-69.991294
 31
0.0
  0
ARC
  5
CC
100
AcDbEntity
  8
0
390
0
  6
Continuous
 62
     7
100
AcDbCircle
 10
143.69192
 20
-57.450775
 30
0.0
 40
13.292334
210
0.0
220
0.0
230
1.0
100
AcDbArc
 50
270.788602
 51
289.362475
  0
ARC
  5
CD
100
AcDbEntity
  8
0
390
0
  6
Continuous
 62
     7
100
AcDbCircle
 10
144.018255
 20
-57.673392
 30
0.0
 40
13.069244
210
0.0
220
0.0
230
1.0
100
AcDbArc
 50
250.477559
 51
269.371364
  0
LINE
  5
CE
100
AcDbEntity
  8
0
390
0
  6
Continuous
 62
     7
100
AcDbLine
 10
139.650827
 20
-62.741849
 30
0.0
 11
148.098904
 21
-62.741849
 31
0.0
  0
LINE
  5
CF
100
AcDbEntity
  8
0
390
0
  6
Continuous
 62
     7
100
AcDbLine
 10
148.098904
 20
-69.991294
 30
0.0
 11
148.150827
 21
-69.991294
 31
0.0
  0
ARC
  5
D0
100
AcDbEntity
  8
0
390
0
  6
Continuous
 62
     7
100
AcDbCircle
 10
152.55734
 20
-57.453429
 30
0.0
 40
13.289673
210
0.0
220
0.0
230
1.0
100
AcDbArc
 50
250.635649
 51
269.213274
  0
LINE
  5
D1
100
AcDbEntity
  8
0
390
0
  6
Continuous
 62
     7
100
AcDbLine
 10
143.874866
 20
-70.741849
 30
0.0
 11
152.374866
 21
-70.741849
 31
0.0
  0
LINE
  5
D2
100
AcDbEntity
  8
0
390
0
  6
Continuous
 62
     7
100
AcDbLine
 10
148.150827
 20
-69.991294
 30
0.0
 11
148.150827
 21
-62.741849
 31
0.0
  0
LINE
  5
D3
100
AcDbEntity
  8
0
390
0
  6
Continuous
 62
     7
100
AcDbLine
 10
148.098904
 20
-62.741849
 30
0.0
 11
148.150827
 21
-62.741849
 31
0.0
  0
LINE
  5
D4
100
AcDbEntity
  8
0
390
0
  6
Continuous
 62
     7
100
AcDbLine
 10
156.598904
 20
-62.741849
 30
0.0
 11
156.598904
 21
-69.991294
 31
0.0
  0
ARC
  5
D5
100
AcDbEntity
  8
0
390
0
  6
Continuous
 62
     7
100
AcDbCircle
 10
152.19192
 20
-57.450775
 30
0.0
 40
13.292334
210
0.0
220
0.0
230
1.0
100
AcDbArc
 50
270.788602
 51
289.362475
  0
LINE
  5
D6
100
AcDbEntity
  8
0
390
0
  6
Continuous
 62
     7
100
AcDbLine
 10
148.150827
 20
-62.741849
 30
0.0
 11
156.598904
 21
-62.741849
 31
0.0
  0
LINE
  5
D7
100
AcDbEntity
  8
0
390
0
  6
Continuous
 62
     7
100
AcDbLine
 10
139.624866
 20
-69.991294
 30
0.0
 11
139.624866
 21
-70.741849
 31
0.0
  0
LINE
  5
D8
100
AcDbEntity
  8
0
390
0
  6
Continuous
 62
     7
100
AcDbLine
 10
139.624866
 20
-69.991294
 30
0.0
 11
139.650827
 21
-69.991294
 31
0.0
  0
LINE
  5
D9
100
AcDbEntity
  8
0
390
0
  6
Continuous
 62
     7
100
AcDbLine
 10
139.624866
 20
-70.741849
 30
0.0
 11
143.874866
 21
-70.741849
 31
0.0
  0
LINE
  5
DA
100
AcDbEntity
  8
0
390
0
  6
Continuous
 62
     7
100
AcDbLine
 10
156.624866
 20
-70.741849
 30
0.0
 11
156.624866
 21
-69.991294
 31
0.0
  0
LINE
  5
DB
100
AcDbEntity
  8
0
390
0
  6
Continuous
 62
     7
100
AcDbLine
 10
156.598904
 20
-69.991294
 30
0.0
 11
156.624866
 21
-69.991294
 31
0.0
  0
LINE
  5
DC
100
AcDbEntity
  8
0
390
0
  6
Continuous
 62
     7
100
AcDbLine
 10
152.374866
 20
-70.741849
 30
0.0
 11
156.624866
 21
-70.741849
 31
0.0
  0
LINE
  5
DD
100
AcDbEntity
  8
0
390
0
  6
Continuous
 62
     7
100
AcDbLine
 10
139.624866
 20
-62.741849
 30
0.0
 11
139.624866
 21
-69.991294
 31
0.0
  0
LINE
  5
DE
100
AcDbEntity
  8
0
390
0
  6
Continuous
 62
     7
100
AcDbLine
 10
139.624866
 20
-62.741849
 30
0.0
 11
139.650827
 21
-62.741849
 31
0.0
  0
LINE
  5
DF
100
AcDbEntity
  8
0
390
0
  6
Continuous
 62
     7
100
AcDbLine
 10
156.624866
 20
-69.991294
 30
0.0
 11
156.624866
 21
-62.741849
 31
0.0
  0
LINE
  5
E0
100
AcDbEntity
  8
0
390
0
  6
Continuous
 62
     7
100
AcDbLine
 10
156.598904
 20
-62.741849
 30
0.0
 11
156.624866
 21
-62.741849
 31
0.0
  0
LINE
  5
E1
100
AcDbEntity
  8
0
390
0
  6
Continuous
 62
     7
100
AcDbLine
 10
152.724866
 20
-90.741849
 30
0.0
 11
148.124866
 21
-90.741849
 31
0.0
  0
LINE
  5
E2
100
AcDbEntity
  8
0
390
0
  6
Continuous
 62
     7
100
AcDbLine
 10
152.724866
 20
-24.741849
 30
0.0
 11
148.124866
 21
-24.741849
 31
0.0
  0
LINE
  5
E3
100
AcDbEntity
  8
0
390
0
  6
Continuous
 62
     7
100
AcDbLine
 10
148.124866
 20
-90.741849
 30
0.0
 11
143.524866
 21
-90.741849
 31
0.0
  0
LINE
  5
E4
100
AcDbEntity
  8
0
390
0
  6
Continuous
 62
     7
100
AcDbLine
 10
148.124866
 20
-24.741849
 30
0.0
 11
143.524866
 21
-24.741849
 31
0.0
  0
LINE
  5
E5
100
AcDbEntity
  8
0
390
0
  6
Continuous
 62
     7
100
AcDbLine
 10
160.624866
 20
18.258151
 30
0.0
 11
160.624866
 21
-15.441849
 31
0.0
  0
LINE
  5
E6
100
AcDbEntity
  8
0
390
0
  6
Continuous
 62
     7
100
AcDbLine
 10
160.624866
 20
-15.441849
 30
0.0
 11
152.225133
 21
-15.441849
 31
0.0
  0
LINE
  5
E7
100
AcDbEntity
  8
0
390
0
  6
Continuous
 62
     7
100
AcDbLine
 10
152.225133
 20
-15.441849
 30
0.0
 11
144.024647
 21
-15.441849
 31
0.0
  0
LINE
  5
E8
100
AcDbEntity
  8
0
390
0
  6
Continuous
 62
     7
100
AcDbLine
 10
144.024647
 20
-15.441849
 30
0.0
 11
135.624866
 21
-15.441849
 31
0.0
  0
LINE
  5
E9
100
AcDbEntity
  8
0
390
0
  6
Continuous
 62
     7
100
AcDbLine
 10
135.624866
 20
-15.441849
 30
0.0
 11
135.624866
 21
18.258151
 31
0.0
  0
LINE
  5
EA
100
AcDbEntity
  8
0
390
0
  6
Continuous
 62
     7
100
AcDbLine
 10
142.474856
 20
-15.441849
 30
0.0
 11
142.43685
 21
-15.441849
 31
0.0
  0
LINE
  5
EB
100
AcDbEntity
  8
0
390
0
  6
Continuous
 62
     7
100
AcDbLine
 10
152.724866
 20
-90.741849
 30
0.0
 11
152.724866
 21
-70.741849
 31
0.0
  0
LINE
  5
EC
100
AcDbEntity
  8
0
390
0
  6
Continuous
 62
     7
100
AcDbLine
 10
152.724866
 20
-62.741849
 30
0.0
 11
152.724866
 21
-24.741849
 31
0.0
  0
LINE
  5
ED
100
AcDbEntity
  8
0
390
0
  6
Continuous
 62
     7
100
AcDbLine
 10
143.524866
 20
-24.741849
 30
0.0
 11
143.524866
 21
-62.741849
 31
0.0
  0
LINE
  5
EE
100
AcDbEntity
  8
0
390
0
  6
Continuous
 62
     7
100
AcDbLine
 10
143.524866
 20
-70.741849
 30
0.0
 11
143.524866
 21
-90.741849
 31
0.0
  0
LINE
  5
EF
100
AcDbEntity
  8
0
390
0
  6
Continuous
 62
     7
100
AcDbLine
 10
152.224866
 20
-24.741849
 30
0.0
 11
152.224866
 21
-15.441849
 31
0.0
  0
LINE
  5
F0
100
AcDbEntity
  8
0
390
0
  6
Continuous
 62
     7
100
AcDbLine
 10
144.024866
 20
-15.441849
 30
0.0
 11
144.024866
 21
-24.741849
 31
0.0
  0
POINT
  5
F1
100
AcDbEntity
  8
0
390
0
 62
     7
100
AcDbPoint
 10
0.0
 20
0.0
 30
0.0
  0
POINT
  5
F2
100
AcDbEntity
  8
0
390
0
 62
     7
100
AcDbPoint
 10
0.0
 20
0.0
 30
0.0
  0
LINE
  5
F3
100
AcDbEntity
  8
0
390
0
  6
Continuous
 62
     7
100
AcDbLine
 10
135.624866
 20
18.258151
 30
0.0
 11
140.524866
 21
18.258151
 31
0.0
  0
ARC
  5
F4
100
AcDbEntity
  8
0
390
0
  6
Continuous
 62
     7
100
AcDbCircle
 10
140.524867
 20
20.25815
 30
0.0
 40
1.999999
210
0.0
220
0.0
230
1.0
100
AcDbArc
 50
269.999957
 51
0.000043
  0
LINE
  5
F5
100
AcDbEntity
  8
0
390
0
  6
Continuous
 62
     7
100
AcDbLine
 10
142.524866
 20
-15.441849
 30
0.0
 11
142.524866
 21
23.007862
 31
0.0
  0
ARC
  5
F6
100
AcDbEntity
  8
0
390
0
  6
Continuous
 62
     7
100
AcDbCircle
 10
148.124866
 20
23.007862
 30
0.0
 40
5.6
210
0.0
220
0.0
230
1.0
100
AcDbArc
 50
360.0
 51
180.0
  0
LINE
  5
F7
100
AcDbEntity
  8
0
390
0
  6
Continuous
 62
     7
100
AcDbLine
 10
153.724866
 20
23.007862
 30
0.0
 11
153.724866
 21
-15.441849
 31
0.0
  0
ARC
  5
F8
100
AcDbEntity
  8
0
390
0
  6
Continuous
 62
     7
100
AcDbCircle
 10
155.724865
 20
20.25815
 30
0.0
 40
1.999999
210
0.0
220
0.0
230
1.0
100
AcDbArc
 50
179.999957
 51
270.000043
  0
LINE
  5
F9
100
AcDbEntity
  8
0
390
0
  6
Continuous
 62
     7
100
AcDbLine
 10
155.724866
 20
18.258151
 30
0.0
 11
160.624866
 21
18.258151
 31
0.0
  0
ENDSEC
  0
SECTION
  2
OBJECTS
  0
DICTIONARY
  5
19
100
AcDbDictionary
280
     0
281
     1
  3
ACAD_GROUP
350
1A
  3
ACAD_MLINESTYLE
350
1B
  3
ACAD_LAYOUT
350
1E
  3
ACAD_PLOTSETTINGS
350
22
  3
ACAD_PLOTSTYLENAME
350
1F
  3
ACAD_WIPEOUT_VARS
350
23
  0
DICTIONARY
  5
1A
102
{ACAD_REACTORS
330
19
102
}
100
AcDbDictionary
280
     0
281
     1
  0
DICTIONARY
  5
1B
102
{ACAD_REACTORS
330
19
102
}
100
AcDbDictionary
280
     0
281
     1
  3
Standard
350
1C
  0
MLINESTYLE
  5
1C
102
{ACAD_REACTORS
330
1B
102
}
100
AcDbMlineStyle
  2
Standard
 70
     0
  3

 62
     0
 51
90.0
 52
90.0
 71
     2
 49
0.5
 62
   256
  6
ByLayer
 49
-0.5
 62
   256
  6
ByLayer
  0
ACDBDICTIONARYWDFLT
  5
1F
102
{ACAD_REACTORS
330
19
102
}
100
AcDbDictionary
281
     1
  3
Normal
350
1D
100
AcDbDictionaryWithDefault
340
1D
  0
ACDBPLACEHOLDER
  5
1D
102
{ACAD_REACTORS
330
1F
102
}
  0
LAYOUT
  5
20
102
{ACAD_REACTORS
330
1E
102
}
100
AcDbPlotSettings
  1

  2

  4

  6

 40
0.0
 41
0.0
 42
0.0
 43
0.0
 44
0.0
 45
0.0
 46
0.0
 47
0.0
 48
0.0
 49
0.0
140
0.0
141
0.0
142
1.0
143
1.0
 70
  1024
 72
     0
 73
     0
 74
     0
  7

 75
     0
147
1.0
148
0.0
149
0.0
100
AcDbLayout
  1
Model
 70
     0
 71
     1
 10
0.0
 20
0.0
 11
0.0
 21
0.0
 12
0.0
 22
0.0
 32
0.0
 14
0.0
 24
0.0
 34
0.0
 15
0.0
 25
0.0
 35
0.0
146
0.0
 13
0.0
 23
0.0
 33
0.0
 16
0.0
 26
0.0
 36
0.0
 17
0.0
 27
0.0
 37
0.0
 76
     0
330
A
331
0
345
0
346
0
  0
LAYOUT
  5
21
102
{ACAD_REACTORS
330
1E
102
}
100
AcDbPlotSettings
  1

  2

  4

  6

 40
0.0
 41
0.0
 42
0.0
 43
0.0
 44
0.0
 45
0.0
 46
0.0
 47
0.0
 48
0.0
 49
0.0
140
0.0
141
0.0
142
1.0
143
1.0
 70
     0
 72
     0
 73
     0
 74
     0
  7

 75
     0
147
1.0
148
0.0
149
0.0
100
AcDbLayout
  1
Layout1
 70
     0
 71
     2
 10
0.0
 20
0.0
 11
0.0
 21
0.0
 12
0.0
 22
0.0
 32
0.0
 14
0.0
 24
0.0
 34
0.0
 15
0.0
 25
0.0
 35
0.0
146
0.0
 13
0.0
 23
0.0
 33
0.0
 16
0.0
 26
0.0
 36
0.0
 17
0.0
 27
0.0
 37
0.0
 76
     0
330
B
331
0
345
0
346
0
  0
DICTIONARY
  5
1E
102
{ACAD_REACTORS
330
19
102
}
100
AcDbDictionary
280
     0
281
     1
  3
Layout1
350
21
  3
Model
350
20
  0
DICTIONARY
  5
22
102
{ACAD_REACTORS
330
19
102
}
100
AcDbDictionary
280
     0
281
     1
  0
WIPEOUTVARIABLES
  5
23
100
AcDbWipeoutVariables
 70
     1
  0
ENDSEC
  0
EOF
