  0
SECTION
  2
HEADER
  9
$ACADVER
  1
AC1015
  9
$ACADMAINTVER
 70
     6
  9
$DWGCODEPAGE
  3
DOS932
  9
$INSBASE
 10
0.0
 20
0.0
 30
0.0
  9
$EXTMIN
 10
-158.009418
 20
-377.008969
 30
0.0
  9
$EXTMAX
 10
423.26168
 20
153.097208
 30
9.906
  9
$LIMMIN
 10
-158.009418
 20
-377.008969
  9
$LIMMAX
 10
423.26168
 20
153.097208
  9
$ORTHOMODE
 70
     0
  9
$REGENMODE
 70
     1
  9
$FILLMODE
 70
     1
  9
$QTEXTMODE
 70
     0
  9
$MIRRTEXT
 70
     1
  9
$LTSCALE
 40
10.0
  9
$ATTMODE
 70
     1
  9
$TEXTSIZE
 40
0.2
  9
$TRACEWID
 40
0.05
  9
$TEXTSTYLE
  7
Standard
  9
$CLAYER
  8
0
  9
$CELTYPE
  6
Continuous
  9
$CECOLOR
 62
   256
  9
$CELTSCALE
 40
1.0
  9
$DISPSILH
 70
     0
  9
$DIMSCALE
 40
1.0
  9
$DIMASZ
 40
1.40208
  9
$DIMEXO
 40
1.40208
  9
$DIMDLI
 40
0.38
  9
$DIMRND
 40
0.0
  9
$DIMDLE
 40
0.0
  9
$DIMEXE
 40
1.05156
  9
$DIMTP
 40
0.0
  9
$DIMTM
 40
0.0
  9
$DIMTXT
 40
3.5052
  9
$DIMCEN
 40
0.09
  9
$DIMTSZ
 40
0.0
  9
$DIMTOL
 70
     0
  9
$DIMLIM
 70
     0
  9
$DIMTIH
 70
     0
  9
$DIMTOH
 70
     0
  9
$DIMSE1
 70
     0
  9
$DIMSE2
 70
     0
  9
$DIMTAD
 70
     1
  9
$DIMZIN
 70
     0
  9
$DIMBLK
  1

  9
$DIMASO
 70
     1
  9
$DIMSHO
 70
     1
  9
$DIMPOST
  1

  9
$DIMAPOST
  1

  9
$DIMALT
 70
     0
  9
$DIMALTD
 70
     2
  9
$DIMALTF
 40
25.4
  9
$DIMLFAC
 40
1.0
  9
$DIMTOFL
 70
     0
  9
$DIMTVP
 40
0.0
  9
$DIMTIX
 70
     0
  9
$DIMSOXD
 70
     0
  9
$DIMSAH
 70
     0
  9
$DIMBLK1
  1

  9
$DIMBLK2
  1

  9
$DIMSTYLE
  2
Standard
  9
$DIMCLRD
 70
     7
  9
$DIMCLRE
 70
     7
  9
$DIMCLRT
 70
     7
  9
$DIMTFAC
 40
0.5
  9
$DIMGAP
 40
1.7526
  9
$DIMJUST
 70
     0
  9
$DIMSD1
 70
     0
  9
$DIMSD2
 70
     0
  9
$DIMTOLJ
 70
     1
  9
$DIMTZIN
 70
     0
  9
$DIMALTZ
 70
     0
  9
$DIMALTTZ
 70
     0
  9
$DIMUPT
 70
     0
  9
$DIMDEC
 70
     2
  9
$DIMTDEC
 70
     4
  9
$DIMALTU
 70
     2
  9
$DIMALTTD
 70
     2
  9
$DIMTXSTY
  7
Standard
  9
$DIMAUNIT
 70
     0
  9
$DIMADEC
 70
     0
  9
$DIMALTRND
 40
0.0
  9
$DIMAZIN
 70
     0
  9
$DIMDSEP
 70
     0
  9
$DIMATFIT
 70
     3
  9
$DIMFRAC
 70
     0
  9
$DIMLDRBLK
  1

  9
$DIMLUNIT
 70
     2
  9
$DIMLWD
 70
     0
  9
$DIMLWE
 70
     0
  9
$DIMTMOVE
 70
     0
  9
$LUNITS
 70
     2
  9
$LUPREC
 70
     4
  9
$SKETCHINC
 40
0.1
  9
$FILLETRAD
 40
0.0
  9
$AUNITS
 70
     0
  9
$AUPREC
 70
     0
  9
$MENU
  1
acad
  9
$ELEVATION
 40
0.0
  9
$PELEVATION
 40
0.0
  9
$THICKNESS
 40
0.0
  9
$LIMCHECK
 70
     0
  9
$CHAMFERA
 40
0.0
  9
$CHAMFERB
 40
0.0
  9
$CHAMFERC
 40
0.0
  9
$CHAMFERD
 40
0.0
  9
$SKPOLY
 70
     0
  9
$TDCREATE
 40
2459758.827453704
  9
$TDUCREATE
 40
0.000000000
  9
$TDUPDATE
 40
2459758.452326389
  9
$TDUUPDATE
 40
0.000000000
  9
$TDINDWG
 40
0.0000000000
  9
$TDUSRTIMER
 40
0.0000000000
  9
$USRTIMER
 70
     1
  9
$ANGBASE
 50
0.0
  9
$ANGDIR
 70
     0
  9
$PDMODE
 70
     0
  9
$PDSIZE
 40
0.0
  9
$PLINEWID
 40
0.0
  9
$SPLFRAME
 70
     0
  9
$SPLINETYPE
 70
     6
  9
$SPLINESEGS
 70
     8
  9
$HANDSEED
  5
16F
  9
$SURFTAB1
 70
     6
  9
$SURFTAB2
 70
     6
  9
$SURFTYPE
 70
     6
  9
$SURFU
 70
     6
  9
$SURFV
 70
     6
  9
$UCSBASE
  2

  9
$UCSNAME
  2

  9
$UCSORG
 10
0.0
 20
0.0
 30
0.0
  9
$UCSXDIR
 10
1.0
 20
0.0
 30
0.0
  9
$UCSYDIR
 10
0.0
 20
1.0
 30
0.0
  9
$UCSORTHOREF
  2

  9
$UCSORTHOVIEW
 70
     0
  9
$UCSORGTOP
 10
0.0
 20
0.0
 30
0.0
  9
$UCSORGBOTTOM
 10
0.0
 20
0.0
 30
0.0
  9
$UCSORGLEFT
 10
0.0
 20
0.0
 30
0.0
  9
$UCSORGRIGHT
 10
0.0
 20
0.0
 30
0.0
  9
$UCSORGFRONT
 10
0.0
 20
0.0
 30
0.0
  9
$UCSORGBACK
 10
0.0
 20
0.0
 30
0.0
  9
$PUCSBASE
  2

  9
$PUCSNAME
  2

  9
$PUCSORG
 10
0.0
 20
0.0
 30
0.0
  9
$PUCSXDIR
 10
1.0
 20
0.0
 30
0.0
  9
$PUCSYDIR
 10
0.0
 20
1.0
 30
0.0
  9
$PUCSORTHOREF
  2

  9
$PUCSORTHOVIEW
 70
     0
  9
$PUCSORGTOP
 10
0.0
 20
0.0
 30
0.0
  9
$PUCSORGBOTTOM
 10
0.0
 20
0.0
 30
0.0
  9
$PUCSORGLEFT
 10
0.0
 20
0.0
 30
0.0
  9
$PUCSORGRIGHT
 10
0.0
 20
0.0
 30
0.0
  9
$PUCSORGFRONT
 10
0.0
 20
0.0
 30
0.0
  9
$PUCSORGBACK
 10
0.0
 20
0.0
 30
0.0
  9
$USERI1
 70
     0
  9
$USERI2
 70
     0
  9
$USERI3
 70
     0
  9
$USERI4
 70
     0
  9
$USERI5
 70
     0
  9
$USERR1
 40
0.0
  9
$USERR2
 40
0.0
  9
$USERR3
 40
0.0
  9
$USERR4
 40
0.0
  9
$USERR5
 40
0.0
  9
$WORLDVIEW
 70
     1
  9
$SHADEDGE
 70
     3
  9
$SHADEDIF
 70
    70
  9
$TILEMODE
 70
     1
  9
$MAXACTVP
 70
    16
  9
$PINSBASE
 10
0.0
 20
0.0
 30
0.0
  9
$PLIMCHECK
 70
     0
  9
$PEXTMIN
 10
1.000000E+20
 20
1.000000E+20
 30
1.000000E+20
  9
$PEXTMAX
 10
-1.000000E+20
 20
-1.000000E+20
 30
-1.000000E+20
  9
$PLIMMIN
 10
0.0
 20
0.0
  9
$PLIMMAX
 10
12.0
 20
9.0
  9
$UNITMODE
 70
     0
  9
$VISRETAIN
 70
     0
  9
$PLINEGEN
 70
     1
  9
$PSLTSCALE
 70
     0
  9
$TREEDEPTH
 70
  3020
  9
$CMLSTYLE
  2
Standard
  9
$CMLJUST
 70
     0
  9
$CMLSCALE
 40
1.0
  9
$PROXYGRAPHICS
 70
     0
  9
$MEASUREMENT
 70
     0
  9
$CELWEIGHT
370
     0
  9
$ENDCAPS
280
     0
  9
$JOINSTYLE
280
     0
  9
$LWDISPLAY
290
     0
  9
$INSUNITS
 70
     0
  9
$HYPERLINKBASE
  1

  9
$STYLESHEET
  1

  9
$XEDIT
290
     1
  9
$CEPSNTYPE
380
     0
  9
$PSTYLEMODE
290
     1
  9
$FINGERPRINTGUID
  2

  9
$VERSIONGUID
  2

  9
$EXTNAMES
290
     1
  9
$PSVPSCALE
 40
0.0
  0
ENDSEC
  0
SECTION
  2
CLASSES
  0
CLASS
  1
LWPOLYLINE
  2
AcDbPolyline
  3
AutoCAD 2000
 90
        0
280
     0
281
     1
  0
CLASS
  1
IMAGE
  2
AcDbRasterImage
  3
ISM
 90
      127
280
     0
281
     1
  0
CLASS
  1
OLE2FRAME
  2
AcDbOle2Frame
  3
AutoCAD 2000
 90
        0
280
     0
281
     1
  0
CLASS
  1
HATCH
  2
AcDbHatch
  3
AutoCAD 2000
 90
        0
280
     0
281
     1
  0
CLASS
  1
DICTIONARYVAR
  2
AcDbDictionaryVar
  3
AutoCAD 2000
 90
        0
280
     0
281
     0
  0
CLASS
  1
RASTERVARIABLES
  2
AcDbRasterVariables
  3
ISM
 90
        0
280
     0
281
     0
  0
CLASS
  1
IMAGEDEF
  2
AcDbRasterImageDef
  3
ISM
 90
        0
280
     0
281
     0
  0
CLASS
  1
IMAGEDEF_REACTOR
  2
AcDbRasterImageDefReactor
  3
ISM
 90
        1
280
     0
281
     0
  0
CLASS
  1
IDBUFFER
  2
AcDbIdBuffer
  3
AutoCAD 2000
 90
        0
280
     0
281
     0
  0
CLASS
  1
SPATIAL_FILTER
  2
AcDbSpatialFilter
  3
AutoCAD 2000
 90
        0
280
     0
281
     0
  0
CLASS
  1
XRECORD
  2
AcDbXrecord
  3
AutoCAD 2000
 90
        0
280
     0
281
     0
  0
CLASS
  1
SORTENTSTABLE
  2
AcDbSortentsTable
  3
AutoCAD 2000
 90
        0
280
     0
281
     0
  0
CLASS
  1
LAYER_INDEX
  2
AcDbLayerIndex
  3
AutoCAD 2000
 90
        0
280
     0
281
     0
  0
CLASS
  1
SPATIAL_INDEX
  2
AcDbSpatialIndex
  3
AutoCAD 2000
 90
        0
280
     0
281
     0
  0
CLASS
  1
OBJECT_PTR
  2
CAseDLPNTableRecord
  3
"ASE-LPNTableRecord"
 90
        1
280
     0
281
     0
  0
CLASS
  1
LAYOUT
  2
AcDbLayout
  3
AutoCAD 2000
 90
        0
280
     0
281
     0
  0
CLASS
  1
PLOTSETTINGS
  2
AcDbPlotSettings
  3
AutoCAD 2000
 90
        0
280
     0
281
     0
  0
CLASS
  1
ACDBDICTIONARYWDFLT
  2
AcDbDictionaryWithDefault
  3
AutoCAD 2000
 90
        0
280
     0
281
     0
  0
CLASS
  1
ACDBPLACEHOLDER
  2
AcDbPlaceHolder
  3
AutoCAD 2000
 90
        0
280
     0
281
     0
  0
CLASS
  1
VBA_PROJECT
  2
AcDbVbaProject
  3
acadvba
 90
        0
280
     0
281
     0
  0
CLASS
  1
WIPEOUT
  2
AcDbWipeout
  3
WipeOut|AutoCAD Express Tool|expresstools@autodesk.com
 90
      127
280
     0
281
     1
  0
CLASS
  1
WIPEOUTVARIABLES
  2
AcDbWipeoutVariables
  3
WipeOut|AutoCAD Express Tool|expresstools@autodesk.com
 90
        0
280
     0
281
     0
  0
CLASS
  1
RTEXT
  2
RText
  3
RText|AutoCAD Express Tool|expresstools@autodesk.com
 90
        0
280
     0
281
     1
  0
CLASS
  1
ARCALIGNEDTEXT
  2
AcDbArcAlignedText
  3
ATEXT|AutoCAD Express Tool|expresstools@autodesk.com
 90
        0
280
     0
281
     1
  0
ENDSEC
  0
SECTION
  2
TABLES
  0
TABLE
  2
VPORT
  5
7
100
AcDbSymbolTable
 70
     1
  0
VPORT
  5
15
100
AcDbSymbolTableRecord
100
AcDbViewportTableRecord
  2
*ACTIVE
 70
     0
 10
0.0
 20
0.0
 11
1.0
 21
1.0
 12
6.591288
 22
4.579184
 13
0.0
 23
0.0
 14
1.0
 24
1.0
 15
0.0
 25
0.0
 16
0.0
 26
0.0
 36
1.0
 17
0.0
 27
0.0
 37
0.0
 40
9.158369
 41
0.688564
 42
50.0
 43
0.0
 44
0.0
 50
0.0
 51
0.0
 71
     0
 72
   100
 73
     1
 74
     1
 75
     0
 76
     0
 77
     0
 78
     0
281
     0
 65
     0
110
0.0
120
0.0
130
0.0
111
1.0
121
0.0
131
0.0
112
0.0
122
1.0
132
0.0
345
0
346
0
 79
     0
146
0.0
  0
ENDTAB
  0
TABLE
  2
LTYPE
  5
4
100
AcDbSymbolTable
 70
     3
  0
LTYPE
  5
11
100
AcDbSymbolTableRecord
100
AcDbLinetypeTableRecord
  2
ByBlock
 70
    64
  3

 72
    65
 73
     0
 40
0.0
  0
LTYPE
  5
12
100
AcDbSymbolTableRecord
100
AcDbLinetypeTableRecord
  2
ByLayer
 70
    64
  3

 72
    65
 73
     0
 40
0.0
  0
LTYPE
  5
13
100
AcDbSymbolTableRecord
100
AcDbLinetypeTableRecord
  2
Continuous
 70
    64
  3
Solid line
 72
    65
 73
     0
 40
0.0
  0
ENDTAB
  0
TABLE
  2
LAYER
  5
2
100
AcDbSymbolTable
 70
     1
  0
LAYER
  5
14
100
AcDbSymbolTableRecord
100
AcDbLayerTableRecord
  2
0
 70
     0
 62
     7
  6
Continuous
290
     1
370
    -3
390
1D
  0
ENDTAB
  0
TABLE
  2
STYLE
  5
3
100
AcDbSymbolTable
 70
     1
  0
STYLE
  5
17
100
AcDbSymbolTableRecord
100
AcDbTextStyleTableRecord
  2
Standard
 70
     0
 40
0.0
 41
1.0
 50
0.0
 71
     0
 42
0.0
  3
FG教科書体NT-M
  4

1001
ACAD
1000
FG教科書体NT-M
1071
        0
  0
ENDTAB
  0
TABLE
  2
VIEW
  5
5
100
AcDbSymbolTable
 70
     0
  0
ENDTAB
  0
TABLE
  2
UCS
  5
6
100
AcDbSymbolTable
 70
     0
  0
ENDTAB
  0
TABLE
  2
APPID
  5
8
100
AcDbSymbolTable
 70
     2
  0
APPID
  5
16
100
AcDbSymbolTableRecord
100
AcDbRegAppTableRecord
  2
ACAD
 70
     0
  0
APPID
  5
26
100
AcDbSymbolTableRecord
100
AcDbRegAppTableRecord
  2
TOPsolid_Design
 70
     0
  0
ENDTAB
  0
TABLE
  2
DIMSTYLE
  5
9
100
AcDbSymbolTable
 70
     1
100
AcDbDimStyleTable
 71
     0
  0
DIMSTYLE
105
18
100
AcDbSymbolTableRecord
100
AcDbDimStyleTableRecord
  2
Standard
 70
     0
  3

  4

 40
1.0
 41
1.40208
 42
1.40208
 43
0.38
 44
1.05156
 45
0.0
 46
0.0
 47
0.0
 48
0.0
 71
     0
 72
     0
 73
     0
 74
     0
 75
     0
 76
     0
 77
     1
 78
     0
 79
     0
140
3.5052
141
0.09
142
0.0
143
25.4
144
1.0
145
0.0
146
0.5
147
1.7526
148
0.0
170
     0
171
     2
172
     0
173
     0
174
     0
175
     0
176
     7
177
     7
178
     7
179
     0
271
     2
272
     4
273
     2
274
     2
275
     0
276
     0
277
     2
278
    46
279
     0
280
     0
281
     0
282
     0
283
     1
284
     0
285
     0
286
     0
288
     0
289
     3
340
17
341
0
342
0
343
0
344
0
371
    -2
372
    -2
  0
ENDTAB
  0
TABLE
  2
BLOCK_RECORD
  5
1
100
AcDbSymbolTable
 70
     0
  0
BLOCK_RECORD
  5
A
100
AcDbSymbolTableRecord
100
AcDbBlockTableRecord
  2
*MODEL_SPACE
340
20
  0
BLOCK_RECORD
  5
B
100
AcDbSymbolTableRecord
100
AcDbBlockTableRecord
  2
*PAPER_SPACE
340
21
  0
ENDTAB
  0
ENDSEC
  0
SECTION
  2
BLOCKS
  0
BLOCK
  5
D
100
AcDbEntity
  8
0
390
0
100
AcDbBlockBegin
  2
*MODEL_SPACE
 70
     0
 10
0.0
 20
0.0
 30
0.0
  3
*MODEL_SPACE
  1

  0
ENDBLK
  5
E
100
AcDbEntity
  8
0
390
0
100
AcDbBlockEnd
  0
BLOCK
  5
F
100
AcDbEntity
 67
     1
  8
0
390
0
100
AcDbBlockBegin
  2
*PAPER_SPACE
 70
     0
 10
0.0
 20
0.0
 30
0.0
  3
*PAPER_SPACE
  1

  0
ENDBLK
  5
10
100
AcDbEntity
 67
     1
  8
0
390
0
100
AcDbBlockEnd
  0
ENDSEC
  0
SECTION
  2
ENTITIES
  0
LINE
  5
27
100
AcDbEntity
  8
0
390
0
  6
Continuous
 62
     7
100
AcDbLine
 10
131.00157
 20
-182.03854
 30
0.0
 11
132.609384
 21
-182.03854
 31
0.0
  0
LINE
  5
28
100
AcDbEntity
  8
0
390
0
  6
Continuous
 62
     7
100
AcDbLine
 10
132.609384
 20
-182.03854
 30
0.0
 11
155.001807
 21
-182.03854
 31
0.0
  0
LINE
  5
29
100
AcDbEntity
  8
0
390
0
  6
Continuous
 62
     7
100
AcDbLine
 10
131.001689
 20
-182.03854
 30
0.0
 11
132.609384
 21
-182.03854
 31
0.0
  0
LINE
  5
2A
100
AcDbEntity
  8
0
390
0
  6
Continuous
 62
     7
100
AcDbLine
 10
131.454941
 20
-181.453915
 30
0.0
 11
131.746902
 21
-181.461187
 31
0.0
  0
LINE
  5
2B
100
AcDbEntity
  8
0
390
0
  6
Continuous
 62
     7
100
AcDbLine
 10
131.743359
 20
-181.461188
 30
0.0
 11
131.338303
 21
-181.446507
 31
0.0
  0
POLYLINE
  5
2C
100
AcDbEntity
  8
0
390
0
  6
Continuous
 62
     7
100
AcDb2dPolyline
 66
     1
 10
0.0
 20
0.0
 30
0.0
 40
0.1
 41
0.1
  0
VERTEX
  5
2D
100
AcDbEntity
  8
0
390
0
 62
     7
100
AcDbVertex
100
AcDb2dVertex
 10
131.338303
 20
-181.446507
 30
0.0
  0
VERTEX
  5
2E
100
AcDbEntity
  8
0
390
0
 62
     7
100
AcDbVertex
100
AcDb2dVertex
 10
131.120994
 20
-181.426618
 30
0.0
  0
VERTEX
  5
2F
100
AcDbEntity
  8
0
390
0
 62
     7
100
AcDbVertex
100
AcDb2dVertex
 10
130.488741
 20
-181.322446
 30
0.0
  0
VERTEX
  5
30
100
AcDbEntity
  8
0
390
0
 62
     7
100
AcDbVertex
100
AcDb2dVertex
 10
129.852492
 20
-181.15006
 30
0.0
  0
VERTEX
  5
31
100
AcDbEntity
  8
0
390
0
 62
     7
100
AcDbVertex
100
AcDb2dVertex
 10
129.253644
 20
-180.929354
 30
0.0
  0
SEQEND
  5
32
100
AcDbEntity
  8
0
390
0
  0
LINE
  5
33
100
AcDbEntity
  8
0
390
0
  6
Continuous
 62
     7
100
AcDbLine
 10
129.253644
 20
-180.929354
 30
0.0
 11
127.990582
 21
-180.300073
 31
0.0
  0
POLYLINE
  5
34
100
AcDbEntity
  8
0
390
0
  6
Continuous
 62
     7
100
AcDb2dPolyline
 66
     1
 10
0.0
 20
0.0
 30
0.0
 40
0.1
 41
0.1
  0
VERTEX
  5
35
100
AcDbEntity
  8
0
390
0
 62
     7
100
AcDbVertex
100
AcDb2dVertex
 10
135.496135
 20
-180.300073
 30
0.0
 42
-0.100916
  0
VERTEX
  5
36
100
AcDbEntity
  8
0
390
0
 62
     7
100
AcDbVertex
100
AcDb2dVertex
 10
132.369315
 20
-181.426115
 30
0.0
  0
VERTEX
  5
37
100
AcDbEntity
  8
0
390
0
 62
     7
100
AcDbVertex
100
AcDb2dVertex
 10
131.743359
 20
-181.461188
 30
0.0
  0
SEQEND
  5
38
100
AcDbEntity
  8
0
390
0
  0
ARC
  5
39
100
AcDbEntity
  8
0
390
0
  6
Continuous
 62
     7
100
AcDbCircle
 10
143.001689
 20
-156.622349
 30
0.0
 40
24.838839
210
0.0
220
0.0
230
0.9999999999999999
100
AcDbArc
 50
252.412011
 51
287.587989
  0
POLYLINE
  5
3A
100
AcDbEntity
  8
0
390
0
  6
Continuous
 62
     7
100
AcDb2dPolyline
 66
     1
 10
0.0
 20
0.0
 30
0.0
 40
0.1
 41
0.1
  0
VERTEX
  5
3B
100
AcDbEntity
  8
0
390
0
 62
     7
100
AcDbVertex
100
AcDb2dVertex
 10
158.012795
 20
-180.300073
 30
0.0
 42
-0.101099
  0
VERTEX
  5
3C
100
AcDbEntity
  8
0
390
0
 62
     7
100
AcDbVertex
100
AcDb2dVertex
 10
154.883366
 20
-181.427022
 30
0.0
  0
VERTEX
  5
3D
100
AcDbEntity
  8
0
390
0
 62
     7
100
AcDbVertex
100
AcDb2dVertex
 10
154.252847
 20
-181.461184
 30
0.0
  0
VERTEX
  5
3E
100
AcDbEntity
  8
0
390
0
 62
     7
100
AcDbVertex
100
AcDb2dVertex
 10
153.625529
 20
-181.425784
 30
0.0
  0
VERTEX
  5
3F
100
AcDbEntity
  8
0
390
0
 62
     7
100
AcDbVertex
100
AcDb2dVertex
 10
152.996752
 20
-181.321046
 30
0.0
  0
VERTEX
  5
40
100
AcDbEntity
  8
0
390
0
 62
     7
100
AcDbVertex
100
AcDb2dVertex
 10
152.360885
 20
-181.147388
 30
0.0
  0
VERTEX
  5
41
100
AcDbEntity
  8
0
390
0
 62
     7
100
AcDbVertex
100
AcDb2dVertex
 10
151.763248
 20
-180.926736
 30
0.0
  0
SEQEND
  5
42
100
AcDbEntity
  8
0
390
0
  0
LINE
  5
43
100
AcDbEntity
  8
0
390
0
  6
Continuous
 62
     7
100
AcDbLine
 10
151.763248
 20
-180.926736
 30
0.0
 11
151.148442
 21
-180.645741
 31
0.0
  0
LINE
  5
44
100
AcDbEntity
  8
0
390
0
  6
Continuous
 62
     7
100
AcDbLine
 10
151.148442
 20
-180.645741
 30
0.0
 11
150.507243
 21
-180.300073
 31
0.0
  0
LINE
  5
45
100
AcDbEntity
  8
0
390
0
  6
Continuous
 62
     7
100
AcDbLine
 10
132.609384
 20
-182.03854
 30
0.0
 11
155.001689
 21
-182.03854
 31
0.0
  0
LINE
  5
46
100
AcDbEntity
  8
0
390
0
  6
Continuous
 62
     7
100
AcDbLine
 10
127.990582
 20
-169.03854
 30
0.0
 11
135.496135
 21
-169.03854
 31
0.0
  0
LINE
  5
47
100
AcDbEntity
  8
0
390
0
  6
Continuous
 62
     7
100
AcDbLine
 10
135.496135
 20
-169.03854
 30
0.0
 11
150.507242
 21
-169.03854
 31
0.0
  0
LINE
  5
48
100
AcDbEntity
  8
0
390
0
  6
Continuous
 62
     7
100
AcDbLine
 10
150.507242
 20
-169.03854
 30
0.0
 11
158.012796
 21
-169.03854
 31
0.0
  0
LINE
  5
49
100
AcDbEntity
  8
0
390
0
  6
Continuous
 62
     7
100
AcDbLine
 10
127.990582
 20
-169.03854
 30
0.0
 11
127.990582
 21
-180.300072
 31
0.0
  0
LINE
  5
4A
100
AcDbEntity
  8
0
390
0
  6
Continuous
 62
     7
100
AcDbLine
 10
158.012796
 20
-180.300072
 30
0.0
 11
158.012796
 21
-169.03854
 31
0.0
  0
LINE
  5
4B
100
AcDbEntity
  8
0
390
0
  6
Continuous
 62
     7
100
AcDbLine
 10
156.166511
 20
-181.145001
 30
0.0
 11
158.012796
 21
-180.300072
 31
0.0
  0
LINE
  5
4C
100
AcDbEntity
  8
0
390
0
  6
Continuous
 62
     7
100
AcDbLine
 10
150.507242
 20
-169.03854
 30
0.0
 11
158.012796
 21
-169.03854
 31
0.0
  0
LINE
  5
4D
100
AcDbEntity
  8
0
390
0
  6
Continuous
 62
     7
100
AcDbLine
 10
158.012796
 20
-169.03854
 30
0.0
 11
158.012796
 21
-180.300072
 31
0.0
  0
POLYLINE
  5
4E
100
AcDbEntity
  8
0
390
0
  6
Continuous
 62
     7
100
AcDb2dPolyline
 66
     1
 10
0.0
 20
0.0
 30
0.0
 40
0.1
 41
0.1
  0
VERTEX
  5
4F
100
AcDbEntity
  8
0
390
0
 62
     7
100
AcDbVertex
100
AcDb2dVertex
 10
158.012796
 20
-180.300072
 30
0.0
 42
-0.101406
  0
VERTEX
  5
50
100
AcDbEntity
  8
0
390
0
 62
     7
100
AcDbVertex
100
AcDb2dVertex
 10
154.87824
 20
-181.426993
 30
0.0
  0
VERTEX
  5
51
100
AcDbEntity
  8
0
390
0
 62
     7
100
AcDbVertex
100
AcDb2dVertex
 10
154.252847
 20
-181.461184
 30
0.0
  0
VERTEX
  5
52
100
AcDbEntity
  8
0
390
0
 62
     7
100
AcDbVertex
100
AcDb2dVertex
 10
153.630916
 20
-181.425812
 30
0.0
 42
-0.06935
  0
VERTEX
  5
53
100
AcDbEntity
  8
0
390
0
 62
     7
100
AcDbVertex
100
AcDb2dVertex
 10
151.763217
 20
-180.926312
 30
0.0
  0
SEQEND
  5
54
100
AcDbEntity
  8
0
390
0
  0
LINE
  5
55
100
AcDbEntity
  8
0
390
0
  6
Continuous
 62
     7
100
AcDbLine
 10
151.763217
 20
-180.926312
 30
0.0
 11
150.507242
 21
-180.300072
 31
0.0
  0
LINE
  5
56
100
AcDbEntity
  8
0
390
0
  6
Continuous
 62
     7
100
AcDbLine
 10
150.507242
 20
-180.300072
 30
0.0
 11
150.507242
 21
-169.03854
 31
0.0
  0
LINE
  5
57
100
AcDbEntity
  8
0
390
0
  6
Continuous
 62
     7
100
AcDbLine
 10
135.496135
 20
-169.03854
 30
0.0
 11
150.507242
 21
-169.03854
 31
0.0
  0
LINE
  5
58
100
AcDbEntity
  8
0
390
0
  6
Continuous
 62
     7
100
AcDbLine
 10
150.507242
 20
-169.03854
 30
0.0
 11
150.507242
 21
-180.300072
 31
0.0
  0
ARC
  5
59
100
AcDbEntity
  8
0
390
0
  6
Continuous
 62
     7
100
AcDbCircle
 10
143.001689
 20
-156.622349
 30
0.0
 40
24.838839
210
0.0
220
0.0
230
0.9999999999999999
100
AcDbArc
 50
252.412011
 51
287.587989
  0
LINE
  5
5A
100
AcDbEntity
  8
0
390
0
  6
Continuous
 62
     7
100
AcDbLine
 10
135.496135
 20
-180.300072
 30
0.0
 11
135.496135
 21
-169.03854
 31
0.0
  0
LINE
  5
5B
100
AcDbEntity
  8
0
390
0
  6
Continuous
 62
     7
100
AcDbLine
 10
135.496135
 20
-169.03854
 30
0.0
 11
135.496135
 21
-180.300072
 31
0.0
  0
LINE
  5
5C
100
AcDbEntity
  8
0
390
0
  6
Continuous
 62
     7
100
AcDbLine
 10
127.990582
 20
-169.03854
 30
0.0
 11
135.496135
 21
-169.03854
 31
0.0
  0
LINE
  5
5D
100
AcDbEntity
  8
0
390
0
  6
Continuous
 62
     7
100
AcDbLine
 10
127.990582
 20
-180.300072
 30
0.0
 11
127.990582
 21
-169.03854
 31
0.0
  0
LINE
  5
5E
100
AcDbEntity
  8
0
390
0
  6
Continuous
 62
     7
100
AcDbLine
 10
135.496135
 20
-180.300072
 30
0.0
 11
134.065802
 21
-180.996342
 31
0.0
  0
ARC
  5
5F
100
AcDbEntity
  8
0
390
0
  6
Continuous
 62
     7
100
AcDbCircle
 10
131.664881
 20
-175.042983
 30
0.0
 40
6.41926
210
0.0
220
0.0
230
1.0
100
AcDbArc
 50
271.144619
 51
291.963653
  0
LINE
  5
60
100
AcDbEntity
  8
0
390
0
  6
Continuous
 62
     7
100
AcDbLine
 10
131.793112
 20
-181.460962
 30
0.0
 11
131.744031
 21
-181.461188
 31
0.0
  0
LINE
  5
61
100
AcDbEntity
  8
0
390
0
  6
Continuous
 62
     7
100
AcDbLine
 10
131.744031
 20
-181.461188
 30
0.0
 11
131.693622
 21
-181.460966
 31
0.0
  0
LINE
  5
62
100
AcDbEntity
  8
0
390
0
  6
Continuous
 62
     7
100
AcDbLine
 10
131.693622
 20
-181.460966
 30
0.0
 11
131.338772
 21
-181.446487
 31
0.0
  0
POLYLINE
  5
63
100
AcDbEntity
  8
0
390
0
  6
Continuous
 62
     7
100
AcDb2dPolyline
 66
     1
 10
0.0
 20
0.0
 30
0.0
 40
0.1
 41
0.1
  0
VERTEX
  5
64
100
AcDbEntity
  8
0
390
0
 62
     7
100
AcDbVertex
100
AcDb2dVertex
 10
131.338772
 20
-181.446487
 30
0.0
  0
VERTEX
  5
65
100
AcDbEntity
  8
0
390
0
 62
     7
100
AcDbVertex
100
AcDb2dVertex
 10
131.122828
 20
-181.426759
 30
0.0
 42
-0.06952
  0
VERTEX
  5
66
100
AcDbEntity
  8
0
390
0
 62
     7
100
AcDbVertex
100
AcDb2dVertex
 10
129.253619
 20
-180.929229
 30
0.0
  0
SEQEND
  5
67
100
AcDbEntity
  8
0
390
0
  0
LINE
  5
68
100
AcDbEntity
  8
0
390
0
  6
Continuous
 62
     7
100
AcDbLine
 10
129.253619
 20
-180.929229
 30
0.0
 11
127.990582
 21
-180.300072
 31
0.0
  0
LINE
  5
69
100
AcDbEntity
  8
0
390
0
  6
Continuous
 62
     7
100
AcDbLine
 10
-154.99843
 20
-182.03854
 30
0.0
 11
-153.390616
 21
-182.03854
 31
0.0
  0
LINE
  5
6A
100
AcDbEntity
  8
0
390
0
  6
Continuous
 62
     7
100
AcDbLine
 10
-153.390616
 20
-182.03854
 30
0.0
 11
-130.998193
 21
-182.03854
 31
0.0
  0
LINE
  5
6B
100
AcDbEntity
  8
0
390
0
  6
Continuous
 62
     7
100
AcDbLine
 10
-154.998311
 20
-182.03854
 30
0.0
 11
-153.390616
 21
-182.03854
 31
0.0
  0
POLYLINE
  5
6C
100
AcDbEntity
  8
0
390
0
  6
Continuous
 62
     7
100
AcDb2dPolyline
 66
     1
 10
0.0
 20
0.0
 30
0.0
 40
0.1
 41
0.1
  0
VERTEX
  5
6D
100
AcDbEntity
  8
0
390
0
 62
     7
100
AcDbVertex
100
AcDb2dVertex
 10
-150.503865
 20
-180.300073
 30
0.0
 42
-0.100916
  0
VERTEX
  5
6E
100
AcDbEntity
  8
0
390
0
 62
     7
100
AcDbVertex
100
AcDb2dVertex
 10
-153.630685
 20
-181.426115
 30
0.0
  0
VERTEX
  5
6F
100
AcDbEntity
  8
0
390
0
 62
     7
100
AcDbVertex
100
AcDb2dVertex
 10
-154.256641
 20
-181.461188
 30
0.0
  0
SEQEND
  5
70
100
AcDbEntity
  8
0
390
0
  0
LINE
  5
71
100
AcDbEntity
  8
0
390
0
  6
Continuous
 62
     7
100
AcDbLine
 10
-153.390616
 20
-182.03854
 30
0.0
 11
-130.998311
 21
-182.03854
 31
0.0
  0
LINE
  5
72
100
AcDbEntity
  8
0
390
0
  6
Continuous
 62
     7
100
AcDbLine
 10
-154.256641
 20
-181.461188
 30
0.0
 11
-154.661696
 21
-181.446507
 31
0.0
  0
POLYLINE
  5
73
100
AcDbEntity
  8
0
390
0
  6
Continuous
 62
     7
100
AcDb2dPolyline
 66
     1
 10
0.0
 20
0.0
 30
0.0
 40
0.1
 41
0.1
  0
VERTEX
  5
74
100
AcDbEntity
  8
0
390
0
 62
     7
100
AcDbVertex
100
AcDb2dVertex
 10
-154.661696
 20
-181.446507
 30
0.0
  0
VERTEX
  5
75
100
AcDbEntity
  8
0
390
0
 62
     7
100
AcDbVertex
100
AcDb2dVertex
 10
-154.879006
 20
-181.426618
 30
0.0
  0
VERTEX
  5
76
100
AcDbEntity
  8
0
390
0
 62
     7
100
AcDbVertex
100
AcDb2dVertex
 10
-155.511259
 20
-181.322446
 30
0.0
  0
VERTEX
  5
77
100
AcDbEntity
  8
0
390
0
 62
     7
100
AcDbVertex
100
AcDb2dVertex
 10
-156.147508
 20
-181.15006
 30
0.0
  0
VERTEX
  5
78
100
AcDbEntity
  8
0
390
0
 62
     7
100
AcDbVertex
100
AcDb2dVertex
 10
-156.746356
 20
-180.929354
 30
0.0
  0
SEQEND
  5
79
100
AcDbEntity
  8
0
390
0
  0
LINE
  5
7A
100
AcDbEntity
  8
0
390
0
  6
Continuous
 62
     7
100
AcDbLine
 10
-156.746356
 20
-180.929354
 30
0.0
 11
-158.009418
 21
-180.300073
 31
0.0
  0
LINE
  5
7B
100
AcDbEntity
  8
0
390
0
  6
Continuous
 62
     7
100
AcDbLine
 10
-154.545059
 20
-181.453915
 30
0.0
 11
-154.253098
 21
-181.461187
 31
0.0
  0
POLYLINE
  5
7C
100
AcDbEntity
  8
0
390
0
  6
Continuous
 62
     7
100
AcDb2dPolyline
 66
     1
 10
0.0
 20
0.0
 30
0.0
 40
0.1
 41
0.1
  0
VERTEX
  5
7D
100
AcDbEntity
  8
0
390
0
 62
     7
100
AcDbVertex
100
AcDb2dVertex
 10
-127.987205
 20
-180.300073
 30
0.0
 42
-0.101099
  0
VERTEX
  5
7E
100
AcDbEntity
  8
0
390
0
 62
     7
100
AcDbVertex
100
AcDb2dVertex
 10
-131.116634
 20
-181.427022
 30
0.0
  0
VERTEX
  5
7F
100
AcDbEntity
  8
0
390
0
 62
     7
100
AcDbVertex
100
AcDb2dVertex
 10
-131.747153
 20
-181.461184
 30
0.0
  0
VERTEX
  5
80
100
AcDbEntity
  8
0
390
0
 62
     7
100
AcDbVertex
100
AcDb2dVertex
 10
-132.374471
 20
-181.425784
 30
0.0
  0
VERTEX
  5
81
100
AcDbEntity
  8
0
390
0
 62
     7
100
AcDbVertex
100
AcDb2dVertex
 10
-133.003248
 20
-181.321046
 30
0.0
  0
VERTEX
  5
82
100
AcDbEntity
  8
0
390
0
 62
     7
100
AcDbVertex
100
AcDb2dVertex
 10
-133.639115
 20
-181.147388
 30
0.0
  0
VERTEX
  5
83
100
AcDbEntity
  8
0
390
0
 62
     7
100
AcDbVertex
100
AcDb2dVertex
 10
-134.236752
 20
-180.926736
 30
0.0
  0
SEQEND
  5
84
100
AcDbEntity
  8
0
390
0
  0
LINE
  5
85
100
AcDbEntity
  8
0
390
0
  6
Continuous
 62
     7
100
AcDbLine
 10
-134.236752
 20
-180.926736
 30
0.0
 11
-134.851558
 21
-180.645741
 31
0.0
  0
LINE
  5
86
100
AcDbEntity
  8
0
390
0
  6
Continuous
 62
     7
100
AcDbLine
 10
-134.851558
 20
-180.645741
 30
0.0
 11
-135.492757
 21
-180.300073
 31
0.0
  0
ARC
  5
87
100
AcDbEntity
  8
0
390
0
  6
Continuous
 62
     7
100
AcDbCircle
 10
-142.998311
 20
-156.622349
 30
0.0
 40
24.838839
210
0.0
220
0.0
230
0.9999999999999999
100
AcDbArc
 50
252.412011
 51
287.587989
  0
LINE
  5
88
100
AcDbEntity
  8
0
390
0
  6
Continuous
 62
     7
100
AcDbLine
 10
-158.009418
 20
-169.03854
 30
0.0
 11
-150.503865
 21
-169.03854
 31
0.0
  0
LINE
  5
89
100
AcDbEntity
  8
0
390
0
  6
Continuous
 62
     7
100
AcDbLine
 10
-150.503865
 20
-169.03854
 30
0.0
 11
-135.492758
 21
-169.03854
 31
0.0
  0
LINE
  5
8A
100
AcDbEntity
  8
0
390
0
  6
Continuous
 62
     7
100
AcDbLine
 10
-135.492758
 20
-169.03854
 30
0.0
 11
-127.987204
 21
-169.03854
 31
0.0
  0
LINE
  5
8B
100
AcDbEntity
  8
0
390
0
  6
Continuous
 62
     7
100
AcDbLine
 10
-158.009418
 20
-169.03854
 30
0.0
 11
-158.009418
 21
-180.300072
 31
0.0
  0
LINE
  5
8C
100
AcDbEntity
  8
0
390
0
  6
Continuous
 62
     7
100
AcDbLine
 10
-129.833489
 20
-181.145001
 30
0.0
 11
-127.987204
 21
-180.300072
 31
0.0
  0
LINE
  5
8D
100
AcDbEntity
  8
0
390
0
  6
Continuous
 62
     7
100
AcDbLine
 10
-127.987204
 20
-180.300072
 30
0.0
 11
-127.987204
 21
-169.03854
 31
0.0
  0
LINE
  5
8E
100
AcDbEntity
  8
0
390
0
  6
Continuous
 62
     7
100
AcDbLine
 10
-127.987204
 20
-169.03854
 30
0.0
 11
-127.987204
 21
-180.300072
 31
0.0
  0
LINE
  5
8F
100
AcDbEntity
  8
0
390
0
  6
Continuous
 62
     7
100
AcDbLine
 10
-135.492758
 20
-169.03854
 30
0.0
 11
-127.987204
 21
-169.03854
 31
0.0
  0
LINE
  5
90
100
AcDbEntity
  8
0
390
0
  6
Continuous
 62
     7
100
AcDbLine
 10
-135.492758
 20
-180.300072
 30
0.0
 11
-135.492758
 21
-169.03854
 31
0.0
  0
POLYLINE
  5
91
100
AcDbEntity
  8
0
390
0
  6
Continuous
 62
     7
100
AcDb2dPolyline
 66
     1
 10
0.0
 20
0.0
 30
0.0
 40
0.1
 41
0.1
  0
VERTEX
  5
92
100
AcDbEntity
  8
0
390
0
 62
     7
100
AcDbVertex
100
AcDb2dVertex
 10
-127.987204
 20
-180.300072
 30
0.0
 42
-0.101406
  0
VERTEX
  5
93
100
AcDbEntity
  8
0
390
0
 62
     7
100
AcDbVertex
100
AcDb2dVertex
 10
-131.12176
 20
-181.426993
 30
0.0
  0
VERTEX
  5
94
100
AcDbEntity
  8
0
390
0
 62
     7
100
AcDbVertex
100
AcDb2dVertex
 10
-131.747153
 20
-181.461184
 30
0.0
  0
VERTEX
  5
95
100
AcDbEntity
  8
0
390
0
 62
     7
100
AcDbVertex
100
AcDb2dVertex
 10
-132.369084
 20
-181.425812
 30
0.0
 42
-0.06935
  0
VERTEX
  5
96
100
AcDbEntity
  8
0
390
0
 62
     7
100
AcDbVertex
100
AcDb2dVertex
 10
-134.236783
 20
-180.926312
 30
0.0
  0
SEQEND
  5
97
100
AcDbEntity
  8
0
390
0
  0
LINE
  5
98
100
AcDbEntity
  8
0
390
0
  6
Continuous
 62
     7
100
AcDbLine
 10
-134.236783
 20
-180.926312
 30
0.0
 11
-135.492758
 21
-180.300072
 31
0.0
  0
LINE
  5
99
100
AcDbEntity
  8
0
390
0
  6
Continuous
 62
     7
100
AcDbLine
 10
-150.503865
 20
-169.03854
 30
0.0
 11
-135.492758
 21
-169.03854
 31
0.0
  0
LINE
  5
9A
100
AcDbEntity
  8
0
390
0
  6
Continuous
 62
     7
100
AcDbLine
 10
-135.492758
 20
-169.03854
 30
0.0
 11
-135.492758
 21
-180.300072
 31
0.0
  0
ARC
  5
9B
100
AcDbEntity
  8
0
390
0
  6
Continuous
 62
     7
100
AcDbCircle
 10
-142.998311
 20
-156.622349
 30
0.0
 40
24.838839
210
0.0
220
0.0
230
0.9999999999999999
100
AcDbArc
 50
252.412011
 51
287.587989
  0
LINE
  5
9C
100
AcDbEntity
  8
0
390
0
  6
Continuous
 62
     7
100
AcDbLine
 10
-150.503865
 20
-180.300072
 30
0.0
 11
-150.503865
 21
-169.03854
 31
0.0
  0
LINE
  5
9D
100
AcDbEntity
  8
0
390
0
  6
Continuous
 62
     7
100
AcDbLine
 10
-150.503865
 20
-169.03854
 30
0.0
 11
-150.503865
 21
-180.300072
 31
0.0
  0
LINE
  5
9E
100
AcDbEntity
  8
0
390
0
  6
Continuous
 62
     7
100
AcDbLine
 10
-158.009418
 20
-169.03854
 30
0.0
 11
-150.503865
 21
-169.03854
 31
0.0
  0
LINE
  5
9F
100
AcDbEntity
  8
0
390
0
  6
Continuous
 62
     7
100
AcDbLine
 10
-158.009418
 20
-180.300072
 30
0.0
 11
-158.009418
 21
-169.03854
 31
0.0
  0
LINE
  5
A0
100
AcDbEntity
  8
0
390
0
  6
Continuous
 62
     7
100
AcDbLine
 10
-150.503865
 20
-180.300072
 30
0.0
 11
-151.934198
 21
-180.996342
 31
0.0
  0
ARC
  5
A1
100
AcDbEntity
  8
0
390
0
  6
Continuous
 62
     7
100
AcDbCircle
 10
-154.335119
 20
-175.042983
 30
0.0
 40
6.41926
210
0.0
220
0.0
230
1.0
100
AcDbArc
 50
271.144619
 51
291.963653
  0
LINE
  5
A2
100
AcDbEntity
  8
0
390
0
  6
Continuous
 62
     7
100
AcDbLine
 10
-154.206888
 20
-181.460962
 30
0.0
 11
-154.255969
 21
-181.461188
 31
0.0
  0
LINE
  5
A3
100
AcDbEntity
  8
0
390
0
  6
Continuous
 62
     7
100
AcDbLine
 10
-154.255969
 20
-181.461188
 30
0.0
 11
-154.306378
 21
-181.460966
 31
0.0
  0
LINE
  5
A4
100
AcDbEntity
  8
0
390
0
  6
Continuous
 62
     7
100
AcDbLine
 10
-154.306378
 20
-181.460966
 30
0.0
 11
-154.661228
 21
-181.446487
 31
0.0
  0
POLYLINE
  5
A5
100
AcDbEntity
  8
0
390
0
  6
Continuous
 62
     7
100
AcDb2dPolyline
 66
     1
 10
0.0
 20
0.0
 30
0.0
 40
0.1
 41
0.1
  0
VERTEX
  5
A6
100
AcDbEntity
  8
0
390
0
 62
     7
100
AcDbVertex
100
AcDb2dVertex
 10
-154.661228
 20
-181.446487
 30
0.0
  0
VERTEX
  5
A7
100
AcDbEntity
  8
0
390
0
 62
     7
100
AcDbVertex
100
AcDb2dVertex
 10
-154.877172
 20
-181.426759
 30
0.0
 42
-0.06952
  0
VERTEX
  5
A8
100
AcDbEntity
  8
0
390
0
 62
     7
100
AcDbVertex
100
AcDb2dVertex
 10
-156.746381
 20
-180.929229
 30
0.0
  0
SEQEND
  5
A9
100
AcDbEntity
  8
0
390
0
  0
LINE
  5
AA
100
AcDbEntity
  8
0
390
0
  6
Continuous
 62
     7
100
AcDbLine
 10
-156.746381
 20
-180.929229
 30
0.0
 11
-158.009418
 21
-180.300072
 31
0.0
  0
LINE
  5
AB
100
AcDbEntity
  8
0
390
0
  6
Continuous
 62
     7
100
AcDbLine
 10
150.751689
 20
-202.03854
 30
0.0
 11
135.251689
 21
-202.03854
 31
0.0
  0
LINE
  5
AC
100
AcDbEntity
  8
0
390
0
  6
Continuous
 62
     7
100
AcDbLine
 10
135.251689
 20
-202.03854
 30
0.0
 11
150.751689
 21
-202.03854
 31
0.0
  0
LINE
  5
AD
100
AcDbEntity
  8
0
390
0
  6
Continuous
 62
     7
100
AcDbLine
 10
-135.248311
 20
-202.03854
 30
0.0
 11
-150.748311
 21
-202.03854
 31
0.0
  0
LINE
  5
AE
100
AcDbEntity
  8
0
390
0
  6
Continuous
 62
     7
100
AcDbLine
 10
-150.748311
 20
-202.03854
 30
0.0
 11
-135.248311
 21
-202.03854
 31
0.0
  0
POLYLINE
  5
AF
100
AcDbEntity
  8
0
390
0
  6
Continuous
 62
     7
100
AcDb2dPolyline
 66
     1
 10
0.0
 20
0.0
 30
0.0
 40
0.1
 41
0.1
  0
VERTEX
  5
B0
100
AcDbEntity
  8
0
390
0
 62
     7
100
AcDbVertex
100
AcDb2dVertex
 10
133.951689
 20
-132.53854
 30
0.0
  0
VERTEX
  5
B1
100
AcDbEntity
  8
0
390
0
 62
     7
100
AcDbVertex
100
AcDb2dVertex
 10
133.951689
 20
0.01146
 30
0.0
 42
1.0
  0
VERTEX
  5
B2
100
AcDbEntity
  8
0
390
0
 62
     7
100
AcDbVertex
100
AcDb2dVertex
 10
-133.948311
 20
0.01146
 30
0.0
  0
VERTEX
  5
B3
100
AcDbEntity
  8
0
390
0
 62
     7
100
AcDbVertex
100
AcDb2dVertex
 10
-133.948311
 20
-132.53854
 30
0.0
  0
SEQEND
  5
B4
100
AcDbEntity
  8
0
390
0
  0
LINE
  5
B5
100
AcDbEntity
  8
0
390
0
  6
Continuous
 62
     7
100
AcDbLine
 10
153.097172
 20
-132.53854
 30
0.0
 11
136.951689
 21
-132.53854
 31
0.0
  0
LINE
  5
B6
100
AcDbEntity
  8
0
390
0
  6
Continuous
 62
     7
100
AcDbLine
 10
-136.948311
 20
-132.53854
 30
0.0
 11
-153.093794
 21
-132.53854
 31
0.0
  0
LINE
  5
B7
100
AcDbEntity
  8
0
390
0
  6
Continuous
 62
     7
100
AcDbLine
 10
-136.948311
 20
-132.53854
 30
0.0
 11
-133.948311
 21
-132.53854
 31
0.0
  0
LINE
  5
B8
100
AcDbEntity
  8
0
390
0
  6
Continuous
 62
     7
100
AcDbLine
 10
133.951689
 20
-132.53854
 30
0.0
 11
136.951689
 21
-132.53854
 31
0.0
  0
LINE
  5
B9
100
AcDbEntity
  8
0
390
0
  6
Continuous
 62
     7
100
AcDbLine
 10
136.951689
 20
-132.53854
 30
0.0
 11
153.097172
 21
-132.53854
 31
0.0
  0
LINE
  5
BA
100
AcDbEntity
  8
0
390
0
  6
Continuous
 62
     7
100
AcDbLine
 10
133.951689
 20
-132.53854
 30
0.0
 11
136.951689
 21
-132.53854
 31
0.0
  0
LINE
  5
BB
100
AcDbEntity
  8
0
390
0
  6
Continuous
 62
     7
100
AcDbLine
 10
-153.093794
 20
-132.53854
 30
0.0
 11
-136.948311
 21
-132.53854
 31
0.0
  0
LINE
  5
BC
100
AcDbEntity
  8
0
390
0
  6
Continuous
 62
     7
100
AcDbLine
 10
-136.948311
 20
-132.53854
 30
0.0
 11
-133.948311
 21
-132.53854
 31
0.0
  0
POLYLINE
  5
BD
100
AcDbEntity
  8
0
390
0
  6
Continuous
 62
     7
100
AcDb2dPolyline
 66
     1
 10
0.0
 20
0.0
 30
0.0
 40
0.1
 41
0.1
  0
VERTEX
  5
BE
100
AcDbEntity
  8
0
390
0
 62
     7
100
AcDbVertex
100
AcDb2dVertex
 10
136.951689
 20
-132.53854
 30
0.0
  0
VERTEX
  5
BF
100
AcDbEntity
  8
0
390
0
 62
     7
100
AcDbVertex
100
AcDb2dVertex
 10
136.951689
 20
-1.043075
 30
0.0
  0
VERTEX
  5
C0
100
AcDbEntity
  8
0
390
0
 62
     7
100
AcDbVertex
100
AcDb2dVertex
 10
136.951495
 20
-0.129915
 30
0.0
 42
1.004599
  0
VERTEX
  5
C1
100
AcDbEntity
  8
0
390
0
 62
     7
100
AcDbVertex
100
AcDb2dVertex
 10
-136.948311
 20
-1.118924
 30
0.0
  0
VERTEX
  5
C2
100
AcDbEntity
  8
0
390
0
 62
     7
100
AcDbVertex
100
AcDb2dVertex
 10
-136.948311
 20
-132.53854
 30
0.0
  0
SEQEND
  5
C3
100
AcDbEntity
  8
0
390
0
  0
LINE
  5
C4
100
AcDbEntity
  8
0
390
0
  6
Continuous
 62
     7
100
AcDbLine
 10
127.990582
 20
-180.300072
 30
0.0
 11
131.001689
 21
-182.03854
 31
0.0
  0
LINE
  5
C5
100
AcDbEntity
  8
0
390
0
  6
Continuous
 62
     7
100
AcDbLine
 10
155.001689
 20
-182.03854
 30
0.0
 11
158.012796
 21
-180.300072
 31
0.0
  0
LINE
  5
C6
100
AcDbEntity
  8
0
390
0
  6
Continuous
 62
     7
100
AcDbLine
 10
-158.009418
 20
-180.300072
 30
0.0
 11
-154.998311
 21
-182.03854
 31
0.0
  0
LINE
  5
C7
100
AcDbEntity
  8
0
390
0
  6
Continuous
 62
     7
100
AcDbLine
 10
-130.998311
 20
-182.03854
 30
0.0
 11
-127.987204
 21
-180.300072
 31
0.0
  0
LINE
  5
C8
100
AcDbEntity
  8
0
390
0
  6
Continuous
 62
     7
100
AcDbLine
 10
150.751689
 20
-202.03854
 30
0.0
 11
150.751689
 21
-182.03854
 31
0.0
  0
LINE
  5
C9
100
AcDbEntity
  8
0
390
0
  6
Continuous
 62
     7
100
AcDbLine
 10
150.751689
 20
-169.03854
 30
0.0
 11
150.751689
 21
-132.53854
 31
0.0
  0
LINE
  5
CA
100
AcDbEntity
  8
0
390
0
  6
Continuous
 62
     7
100
AcDbLine
 10
135.251689
 20
-132.53854
 30
0.0
 11
135.251689
 21
-169.03854
 31
0.0
  0
LINE
  5
CB
100
AcDbEntity
  8
0
390
0
  6
Continuous
 62
     7
100
AcDbLine
 10
135.251689
 20
-182.03854
 30
0.0
 11
135.251689
 21
-202.03854
 31
0.0
  0
LINE
  5
CC
100
AcDbEntity
  8
0
390
0
  6
Continuous
 62
     7
100
AcDbLine
 10
-135.248311
 20
-202.03854
 30
0.0
 11
-135.248311
 21
-182.03854
 31
0.0
  0
LINE
  5
CD
100
AcDbEntity
  8
0
390
0
  6
Continuous
 62
     7
100
AcDbLine
 10
-135.248311
 20
-169.03854
 30
0.0
 11
-135.248311
 21
-132.53854
 31
0.0
  0
LINE
  5
CE
100
AcDbEntity
  8
0
390
0
  6
Continuous
 62
     7
100
AcDbLine
 10
-150.748311
 20
-132.53854
 30
0.0
 11
-150.748311
 21
-169.03854
 31
0.0
  0
LINE
  5
CF
100
AcDbEntity
  8
0
390
0
  6
Continuous
 62
     7
100
AcDbLine
 10
-150.748311
 20
-182.03854
 30
0.0
 11
-150.748311
 21
-202.03854
 31
0.0
  0
POLYLINE
  5
D0
100
AcDbEntity
  8
0
390
0
  6
Continuous
 62
     7
100
AcDb2dPolyline
 66
     1
 10
0.0
 20
0.0
 30
0.0
 40
0.1
 41
0.1
  0
VERTEX
  5
D1
100
AcDbEntity
  8
0
390
0
 62
     7
100
AcDbVertex
100
AcDb2dVertex
 10
153.097172
 20
-132.53854
 30
0.0
 42
0.001324
  0
VERTEX
  5
D2
100
AcDbEntity
  8
0
390
0
 62
     7
100
AcDbVertex
100
AcDb2dVertex
 10
153.095108
 20
0.801972
 30
0.0
 42
1.00072
  0
VERTEX
  5
D3
100
AcDbEntity
  8
0
390
0
 62
     7
100
AcDbVertex
100
AcDb2dVertex
 10
-153.093794
 20
-1.022349
 30
0.0
  0
VERTEX
  5
D4
100
AcDbEntity
  8
0
390
0
 62
     7
100
AcDbVertex
100
AcDb2dVertex
 10
-153.093794
 20
-132.53854
 30
0.0
  0
SEQEND
  5
D5
100
AcDbEntity
  8
0
390
0
  0
ARC
  5
D6
100
AcDbEntity
  8
0
390
0
  6
Continuous
 62
     7
100
AcDbCircle
 10
143.001689
 20
-357.008969
 30
0.0
 40
7.9175
210
0.0
220
0.0
230
1.0
100
AcDbArc
 50
330.0
 51
150.0
  0
ARC
  5
D7
100
AcDbEntity
  8
0
390
0
  6
Continuous
 62
     7
100
AcDbCircle
 10
143.001689
 20
-357.008969
 30
0.0
 40
7.9175
210
0.0
220
0.0
230
1.0
100
AcDbArc
 50
150.0
 51
330.0
  0
LINE
  5
D8
100
AcDbEntity
  8
0
390
0
  6
Continuous
 62
     7
100
AcDbLine
 10
132.609384
 20
-351.008969
 30
0.0
 11
133.244491
 21
-350.023284
 31
0.0
  0
ARC
  5
D9
100
AcDbEntity
  8
0
390
0
  6
Continuous
 62
     7
100
AcDbCircle
 10
143.001608
 20
-357.008991
 30
0.0
 40
12.000059
210
0.0
220
0.0
230
1.0
100
AcDbArc
 50
330.000284
 51
144.398846
  0
ARC
  5
DA
100
AcDbEntity
  8
0
390
0
  6
Continuous
 62
     7
100
AcDbCircle
 10
143.001689
 20
-357.008969
 30
0.0
 40
12.0
210
0.0
220
0.0
230
1.0
100
AcDbArc
 50
150.0
 51
330.0
  0
ARC
  5
DB
100
AcDbEntity
  8
0
390
0
  6
Continuous
 62
     7
100
AcDbCircle
 10
143.001689
 20
-357.008969
 30
0.0
 40
7.9175
210
0.0
220
0.0
230
1.0
100
AcDbArc
 50
150.0
 51
330.0
  0
ARC
  5
DC
100
AcDbEntity
  8
0
390
0
  6
Continuous
 62
     7
100
AcDbCircle
 10
143.001689
 20
-357.008969
 30
0.0
 40
7.9175
210
0.0
220
0.0
230
1.0
100
AcDbArc
 50
330.0
 51
150.0
  0
LINE
  5
DD
100
AcDbEntity
  8
0
390
0
  6
Continuous
 62
     7
100
AcDbLine
 10
135.496135
 20
-344.00897
 30
0.0
 11
131.743359
 21
-350.508969
 31
0.0
  0
ARC
  5
DE
100
AcDbEntity
  8
0
390
0
  6
Continuous
 62
     7
100
AcDbCircle
 10
143.001689
 20
-357.008969
 30
0.0
 40
12.0
210
0.0
220
0.0
230
1.0
100
AcDbArc
 50
144.399276
 51
150.0
  0
ARC
  5
DF
100
AcDbEntity
  8
0
390
0
  6
Continuous
 62
     7
100
AcDbCircle
 10
143.001689
 20
-357.008969
 30
0.0
 40
12.0
210
0.0
220
0.0
230
1.0
100
AcDbArc
 50
330.0
 51
144.399276
  0
ARC
  5
E0
100
AcDbEntity
  8
0
390
0
  6
Continuous
 62
     7
100
AcDbCircle
 10
143.001689
 20
-357.008969
 30
0.0
 40
12.0
210
0.0
220
0.0
230
1.0
100
AcDbArc
 50
150.0
 51
330.0
  0
LINE
  5
E1
100
AcDbEntity
  8
0
390
0
  6
Continuous
 62
     7
100
AcDbLine
 10
131.743359
 20
-350.508969
 30
0.0
 11
127.990582
 21
-357.008968
 31
0.0
  0
LINE
  5
E2
100
AcDbEntity
  8
0
390
0
  6
Continuous
 62
     7
100
AcDbLine
 10
127.990582
 20
-357.008969
 30
0.0
 11
135.496135
 21
-370.008968
 31
0.0
  0
LINE
  5
E3
100
AcDbEntity
  8
0
390
0
  6
Continuous
 62
     7
100
AcDbLine
 10
135.496135
 20
-370.008969
 30
0.0
 11
150.507242
 21
-370.008969
 31
0.0
  0
LINE
  5
E4
100
AcDbEntity
  8
0
390
0
  6
Continuous
 62
     7
100
AcDbLine
 10
150.507242
 20
-370.008969
 30
0.0
 11
158.012795
 21
-357.00897
 31
0.0
  0
LINE
  5
E5
100
AcDbEntity
  8
0
390
0
  6
Continuous
 62
     7
100
AcDbLine
 10
158.012796
 20
-357.008969
 30
0.0
 11
150.507243
 21
-344.00897
 31
0.0
  0
LINE
  5
E6
100
AcDbEntity
  8
0
390
0
  6
Continuous
 62
     7
100
AcDbLine
 10
150.507242
 20
-344.008969
 30
0.0
 11
135.496135
 21
-344.008969
 31
0.0
  0
LINE
  5
E7
100
AcDbEntity
  8
0
390
0
  6
Continuous
 62
     7
100
AcDbLine
 10
127.990582
 20
-357.008969
 30
0.0
 11
135.496135
 21
-370.008969
 31
0.0
  0
LINE
  5
E8
100
AcDbEntity
  8
0
390
0
  6
Continuous
 62
     7
100
AcDbLine
 10
135.496135
 20
-370.008969
 30
0.0
 11
150.507242
 21
-370.008969
 31
0.0
  0
LINE
  5
E9
100
AcDbEntity
  8
0
390
0
  6
Continuous
 62
     7
100
AcDbLine
 10
150.507242
 20
-370.008969
 30
0.0
 11
158.012796
 21
-357.008969
 31
0.0
  0
LINE
  5
EA
100
AcDbEntity
  8
0
390
0
  6
Continuous
 62
     7
100
AcDbLine
 10
158.012796
 20
-357.008969
 30
0.0
 11
150.507242
 21
-344.008969
 31
0.0
  0
LINE
  5
EB
100
AcDbEntity
  8
0
390
0
  6
Continuous
 62
     7
100
AcDbLine
 10
150.507242
 20
-344.008969
 30
0.0
 11
135.496135
 21
-344.008969
 31
0.0
  0
LINE
  5
EC
100
AcDbEntity
  8
0
390
0
  6
Continuous
 62
     7
100
AcDbLine
 10
135.496135
 20
-344.008969
 30
0.0
 11
131.793112
 21
-350.422793
 31
0.0
  0
LINE
  5
ED
100
AcDbEntity
  8
0
390
0
  6
Continuous
 62
     7
100
AcDbLine
 10
131.793112
 20
-350.422793
 30
0.0
 11
131.743368
 21
-350.508953
 31
0.0
  0
LINE
  5
EE
100
AcDbEntity
  8
0
390
0
  6
Continuous
 62
     7
100
AcDbLine
 10
131.743368
 20
-350.508953
 30
0.0
 11
131.693622
 21
-350.595115
 31
0.0
  0
LINE
  5
EF
100
AcDbEntity
  8
0
390
0
  6
Continuous
 62
     7
100
AcDbLine
 10
131.693622
 20
-350.595115
 30
0.0
 11
127.990582
 21
-357.008969
 31
0.0
  0
ARC
  5
F0
100
AcDbEntity
  8
0
390
0
  6
Continuous
 62
     7
100
AcDbCircle
 10
-142.998311
 20
-357.008969
 30
0.0
 40
7.9175
210
0.0
220
0.0
230
1.0
100
AcDbArc
 50
150.0
 51
330.0
  0
ARC
  5
F1
100
AcDbEntity
  8
0
390
0
  6
Continuous
 62
     7
100
AcDbCircle
 10
-142.998311
 20
-357.008969
 30
0.0
 40
7.9175
210
0.0
220
0.0
230
1.0
100
AcDbArc
 50
330.0
 51
150.0
  0
ARC
  5
F2
100
AcDbEntity
  8
0
390
0
  6
Continuous
 62
     7
100
AcDbCircle
 10
-142.998311
 20
-357.008969
 30
0.0
 40
12.0
210
0.0
220
0.0
230
1.0
100
AcDbArc
 50
330.0
 51
150.0
  0
ARC
  5
F3
100
AcDbEntity
  8
0
390
0
  6
Continuous
 62
     7
100
AcDbCircle
 10
-142.998311
 20
-357.008969
 30
0.0
 40
12.0
210
0.0
220
0.0
230
1.0
100
AcDbArc
 50
150.0
 51
330.0
  0
ARC
  5
F4
100
AcDbEntity
  8
0
390
0
  6
Continuous
 62
     7
100
AcDbCircle
 10
-142.998437
 20
-357.009187
 30
0.0
 40
7.9175
210
0.0
220
0.0
230
1.0
100
AcDbArc
 50
149.998174
 51
330.001826
  0
ARC
  5
F5
100
AcDbEntity
  8
0
390
0
  6
Continuous
 62
     7
100
AcDbCircle
 10
-142.998185
 20
-357.00875
 30
0.0
 40
7.9175
210
0.0
220
0.0
230
1.0
100
AcDbArc
 50
329.998174
 51
150.001826
  0
LINE
  5
F6
100
AcDbEntity
  8
0
390
0
  6
Continuous
 62
     7
100
AcDbLine
 10
-135.492758
 20
-370.008969
 30
0.0
 11
-127.987205
 21
-357.00897
 31
0.0
  0
LINE
  5
F7
100
AcDbEntity
  8
0
390
0
  6
Continuous
 62
     7
100
AcDbLine
 10
-150.503865
 20
-370.008969
 30
0.0
 11
-135.492758
 21
-370.008969
 31
0.0
  0
LINE
  5
F8
100
AcDbEntity
  8
0
390
0
  6
Continuous
 62
     7
100
AcDbLine
 10
-158.009418
 20
-357.008969
 30
0.0
 11
-150.503865
 21
-370.008968
 31
0.0
  0
LINE
  5
F9
100
AcDbEntity
  8
0
390
0
  6
Continuous
 62
     7
100
AcDbLine
 10
-154.256641
 20
-350.508969
 30
0.0
 11
-158.009418
 21
-357.008968
 31
0.0
  0
LINE
  5
FA
100
AcDbEntity
  8
0
390
0
  6
Continuous
 62
     7
100
AcDbLine
 10
-150.503865
 20
-344.00897
 30
0.0
 11
-154.256641
 21
-350.508969
 31
0.0
  0
LINE
  5
FB
100
AcDbEntity
  8
0
390
0
  6
Continuous
 62
     7
100
AcDbLine
 10
-135.492758
 20
-344.008969
 30
0.0
 11
-150.503865
 21
-344.008969
 31
0.0
  0
LINE
  5
FC
100
AcDbEntity
  8
0
390
0
  6
Continuous
 62
     7
100
AcDbLine
 10
-127.987204
 20
-357.008969
 30
0.0
 11
-135.492757
 21
-344.00897
 31
0.0
  0
ARC
  5
FD
100
AcDbEntity
  8
0
390
0
  6
Continuous
 62
     7
100
AcDbCircle
 10
-142.998311
 20
-357.008969
 30
0.0
 40
12.0
210
0.0
220
0.0
230
1.0
100
AcDbArc
 50
330.0
 51
150.0
  0
ARC
  5
FE
100
AcDbEntity
  8
0
390
0
  6
Continuous
 62
     7
100
AcDbCircle
 10
-142.998311
 20
-357.008969
 30
0.0
 40
12.0
210
0.0
220
0.0
230
1.0
100
AcDbArc
 50
150.0
 51
330.0
  0
LINE
  5
FF
100
AcDbEntity
  8
0
390
0
  6
Continuous
 62
     7
100
AcDbLine
 10
-158.009418
 20
-357.008969
 30
0.0
 11
-150.503865
 21
-370.008969
 31
0.0
  0
LINE
  5
100
100
AcDbEntity
  8
0
390
0
  6
Continuous
 62
     7
100
AcDbLine
 10
-150.503865
 20
-370.008969
 30
0.0
 11
-135.492758
 21
-370.008969
 31
0.0
  0
LINE
  5
101
100
AcDbEntity
  8
0
390
0
  6
Continuous
 62
     7
100
AcDbLine
 10
-135.492758
 20
-370.008969
 30
0.0
 11
-127.987204
 21
-357.008969
 31
0.0
  0
LINE
  5
102
100
AcDbEntity
  8
0
390
0
  6
Continuous
 62
     7
100
AcDbLine
 10
-127.987204
 20
-357.008969
 30
0.0
 11
-135.492758
 21
-344.008969
 31
0.0
  0
LINE
  5
103
100
AcDbEntity
  8
0
390
0
  6
Continuous
 62
     7
100
AcDbLine
 10
-135.492758
 20
-344.008969
 30
0.0
 11
-150.503865
 21
-344.008969
 31
0.0
  0
LINE
  5
104
100
AcDbEntity
  8
0
390
0
  6
Continuous
 62
     7
100
AcDbLine
 10
-150.503865
 20
-344.008969
 30
0.0
 11
-154.206888
 21
-350.422793
 31
0.0
  0
LINE
  5
105
100
AcDbEntity
  8
0
390
0
  6
Continuous
 62
     7
100
AcDbLine
 10
-154.206888
 20
-350.422793
 30
0.0
 11
-154.256632
 21
-350.508953
 31
0.0
  0
LINE
  5
106
100
AcDbEntity
  8
0
390
0
  6
Continuous
 62
     7
100
AcDbLine
 10
-154.256632
 20
-350.508953
 30
0.0
 11
-154.306378
 21
-350.595115
 31
0.0
  0
LINE
  5
107
100
AcDbEntity
  8
0
390
0
  6
Continuous
 62
     7
100
AcDbLine
 10
-154.306378
 20
-350.595115
 30
0.0
 11
-158.009418
 21
-357.008969
 31
0.0
  0
CIRCLE
  5
108
100
AcDbEntity
  8
0
390
0
  6
Continuous
 62
     7
100
AcDbCircle
 10
143.001689
 20
-357.014579
 30
0.0
 40
7.750002
210
0.0
220
0.0
230
0.9999999999999999
  0
LINE
  5
109
100
AcDbEntity
  8
0
390
0
  6
Continuous
 62
     7
100
AcDbLine
 10
150.751689
 20
-357.008969
 30
0.0
 11
150.729104
 21
-357.600204
 31
0.0
  0
ARC
  5
10A
100
AcDbEntity
  8
0
390
0
  6
Continuous
 62
     7
100
AcDbCircle
 10
143.001689
 20
-357.008969
 30
0.0
 40
7.75
210
0.0
220
0.0
230
1.0
100
AcDbArc
 50
0.0
 51
355.624743
  0
CIRCLE
  5
10B
100
AcDbEntity
  8
0
390
0
  6
Continuous
 62
     7
100
AcDbCircle
 10
-142.998311
 20
-357.014579
 30
0.0
 40
7.750002
210
0.0
220
0.0
230
0.9999999999999999
  0
LINE
  5
10C
100
AcDbEntity
  8
0
390
0
  6
Continuous
 62
     7
100
AcDbLine
 10
-135.248311
 20
-357.008969
 30
0.0
 11
-135.270896
 21
-357.600204
 31
0.0
  0
ARC
  5
10D
100
AcDbEntity
  8
0
390
0
  6
Continuous
 62
     7
100
AcDbCircle
 10
-142.998311
 20
-357.008969
 30
0.0
 40
7.75
210
0.0
220
0.0
230
0.9999999999999999
100
AcDbArc
 50
0.0
 51
355.624743
  0
LINE
  5
10E
100
AcDbEntity
  8
0
390
0
  6
Continuous
 62
     7
100
AcDbLine
 10
-133.948311
 20
-337.008969
 30
0.0
 11
-133.948311
 21
-346.684029
 31
0.0
  0
LINE
  5
10F
100
AcDbEntity
  8
0
390
0
  6
Continuous
 62
     7
100
AcDbLine
 10
-133.948311
 20
-367.334401
 30
0.0
 11
-133.948311
 21
-377.008969
 31
0.0
  0
LINE
  5
110
100
AcDbEntity
  8
0
390
0
  6
Continuous
 62
     7
100
AcDbLine
 10
133.951689
 20
-337.008969
 30
0.0
 11
-133.948166
 21
-337.008969
 31
0.0
  0
LINE
  5
111
100
AcDbEntity
  8
0
390
0
  6
Continuous
 62
     7
100
AcDbLine
 10
133.951689
 20
-377.008969
 30
0.0
 11
133.951689
 21
-367.333909
 31
0.0
  0
LINE
  5
112
100
AcDbEntity
  8
0
390
0
  6
Continuous
 62
     7
100
AcDbLine
 10
133.951689
 20
-346.68357
 30
0.0
 11
133.951689
 21
-337.008969
 31
0.0
  0
LINE
  5
113
100
AcDbEntity
  8
0
390
0
  6
Continuous
 62
     7
100
AcDbLine
 10
-133.948311
 20
-377.008969
 30
0.0
 11
133.951544
 21
-377.008969
 31
0.0
  0
LINE
  5
114
100
AcDbEntity
  8
0
390
0
  6
Continuous
 62
     7
100
AcDbLine
 10
-136.948311
 20
-342.008969
 30
0.0
 11
-136.948311
 21
-344.008969
 31
0.0
  0
LINE
  5
115
100
AcDbEntity
  8
0
390
0
  6
Continuous
 62
     7
100
AcDbLine
 10
-136.948311
 20
-370.008969
 30
0.0
 11
-136.948311
 21
-372.008969
 31
0.0
  0
LINE
  5
116
100
AcDbEntity
  8
0
390
0
  6
Continuous
 62
     7
100
AcDbLine
 10
136.951689
 20
-372.008969
 30
0.0
 11
136.951689
 21
-370.008969
 31
0.0
  0
LINE
  5
117
100
AcDbEntity
  8
0
390
0
  6
Continuous
 62
     7
100
AcDbLine
 10
136.951689
 20
-344.008969
 30
0.0
 11
136.951689
 21
-342.008969
 31
0.0
  0
LINE
  5
118
100
AcDbEntity
  8
0
390
0
  6
Continuous
 62
     7
100
AcDbLine
 10
133.951689
 20
-377.008969
 30
0.0
 11
136.951689
 21
-377.008969
 31
0.0
  0
LINE
  5
119
100
AcDbEntity
  8
0
390
0
  6
Continuous
 62
     7
100
AcDbLine
 10
-133.948311
 20
-377.008969
 30
0.0
 11
133.951689
 21
-377.008969
 31
0.0
  0
LINE
  5
11A
100
AcDbEntity
  8
0
390
0
  6
Continuous
 62
     7
100
AcDbLine
 10
-136.948311
 20
-377.008969
 30
0.0
 11
-133.948311
 21
-377.008969
 31
0.0
  0
LINE
  5
11B
100
AcDbEntity
  8
0
390
0
  6
Continuous
 62
     7
100
AcDbLine
 10
-133.948311
 20
-337.008969
 30
0.0
 11
133.951689
 21
-337.008969
 31
0.0
  0
LINE
  5
11C
100
AcDbEntity
  8
0
390
0
  6
Continuous
 62
     7
100
AcDbLine
 10
-136.948311
 20
-337.008969
 30
0.0
 11
-133.948311
 21
-337.008969
 31
0.0
  0
LINE
  5
11D
100
AcDbEntity
  8
0
390
0
  6
Continuous
 62
     7
100
AcDbLine
 10
133.951689
 20
-337.008969
 30
0.0
 11
136.951689
 21
-337.008969
 31
0.0
  0
LINE
  5
11E
100
AcDbEntity
  8
0
390
0
  6
Continuous
 62
     7
100
AcDbLine
 10
133.951689
 20
-337.008969
 30
0.0
 11
136.951689
 21
-337.008969
 31
0.0
  0
LINE
  5
11F
100
AcDbEntity
  8
0
390
0
  6
Continuous
 62
     7
100
AcDbLine
 10
136.951689
 20
-337.008969
 30
0.0
 11
136.951689
 21
-342.008969
 31
0.0
  0
LINE
  5
120
100
AcDbEntity
  8
0
390
0
  6
Continuous
 62
     7
100
AcDbLine
 10
136.951689
 20
-342.008969
 30
0.0
 11
136.952161
 21
-344.041066
 31
0.0
  0
LINE
  5
121
100
AcDbEntity
  8
0
390
0
  6
Continuous
 62
     7
100
AcDbLine
 10
136.952157
 20
-369.975839
 30
0.0
 11
136.951689
 21
-372.008969
 31
0.0
  0
LINE
  5
122
100
AcDbEntity
  8
0
390
0
  6
Continuous
 62
     7
100
AcDbLine
 10
136.951689
 20
-372.008969
 30
0.0
 11
136.951689
 21
-377.008969
 31
0.0
  0
LINE
  5
123
100
AcDbEntity
  8
0
390
0
  6
Continuous
 62
     7
100
AcDbLine
 10
136.951689
 20
-377.008969
 30
0.0
 11
133.951689
 21
-377.008969
 31
0.0
  0
LINE
  5
124
100
AcDbEntity
  8
0
390
0
  6
Continuous
 62
     7
100
AcDbLine
 10
133.951689
 20
-377.008969
 30
0.0
 11
133.951689
 21
-367.333909
 31
0.0
  0
LINE
  5
125
100
AcDbEntity
  8
0
390
0
  6
Continuous
 62
     7
100
AcDbLine
 10
133.951689
 20
-346.68357
 30
0.0
 11
133.951689
 21
-337.008969
 31
0.0
  0
LINE
  5
126
100
AcDbEntity
  8
0
390
0
  6
Continuous
 62
     7
100
AcDbLine
 10
-133.948311
 20
-377.008969
 30
0.0
 11
-136.948311
 21
-377.008969
 31
0.0
  0
LINE
  5
127
100
AcDbEntity
  8
0
390
0
  6
Continuous
 62
     7
100
AcDbLine
 10
-136.948311
 20
-377.008969
 30
0.0
 11
-136.948311
 21
-372.008969
 31
0.0
  0
LINE
  5
128
100
AcDbEntity
  8
0
390
0
  6
Continuous
 62
     7
100
AcDbLine
 10
-136.948311
 20
-372.008969
 30
0.0
 11
-136.948783
 21
-369.976871
 31
0.0
  0
LINE
  5
129
100
AcDbEntity
  8
0
390
0
  6
Continuous
 62
     7
100
AcDbLine
 10
-136.948779
 20
-344.042099
 30
0.0
 11
-136.948311
 21
-342.008969
 31
0.0
  0
LINE
  5
12A
100
AcDbEntity
  8
0
390
0
  6
Continuous
 62
     7
100
AcDbLine
 10
-136.948311
 20
-342.008969
 30
0.0
 11
-136.948311
 21
-337.008969
 31
0.0
  0
LINE
  5
12B
100
AcDbEntity
  8
0
390
0
  6
Continuous
 62
     7
100
AcDbLine
 10
-136.948311
 20
-337.008969
 30
0.0
 11
-133.948311
 21
-337.008969
 31
0.0
  0
LINE
  5
12C
100
AcDbEntity
  8
0
390
0
  6
Continuous
 62
     7
100
AcDbLine
 10
-133.948311
 20
-337.008969
 30
0.0
 11
-133.948311
 21
-346.684029
 31
0.0
  0
LINE
  5
12D
100
AcDbEntity
  8
0
390
0
  6
Continuous
 62
     7
100
AcDbLine
 10
-133.948311
 20
-367.334401
 30
0.0
 11
-133.948311
 21
-377.008969
 31
0.0
  0
LINE
  5
12E
100
AcDbEntity
  8
0
390
0
  6
Continuous
 62
     7
100
AcDbLine
 10
-136.948311
 20
-377.008969
 30
0.0
 11
-136.948311
 21
-372.008969
 31
0.0
  0
LINE
  5
12F
100
AcDbEntity
  8
0
390
0
  6
Continuous
 62
     7
100
AcDbLine
 10
136.951689
 20
-372.008969
 30
0.0
 11
136.951689
 21
-377.008969
 31
0.0
  0
LINE
  5
130
100
AcDbEntity
  8
0
390
0
  6
Continuous
 62
     7
100
AcDbLine
 10
-136.948311
 20
-337.008969
 30
0.0
 11
-136.948311
 21
-342.008969
 31
0.0
  0
LINE
  5
131
100
AcDbEntity
  8
0
390
0
  6
Continuous
 62
     7
100
AcDbLine
 10
136.951689
 20
-342.008969
 30
0.0
 11
136.951689
 21
-337.008969
 31
0.0
  0
LINE
  5
132
100
AcDbEntity
  8
0
390
0
  6
Continuous
 62
     7
100
AcDbLine
 10
391.261562
 20
-182.03854
 30
0.0
 11
397.360763
 21
-182.03854
 31
0.0
  0
LINE
  5
133
100
AcDbEntity
  8
0
390
0
  6
Continuous
 62
     7
100
AcDbLine
 10
397.360763
 20
-182.03854
 30
0.0
 11
409.162602
 21
-182.03854
 31
0.0
  0
LINE
  5
134
100
AcDbEntity
  8
0
390
0
  6
Continuous
 62
     7
100
AcDbLine
 10
409.162602
 20
-182.03854
 30
0.0
 11
409.26168
 21
-182.03854
 31
0.0
  0
LINE
  5
135
100
AcDbEntity
  8
0
390
0
  6
Continuous
 62
     7
100
AcDbLine
 10
409.26168
 20
-182.03854
 30
0.0
 11
409.36284
 21
-182.03854
 31
0.0
  0
LINE
  5
136
100
AcDbEntity
  8
0
390
0
  6
Continuous
 62
     7
100
AcDbLine
 10
409.36284
 20
-182.03854
 30
0.0
 11
415.261799
 21
-182.03854
 31
0.0
  0
LINE
  5
137
100
AcDbEntity
  8
0
390
0
  6
Continuous
 62
     7
100
AcDbLine
 10
416.26168
 20
-181.461188
 30
0.0
 11
416.26168
 21
-180.300073
 31
0.0
  0
LINE
  5
138
100
AcDbEntity
  8
0
390
0
  6
Continuous
 62
     7
100
AcDbLine
 10
391.26168
 20
-182.03854
 30
0.0
 11
409.26168
 21
-182.03854
 31
0.0
  0
LINE
  5
139
100
AcDbEntity
  8
0
390
0
  6
Continuous
 62
     7
100
AcDbLine
 10
409.26168
 20
-182.03854
 30
0.0
 11
415.26168
 21
-182.03854
 31
0.0
  0
ARC
  5
13A
100
AcDbEntity
  8
0
390
0
  6
Continuous
 62
     7
100
AcDbCircle
 10
409.76168
 20
-162.686926
 30
0.0
 40
18.774262
210
0.0
220
0.0
230
1.0
100
AcDbArc
 50
249.743797
 51
290.256206
  0
ARC
  5
13B
100
AcDbEntity
  8
0
390
0
  6
Continuous
 62
     7
100
AcDbCircle
 10
396.804435
 20
-162.842101
 30
0.0
 40
18.613887
210
0.0
220
0.0
230
1.0
100
AcDbArc
 50
253.014628
 51
290.298111
  0
LINE
  5
13C
100
AcDbEntity
  8
0
390
0
  6
Continuous
 62
     7
100
AcDbLine
 10
391.366806
 20
-180.644039
 30
0.0
 11
390.261681
 21
-180.300073
 31
0.0
  0
LINE
  5
13D
100
AcDbEntity
  8
0
390
0
  6
Continuous
 62
     7
100
AcDbLine
 10
390.261681
 20
-180.300073
 30
0.0
 11
390.26168
 21
-181.148886
 31
0.0
  0
LINE
  5
13E
100
AcDbEntity
  8
0
390
0
  6
Continuous
 62
     7
100
AcDbLine
 10
390.26168
 20
-181.148886
 30
0.0
 11
390.26168
 21
-181.461188
 31
0.0
  0
LINE
  5
13F
100
AcDbEntity
  8
0
390
0
  6
Continuous
 62
     7
100
AcDbLine
 10
403.26168
 20
-169.03854
 30
0.0
 11
416.26168
 21
-169.03854
 31
0.0
  0
LINE
  5
140
100
AcDbEntity
  8
0
390
0
  6
Continuous
 62
     7
100
AcDbLine
 10
390.26168
 20
-169.03854
 30
0.0
 11
403.26168
 21
-169.03854
 31
0.0
  0
LINE
  5
141
100
AcDbEntity
  8
0
390
0
  6
Continuous
 62
     7
100
AcDbLine
 10
416.26168
 20
-181.461188
 30
0.0
 11
416.26168
 21
-181.149182
 31
0.0
  0
LINE
  5
142
100
AcDbEntity
  8
0
390
0
  6
Continuous
 62
     7
100
AcDbLine
 10
416.26168
 20
-181.149182
 30
0.0
 11
416.26168
 21
-180.300072
 31
0.0
  0
LINE
  5
143
100
AcDbEntity
  8
0
390
0
  6
Continuous
 62
     7
100
AcDbLine
 10
416.26168
 20
-180.300072
 30
0.0
 11
416.26168
 21
-169.03854
 31
0.0
  0
LINE
  5
144
100
AcDbEntity
  8
0
390
0
  6
Continuous
 62
     7
100
AcDbLine
 10
403.26168
 20
-169.03854
 30
0.0
 11
416.26168
 21
-169.03854
 31
0.0
  0
LINE
  5
145
100
AcDbEntity
  8
0
390
0
  6
Continuous
 62
     7
100
AcDbLine
 10
416.26168
 20
-169.03854
 30
0.0
 11
416.26168
 21
-180.300072
 31
0.0
  0
ARC
  5
146
100
AcDbEntity
  8
0
390
0
  6
Continuous
 62
     7
100
AcDbCircle
 10
409.76168
 20
-162.686926
 30
0.0
 40
18.774262
210
0.0
220
0.0
230
1.0
100
AcDbArc
 50
249.743795
 51
290.256205
  0
LINE
  5
147
100
AcDbEntity
  8
0
390
0
  6
Continuous
 62
     7
100
AcDbLine
 10
403.26168
 20
-180.300072
 30
0.0
 11
403.26168
 21
-169.03854
 31
0.0
  0
LINE
  5
148
100
AcDbEntity
  8
0
390
0
  6
Continuous
 62
     7
100
AcDbLine
 10
403.26168
 20
-169.03854
 30
0.0
 11
403.26168
 21
-180.300072
 31
0.0
  0
LINE
  5
149
100
AcDbEntity
  8
0
390
0
  6
Continuous
 62
     7
100
AcDbLine
 10
390.26168
 20
-169.03854
 30
0.0
 11
403.26168
 21
-169.03854
 31
0.0
  0
LINE
  5
14A
100
AcDbEntity
  8
0
390
0
  6
Continuous
 62
     7
100
AcDbLine
 10
390.26168
 20
-180.300072
 30
0.0
 11
390.26168
 21
-169.03854
 31
0.0
  0
ARC
  5
14B
100
AcDbEntity
  8
0
390
0
  6
Continuous
 62
     7
100
AcDbCircle
 10
396.807849
 20
-162.945871
 30
0.0
 40
18.515405
210
0.0
220
0.0
230
0.9999999999999999
100
AcDbArc
 50
252.910136
 51
290.399598
  0
LINE
  5
14C
100
AcDbEntity
  8
0
390
0
  6
Continuous
 62
     7
100
AcDbLine
 10
391.366704
 20
-180.643729
 30
0.0
 11
390.26168
 21
-180.300072
 31
0.0
  0
LINE
  5
14D
100
AcDbEntity
  8
0
390
0
  6
Continuous
 62
     7
100
AcDbLine
 10
390.26168
 20
-169.03854
 30
0.0
 11
390.26168
 21
-180.300072
 31
0.0
  0
LINE
  5
14E
100
AcDbEntity
  8
0
390
0
  6
Continuous
 62
     7
100
AcDbLine
 10
390.26168
 20
-180.300072
 30
0.0
 11
390.26168
 21
-181.147597
 31
0.0
  0
LINE
  5
14F
100
AcDbEntity
  8
0
390
0
  6
Continuous
 62
     7
100
AcDbLine
 10
390.26168
 20
-181.147597
 30
0.0
 11
390.26168
 21
-181.461188
 31
0.0
  0
LINE
  5
150
100
AcDbEntity
  8
0
390
0
  6
Continuous
 62
     7
100
AcDbLine
 10
411.01168
 20
-202.03854
 30
0.0
 11
403.26168
 21
-202.03854
 31
0.0
  0
LINE
  5
151
100
AcDbEntity
  8
0
390
0
  6
Continuous
 62
     7
100
AcDbLine
 10
403.26168
 20
-202.03854
 30
0.0
 11
395.51168
 21
-202.03854
 31
0.0
  0
LINE
  5
152
100
AcDbEntity
  8
0
390
0
  6
Continuous
 62
     7
100
AcDbLine
 10
395.51168
 20
-202.03854
 30
0.0
 11
403.26168
 21
-202.03854
 31
0.0
  0
LINE
  5
153
100
AcDbEntity
  8
0
390
0
  6
Continuous
 62
     7
100
AcDbLine
 10
403.26168
 20
-202.03854
 30
0.0
 11
411.01168
 21
-202.03854
 31
0.0
  0
LINE
  5
154
100
AcDbEntity
  8
0
390
0
  6
Continuous
 62
     7
100
AcDbLine
 10
418.26168
 20
-132.53854
 30
0.0
 11
413.461156
 21
-132.53854
 31
0.0
  0
LINE
  5
155
100
AcDbEntity
  8
0
390
0
  6
Continuous
 62
     7
100
AcDbLine
 10
413.461156
 20
-132.53854
 30
0.0
 11
413.261717
 21
-132.53854
 31
0.0
  0
LINE
  5
156
100
AcDbEntity
  8
0
390
0
  6
Continuous
 62
     7
100
AcDbLine
 10
413.261717
 20
-132.53854
 30
0.0
 11
393.16168
 21
-132.53854
 31
0.0
  0
LINE
  5
157
100
AcDbEntity
  8
0
390
0
  6
Continuous
 62
     7
100
AcDbLine
 10
393.16168
 20
-132.53854
 30
0.0
 11
383.26168
 21
-132.53854
 31
0.0
  0
LINE
  5
158
100
AcDbEntity
  8
0
390
0
  6
Continuous
 62
     7
100
AcDbLine
 10
423.26168
 20
-132.53854
 30
0.0
 11
423.26168
 21
136.956209
 31
0.0
  0
LINE
  5
159
100
AcDbEntity
  8
0
390
0
  6
Continuous
 62
     7
100
AcDbLine
 10
383.26168
 20
-132.53854
 30
0.0
 11
383.26168
 21
136.956209
 31
0.0
  0
LINE
  5
15A
100
AcDbEntity
  8
0
390
0
  6
Continuous
 62
     7
100
AcDbLine
 10
388.26168
 20
-132.53854
 30
0.0
 11
393.061763
 21
-132.53854
 31
0.0
  0
LINE
  5
15B
100
AcDbEntity
  8
0
390
0
  6
Continuous
 62
     7
100
AcDbLine
 10
393.061763
 20
-132.53854
 30
0.0
 11
413.36168
 21
-132.53854
 31
0.0
  0
LINE
  5
15C
100
AcDbEntity
  8
0
390
0
  6
Continuous
 62
     7
100
AcDbLine
 10
413.36168
 20
-132.53854
 30
0.0
 11
418.26168
 21
-132.53854
 31
0.0
  0
LINE
  5
15D
100
AcDbEntity
  8
0
390
0
  6
Continuous
 62
     7
100
AcDbLine
 10
418.26168
 20
-132.53854
 30
0.0
 11
423.26168
 21
-132.53854
 31
0.0
  0
LINE
  5
15E
100
AcDbEntity
  8
0
390
0
  6
Continuous
 62
     7
100
AcDbLine
 10
423.26168
 20
-132.53854
 30
0.0
 11
423.26168
 21
136.961454
 31
0.0
  0
LINE
  5
15F
100
AcDbEntity
  8
0
390
0
  6
Continuous
 62
     7
100
AcDbLine
 10
418.26168
 20
-132.53854
 30
0.0
 11
423.26168
 21
-132.53854
 31
0.0
  0
LINE
  5
160
100
AcDbEntity
  8
0
390
0
  6
Continuous
 62
     7
100
AcDbLine
 10
383.26168
 20
-132.53854
 30
0.0
 11
383.26168
 21
136.961454
 31
0.0
  0
LINE
  5
161
100
AcDbEntity
  8
0
390
0
  6
Continuous
 62
     7
100
AcDbLine
 10
390.261513
 20
-181.461092
 30
0.0
 11
391.26168
 21
-182.03854
 31
0.0
  0
LINE
  5
162
100
AcDbEntity
  8
0
390
0
  6
Continuous
 62
     7
100
AcDbLine
 10
415.26168
 20
-182.03854
 30
0.0
 11
416.261847
 21
-181.461092
 31
0.0
  0
LINE
  5
163
100
AcDbEntity
  8
0
390
0
  6
Continuous
 62
     7
100
AcDbLine
 10
411.01168
 20
-202.03854
 30
0.0
 11
411.01168
 21
-182.03854
 31
0.0
  0
LINE
  5
164
100
AcDbEntity
  8
0
390
0
  6
Continuous
 62
     7
100
AcDbLine
 10
411.01168
 20
-169.03854
 30
0.0
 11
411.01168
 21
-132.53854
 31
0.0
  0
LINE
  5
165
100
AcDbEntity
  8
0
390
0
  6
Continuous
 62
     7
100
AcDbLine
 10
395.51168
 20
-132.53854
 30
0.0
 11
395.51168
 21
-169.03854
 31
0.0
  0
LINE
  5
166
100
AcDbEntity
  8
0
390
0
  6
Continuous
 62
     7
100
AcDbLine
 10
395.51168
 20
-182.03854
 30
0.0
 11
395.51168
 21
-202.03854
 31
0.0
  0
POINT
  5
167
100
AcDbEntity
  8
0
390
0
 62
     7
100
AcDbPoint
 10
0.0
 20
0.0
 30
0.0
  0
LINE
  5
168
100
AcDbEntity
  8
0
390
0
  6
Continuous
 62
     7
100
AcDbLine
 10
383.26168
 20
136.956209
 30
0.0
 11
391.16168
 21
136.956209
 31
0.0
  0
ARC
  5
169
100
AcDbEntity
  8
0
390
0
  6
Continuous
 62
     7
100
AcDbCircle
 10
391.161681
 20
138.956208
 30
0.0
 40
1.999999
210
0.0
220
0.0
230
1.0
100
AcDbArc
 50
269.999957
 51
0.000043
  0
LINE
  5
16A
100
AcDbEntity
  8
0
390
0
  6
Continuous
 62
     7
100
AcDbLine
 10
393.16168
 20
-132.53854
 30
0.0
 11
393.16168
 21
142.997208
 31
0.0
  0
ARC
  5
16B
100
AcDbEntity
  8
0
390
0
  6
Continuous
 62
     7
100
AcDbCircle
 10
403.26168
 20
142.997208
 30
0.0
 40
10.1
210
0.0
220
0.0
230
1.0
100
AcDbArc
 50
0.0
 51
180.0
  0
LINE
  5
16C
100
AcDbEntity
  8
0
390
0
  6
Continuous
 62
     7
100
AcDbLine
 10
413.36168
 20
142.997208
 30
0.0
 11
413.36168
 21
-132.53854
 31
0.0
  0
ARC
  5
16D
100
AcDbEntity
  8
0
390
0
  6
Continuous
 62
     7
100
AcDbCircle
 10
415.361679
 20
138.956208
 30
0.0
 40
1.999999
210
0.0
220
0.0
230
1.0
100
AcDbArc
 50
179.999957
 51
270.000043
  0
LINE
  5
16E
100
AcDbEntity
  8
0
390
0
  6
Continuous
 62
     7
100
AcDbLine
 10
415.36168
 20
136.956209
 30
0.0
 11
423.26168
 21
136.956209
 31
0.0
  0
ENDSEC
  0
SECTION
  2
OBJECTS
  0
DICTIONARY
  5
19
100
AcDbDictionary
280
     0
281
     1
  3
ACAD_GROUP
350
1A
  3
ACAD_MLINESTYLE
350
1B
  3
ACAD_LAYOUT
350
1E
  3
ACAD_PLOTSETTINGS
350
22
  3
ACAD_PLOTSTYLENAME
350
1F
  3
ACAD_WIPEOUT_VARS
350
23
  0
DICTIONARY
  5
1A
102
{ACAD_REACTORS
330
19
102
}
100
AcDbDictionary
280
     0
281
     1
  0
DICTIONARY
  5
1B
102
{ACAD_REACTORS
330
19
102
}
100
AcDbDictionary
280
     0
281
     1
  3
Standard
350
1C
  0
MLINESTYLE
  5
1C
102
{ACAD_REACTORS
330
1B
102
}
100
AcDbMlineStyle
  2
Standard
 70
     0
  3

 62
     0
 51
90.0
 52
90.0
 71
     2
 49
0.5
 62
   256
  6
ByLayer
 49
-0.5
 62
   256
  6
ByLayer
  0
ACDBDICTIONARYWDFLT
  5
1F
102
{ACAD_REACTORS
330
19
102
}
100
AcDbDictionary
281
     1
  3
Normal
350
1D
100
AcDbDictionaryWithDefault
340
1D
  0
ACDBPLACEHOLDER
  5
1D
102
{ACAD_REACTORS
330
1F
102
}
  0
LAYOUT
  5
20
102
{ACAD_REACTORS
330
1E
102
}
100
AcDbPlotSettings
  1

  2

  4

  6

 40
0.0
 41
0.0
 42
0.0
 43
0.0
 44
0.0
 45
0.0
 46
0.0
 47
0.0
 48
0.0
 49
0.0
140
0.0
141
0.0
142
1.0
143
1.0
 70
  1024
 72
     0
 73
     0
 74
     0
  7

 75
     0
147
1.0
148
0.0
149
0.0
100
AcDbLayout
  1
Model
 70
     0
 71
     1
 10
0.0
 20
0.0
 11
0.0
 21
0.0
 12
0.0
 22
0.0
 32
0.0
 14
0.0
 24
0.0
 34
0.0
 15
0.0
 25
0.0
 35
0.0
146
0.0
 13
0.0
 23
0.0
 33
0.0
 16
0.0
 26
0.0
 36
0.0
 17
0.0
 27
0.0
 37
0.0
 76
     0
330
A
331
0
345
0
346
0
  0
LAYOUT
  5
21
102
{ACAD_REACTORS
330
1E
102
}
100
AcDbPlotSettings
  1

  2

  4

  6

 40
0.0
 41
0.0
 42
0.0
 43
0.0
 44
0.0
 45
0.0
 46
0.0
 47
0.0
 48
0.0
 49
0.0
140
0.0
141
0.0
142
1.0
143
1.0
 70
     0
 72
     0
 73
     0
 74
     0
  7

 75
     0
147
1.0
148
0.0
149
0.0
100
AcDbLayout
  1
Layout1
 70
     0
 71
     2
 10
0.0
 20
0.0
 11
0.0
 21
0.0
 12
0.0
 22
0.0
 32
0.0
 14
0.0
 24
0.0
 34
0.0
 15
0.0
 25
0.0
 35
0.0
146
0.0
 13
0.0
 23
0.0
 33
0.0
 16
0.0
 26
0.0
 36
0.0
 17
0.0
 27
0.0
 37
0.0
 76
     0
330
B
331
0
345
0
346
0
  0
DICTIONARY
  5
1E
102
{ACAD_REACTORS
330
19
102
}
100
AcDbDictionary
280
     0
281
     1
  3
Layout1
350
21
  3
Model
350
20
  0
DICTIONARY
  5
22
102
{ACAD_REACTORS
330
19
102
}
100
AcDbDictionary
280
     0
281
     1
  0
WIPEOUTVARIABLES
  5
23
100
AcDbWipeoutVariables
 70
     1
  0
ENDSEC
  0
EOF
