  0
SECTION
  2
HEADER
  9
$ACADVER
  1
AC1015
  9
$ACADMAINTVER
 70
     6
  9
$DWGCODEPAGE
  3
DOS932
  9
$INSBASE
 10
0.0
 20
0.0
 30
0.0
  9
$EXTMIN
 10
-145.799599
 20
-34.9153
 30
0.0
  9
$EXTMAX
 10
445.640022
 20
380.80418
 30
9.906
  9
$LIMMIN
 10
-145.799599
 20
-34.9153
  9
$LIMMAX
 10
445.640022
 20
380.80418
  9
$ORTHOMODE
 70
     0
  9
$REGENMODE
 70
     1
  9
$FILLMODE
 70
     1
  9
$QTEXTMODE
 70
     0
  9
$MIRRTEXT
 70
     1
  9
$LTSCALE
 40
10.0
  9
$ATTMODE
 70
     1
  9
$TEXTSIZE
 40
0.2
  9
$TRACEWID
 40
0.05
  9
$TEXTSTYLE
  7
Standard
  9
$CLAYER
  8
0
  9
$CELTYPE
  6
Continuous
  9
$CECOLOR
 62
   256
  9
$CELTSCALE
 40
1.0
  9
$DISPSILH
 70
     0
  9
$DIMSCALE
 40
1.0
  9
$DIMASZ
 40
1.40208
  9
$DIMEXO
 40
1.40208
  9
$DIMDLI
 40
0.38
  9
$DIMRND
 40
0.0
  9
$DIMDLE
 40
0.0
  9
$DIMEXE
 40
1.05156
  9
$DIMTP
 40
0.0
  9
$DIMTM
 40
0.0
  9
$DIMTXT
 40
3.5052
  9
$DIMCEN
 40
0.09
  9
$DIMTSZ
 40
0.0
  9
$DIMTOL
 70
     0
  9
$DIMLIM
 70
     0
  9
$DIMTIH
 70
     0
  9
$DIMTOH
 70
     0
  9
$DIMSE1
 70
     0
  9
$DIMSE2
 70
     0
  9
$DIMTAD
 70
     1
  9
$DIMZIN
 70
     0
  9
$DIMBLK
  1

  9
$DIMASO
 70
     1
  9
$DIMSHO
 70
     1
  9
$DIMPOST
  1

  9
$DIMAPOST
  1

  9
$DIMALT
 70
     0
  9
$DIMALTD
 70
     2
  9
$DIMALTF
 40
25.4
  9
$DIMLFAC
 40
1.0
  9
$DIMTOFL
 70
     0
  9
$DIMTVP
 40
0.0
  9
$DIMTIX
 70
     0
  9
$DIMSOXD
 70
     0
  9
$DIMSAH
 70
     0
  9
$DIMBLK1
  1

  9
$DIMBLK2
  1

  9
$DIMSTYLE
  2
Standard
  9
$DIMCLRD
 70
     7
  9
$DIMCLRE
 70
     7
  9
$DIMCLRT
 70
     7
  9
$DIMTFAC
 40
0.5
  9
$DIMGAP
 40
1.7526
  9
$DIMJUST
 70
     0
  9
$DIMSD1
 70
     0
  9
$DIMSD2
 70
     0
  9
$DIMTOLJ
 70
     1
  9
$DIMTZIN
 70
     0
  9
$DIMALTZ
 70
     0
  9
$DIMALTTZ
 70
     0
  9
$DIMUPT
 70
     0
  9
$DIMDEC
 70
     2
  9
$DIMTDEC
 70
     4
  9
$DIMALTU
 70
     2
  9
$DIMALTTD
 70
     2
  9
$DIMTXSTY
  7
Standard
  9
$DIMAUNIT
 70
     0
  9
$DIMADEC
 70
     0
  9
$DIMALTRND
 40
0.0
  9
$DIMAZIN
 70
     0
  9
$DIMDSEP
 70
     0
  9
$DIMATFIT
 70
     3
  9
$DIMFRAC
 70
     0
  9
$DIMLDRBLK
  1

  9
$DIMLUNIT
 70
     2
  9
$DIMLWD
 70
     0
  9
$DIMLWE
 70
     0
  9
$DIMTMOVE
 70
     0
  9
$LUNITS
 70
     2
  9
$LUPREC
 70
     4
  9
$SKETCHINC
 40
0.1
  9
$FILLETRAD
 40
0.0
  9
$AUNITS
 70
     0
  9
$AUPREC
 70
     0
  9
$MENU
  1
acad
  9
$ELEVATION
 40
0.0
  9
$PELEVATION
 40
0.0
  9
$THICKNESS
 40
0.0
  9
$LIMCHECK
 70
     0
  9
$CHAMFERA
 40
0.0
  9
$CHAMFERB
 40
0.0
  9
$CHAMFERC
 40
0.0
  9
$CHAMFERD
 40
0.0
  9
$SKPOLY
 70
     0
  9
$TDCREATE
 40
2459781.704745370
  9
$TDUCREATE
 40
0.000000000
  9
$TDUPDATE
 40
2459781.329699074
  9
$TDUUPDATE
 40
0.000000000
  9
$TDINDWG
 40
0.0000000000
  9
$TDUSRTIMER
 40
0.0000000000
  9
$USRTIMER
 70
     1
  9
$ANGBASE
 50
0.0
  9
$ANGDIR
 70
     0
  9
$PDMODE
 70
     0
  9
$PDSIZE
 40
0.0
  9
$PLINEWID
 40
0.0
  9
$SPLFRAME
 70
     0
  9
$SPLINETYPE
 70
     6
  9
$SPLINESEGS
 70
     8
  9
$HANDSEED
  5
623
  9
$SURFTAB1
 70
     6
  9
$SURFTAB2
 70
     6
  9
$SURFTYPE
 70
     6
  9
$SURFU
 70
     6
  9
$SURFV
 70
     6
  9
$UCSBASE
  2

  9
$UCSNAME
  2

  9
$UCSORG
 10
0.0
 20
0.0
 30
0.0
  9
$UCSXDIR
 10
1.0
 20
0.0
 30
0.0
  9
$UCSYDIR
 10
0.0
 20
1.0
 30
0.0
  9
$UCSORTHOREF
  2

  9
$UCSORTHOVIEW
 70
     0
  9
$UCSORGTOP
 10
0.0
 20
0.0
 30
0.0
  9
$UCSORGBOTTOM
 10
0.0
 20
0.0
 30
0.0
  9
$UCSORGLEFT
 10
0.0
 20
0.0
 30
0.0
  9
$UCSORGRIGHT
 10
0.0
 20
0.0
 30
0.0
  9
$UCSORGFRONT
 10
0.0
 20
0.0
 30
0.0
  9
$UCSORGBACK
 10
0.0
 20
0.0
 30
0.0
  9
$PUCSBASE
  2

  9
$PUCSNAME
  2

  9
$PUCSORG
 10
0.0
 20
0.0
 30
0.0
  9
$PUCSXDIR
 10
1.0
 20
0.0
 30
0.0
  9
$PUCSYDIR
 10
0.0
 20
1.0
 30
0.0
  9
$PUCSORTHOREF
  2

  9
$PUCSORTHOVIEW
 70
     0
  9
$PUCSORGTOP
 10
0.0
 20
0.0
 30
0.0
  9
$PUCSORGBOTTOM
 10
0.0
 20
0.0
 30
0.0
  9
$PUCSORGLEFT
 10
0.0
 20
0.0
 30
0.0
  9
$PUCSORGRIGHT
 10
0.0
 20
0.0
 30
0.0
  9
$PUCSORGFRONT
 10
0.0
 20
0.0
 30
0.0
  9
$PUCSORGBACK
 10
0.0
 20
0.0
 30
0.0
  9
$USERI1
 70
     0
  9
$USERI2
 70
     0
  9
$USERI3
 70
     0
  9
$USERI4
 70
     0
  9
$USERI5
 70
     0
  9
$USERR1
 40
0.0
  9
$USERR2
 40
0.0
  9
$USERR3
 40
0.0
  9
$USERR4
 40
0.0
  9
$USERR5
 40
0.0
  9
$WORLDVIEW
 70
     1
  9
$SHADEDGE
 70
     3
  9
$SHADEDIF
 70
    70
  9
$TILEMODE
 70
     1
  9
$MAXACTVP
 70
    16
  9
$PINSBASE
 10
0.0
 20
0.0
 30
0.0
  9
$PLIMCHECK
 70
     0
  9
$PEXTMIN
 10
1.000000E+20
 20
1.000000E+20
 30
1.000000E+20
  9
$PEXTMAX
 10
-1.000000E+20
 20
-1.000000E+20
 30
-1.000000E+20
  9
$PLIMMIN
 10
0.0
 20
0.0
  9
$PLIMMAX
 10
12.0
 20
9.0
  9
$UNITMODE
 70
     0
  9
$VISRETAIN
 70
     0
  9
$PLINEGEN
 70
     1
  9
$PSLTSCALE
 70
     0
  9
$TREEDEPTH
 70
  3020
  9
$CMLSTYLE
  2
Standard
  9
$CMLJUST
 70
     0
  9
$CMLSCALE
 40
1.0
  9
$PROXYGRAPHICS
 70
     0
  9
$MEASUREMENT
 70
     0
  9
$CELWEIGHT
370
     0
  9
$ENDCAPS
280
     0
  9
$JOINSTYLE
280
     0
  9
$LWDISPLAY
290
     0
  9
$INSUNITS
 70
     0
  9
$HYPERLINKBASE
  1

  9
$STYLESHEET
  1

  9
$XEDIT
290
     1
  9
$CEPSNTYPE
380
     0
  9
$PSTYLEMODE
290
     1
  9
$FINGERPRINTGUID
  2

  9
$VERSIONGUID
  2

  9
$EXTNAMES
290
     1
  9
$PSVPSCALE
 40
0.0
  0
ENDSEC
  0
SECTION
  2
CLASSES
  0
CLASS
  1
LWPOLYLINE
  2
AcDbPolyline
  3
AutoCAD 2000
 90
        0
280
     0
281
     1
  0
CLASS
  1
IMAGE
  2
AcDbRasterImage
  3
ISM
 90
      127
280
     0
281
     1
  0
CLASS
  1
OLE2FRAME
  2
AcDbOle2Frame
  3
AutoCAD 2000
 90
        0
280
     0
281
     1
  0
CLASS
  1
HATCH
  2
AcDbHatch
  3
AutoCAD 2000
 90
        0
280
     0
281
     1
  0
CLASS
  1
DICTIONARYVAR
  2
AcDbDictionaryVar
  3
AutoCAD 2000
 90
        0
280
     0
281
     0
  0
CLASS
  1
RASTERVARIABLES
  2
AcDbRasterVariables
  3
ISM
 90
        0
280
     0
281
     0
  0
CLASS
  1
IMAGEDEF
  2
AcDbRasterImageDef
  3
ISM
 90
        0
280
     0
281
     0
  0
CLASS
  1
IMAGEDEF_REACTOR
  2
AcDbRasterImageDefReactor
  3
ISM
 90
        1
280
     0
281
     0
  0
CLASS
  1
IDBUFFER
  2
AcDbIdBuffer
  3
AutoCAD 2000
 90
        0
280
     0
281
     0
  0
CLASS
  1
SPATIAL_FILTER
  2
AcDbSpatialFilter
  3
AutoCAD 2000
 90
        0
280
     0
281
     0
  0
CLASS
  1
XRECORD
  2
AcDbXrecord
  3
AutoCAD 2000
 90
        0
280
     0
281
     0
  0
CLASS
  1
SORTENTSTABLE
  2
AcDbSortentsTable
  3
AutoCAD 2000
 90
        0
280
     0
281
     0
  0
CLASS
  1
LAYER_INDEX
  2
AcDbLayerIndex
  3
AutoCAD 2000
 90
        0
280
     0
281
     0
  0
CLASS
  1
SPATIAL_INDEX
  2
AcDbSpatialIndex
  3
AutoCAD 2000
 90
        0
280
     0
281
     0
  0
CLASS
  1
OBJECT_PTR
  2
CAseDLPNTableRecord
  3
"ASE-LPNTableRecord"
 90
        1
280
     0
281
     0
  0
CLASS
  1
LAYOUT
  2
AcDbLayout
  3
AutoCAD 2000
 90
        0
280
     0
281
     0
  0
CLASS
  1
PLOTSETTINGS
  2
AcDbPlotSettings
  3
AutoCAD 2000
 90
        0
280
     0
281
     0
  0
CLASS
  1
ACDBDICTIONARYWDFLT
  2
AcDbDictionaryWithDefault
  3
AutoCAD 2000
 90
        0
280
     0
281
     0
  0
CLASS
  1
ACDBPLACEHOLDER
  2
AcDbPlaceHolder
  3
AutoCAD 2000
 90
        0
280
     0
281
     0
  0
CLASS
  1
VBA_PROJECT
  2
AcDbVbaProject
  3
acadvba
 90
        0
280
     0
281
     0
  0
CLASS
  1
WIPEOUT
  2
AcDbWipeout
  3
WipeOut|AutoCAD Express Tool|expresstools@autodesk.com
 90
      127
280
     0
281
     1
  0
CLASS
  1
WIPEOUTVARIABLES
  2
AcDbWipeoutVariables
  3
WipeOut|AutoCAD Express Tool|expresstools@autodesk.com
 90
        0
280
     0
281
     0
  0
CLASS
  1
RTEXT
  2
RText
  3
RText|AutoCAD Express Tool|expresstools@autodesk.com
 90
        0
280
     0
281
     1
  0
CLASS
  1
ARCALIGNEDTEXT
  2
AcDbArcAlignedText
  3
ATEXT|AutoCAD Express Tool|expresstools@autodesk.com
 90
        0
280
     0
281
     1
  0
ENDSEC
  0
SECTION
  2
TABLES
  0
TABLE
  2
VPORT
  5
7
100
AcDbSymbolTable
 70
     1
  0
VPORT
  5
15
100
AcDbSymbolTableRecord
100
AcDbViewportTableRecord
  2
*ACTIVE
 70
     0
 10
0.0
 20
0.0
 11
1.0
 21
1.0
 12
6.591288
 22
4.579184
 13
0.0
 23
0.0
 14
1.0
 24
1.0
 15
0.0
 25
0.0
 16
0.0
 26
0.0
 36
1.0
 17
0.0
 27
0.0
 37
0.0
 40
9.158369
 41
0.688564
 42
50.0
 43
0.0
 44
0.0
 50
0.0
 51
0.0
 71
     0
 72
   100
 73
     1
 74
     1
 75
     0
 76
     0
 77
     0
 78
     0
281
     0
 65
     0
110
0.0
120
0.0
130
0.0
111
1.0
121
0.0
131
0.0
112
0.0
122
1.0
132
0.0
345
0
346
0
 79
     0
146
0.0
  0
ENDTAB
  0
TABLE
  2
LTYPE
  5
4
100
AcDbSymbolTable
 70
     3
  0
LTYPE
  5
11
100
AcDbSymbolTableRecord
100
AcDbLinetypeTableRecord
  2
ByBlock
 70
    64
  3

 72
    65
 73
     0
 40
0.0
  0
LTYPE
  5
12
100
AcDbSymbolTableRecord
100
AcDbLinetypeTableRecord
  2
ByLayer
 70
    64
  3

 72
    65
 73
     0
 40
0.0
  0
LTYPE
  5
13
100
AcDbSymbolTableRecord
100
AcDbLinetypeTableRecord
  2
Continuous
 70
    64
  3
Solid line
 72
    65
 73
     0
 40
0.0
  0
ENDTAB
  0
TABLE
  2
LAYER
  5
2
100
AcDbSymbolTable
 70
     1
  0
LAYER
  5
14
100
AcDbSymbolTableRecord
100
AcDbLayerTableRecord
  2
0
 70
     0
 62
     7
  6
Continuous
290
     1
370
    -3
390
1D
  0
ENDTAB
  0
TABLE
  2
STYLE
  5
3
100
AcDbSymbolTable
 70
     1
  0
STYLE
  5
17
100
AcDbSymbolTableRecord
100
AcDbTextStyleTableRecord
  2
Standard
 70
     0
 40
0.0
 41
1.0
 50
0.0
 71
     0
 42
0.0
  3
FG教科書体NT-M
  4

1001
ACAD
1000
FG教科書体NT-M
1071
        0
  0
ENDTAB
  0
TABLE
  2
VIEW
  5
5
100
AcDbSymbolTable
 70
     0
  0
ENDTAB
  0
TABLE
  2
UCS
  5
6
100
AcDbSymbolTable
 70
     0
  0
ENDTAB
  0
TABLE
  2
APPID
  5
8
100
AcDbSymbolTable
 70
     2
  0
APPID
  5
16
100
AcDbSymbolTableRecord
100
AcDbRegAppTableRecord
  2
ACAD
 70
     0
  0
APPID
  5
26
100
AcDbSymbolTableRecord
100
AcDbRegAppTableRecord
  2
TOPsolid_Design
 70
     0
  0
ENDTAB
  0
TABLE
  2
DIMSTYLE
  5
9
100
AcDbSymbolTable
 70
     1
100
AcDbDimStyleTable
 71
     0
  0
DIMSTYLE
105
18
100
AcDbSymbolTableRecord
100
AcDbDimStyleTableRecord
  2
Standard
 70
     0
  3

  4

 40
1.0
 41
1.40208
 42
1.40208
 43
0.38
 44
1.05156
 45
0.0
 46
0.0
 47
0.0
 48
0.0
 71
     0
 72
     0
 73
     0
 74
     0
 75
     0
 76
     0
 77
     1
 78
     0
 79
     0
140
3.5052
141
0.09
142
0.0
143
25.4
144
1.0
145
0.0
146
0.5
147
1.7526
148
0.0
170
     0
171
     2
172
     0
173
     0
174
     0
175
     0
176
     7
177
     7
178
     7
179
     0
271
     2
272
     4
273
     2
274
     2
275
     0
276
     0
277
     2
278
    46
279
     0
280
     0
281
     0
282
     0
283
     1
284
     0
285
     0
286
     0
288
     0
289
     3
340
17
341
0
342
0
343
0
344
0
371
    -2
372
    -2
  0
ENDTAB
  0
TABLE
  2
BLOCK_RECORD
  5
1
100
AcDbSymbolTable
 70
     0
  0
BLOCK_RECORD
  5
A
100
AcDbSymbolTableRecord
100
AcDbBlockTableRecord
  2
*MODEL_SPACE
340
20
  0
BLOCK_RECORD
  5
B
100
AcDbSymbolTableRecord
100
AcDbBlockTableRecord
  2
*PAPER_SPACE
340
21
  0
ENDTAB
  0
ENDSEC
  0
SECTION
  2
BLOCKS
  0
BLOCK
  5
D
100
AcDbEntity
  8
0
390
0
100
AcDbBlockBegin
  2
*MODEL_SPACE
 70
     0
 10
0.0
 20
0.0
 30
0.0
  3
*MODEL_SPACE
  1

  0
ENDBLK
  5
E
100
AcDbEntity
  8
0
390
0
100
AcDbBlockEnd
  0
BLOCK
  5
F
100
AcDbEntity
 67
     1
  8
0
390
0
100
AcDbBlockBegin
  2
*PAPER_SPACE
 70
     0
 10
0.0
 20
0.0
 30
0.0
  3
*PAPER_SPACE
  1

  0
ENDBLK
  5
10
100
AcDbEntity
 67
     1
  8
0
390
0
100
AcDbBlockEnd
  0
ENDSEC
  0
SECTION
  2
ENTITIES
  0
ARC
  5
27
100
AcDbEntity
  8
0
390
0
  6
Continuous
 62
     7
100
AcDbCircle
 10
6.045575
 20
0.0
 30
0.0
 40
11.745886
210
0.0
220
0.0
230
1.0
100
AcDbArc
 50
129.491723
 51
230.508277
  0
LINE
  5
28
100
AcDbEntity
  8
0
390
0
  6
Continuous
 62
     7
100
AcDbLine
 10
-1.424419
 20
-34.823587
 30
0.0
 11
-5.700343
 21
-34.2547
 31
0.0
  0
LINE
  5
29
100
AcDbEntity
  8
0
390
0
  6
Continuous
 62
     7
100
AcDbLine
 10
-5.700343
 20
34.254701
 30
0.0
 11
-1.424419
 21
34.823588
 31
0.0
  0
LINE
  5
2A
100
AcDbEntity
  8
0
390
0
  6
Continuous
 62
     7
100
AcDbLine
 10
-8.908325
 20
-32.308326
 30
0.0
 11
-8.908325
 21
12.363862
 31
0.0
  0
POLYLINE
  5
2B
100
AcDbEntity
  8
0
390
0
  6
Continuous
 62
     7
100
AcDb2dPolyline
 66
     1
 10
0.0
 20
0.0
 30
0.0
 40
0.1
 41
0.1
  0
VERTEX
  5
2C
100
AcDbEntity
  8
0
390
0
 62
     7
100
AcDbVertex
100
AcDb2dVertex
 10
-1.424419
 20
31.03356
 30
0.0
 42
0.348199
  0
VERTEX
  5
2D
100
AcDbEntity
  8
0
390
0
 62
     7
100
AcDbVertex
100
AcDb2dVertex
 10
-5.360914
 20
22.266164
 30
0.0
 42
0.195676
  0
VERTEX
  5
2E
100
AcDbEntity
  8
0
390
0
 62
     7
100
AcDbVertex
100
AcDb2dVertex
 10
-1.424419
 20
18.21443
 30
0.0
  0
SEQEND
  5
2F
100
AcDbEntity
  8
0
390
0
  0
POLYLINE
  5
30
100
AcDbEntity
  8
0
390
0
  6
Continuous
 62
     7
100
AcDb2dPolyline
 66
     1
 10
0.0
 20
0.0
 30
0.0
 40
0.1
 41
0.1
  0
VERTEX
  5
31
100
AcDbEntity
  8
0
390
0
 62
     7
100
AcDbVertex
100
AcDb2dVertex
 10
-1.424419
 20
18.21443
 30
0.0
 42
-0.145942
  0
VERTEX
  5
32
100
AcDbEntity
  8
0
390
0
 62
     7
100
AcDbVertex
100
AcDb2dVertex
 10
3.058375
 20
14.921797
 30
0.0
 42
-0.155004
  0
VERTEX
  5
33
100
AcDbEntity
  8
0
390
0
 62
     7
100
AcDbVertex
100
AcDb2dVertex
 10
3.289948
 20
14.048894
 30
0.0
  0
VERTEX
  5
34
100
AcDbEntity
  8
0
390
0
 62
     7
100
AcDbVertex
100
AcDb2dVertex
 10
3.268328
 20
13.886782
 30
0.0
 42
-0.165308
  0
VERTEX
  5
35
100
AcDbEntity
  8
0
390
0
 62
     7
100
AcDbVertex
100
AcDb2dVertex
 10
1.18303
 20
11.258217
 30
0.0
 42
-0.008969
  0
VERTEX
  5
36
100
AcDbEntity
  8
0
390
0
 62
     7
100
AcDbVertex
100
AcDb2dVertex
 10
-1.424419
 20
9.064494
 30
0.0
  0
SEQEND
  5
37
100
AcDbEntity
  8
0
390
0
  0
POLYLINE
  5
38
100
AcDbEntity
  8
0
390
0
  6
Continuous
 62
     7
100
AcDb2dPolyline
 66
     1
 10
0.0
 20
0.0
 30
0.0
 40
0.1
 41
0.1
  0
VERTEX
  5
39
100
AcDbEntity
  8
0
390
0
 62
     7
100
AcDbVertex
100
AcDb2dVertex
 10
-1.424419
 20
-9.064493
 30
0.0
 42
-0.076294
  0
VERTEX
  5
3A
100
AcDbEntity
  8
0
390
0
 62
     7
100
AcDbVertex
100
AcDb2dVertex
 10
3.00117
 20
-13.233915
 30
0.0
 42
-0.152888
  0
VERTEX
  5
3B
100
AcDbEntity
  8
0
390
0
 62
     7
100
AcDbVertex
100
AcDb2dVertex
 10
3.289947
 20
-14.233941
 30
0.0
  0
VERTEX
  5
3C
100
AcDbEntity
  8
0
390
0
 62
     7
100
AcDbVertex
100
AcDb2dVertex
 10
3.268326
 20
-14.393538
 30
0.0
  0
VERTEX
  5
3D
100
AcDbEntity
  8
0
390
0
 62
     7
100
AcDbVertex
100
AcDb2dVertex
 10
3.228214
 20
-14.549455
 30
0.0
 42
-0.189435
  0
VERTEX
  5
3E
100
AcDbEntity
  8
0
390
0
 62
     7
100
AcDbVertex
100
AcDb2dVertex
 10
0.347189
 20
-17.226582
 30
0.0
  0
VERTEX
  5
3F
100
AcDbEntity
  8
0
390
0
 62
     7
100
AcDbVertex
100
AcDb2dVertex
 10
-0.534884
 20
-17.743747
 30
0.0
  0
VERTEX
  5
40
100
AcDbEntity
  8
0
390
0
 62
     7
100
AcDbVertex
100
AcDb2dVertex
 10
-1.424419
 20
-18.214429
 30
0.0
  0
SEQEND
  5
41
100
AcDbEntity
  8
0
390
0
  0
POLYLINE
  5
42
100
AcDbEntity
  8
0
390
0
  6
Continuous
 62
     7
100
AcDb2dPolyline
 66
     1
 10
0.0
 20
0.0
 30
0.0
 40
0.1
 41
0.1
  0
VERTEX
  5
43
100
AcDbEntity
  8
0
390
0
 62
     7
100
AcDbVertex
100
AcDb2dVertex
 10
-1.424419
 20
-18.214429
 30
0.0
 42
0.43687
  0
VERTEX
  5
44
100
AcDbEntity
  8
0
390
0
 62
     7
100
AcDbVertex
100
AcDb2dVertex
 10
-5.085933
 20
-26.956932
 30
0.0
 42
0.143991
  0
VERTEX
  5
45
100
AcDbEntity
  8
0
390
0
 62
     7
100
AcDbVertex
100
AcDb2dVertex
 10
-1.424419
 20
-31.03356
 30
0.0
  0
SEQEND
  5
46
100
AcDbEntity
  8
0
390
0
  0
POLYLINE
  5
47
100
AcDbEntity
  8
0
390
0
  6
Continuous
 62
     7
100
AcDb2dPolyline
 66
     1
 10
0.0
 20
0.0
 30
0.0
 40
0.1
 41
0.1
  0
VERTEX
  5
48
100
AcDbEntity
  8
0
390
0
 62
     7
100
AcDbVertex
100
AcDb2dVertex
 10
-1.424419
 20
-31.03356
 30
0.0
 42
-0.042617
  0
VERTEX
  5
49
100
AcDbEntity
  8
0
390
0
 62
     7
100
AcDbVertex
100
AcDb2dVertex
 10
3.158637
 20
-33.874494
 30
0.0
  0
VERTEX
  5
4A
100
AcDbEntity
  8
0
390
0
 62
     7
100
AcDbVertex
100
AcDb2dVertex
 10
3.234892
 20
-33.970933
 30
0.0
  0
VERTEX
  5
4B
100
AcDbEntity
  8
0
390
0
 62
     7
100
AcDbVertex
100
AcDb2dVertex
 10
3.284038
 20
-34.075567
 30
0.0
  0
VERTEX
  5
4C
100
AcDbEntity
  8
0
390
0
 62
     7
100
AcDbVertex
100
AcDb2dVertex
 10
3.289948
 20
-34.178709
 30
0.0
  0
VERTEX
  5
4D
100
AcDbEntity
  8
0
390
0
 62
     7
100
AcDbVertex
100
AcDb2dVertex
 10
3.250429
 20
-34.272737
 30
0.0
  0
VERTEX
  5
4E
100
AcDbEntity
  8
0
390
0
 62
     7
100
AcDbVertex
100
AcDb2dVertex
 10
3.172099
 20
-34.357682
 30
0.0
  0
VERTEX
  5
4F
100
AcDbEntity
  8
0
390
0
 62
     7
100
AcDbVertex
100
AcDb2dVertex
 10
3.044418
 20
-34.443781
 30
0.0
 42
-0.107918
  0
VERTEX
  5
50
100
AcDbEntity
  8
0
390
0
 62
     7
100
AcDbVertex
100
AcDb2dVertex
 10
0.08375
 20
-34.902054
 30
0.0
  0
SEQEND
  5
51
100
AcDbEntity
  8
0
390
0
  0
LINE
  5
52
100
AcDbEntity
  8
0
390
0
  6
Continuous
 62
     7
100
AcDbLine
 10
-1.424419
 20
34.823588
 30
0.0
 11
0.096293
 21
34.902051
 31
0.0
  0
LINE
  5
53
100
AcDbEntity
  8
0
390
0
  6
Continuous
 62
     7
100
AcDbLine
 10
-8.908325
 20
12.363862
 30
0.0
 11
-8.908325
 21
32.308327
 31
0.0
  0
LINE
  5
54
100
AcDbEntity
  8
0
390
0
  6
Continuous
 62
     7
100
AcDbLine
 10
-1.424419
 20
9.064494
 30
0.0
 11
10.899999
 21
9.064494
 31
0.0
  0
LINE
  5
55
100
AcDbEntity
  8
0
390
0
  6
Continuous
 62
     7
100
AcDbLine
 10
10.899999
 20
9.064494
 30
0.0
 11
10.899999
 21
-9.064493
 31
0.0
  0
LINE
  5
56
100
AcDbEntity
  8
0
390
0
  6
Continuous
 62
     7
100
AcDbLine
 10
-1.424419
 20
-9.064493
 30
0.0
 11
10.899999
 21
-9.064493
 31
0.0
  0
LINE
  5
57
100
AcDbEntity
  8
0
390
0
  6
Continuous
 62
     7
100
AcDbLine
 10
-1.424419
 20
-18.214429
 30
0.0
 11
10.899999
 21
-18.214429
 31
0.0
  0
LINE
  5
58
100
AcDbEntity
  8
0
390
0
  6
Continuous
 62
     7
100
AcDbLine
 10
10.899999
 20
-18.214429
 30
0.0
 11
10.899999
 21
-9.064493
 31
0.0
  0
LINE
  5
59
100
AcDbEntity
  8
0
390
0
  6
Continuous
 62
     7
100
AcDbLine
 10
-1.424419
 20
18.21443
 30
0.0
 11
10.899999
 21
18.21443
 31
0.0
  0
LINE
  5
5A
100
AcDbEntity
  8
0
390
0
  6
Continuous
 62
     7
100
AcDbLine
 10
10.899999
 20
9.064494
 30
0.0
 11
10.899999
 21
18.21443
 31
0.0
  0
LINE
  5
5B
100
AcDbEntity
  8
0
390
0
  6
Continuous
 62
     7
100
AcDbLine
 10
-1.424419
 20
-31.03356
 30
0.0
 11
10.899999
 21
-31.03356
 31
0.0
  0
LINE
  5
5C
100
AcDbEntity
  8
0
390
0
  6
Continuous
 62
     7
100
AcDbLine
 10
10.899999
 20
-18.214429
 30
0.0
 11
10.899999
 21
-31.03356
 31
0.0
  0
LINE
  5
5D
100
AcDbEntity
  8
0
390
0
  6
Continuous
 62
     7
100
AcDbLine
 10
-1.424419
 20
31.03356
 30
0.0
 11
10.899999
 21
31.03356
 31
0.0
  0
LINE
  5
5E
100
AcDbEntity
  8
0
390
0
  6
Continuous
 62
     7
100
AcDbLine
 10
10.899999
 20
31.03356
 30
0.0
 11
10.899999
 21
18.21443
 31
0.0
  0
POLYLINE
  5
5F
100
AcDbEntity
  8
0
390
0
  6
Continuous
 62
     7
100
AcDb2dPolyline
 66
     1
 10
0.0
 20
0.0
 30
0.0
 40
0.1
 41
0.1
  0
VERTEX
  5
60
100
AcDbEntity
  8
0
390
0
 62
     7
100
AcDbVertex
100
AcDb2dVertex
 10
0.096293
 20
34.902051
 30
0.0
 42
-0.119474
  0
VERTEX
  5
61
100
AcDbEntity
  8
0
390
0
 62
     7
100
AcDbVertex
100
AcDb2dVertex
 10
3.058385
 20
34.43566
 30
0.0
  0
VERTEX
  5
62
100
AcDbEntity
  8
0
390
0
 62
     7
100
AcDbVertex
100
AcDb2dVertex
 10
3.158644
 20
34.368632
 30
0.0
  0
VERTEX
  5
63
100
AcDbEntity
  8
0
390
0
 62
     7
100
AcDbVertex
100
AcDb2dVertex
 10
3.234896
 20
34.294267
 30
0.0
  0
VERTEX
  5
64
100
AcDbEntity
  8
0
390
0
 62
     7
100
AcDbVertex
100
AcDb2dVertex
 10
3.284039
 20
34.203545
 30
0.0
  0
VERTEX
  5
65
100
AcDbEntity
  8
0
390
0
 62
     7
100
AcDbVertex
100
AcDb2dVertex
 10
3.289947
 20
34.10206
 30
0.0
  0
VERTEX
  5
66
100
AcDbEntity
  8
0
390
0
 62
     7
100
AcDbVertex
100
AcDb2dVertex
 10
3.250426
 20
33.996896
 30
0.0
  0
VERTEX
  5
67
100
AcDbEntity
  8
0
390
0
 62
     7
100
AcDbVertex
100
AcDb2dVertex
 10
3.172095
 20
33.889395
 30
0.0
  0
VERTEX
  5
68
100
AcDbEntity
  8
0
390
0
 62
     7
100
AcDbVertex
100
AcDb2dVertex
 10
3.04441
 20
33.765187
 30
0.0
 42
-0.021419
  0
VERTEX
  5
69
100
AcDbEntity
  8
0
390
0
 62
     7
100
AcDbVertex
100
AcDb2dVertex
 10
-1.424419
 20
31.03356
 30
0.0
  0
SEQEND
  5
6A
100
AcDbEntity
  8
0
390
0
  0
LINE
  5
6B
100
AcDbEntity
  8
0
390
0
  6
Continuous
 62
     7
100
AcDbLine
 10
10.899999
 20
31.03356
 30
0.0
 11
10.899999
 21
34.902055
 31
0.0
  0
LINE
  5
6C
100
AcDbEntity
  8
0
390
0
  6
Continuous
 62
     7
100
AcDbLine
 10
0.08375
 20
-34.902054
 30
0.0
 11
-1.424419
 21
-34.823587
 31
0.0
  0
LINE
  5
6D
100
AcDbEntity
  8
0
390
0
  6
Continuous
 62
     7
100
AcDbLine
 10
10.899999
 20
-34.902054
 30
0.0
 11
10.899999
 21
-31.03356
 31
0.0
  0
ARC
  5
6E
100
AcDbEntity
  8
0
390
0
  6
Continuous
 62
     7
100
AcDbCircle
 10
6.14721
 20
-11.1109
 30
0.0
 40
26.0
210
0.0
220
0.0
230
1.0
100
AcDbArc
 50
234.615612
 51
242.895418
  0
ARC
  5
6F
100
AcDbEntity
  8
0
390
0
  6
Continuous
 62
     7
100
AcDbCircle
 10
6.14721
 20
11.110901
 30
0.0
 40
26.0
210
0.0
220
0.0
230
1.0
100
AcDbArc
 50
117.104582
 51
125.384388
  0
ARC
  5
70
100
AcDbEntity
  8
0
390
0
  6
Continuous
 62
     7
100
AcDbCircle
 10
-4.099999
 20
-27.5
 30
0.0
 40
6.8
210
0.0
220
0.0
230
1.0
100
AcDbArc
 50
180.0
 51
225.0
  0
ARC
  5
71
100
AcDbEntity
  8
0
390
0
  6
Continuous
 62
     7
100
AcDbCircle
 10
-4.099999
 20
27.5
 30
0.0
 40
6.8
210
0.0
220
0.0
230
0.9999999999999999
100
AcDbArc
 50
135.0
 51
180.0
  0
LINE
  5
72
100
AcDbEntity
  8
0
390
0
  6
Continuous
 62
     7
100
AcDbLine
 10
-10.899999
 20
27.5
 30
0.0
 11
-10.899999
 21
-27.5
 31
0.0
  0
LINE
  5
73
100
AcDbEntity
  8
0
390
0
  6
Continuous
 62
     7
100
AcDbLine
 10
10.899999
 20
34.902055
 30
0.0
 11
0.10422
 21
34.902055
 31
0.0
  0
LINE
  5
74
100
AcDbEntity
  8
0
390
0
  6
Continuous
 62
     7
100
AcDbLine
 10
0.082627
 20
-34.902054
 30
0.0
 11
10.899999
 21
-34.902054
 31
0.0
  0
ARC
  5
75
100
AcDbEntity
  8
0
390
0
  6
Continuous
 62
     7
100
AcDbCircle
 10
114.232809
 20
106.754701
 30
0.0
 40
72.5
210
0.0
220
0.0
230
1.0
100
AcDbArc
 50
262.817656
 51
277.182344
  0
ARC
  5
76
100
AcDbEntity
  8
0
390
0
  6
Continuous
 62
     7
100
AcDbCircle
 10
124.547578
 20
24.902055
 30
0.0
 40
10.0
210
0.0
220
0.0
230
1.0
100
AcDbArc
 50
37.817656
 51
97.182344
  0
ARC
  5
77
100
AcDbEntity
  8
0
390
0
  6
Continuous
 62
     7
100
AcDbCircle
 10
189.719781
 20
75.486973
 30
0.0
 40
72.5
210
0.0
220
0.0
230
1.0
100
AcDbArc
 50
217.817656
 51
232.182344
  0
ARC
  5
78
100
AcDbEntity
  8
0
390
0
  6
Continuous
 62
     7
100
AcDbCircle
 10
139.134864
 20
10.314769
 30
0.0
 40
10.0
210
0.0
220
0.0
230
1.0
100
AcDbArc
 50
352.817656
 51
52.182344
  0
ARC
  5
79
100
AcDbEntity
  8
0
390
0
  6
Continuous
 62
     7
100
AcDbCircle
 10
220.987509
 20
0.0
 30
0.0
 40
72.5
210
0.0
220
0.0
230
1.0
100
AcDbArc
 50
172.817656
 51
187.182344
  0
ARC
  5
7A
100
AcDbEntity
  8
0
390
0
  6
Continuous
 62
     7
100
AcDbCircle
 10
139.134864
 20
-10.314768
 30
0.0
 40
10.0
210
0.0
220
0.0
230
1.0
100
AcDbArc
 50
307.817656
 51
7.182344
  0
ARC
  5
7B
100
AcDbEntity
  8
0
390
0
  6
Continuous
 62
     7
100
AcDbCircle
 10
189.719781
 20
-75.486972
 30
0.0
 40
72.5
210
0.0
220
0.0
230
1.0
100
AcDbArc
 50
127.817656
 51
142.182344
  0
ARC
  5
7C
100
AcDbEntity
  8
0
390
0
  6
Continuous
 62
     7
100
AcDbCircle
 10
124.547578
 20
-24.902054
 30
0.0
 40
10.0
210
0.0
220
0.0
230
1.0
100
AcDbArc
 50
262.817656
 51
322.182344
  0
ARC
  5
7D
100
AcDbEntity
  8
0
390
0
  6
Continuous
 62
     7
100
AcDbCircle
 10
114.232809
 20
-106.7547
 30
0.0
 40
72.5
210
0.0
220
0.0
230
0.9999999999999999
100
AcDbArc
 50
82.817656
 51
97.182344
  0
ARC
  5
7E
100
AcDbEntity
  8
0
390
0
  6
Continuous
 62
     7
100
AcDbCircle
 10
103.91804
 20
-24.902054
 30
0.0
 40
10.0
210
0.0
220
0.0
230
1.0
100
AcDbArc
 50
217.817656
 51
277.182344
  0
ARC
  5
7F
100
AcDbEntity
  8
0
390
0
  6
Continuous
 62
     7
100
AcDbCircle
 10
38.745836
 20
-75.486972
 30
0.0
 40
72.5
210
0.0
220
0.0
230
1.0
100
AcDbArc
 50
37.817656
 51
52.182344
  0
ARC
  5
80
100
AcDbEntity
  8
0
390
0
  6
Continuous
 62
     7
100
AcDbCircle
 10
89.330754
 20
-10.314768
 30
0.0
 40
10.0
210
0.0
220
0.0
230
1.0
100
AcDbArc
 50
172.817656
 51
232.182344
  0
ARC
  5
81
100
AcDbEntity
  8
0
390
0
  6
Continuous
 62
     7
100
AcDbCircle
 10
89.330754
 20
10.314769
 30
0.0
 40
10.0
210
0.0
220
0.0
230
1.0
100
AcDbArc
 50
127.817656
 51
187.182344
  0
ARC
  5
82
100
AcDbEntity
  8
0
390
0
  6
Continuous
 62
     7
100
AcDbCircle
 10
38.745836
 20
75.486973
 30
0.0
 40
72.5
210
0.0
220
0.0
230
1.0
100
AcDbArc
 50
307.817656
 51
322.182344
  0
ARC
  5
83
100
AcDbEntity
  8
0
390
0
  6
Continuous
 62
     7
100
AcDbCircle
 10
103.91804
 20
24.902055
 30
0.0
 40
10.0
210
0.0
220
0.0
230
1.0
100
AcDbArc
 50
82.817656
 51
142.182344
  0
ARC
  5
84
100
AcDbEntity
  8
0
390
0
  6
Continuous
 62
     7
100
AcDbCircle
 10
114.232809
 20
0.0
 30
0.0
 40
32.0
210
0.0
220
0.0
230
1.0
100
AcDbArc
 50
155.14534
 51
159.854652
  0
ARC
  5
85
100
AcDbEntity
  8
0
390
0
  6
Continuous
 62
     7
100
AcDbCircle
 10
7.47812
 20
0.000009
 30
0.0
 40
77.5
210
0.0
220
0.0
230
1.0
100
AcDbArc
 50
351.824534
 51
8.175457
  0
ARC
  5
86
100
AcDbEntity
  8
0
390
0
  6
Continuous
 62
     7
100
AcDbCircle
 10
114.232809
 20
0.0
 30
0.0
 40
32.0
210
0.0
220
0.0
230
1.0
100
AcDbArc
 50
200.145339
 51
204.85465
  0
ARC
  5
87
100
AcDbEntity
  8
0
390
0
  6
Continuous
 62
     7
100
AcDbCircle
 10
38.745838
 20
-75.486957
 30
0.0
 40
77.5
210
0.0
220
0.0
230
1.0
100
AcDbArc
 50
36.824533
 51
53.175457
  0
ARC
  5
88
100
AcDbEntity
  8
0
390
0
  6
Continuous
 62
     7
100
AcDbCircle
 10
114.232809
 20
0.0
 30
0.0
 40
32.0
210
0.0
220
0.0
230
1.0
100
AcDbArc
 50
245.14534
 51
249.854652
  0
ARC
  5
89
100
AcDbEntity
  8
0
390
0
  6
Continuous
 62
     7
100
AcDbCircle
 10
114.232804
 20
-106.754688
 30
0.0
 40
77.5
210
0.0
220
0.0
230
1.0
100
AcDbArc
 50
81.824535
 51
98.17546
  0
ARC
  5
8A
100
AcDbEntity
  8
0
390
0
  6
Continuous
 62
     7
100
AcDbCircle
 10
114.232809
 20
0.0
 30
0.0
 40
32.0
210
0.0
220
0.0
230
1.0
100
AcDbArc
 50
290.145343
 51
294.854658
  0
ARC
  5
8B
100
AcDbEntity
  8
0
390
0
  6
Continuous
 62
     7
100
AcDbCircle
 10
189.719775
 20
-75.486961
 30
0.0
 40
77.5
210
0.0
220
0.0
230
1.0
100
AcDbArc
 50
126.82454
 51
143.175464
  0
ARC
  5
8C
100
AcDbEntity
  8
0
390
0
  6
Continuous
 62
     7
100
AcDbCircle
 10
114.232809
 20
0.0
 30
0.0
 40
32.0
210
0.0
220
0.0
230
1.0
100
AcDbArc
 50
335.145347
 51
339.854658
  0
ARC
  5
8D
100
AcDbEntity
  8
0
390
0
  6
Continuous
 62
     7
100
AcDbCircle
 10
220.987497
 20
0.000009
 30
0.0
 40
77.5
210
0.0
220
0.0
230
1.0
100
AcDbArc
 50
171.824542
 51
188.175467
  0
ARC
  5
8E
100
AcDbEntity
  8
0
390
0
  6
Continuous
 62
     7
100
AcDbCircle
 10
114.232809
 20
0.0
 30
0.0
 40
32.0
210
0.0
220
0.0
230
1.0
100
AcDbArc
 50
20.14535
 51
24.85466
  0
ARC
  5
8F
100
AcDbEntity
  8
0
390
0
  6
Continuous
 62
     7
100
AcDbCircle
 10
189.719766
 20
75.486971
 30
0.0
 40
77.5
210
0.0
220
0.0
230
1.0
100
AcDbArc
 50
216.824543
 51
233.175467
  0
ARC
  5
90
100
AcDbEntity
  8
0
390
0
  6
Continuous
 62
     7
100
AcDbCircle
 10
114.232809
 20
0.0
 30
0.0
 40
32.0
210
0.0
220
0.0
230
1.0
100
AcDbArc
 50
65.14535
 51
69.854657
  0
ARC
  5
91
100
AcDbEntity
  8
0
390
0
  6
Continuous
 62
     7
100
AcDbCircle
 10
114.232805
 20
106.754689
 30
0.0
 40
77.5
210
0.0
220
0.0
230
1.0
100
AcDbArc
 50
261.82454
 51
278.175464
  0
ARC
  5
92
100
AcDbEntity
  8
0
390
0
  6
Continuous
 62
     7
100
AcDbCircle
 10
114.232809
 20
0.0
 30
0.0
 40
32.0
210
0.0
220
0.0
230
1.0
100
AcDbArc
 50
110.145347
 51
114.854652
  0
ARC
  5
93
100
AcDbEntity
  8
0
390
0
  6
Continuous
 62
     7
100
AcDbCircle
 10
38.74585
 20
75.486969
 30
0.0
 40
77.5
210
0.0
220
0.0
230
1.0
100
AcDbArc
 50
306.824535
 51
323.175458
  0
ARC
  5
94
100
AcDbEntity
  8
0
390
0
  6
Continuous
 62
     7
100
AcDbCircle
 10
7.478109
 20
0.0
 30
0.0
 40
72.5
210
0.0
220
0.0
230
1.0
100
AcDbArc
 50
352.817656
 51
7.182344
  0
ARC
  5
95
100
AcDbEntity
  8
0
390
0
  6
Continuous
 62
     7
100
AcDbCircle
 10
114.232809
 20
0.0
 30
0.0
 40
31.669219
210
0.0
220
0.0
230
1.0
100
AcDbArc
 50
244.000949
 51
250.999042
  0
ARC
  5
96
100
AcDbEntity
  8
0
390
0
  6
Continuous
 62
     7
100
AcDbCircle
 10
114.232809
 20
0.0
 30
0.0
 40
31.669219
210
0.0
220
0.0
230
1.0
100
AcDbArc
 50
199.000949
 51
205.999041
  0
ARC
  5
97
100
AcDbEntity
  8
0
390
0
  6
Continuous
 62
     7
100
AcDbCircle
 10
114.232809
 20
0.0
 30
0.0
 40
31.669219
210
0.0
220
0.0
230
1.0
100
AcDbArc
 50
64.00096
 51
70.999047
  0
ARC
  5
98
100
AcDbEntity
  8
0
390
0
  6
Continuous
 62
     7
100
AcDbCircle
 10
114.232809
 20
0.0
 30
0.0
 40
31.669219
210
0.0
220
0.0
230
1.0
100
AcDbArc
 50
19.00096
 51
25.99905
  0
ARC
  5
99
100
AcDbEntity
  8
0
390
0
  6
Continuous
 62
     7
100
AcDbCircle
 10
114.232809
 20
0.0
 30
0.0
 40
31.669219
210
0.0
220
0.0
230
0.9999999999999999
100
AcDbArc
 50
334.000956
 51
340.999048
  0
ARC
  5
9A
100
AcDbEntity
  8
0
390
0
  6
Continuous
 62
     7
100
AcDbCircle
 10
114.232809
 20
0.0
 30
0.0
 40
31.669219
210
0.0
220
0.0
230
1.0
100
AcDbArc
 50
289.000953
 51
295.999048
  0
ARC
  5
9B
100
AcDbEntity
  8
0
390
0
  6
Continuous
 62
     7
100
AcDbCircle
 10
114.232809
 20
0.0
 30
0.0
 40
31.669219
210
0.0
220
0.0
230
1.0
100
AcDbArc
 50
154.00095
 51
160.999043
  0
ARC
  5
9C
100
AcDbEntity
  8
0
390
0
  6
Continuous
 62
     7
100
AcDbCircle
 10
114.232809
 20
0.0
 30
0.0
 40
31.669219
210
0.0
220
0.0
230
1.0
100
AcDbArc
 50
109.000957
 51
115.999043
  0
CIRCLE
  5
9D
100
AcDbEntity
  8
0
390
0
  6
Continuous
 62
     7
100
AcDbCircle
 10
114.232809
 20
0.0
 30
0.0
 40
24.5
210
0.0
220
0.0
230
1.0
  0
LINE
  5
9E
100
AcDbEntity
  8
0
390
0
  6
Continuous
 62
     7
100
AcDbLine
 10
135.408311
 20
20.215731
 30
0.0
 11
134.659952
 21
19.566945
 31
0.0
  0
LINE
  5
9F
100
AcDbEntity
  8
0
390
0
  6
Continuous
 62
     7
100
AcDbLine
 10
134.659952
 20
19.566945
 30
0.0
 11
133.650927
 21
18.699423
 31
0.0
  0
LINE
  5
A0
100
AcDbEntity
  8
0
390
0
  6
Continuous
 62
     7
100
AcDbLine
 10
133.650927
 20
18.699423
 30
0.0
 11
133.625904
 21
18.684401
 31
0.0
  0
LINE
  5
A1
100
AcDbEntity
  8
0
390
0
  6
Continuous
 62
     7
100
AcDbLine
 10
133.625904
 20
18.684401
 30
0.0
 11
133.617603
 21
18.683473
 31
0.0
  0
LINE
  5
A2
100
AcDbEntity
  8
0
390
0
  6
Continuous
 62
     7
100
AcDbLine
 10
133.617603
 20
18.683473
 30
0.0
 11
133.608521
 21
18.68634
 31
0.0
  0
LINE
  5
A3
100
AcDbEntity
  8
0
390
0
  6
Continuous
 62
     7
100
AcDbLine
 10
133.608521
 20
18.68634
 30
0.0
 11
133.596895
 21
18.695933
 31
0.0
  0
LINE
  5
A4
100
AcDbEntity
  8
0
390
0
  6
Continuous
 62
     7
100
AcDbLine
 10
133.596895
 20
18.695933
 30
0.0
 11
133.5881
 21
18.710676
 31
0.0
  0
LINE
  5
A5
100
AcDbEntity
  8
0
390
0
  6
Continuous
 62
     7
100
AcDbLine
 10
133.5881
 20
18.710676
 30
0.0
 11
133.585698
 21
18.724219
 31
0.0
  0
LINE
  5
A6
100
AcDbEntity
  8
0
390
0
  6
Continuous
 62
     7
100
AcDbLine
 10
133.585698
 20
18.724219
 30
0.0
 11
133.587787
 21
18.733211
 31
0.0
  0
LINE
  5
A7
100
AcDbEntity
  8
0
390
0
  6
Continuous
 62
     7
100
AcDbLine
 10
133.587787
 20
18.733211
 30
0.0
 11
133.604989
 21
18.754413
 31
0.0
  0
LINE
  5
A8
100
AcDbEntity
  8
0
390
0
  6
Continuous
 62
     7
100
AcDbLine
 10
133.604989
 20
18.754413
 30
0.0
 11
135.3644
 21
20.260803
 31
0.0
  0
LINE
  5
A9
100
AcDbEntity
  8
0
390
0
  6
Continuous
 62
     7
100
AcDbLine
 10
136.101363
 20
19.545827
 30
0.0
 11
135.969526
 21
19.053718
 31
0.0
  0
LINE
  5
AA
100
AcDbEntity
  8
0
390
0
  6
Continuous
 62
     7
100
AcDbLine
 10
135.969526
 20
19.053718
 30
0.0
 11
135.43046
 21
17.034417
 31
0.0
  0
POLYLINE
  5
AB
100
AcDbEntity
  8
0
390
0
  6
Continuous
 62
     7
100
AcDb2dPolyline
 66
     1
 10
0.0
 20
0.0
 30
0.0
 40
0.1
 41
0.1
  0
VERTEX
  5
AC
100
AcDbEntity
  8
0
390
0
 62
     7
100
AcDbVertex
100
AcDb2dVertex
 10
135.43046
 20
17.034417
 30
0.0
  0
VERTEX
  5
AD
100
AcDbEntity
  8
0
390
0
 62
     7
100
AcDbVertex
100
AcDb2dVertex
 10
135.453049
 20
16.934659
 30
0.0
  0
VERTEX
  5
AE
100
AcDbEntity
  8
0
390
0
 62
     7
100
AcDbVertex
100
AcDb2dVertex
 10
135.548004
 20
16.896623
 30
0.0
  0
VERTEX
  5
AF
100
AcDbEntity
  8
0
390
0
 62
     7
100
AcDbVertex
100
AcDb2dVertex
 10
135.610919
 20
16.924821
 30
0.0
  0
SEQEND
  5
B0
100
AcDbEntity
  8
0
390
0
  0
LINE
  5
B1
100
AcDbEntity
  8
0
390
0
  6
Continuous
 62
     7
100
AcDbLine
 10
135.610919
 20
16.924821
 30
0.0
 11
135.866809
 21
17.158521
 31
0.0
  0
LINE
  5
B2
100
AcDbEntity
  8
0
390
0
  6
Continuous
 62
     7
100
AcDbLine
 10
135.866809
 20
17.158521
 30
0.0
 11
136.125907
 21
17.387699
 31
0.0
  0
LINE
  5
B3
100
AcDbEntity
  8
0
390
0
  6
Continuous
 62
     7
100
AcDbLine
 10
136.125907
 20
17.387699
 30
0.0
 11
137.148522
 21
18.27416
 31
0.0
  0
LINE
  5
B4
100
AcDbEntity
  8
0
390
0
  6
Continuous
 62
     7
100
AcDbLine
 10
137.148522
 20
18.27416
 30
0.0
 11
137.320401
 21
18.421929
 31
0.0
  0
LINE
  5
B5
100
AcDbEntity
  8
0
390
0
  6
Continuous
 62
     7
100
AcDbLine
 10
137.371774
 20
18.374596
 30
0.0
 11
135.39463
 21
16.681785
 31
0.0
  0
LINE
  5
B6
100
AcDbEntity
  8
0
390
0
  6
Continuous
 62
     7
100
AcDbLine
 10
135.39463
 20
16.681785
 30
0.0
 11
135.368945
 21
16.665285
 31
0.0
  0
LINE
  5
B7
100
AcDbEntity
  8
0
390
0
  6
Continuous
 62
     7
100
AcDbLine
 10
135.368945
 20
16.665285
 30
0.0
 11
135.359099
 21
16.663009
 31
0.0
  0
LINE
  5
B8
100
AcDbEntity
  8
0
390
0
  6
Continuous
 62
     7
100
AcDbLine
 10
135.359099
 20
16.663009
 30
0.0
 11
135.347765
 21
16.664817
 31
0.0
  0
LINE
  5
B9
100
AcDbEntity
  8
0
390
0
  6
Continuous
 62
     7
100
AcDbLine
 10
135.347765
 20
16.664817
 30
0.0
 11
135.324577
 21
16.677137
 31
0.0
  0
LINE
  5
BA
100
AcDbEntity
  8
0
390
0
  6
Continuous
 62
     7
100
AcDbLine
 10
135.324577
 20
16.677137
 30
0.0
 11
135.303671
 21
16.696406
 31
0.0
  0
LINE
  5
BB
100
AcDbEntity
  8
0
390
0
  6
Continuous
 62
     7
100
AcDbLine
 10
135.303671
 20
16.696406
 30
0.0
 11
135.294931
 21
16.71174
 31
0.0
  0
LINE
  5
BC
100
AcDbEntity
  8
0
390
0
  6
Continuous
 62
     7
100
AcDbLine
 10
135.294931
 20
16.71174
 30
0.0
 11
135.291843
 21
16.729207
 31
0.0
  0
LINE
  5
BD
100
AcDbEntity
  8
0
390
0
  6
Continuous
 62
     7
100
AcDbLine
 10
135.291843
 20
16.729207
 30
0.0
 11
135.29656
 21
16.76467
 31
0.0
  0
LINE
  5
BE
100
AcDbEntity
  8
0
390
0
  6
Continuous
 62
     7
100
AcDbLine
 10
135.29656
 20
16.76467
 30
0.0
 11
135.830234
 21
18.778074
 31
0.0
  0
LINE
  5
BF
100
AcDbEntity
  8
0
390
0
  6
Continuous
 62
     7
100
AcDbLine
 10
135.830234
 20
18.778074
 30
0.0
 11
136.047625
 21
19.595304
 31
0.0
  0
LINE
  5
C0
100
AcDbEntity
  8
0
390
0
  6
Continuous
 62
     7
100
AcDbLine
 10
131.515848
 20
24.356009
 30
0.0
 11
131.369394
 21
24.165044
 31
0.0
  0
LINE
  5
C1
100
AcDbEntity
  8
0
390
0
  6
Continuous
 62
     7
100
AcDbLine
 10
131.369394
 20
24.165044
 30
0.0
 11
130.543671
 21
23.110373
 31
0.0
  0
LINE
  5
C2
100
AcDbEntity
  8
0
390
0
  6
Continuous
 62
     7
100
AcDbLine
 10
130.543671
 20
23.110373
 30
0.0
 11
129.71905
 21
22.065993
 31
0.0
  0
LINE
  5
C3
100
AcDbEntity
  8
0
390
0
  6
Continuous
 62
     7
100
AcDbLine
 10
129.71905
 20
22.065993
 30
0.0
 11
129.69736
 21
22.046466
 31
0.0
  0
LINE
  5
C4
100
AcDbEntity
  8
0
390
0
  6
Continuous
 62
     7
100
AcDbLine
 10
129.69736
 20
22.046466
 30
0.0
 11
129.689389
 21
22.043968
 31
0.0
  0
LINE
  5
C5
100
AcDbEntity
  8
0
390
0
  6
Continuous
 62
     7
100
AcDbLine
 10
129.689389
 20
22.043968
 30
0.0
 11
129.679927
 21
22.045047
 31
0.0
  0
LINE
  5
C6
100
AcDbEntity
  8
0
390
0
  6
Continuous
 62
     7
100
AcDbLine
 10
129.679927
 20
22.045047
 30
0.0
 11
129.666682
 21
22.05224
 31
0.0
  0
LINE
  5
C7
100
AcDbEntity
  8
0
390
0
  6
Continuous
 62
     7
100
AcDbLine
 10
129.666682
 20
22.05224
 30
0.0
 11
129.655231
 21
22.065031
 31
0.0
  0
LINE
  5
C8
100
AcDbEntity
  8
0
390
0
  6
Continuous
 62
     7
100
AcDbLine
 10
129.655231
 20
22.065031
 30
0.0
 11
129.650284
 21
22.077865
 31
0.0
  0
LINE
  5
C9
100
AcDbEntity
  8
0
390
0
  6
Continuous
 62
     7
100
AcDbLine
 10
129.650284
 20
22.077865
 30
0.0
 11
129.650617
 21
22.087091
 31
0.0
  0
LINE
  5
CA
100
AcDbEntity
  8
0
390
0
  6
Continuous
 62
     7
100
AcDbLine
 10
129.650617
 20
22.087091
 30
0.0
 11
129.66345
 21
22.111189
 31
0.0
  0
LINE
  5
CB
100
AcDbEntity
  8
0
390
0
  6
Continuous
 62
     7
100
AcDbLine
 10
131.993674
 20
23.812637
 30
0.0
 11
131.927193
 21
22.856898
 31
0.0
  0
LINE
  5
CC
100
AcDbEntity
  8
0
390
0
  6
Continuous
 62
     7
100
AcDbLine
 10
131.927193
 20
22.856898
 30
0.0
 11
131.784003
 21
20.771792
 31
0.0
  0
POLYLINE
  5
CD
100
AcDbEntity
  8
0
390
0
  6
Continuous
 62
     7
100
AcDb2dPolyline
 66
     1
 10
0.0
 20
0.0
 30
0.0
 40
0.1
 41
0.1
  0
VERTEX
  5
CE
100
AcDbEntity
  8
0
390
0
 62
     7
100
AcDbVertex
100
AcDb2dVertex
 10
131.784003
 20
20.771792
 30
0.0
  0
VERTEX
  5
CF
100
AcDbEntity
  8
0
390
0
 62
     7
100
AcDbVertex
100
AcDb2dVertex
 10
131.825247
 20
20.678187
 30
0.0
  0
VERTEX
  5
D0
100
AcDbEntity
  8
0
390
0
 62
     7
100
AcDbVertex
100
AcDb2dVertex
 10
131.925722
 20
20.659007
 30
0.0
  0
VERTEX
  5
D1
100
AcDbEntity
  8
0
390
0
 62
     7
100
AcDbVertex
100
AcDb2dVertex
 10
131.982081
 20
20.698707
 30
0.0
  0
SEQEND
  5
D2
100
AcDbEntity
  8
0
390
0
  0
LINE
  5
D3
100
AcDbEntity
  8
0
390
0
  6
Continuous
 62
     7
100
AcDbLine
 10
131.982081
 20
20.698707
 30
0.0
 11
132.188589
 21
20.977006
 31
0.0
  0
LINE
  5
D4
100
AcDbEntity
  8
0
390
0
  6
Continuous
 62
     7
100
AcDbLine
 10
132.188589
 20
20.977006
 30
0.0
 11
132.399109
 21
21.251479
 31
0.0
  0
LINE
  5
D5
100
AcDbEntity
  8
0
390
0
  6
Continuous
 62
     7
100
AcDbLine
 10
132.399109
 20
21.251479
 30
0.0
 11
133.233449
 21
22.317046
 31
0.0
  0
LINE
  5
D6
100
AcDbEntity
  8
0
390
0
  6
Continuous
 62
     7
100
AcDbLine
 10
133.233449
 20
22.317046
 30
0.0
 11
133.288335
 21
22.386556
 31
0.0
  0
LINE
  5
D7
100
AcDbEntity
  8
0
390
0
  6
Continuous
 62
     7
100
AcDbLine
 10
133.336789
 20
22.336473
 30
0.0
 11
131.81623
 21
20.418813
 31
0.0
  0
LINE
  5
D8
100
AcDbEntity
  8
0
390
0
  6
Continuous
 62
     7
100
AcDbLine
 10
131.81623
 20
20.418813
 30
0.0
 11
131.794172
 21
20.397708
 31
0.0
  0
LINE
  5
D9
100
AcDbEntity
  8
0
390
0
  6
Continuous
 62
     7
100
AcDbLine
 10
131.794172
 20
20.397708
 30
0.0
 11
131.784943
 21
20.393592
 31
0.0
  0
LINE
  5
DA
100
AcDbEntity
  8
0
390
0
  6
Continuous
 62
     7
100
AcDbLine
 10
131.784943
 20
20.393592
 30
0.0
 11
131.773472
 21
20.393201
 31
0.0
  0
LINE
  5
DB
100
AcDbEntity
  8
0
390
0
  6
Continuous
 62
     7
100
AcDbLine
 10
131.773472
 20
20.393201
 30
0.0
 11
131.748357
 21
20.400862
 31
0.0
  0
LINE
  5
DC
100
AcDbEntity
  8
0
390
0
  6
Continuous
 62
     7
100
AcDbLine
 10
131.748357
 20
20.400862
 30
0.0
 11
131.724153
 21
20.415781
 31
0.0
  0
LINE
  5
DD
100
AcDbEntity
  8
0
390
0
  6
Continuous
 62
     7
100
AcDbLine
 10
131.724153
 20
20.415781
 30
0.0
 11
131.712644
 21
20.429161
 31
0.0
  0
LINE
  5
DE
100
AcDbEntity
  8
0
390
0
  6
Continuous
 62
     7
100
AcDbLine
 10
131.712644
 20
20.429161
 30
0.0
 11
131.706274
 21
20.445715
 31
0.0
  0
LINE
  5
DF
100
AcDbEntity
  8
0
390
0
  6
Continuous
 62
     7
100
AcDbLine
 10
131.706274
 20
20.445715
 30
0.0
 11
131.704126
 21
20.481427
 31
0.0
  0
LINE
  5
E0
100
AcDbEntity
  8
0
390
0
  6
Continuous
 62
     7
100
AcDbLine
 10
131.704126
 20
20.481427
 30
0.0
 11
131.843151
 21
22.559713
 31
0.0
  0
LINE
  5
E1
100
AcDbEntity
  8
0
390
0
  6
Continuous
 62
     7
100
AcDbLine
 10
131.843151
 20
22.559713
 30
0.0
 11
131.932733
 21
23.881286
 31
0.0
  0
LINE
  5
E2
100
AcDbEntity
  8
0
390
0
  6
Continuous
 62
     7
100
AcDbLine
 10
129.66345
 20
22.111189
 30
0.0
 11
131.477799
 21
24.399364
 31
0.0
  0
LINE
  5
E3
100
AcDbEntity
  8
0
390
0
  6
Continuous
 62
     7
100
AcDbLine
 10
87.772609
 20
14.797225
 30
0.0
 11
88.071483
 21
14.621807
 31
0.0
  0
LINE
  5
E4
100
AcDbEntity
  8
0
390
0
  6
Continuous
 62
     7
100
AcDbLine
 10
88.071483
 20
14.621807
 30
0.0
 11
88.36699
 21
14.441998
 31
0.0
  0
LINE
  5
E5
100
AcDbEntity
  8
0
390
0
  6
Continuous
 62
     7
100
AcDbLine
 10
88.36699
 20
14.441998
 30
0.0
 11
89.504247
 21
13.734329
 31
0.0
  0
LINE
  5
E6
100
AcDbEntity
  8
0
390
0
  6
Continuous
 62
     7
100
AcDbLine
 10
89.504247
 20
13.734329
 30
0.0
 11
90.631155
 21
13.026651
 31
0.0
  0
LINE
  5
E7
100
AcDbEntity
  8
0
390
0
  6
Continuous
 62
     7
100
AcDbLine
 10
90.631155
 20
13.026651
 30
0.0
 11
90.652898
 21
13.007184
 31
0.0
  0
LINE
  5
E8
100
AcDbEntity
  8
0
390
0
  6
Continuous
 62
     7
100
AcDbLine
 10
90.652898
 20
13.007184
 30
0.0
 11
90.656238
 21
12.999527
 31
0.0
  0
LINE
  5
E9
100
AcDbEntity
  8
0
390
0
  6
Continuous
 62
     7
100
AcDbLine
 10
90.656238
 20
12.999527
 30
0.0
 11
90.656182
 21
12.990004
 31
0.0
  0
LINE
  5
EA
100
AcDbEntity
  8
0
390
0
  6
Continuous
 62
     7
100
AcDbLine
 10
90.656182
 20
12.990004
 30
0.0
 11
90.650452
 21
12.976062
 31
0.0
  0
LINE
  5
EB
100
AcDbEntity
  8
0
390
0
  6
Continuous
 62
     7
100
AcDbLine
 10
90.650452
 20
12.976062
 30
0.0
 11
90.638966
 21
12.963304
 31
0.0
  0
LINE
  5
EC
100
AcDbEntity
  8
0
390
0
  6
Continuous
 62
     7
100
AcDbLine
 10
90.638966
 20
12.963304
 30
0.0
 11
90.626737
 21
12.957008
 31
0.0
  0
LINE
  5
ED
100
AcDbEntity
  8
0
390
0
  6
Continuous
 62
     7
100
AcDbLine
 10
90.626737
 20
12.957008
 30
0.0
 11
90.617529
 21
12.956348
 31
0.0
  0
LINE
  5
EE
100
AcDbEntity
  8
0
390
0
  6
Continuous
 62
     7
100
AcDbLine
 10
90.617529
 20
12.956348
 30
0.0
 11
90.592192
 21
12.966518
 31
0.0
  0
LINE
  5
EF
100
AcDbEntity
  8
0
390
0
  6
Continuous
 62
     7
100
AcDbLine
 10
90.592192
 20
12.966518
 30
0.0
 11
87.441377
 21
14.954225
 31
0.0
  0
LINE
  5
F0
100
AcDbEntity
  8
0
390
0
  6
Continuous
 62
     7
100
AcDbLine
 10
87.441377
 20
14.954225
 30
0.0
 11
87.4198
 21
14.972471
 31
0.0
  0
LINE
  5
F1
100
AcDbEntity
  8
0
390
0
  6
Continuous
 62
     7
100
AcDbLine
 10
87.4198
 20
14.972471
 30
0.0
 11
87.417856
 21
14.976011
 31
0.0
  0
LINE
  5
F2
100
AcDbEntity
  8
0
390
0
  6
Continuous
 62
     7
100
AcDbLine
 10
87.417856
 20
14.976011
 30
0.0
 11
87.417525
 21
14.980509
 31
0.0
  0
LINE
  5
F3
100
AcDbEntity
  8
0
390
0
  6
Continuous
 62
     7
100
AcDbLine
 10
87.417525
 20
14.980509
 30
0.0
 11
87.423728
 21
15.001437
 31
0.0
  0
LINE
  5
F4
100
AcDbEntity
  8
0
390
0
  6
Continuous
 62
     7
100
AcDbLine
 10
87.423728
 20
15.001437
 30
0.0
 11
87.438625
 21
15.025358
 31
0.0
  0
LINE
  5
F5
100
AcDbEntity
  8
0
390
0
  6
Continuous
 62
     7
100
AcDbLine
 10
87.438625
 20
15.025358
 30
0.0
 11
87.455864
 21
15.040304
 31
0.0
  0
LINE
  5
F6
100
AcDbEntity
  8
0
390
0
  6
Continuous
 62
     7
100
AcDbLine
 10
87.455864
 20
15.040304
 30
0.0
 11
87.480622
 21
15.051018
 31
0.0
  0
LINE
  5
F7
100
AcDbEntity
  8
0
390
0
  6
Continuous
 62
     7
100
AcDbLine
 10
87.480622
 20
15.051018
 30
0.0
 11
87.525091
 21
15.057551
 31
0.0
  0
LINE
  5
F8
100
AcDbEntity
  8
0
390
0
  6
Continuous
 62
     7
100
AcDbLine
 10
87.525091
 20
15.057551
 30
0.0
 11
89.607658
 21
15.137073
 31
0.0
  0
LINE
  5
F9
100
AcDbEntity
  8
0
390
0
  6
Continuous
 62
     7
100
AcDbLine
 10
89.607658
 20
15.137073
 30
0.0
 11
91.696081
 21
15.218663
 31
0.0
  0
POLYLINE
  5
FA
100
AcDbEntity
  8
0
390
0
  6
Continuous
 62
     7
100
AcDb2dPolyline
 66
     1
 10
0.0
 20
0.0
 30
0.0
 40
0.1
 41
0.1
  0
VERTEX
  5
FB
100
AcDbEntity
  8
0
390
0
 62
     7
100
AcDbVertex
100
AcDb2dVertex
 10
91.696081
 20
15.218663
 30
0.0
  0
VERTEX
  5
FC
100
AcDbEntity
  8
0
390
0
 62
     7
100
AcDbVertex
100
AcDb2dVertex
 10
91.784716
 20
15.269721
 30
0.0
  0
VERTEX
  5
FD
100
AcDbEntity
  8
0
390
0
 62
     7
100
AcDbVertex
100
AcDb2dVertex
 10
91.792993
 20
15.371676
 30
0.0
  0
VERTEX
  5
FE
100
AcDbEntity
  8
0
390
0
 62
     7
100
AcDbVertex
100
AcDb2dVertex
 10
91.747469
 20
15.423445
 30
0.0
  0
SEQEND
  5
FF
100
AcDbEntity
  8
0
390
0
  0
LINE
  5
100
100
AcDbEntity
  8
0
390
0
  6
Continuous
 62
     7
100
AcDbLine
 10
91.747469
 20
15.423445
 30
0.0
 11
91.4486
 21
15.598867
 31
0.0
  0
LINE
  5
101
100
AcDbEntity
  8
0
390
0
  6
Continuous
 62
     7
100
AcDbLine
 10
91.4486
 20
15.598867
 30
0.0
 11
91.153104
 21
15.778689
 31
0.0
  0
LINE
  5
102
100
AcDbEntity
  8
0
390
0
  6
Continuous
 62
     7
100
AcDbLine
 10
91.153104
 20
15.778689
 30
0.0
 11
90.004088
 21
16.493755
 31
0.0
  0
LINE
  5
103
100
AcDbEntity
  8
0
390
0
  6
Continuous
 62
     7
100
AcDbLine
 10
90.004088
 20
16.493755
 30
0.0
 11
89.406445
 21
16.869079
 31
0.0
  0
LINE
  5
104
100
AcDbEntity
  8
0
390
0
  6
Continuous
 62
     7
100
AcDbLine
 10
89.461393
 20
16.917587
 30
0.0
 11
92.043558
 21
15.288615
 31
0.0
  0
LINE
  5
105
100
AcDbEntity
  8
0
390
0
  6
Continuous
 62
     7
100
AcDbLine
 10
92.043558
 20
15.288615
 30
0.0
 11
92.066909
 21
15.268952
 31
0.0
  0
LINE
  5
106
100
AcDbEntity
  8
0
390
0
  6
Continuous
 62
     7
100
AcDbLine
 10
92.066909
 20
15.268952
 30
0.0
 11
92.071993
 21
15.260218
 31
0.0
  0
LINE
  5
107
100
AcDbEntity
  8
0
390
0
  6
Continuous
 62
     7
100
AcDbLine
 10
92.071993
 20
15.260218
 30
0.0
 11
92.073614
 21
15.248856
 31
0.0
  0
LINE
  5
108
100
AcDbEntity
  8
0
390
0
  6
Continuous
 62
     7
100
AcDbLine
 10
92.073614
 20
15.248856
 30
0.0
 11
92.068694
 21
15.223063
 31
0.0
  0
LINE
  5
109
100
AcDbEntity
  8
0
390
0
  6
Continuous
 62
     7
100
AcDbLine
 10
92.068694
 20
15.223063
 30
0.0
 11
92.056462
 21
15.197397
 31
0.0
  0
LINE
  5
10A
100
AcDbEntity
  8
0
390
0
  6
Continuous
 62
     7
100
AcDbLine
 10
92.056462
 20
15.197397
 30
0.0
 11
92.044395
 21
15.184517
 31
0.0
  0
LINE
  5
10B
100
AcDbEntity
  8
0
390
0
  6
Continuous
 62
     7
100
AcDbLine
 10
92.044395
 20
15.184517
 30
0.0
 11
92.028621
 21
15.176406
 31
0.0
  0
LINE
  5
10C
100
AcDbEntity
  8
0
390
0
  6
Continuous
 62
     7
100
AcDbLine
 10
92.028621
 20
15.176406
 30
0.0
 11
91.993346
 21
15.170435
 31
0.0
  0
LINE
  5
10D
100
AcDbEntity
  8
0
390
0
  6
Continuous
 62
     7
100
AcDbLine
 10
91.993346
 20
15.170435
 30
0.0
 11
89.912151
 21
15.085437
 31
0.0
  0
LINE
  5
10E
100
AcDbEntity
  8
0
390
0
  6
Continuous
 62
     7
100
AcDbLine
 10
89.912151
 20
15.085437
 30
0.0
 11
87.823898
 21
15.002004
 31
0.0
  0
LINE
  5
10F
100
AcDbEntity
  8
0
390
0
  6
Continuous
 62
     7
100
AcDbLine
 10
87.823898
 20
15.002004
 30
0.0
 11
87.789771
 21
14.995127
 31
0.0
  0
POLYLINE
  5
110
100
AcDbEntity
  8
0
390
0
  6
Continuous
 62
     7
100
AcDb2dPolyline
 66
     1
 10
0.0
 20
0.0
 30
0.0
 40
0.1
 41
0.1
  0
VERTEX
  5
111
100
AcDbEntity
  8
0
390
0
 62
     7
100
AcDbVertex
100
AcDb2dVertex
 10
87.789771
 20
14.995127
 30
0.0
  0
VERTEX
  5
112
100
AcDbEntity
  8
0
390
0
 62
     7
100
AcDbVertex
100
AcDb2dVertex
 10
87.721257
 20
14.917462
 30
0.0
  0
VERTEX
  5
113
100
AcDbEntity
  8
0
390
0
 62
     7
100
AcDbVertex
100
AcDb2dVertex
 10
87.747847
 20
14.817072
 30
0.0
  0
VERTEX
  5
114
100
AcDbEntity
  8
0
390
0
 62
     7
100
AcDbVertex
100
AcDb2dVertex
 10
87.772609
 20
14.797225
 30
0.0
  0
SEQEND
  5
115
100
AcDbEntity
  8
0
390
0
  0
LINE
  5
116
100
AcDbEntity
  8
0
390
0
  6
Continuous
 62
     7
100
AcDbLine
 10
102.756231
 20
24.532149
 30
0.0
 11
102.659345
 21
26.803633
 31
0.0
  0
LINE
  5
117
100
AcDbEntity
  8
0
390
0
  6
Continuous
 62
     7
100
AcDbLine
 10
102.659345
 20
26.803633
 30
0.0
 11
102.503482
 21
26.898883
 31
0.0
  0
LINE
  5
118
100
AcDbEntity
  8
0
390
0
  6
Continuous
 62
     7
100
AcDbLine
 10
100.938813
 20
26.179257
 30
0.0
 11
100.909694
 21
25.99893
 31
0.0
  0
LINE
  5
119
100
AcDbEntity
  8
0
390
0
  6
Continuous
 62
     7
100
AcDbLine
 10
100.909694
 20
25.99893
 30
0.0
 11
102.571249
 21
24.447071
 31
0.0
  0
POLYLINE
  5
11A
100
AcDbEntity
  8
0
390
0
  6
Continuous
 62
     7
100
AcDb2dPolyline
 66
     1
 10
0.0
 20
0.0
 30
0.0
 40
0.1
 41
0.1
  0
VERTEX
  5
11B
100
AcDbEntity
  8
0
390
0
 62
     7
100
AcDbVertex
100
AcDb2dVertex
 10
102.571249
 20
24.447071
 30
0.0
  0
VERTEX
  5
11C
100
AcDbEntity
  8
0
390
0
 62
     7
100
AcDbVertex
100
AcDb2dVertex
 10
102.670029
 20
24.420044
 30
0.0
  0
VERTEX
  5
11D
100
AcDbEntity
  8
0
390
0
 62
     7
100
AcDbVertex
100
AcDb2dVertex
 10
102.74815
 20
24.485831
 30
0.0
  0
VERTEX
  5
11E
100
AcDbEntity
  8
0
390
0
 62
     7
100
AcDbVertex
100
AcDb2dVertex
 10
102.756231
 20
24.532149
 30
0.0
  0
SEQEND
  5
11F
100
AcDbEntity
  8
0
390
0
  0
LINE
  5
120
100
AcDbEntity
  8
0
390
0
  6
Continuous
 62
     7
100
AcDbLine
 10
102.621635
 20
27.735295
 30
0.0
 11
102.606589
 21
28.384212
 31
0.0
  0
LINE
  5
121
100
AcDbEntity
  8
0
390
0
  6
Continuous
 62
     7
100
AcDbLine
 10
102.606589
 20
28.384212
 30
0.0
 11
102.611228
 21
28.412264
 31
0.0
  0
LINE
  5
122
100
AcDbEntity
  8
0
390
0
  6
Continuous
 62
     7
100
AcDbLine
 10
102.611228
 20
28.412264
 30
0.0
 11
102.617245
 21
28.420677
 31
0.0
  0
LINE
  5
123
100
AcDbEntity
  8
0
390
0
  6
Continuous
 62
     7
100
AcDbLine
 10
102.617245
 20
28.420677
 30
0.0
 11
102.630363
 21
28.428427
 31
0.0
  0
LINE
  5
124
100
AcDbEntity
  8
0
390
0
  6
Continuous
 62
     7
100
AcDbLine
 10
102.630363
 20
28.428427
 30
0.0
 11
102.652113
 21
28.431906
 31
0.0
  0
LINE
  5
125
100
AcDbEntity
  8
0
390
0
  6
Continuous
 62
     7
100
AcDbLine
 10
102.652113
 20
28.431906
 30
0.0
 11
102.673921
 21
28.428103
 31
0.0
  0
LINE
  5
126
100
AcDbEntity
  8
0
390
0
  6
Continuous
 62
     7
100
AcDbLine
 10
102.673921
 20
28.428103
 30
0.0
 11
102.687252
 21
28.420048
 31
0.0
  0
LINE
  5
127
100
AcDbEntity
  8
0
390
0
  6
Continuous
 62
     7
100
AcDbLine
 10
102.687252
 20
28.420048
 30
0.0
 11
102.694836
 21
28.409494
 31
0.0
  0
LINE
  5
128
100
AcDbEntity
  8
0
390
0
  6
Continuous
 62
     7
100
AcDbLine
 10
102.694836
 20
28.409494
 30
0.0
 11
102.701168
 21
28.378377
 31
0.0
  0
LINE
  5
129
100
AcDbEntity
  8
0
390
0
  6
Continuous
 62
     7
100
AcDbLine
 10
102.701168
 20
28.378377
 30
0.0
 11
102.762817
 21
26.407469
 31
0.0
  0
LINE
  5
12A
100
AcDbEntity
  8
0
390
0
  6
Continuous
 62
     7
100
AcDbLine
 10
102.762817
 20
26.407469
 30
0.0
 11
102.831494
 21
24.433479
 31
0.0
  0
LINE
  5
12B
100
AcDbEntity
  8
0
390
0
  6
Continuous
 62
     7
100
AcDbLine
 10
102.831494
 20
24.433479
 30
0.0
 11
102.826981
 21
24.373268
 31
0.0
  0
LINE
  5
12C
100
AcDbEntity
  8
0
390
0
  6
Continuous
 62
     7
100
AcDbLine
 10
102.826981
 20
24.373268
 30
0.0
 11
102.813971
 21
24.338095
 31
0.0
  0
LINE
  5
12D
100
AcDbEntity
  8
0
390
0
  6
Continuous
 62
     7
100
AcDbLine
 10
102.813971
 20
24.338095
 30
0.0
 11
102.793914
 21
24.313829
 31
0.0
  0
LINE
  5
12E
100
AcDbEntity
  8
0
390
0
  6
Continuous
 62
     7
100
AcDbLine
 10
102.793914
 20
24.313829
 30
0.0
 11
102.760465
 21
24.29328
 31
0.0
  0
LINE
  5
12F
100
AcDbEntity
  8
0
390
0
  6
Continuous
 62
     7
100
AcDbLine
 10
102.760465
 20
24.29328
 30
0.0
 11
102.72148
 21
24.282548
 31
0.0
  0
LINE
  5
130
100
AcDbEntity
  8
0
390
0
  6
Continuous
 62
     7
100
AcDbLine
 10
102.72148
 20
24.282548
 30
0.0
 11
102.687008
 21
24.284253
 31
0.0
  0
LINE
  5
131
100
AcDbEntity
  8
0
390
0
  6
Continuous
 62
     7
100
AcDbLine
 10
102.687008
 20
24.284253
 30
0.0
 11
102.648755
 21
24.299031
 31
0.0
  0
LINE
  5
132
100
AcDbEntity
  8
0
390
0
  6
Continuous
 62
     7
100
AcDbLine
 10
102.648755
 20
24.299031
 30
0.0
 11
102.598125
 21
24.336299
 31
0.0
  0
LINE
  5
133
100
AcDbEntity
  8
0
390
0
  6
Continuous
 62
     7
100
AcDbLine
 10
102.598125
 20
24.336299
 30
0.0
 11
101.143666
 21
25.667949
 31
0.0
  0
LINE
  5
134
100
AcDbEntity
  8
0
390
0
  6
Continuous
 62
     7
100
AcDbLine
 10
101.143666
 20
25.667949
 30
0.0
 11
100.729002
 21
26.047232
 31
0.0
  0
LINE
  5
135
100
AcDbEntity
  8
0
390
0
  6
Continuous
 62
     7
100
AcDbLine
 10
100.729002
 20
26.047232
 30
0.0
 11
99.691942
 21
26.995806
 31
0.0
  0
LINE
  5
136
100
AcDbEntity
  8
0
390
0
  6
Continuous
 62
     7
100
AcDbLine
 10
99.691942
 20
26.995806
 30
0.0
 11
99.67594
 21
27.017284
 31
0.0
  0
LINE
  5
137
100
AcDbEntity
  8
0
390
0
  6
Continuous
 62
     7
100
AcDbLine
 10
99.67594
 20
27.017284
 30
0.0
 11
99.673655
 21
27.02924
 31
0.0
  0
LINE
  5
138
100
AcDbEntity
  8
0
390
0
  6
Continuous
 62
     7
100
AcDbLine
 10
99.673655
 20
27.02924
 30
0.0
 11
99.677543
 21
27.048333
 31
0.0
  0
LINE
  5
139
100
AcDbEntity
  8
0
390
0
  6
Continuous
 62
     7
100
AcDbLine
 10
99.677543
 20
27.048333
 30
0.0
 11
99.690533
 21
27.069811
 31
0.0
  0
LINE
  5
13A
100
AcDbEntity
  8
0
390
0
  6
Continuous
 62
     7
100
AcDbLine
 10
99.690533
 20
27.069811
 30
0.0
 11
99.706776
 21
27.083699
 31
0.0
  0
LINE
  5
13B
100
AcDbEntity
  8
0
390
0
  6
Continuous
 62
     7
100
AcDbLine
 10
99.706776
 20
27.083699
 30
0.0
 11
99.717594
 21
27.087329
 31
0.0
  0
LINE
  5
13C
100
AcDbEntity
  8
0
390
0
  6
Continuous
 62
     7
100
AcDbLine
 10
99.717594
 20
27.087329
 30
0.0
 11
99.724547
 21
27.086594
 31
0.0
  0
LINE
  5
13D
100
AcDbEntity
  8
0
390
0
  6
Continuous
 62
     7
100
AcDbLine
 10
99.724547
 20
27.086594
 30
0.0
 11
99.746993
 21
27.072604
 31
0.0
  0
LINE
  5
13E
100
AcDbEntity
  8
0
390
0
  6
Continuous
 62
     7
100
AcDbLine
 10
99.746993
 20
27.072604
 30
0.0
 11
100.227481
 21
26.635293
 31
0.0
  0
LINE
  5
13F
100
AcDbEntity
  8
0
390
0
  6
Continuous
 62
     7
100
AcDbLine
 10
100.227481
 20
26.635293
 30
0.0
 11
100.768833
 21
26.141744
 31
0.0
  0
LINE
  5
140
100
AcDbEntity
  8
0
390
0
  6
Continuous
 62
     7
100
AcDbLine
 10
100.768833
 20
26.141744
 30
0.0
 11
102.64243
 21
27.003453
 31
0.0
  0
LINE
  5
141
100
AcDbEntity
  8
0
390
0
  6
Continuous
 62
     7
100
AcDbLine
 10
102.64243
 20
27.003453
 30
0.0
 11
102.621635
 21
27.735295
 31
0.0
  0
LINE
  5
142
100
AcDbEntity
  8
0
390
0
  6
Continuous
 62
     7
100
AcDbLine
 10
137.70618
 20
13.510699
 30
0.0
 11
139.961326
 21
13.799391
 31
0.0
  0
LINE
  5
143
100
AcDbEntity
  8
0
390
0
  6
Continuous
 62
     7
100
AcDbLine
 10
139.961326
 20
13.799391
 30
0.0
 11
140.043049
 21
13.962753
 31
0.0
  0
LINE
  5
144
100
AcDbEntity
  8
0
390
0
  6
Continuous
 62
     7
100
AcDbLine
 10
139.193642
 20
15.460938
 30
0.0
 11
139.011498
 21
15.474698
 31
0.0
  0
LINE
  5
145
100
AcDbEntity
  8
0
390
0
  6
Continuous
 62
     7
100
AcDbLine
 10
139.011498
 20
15.474698
 30
0.0
 11
137.605758
 21
13.687822
 31
0.0
  0
POLYLINE
  5
146
100
AcDbEntity
  8
0
390
0
  6
Continuous
 62
     7
100
AcDb2dPolyline
 66
     1
 10
0.0
 20
0.0
 30
0.0
 40
0.1
 41
0.1
  0
VERTEX
  5
147
100
AcDbEntity
  8
0
390
0
 62
     7
100
AcDbVertex
100
AcDb2dVertex
 10
137.605758
 20
13.687822
 30
0.0
  0
VERTEX
  5
148
100
AcDbEntity
  8
0
390
0
 62
     7
100
AcDbVertex
100
AcDb2dVertex
 10
137.587187
 20
13.587103
 30
0.0
  0
VERTEX
  5
149
100
AcDbEntity
  8
0
390
0
 62
     7
100
AcDbVertex
100
AcDb2dVertex
 10
137.659351
 20
13.514832
 30
0.0
  0
VERTEX
  5
14A
100
AcDbEntity
  8
0
390
0
 62
     7
100
AcDbVertex
100
AcDb2dVertex
 10
137.70618
 20
13.510699
 30
0.0
  0
SEQEND
  5
14B
100
AcDbEntity
  8
0
390
0
  0
LINE
  5
14C
100
AcDbEntity
  8
0
390
0
  6
Continuous
 62
     7
100
AcDbLine
 10
140.886458
 20
13.915779
 30
0.0
 11
141.531777
 21
13.985665
 31
0.0
  0
LINE
  5
14D
100
AcDbEntity
  8
0
390
0
  6
Continuous
 62
     7
100
AcDbLine
 10
141.531777
 20
13.985665
 30
0.0
 11
141.56012
 21
13.983416
 31
0.0
  0
LINE
  5
14E
100
AcDbEntity
  8
0
390
0
  6
Continuous
 62
     7
100
AcDbLine
 10
141.56012
 20
13.983416
 30
0.0
 11
141.569012
 21
13.978132
 31
0.0
  0
LINE
  5
14F
100
AcDbEntity
  8
0
390
0
  6
Continuous
 62
     7
100
AcDbLine
 10
141.569012
 20
13.978132
 30
0.0
 11
141.577844
 21
13.965716
 31
0.0
  0
LINE
  5
150
100
AcDbEntity
  8
0
390
0
  6
Continuous
 62
     7
100
AcDbLine
 10
141.577844
 20
13.965716
 30
0.0
 11
141.583151
 21
13.944338
 31
0.0
  0
LINE
  5
151
100
AcDbEntity
  8
0
390
0
  6
Continuous
 62
     7
100
AcDbLine
 10
141.583151
 20
13.944338
 30
0.0
 11
141.581206
 21
13.922287
 31
0.0
  0
LINE
  5
152
100
AcDbEntity
  8
0
390
0
  6
Continuous
 62
     7
100
AcDbLine
 10
141.581206
 20
13.922287
 30
0.0
 11
141.574308
 21
13.908323
 31
0.0
  0
LINE
  5
153
100
AcDbEntity
  8
0
390
0
  6
Continuous
 62
     7
100
AcDbLine
 10
141.574308
 20
13.908323
 30
0.0
 11
141.564433
 21
13.899873
 31
0.0
  0
LINE
  5
154
100
AcDbEntity
  8
0
390
0
  6
Continuous
 62
     7
100
AcDbLine
 10
141.564433
 20
13.899873
 30
0.0
 11
141.533963
 21
13.890931
 31
0.0
  0
LINE
  5
155
100
AcDbEntity
  8
0
390
0
  6
Continuous
 62
     7
100
AcDbLine
 10
139.575335
 20
13.662777
 30
0.0
 11
137.614231
 21
13.42736
 31
0.0
  0
LINE
  5
156
100
AcDbEntity
  8
0
390
0
  6
Continuous
 62
     7
100
AcDbLine
 10
137.614231
 20
13.42736
 30
0.0
 11
137.553854
 21
13.426763
 31
0.0
  0
LINE
  5
157
100
AcDbEntity
  8
0
390
0
  6
Continuous
 62
     7
100
AcDbLine
 10
137.553854
 20
13.426763
 30
0.0
 11
137.517706
 21
13.436752
 31
0.0
  0
LINE
  5
158
100
AcDbEntity
  8
0
390
0
  6
Continuous
 62
     7
100
AcDbLine
 10
137.517706
 20
13.436752
 30
0.0
 11
137.49183
 21
13.454683
 31
0.0
  0
LINE
  5
159
100
AcDbEntity
  8
0
390
0
  6
Continuous
 62
     7
100
AcDbLine
 10
137.49183
 20
13.454683
 30
0.0
 11
137.468525
 21
13.486274
 31
0.0
  0
LINE
  5
15A
100
AcDbEntity
  8
0
390
0
  6
Continuous
 62
     7
100
AcDbLine
 10
137.468525
 20
13.486274
 30
0.0
 11
137.454534
 21
13.524212
 31
0.0
  0
LINE
  5
15B
100
AcDbEntity
  8
0
390
0
  6
Continuous
 62
     7
100
AcDbLine
 10
137.454534
 20
13.524212
 30
0.0
 11
137.453316
 21
13.558704
 31
0.0
  0
LINE
  5
15C
100
AcDbEntity
  8
0
390
0
  6
Continuous
 62
     7
100
AcDbLine
 10
137.453316
 20
13.558704
 30
0.0
 11
137.464806
 21
13.598071
 31
0.0
  0
LINE
  5
15D
100
AcDbEntity
  8
0
390
0
  6
Continuous
 62
     7
100
AcDbLine
 10
137.464806
 20
13.598071
 30
0.0
 11
137.497657
 21
13.651672
 31
0.0
  0
LINE
  5
15E
100
AcDbEntity
  8
0
390
0
  6
Continuous
 62
     7
100
AcDbLine
 10
137.497657
 20
13.651672
 30
0.0
 11
138.701496
 21
15.213566
 31
0.0
  0
LINE
  5
15F
100
AcDbEntity
  8
0
390
0
  6
Continuous
 62
     7
100
AcDbLine
 10
138.701496
 20
15.213566
 30
0.0
 11
139.044342
 21
15.658829
 31
0.0
  0
LINE
  5
160
100
AcDbEntity
  8
0
390
0
  6
Continuous
 62
     7
100
AcDbLine
 10
139.044342
 20
15.658829
 30
0.0
 11
139.610941
 21
16.394685
 31
0.0
  0
LINE
  5
161
100
AcDbEntity
  8
0
390
0
  6
Continuous
 62
     7
100
AcDbLine
 10
139.684019
 20
16.333811
 30
0.0
 11
139.58787
 21
16.208298
 31
0.0
  0
LINE
  5
162
100
AcDbEntity
  8
0
390
0
  6
Continuous
 62
     7
100
AcDbLine
 10
139.58787
 20
16.208298
 30
0.0
 11
139.141884
 21
15.627135
 31
0.0
  0
LINE
  5
163
100
AcDbEntity
  8
0
390
0
  6
Continuous
 62
     7
100
AcDbLine
 10
139.141884
 20
15.627135
 30
0.0
 11
140.158999
 21
13.833149
 31
0.0
  0
LINE
  5
164
100
AcDbEntity
  8
0
390
0
  6
Continuous
 62
     7
100
AcDbLine
 10
140.158999
 20
13.833149
 30
0.0
 11
140.886458
 21
13.915779
 31
0.0
  0
LINE
  5
165
100
AcDbEntity
  8
0
390
0
  6
Continuous
 62
     7
100
AcDbLine
 10
141.533963
 20
13.890931
 30
0.0
 11
139.575335
 21
13.662777
 31
0.0
  0
LINE
  5
166
100
AcDbEntity
  8
0
390
0
  6
Continuous
 62
     7
100
AcDbLine
 10
94.390151
 20
18.433857
 30
0.0
 11
93.448076
 21
20.503041
 31
0.0
  0
LINE
  5
167
100
AcDbEntity
  8
0
390
0
  6
Continuous
 62
     7
100
AcDbLine
 10
93.448076
 20
20.503041
 30
0.0
 11
93.387297
 21
20.560188
 31
0.0
  0
LINE
  5
168
100
AcDbEntity
  8
0
390
0
  6
Continuous
 62
     7
100
AcDbLine
 10
92.087509
 20
19.278731
 30
0.0
 11
92.128176
 21
19.100653
 31
0.0
  0
LINE
  5
169
100
AcDbEntity
  8
0
390
0
  6
Continuous
 62
     7
100
AcDbLine
 10
92.128176
 20
19.100653
 30
0.0
 11
94.250604
 21
18.285588
 31
0.0
  0
POLYLINE
  5
16A
100
AcDbEntity
  8
0
390
0
  6
Continuous
 62
     7
100
AcDb2dPolyline
 66
     1
 10
0.0
 20
0.0
 30
0.0
 40
0.1
 41
0.1
  0
VERTEX
  5
16B
100
AcDbEntity
  8
0
390
0
 62
     7
100
AcDbVertex
100
AcDb2dVertex
 10
94.250604
 20
18.285588
 30
0.0
  0
VERTEX
  5
16C
100
AcDbEntity
  8
0
390
0
 62
     7
100
AcDbVertex
100
AcDb2dVertex
 10
94.35235
 20
18.297628
 30
0.0
  0
VERTEX
  5
16D
100
AcDbEntity
  8
0
390
0
 62
     7
100
AcDbVertex
100
AcDb2dVertex
 10
94.400038
 20
18.387941
 30
0.0
  0
VERTEX
  5
16E
100
AcDbEntity
  8
0
390
0
 62
     7
100
AcDbVertex
100
AcDb2dVertex
 10
94.390151
 20
18.433857
 30
0.0
  0
SEQEND
  5
16F
100
AcDbEntity
  8
0
390
0
  0
LINE
  5
170
100
AcDbEntity
  8
0
390
0
  6
Continuous
 62
     7
100
AcDbLine
 10
93.481558
 20
20.652564
 30
0.0
 11
93.69263
 21
20.174642
 31
0.0
  0
LINE
  5
171
100
AcDbEntity
  8
0
390
0
  6
Continuous
 62
     7
100
AcDbLine
 10
93.69263
 20
20.174642
 30
0.0
 11
94.496936
 21
18.370635
 31
0.0
  0
LINE
  5
172
100
AcDbEntity
  8
0
390
0
  6
Continuous
 62
     7
100
AcDbLine
 10
94.496936
 20
18.370635
 30
0.0
 11
94.515344
 21
18.313129
 31
0.0
  0
LINE
  5
173
100
AcDbEntity
  8
0
390
0
  6
Continuous
 62
     7
100
AcDbLine
 10
94.515344
 20
18.313129
 30
0.0
 11
94.516481
 21
18.275644
 31
0.0
  0
LINE
  5
174
100
AcDbEntity
  8
0
390
0
  6
Continuous
 62
     7
100
AcDbLine
 10
94.516481
 20
18.275644
 30
0.0
 11
94.506995
 21
18.245625
 31
0.0
  0
LINE
  5
175
100
AcDbEntity
  8
0
390
0
  6
Continuous
 62
     7
100
AcDbLine
 10
94.506995
 20
18.245625
 30
0.0
 11
94.4837
 21
18.214028
 31
0.0
  0
LINE
  5
176
100
AcDbEntity
  8
0
390
0
  6
Continuous
 62
     7
100
AcDbLine
 10
94.4837
 20
18.214028
 30
0.0
 11
94.451589
 21
18.189452
 31
0.0
  0
LINE
  5
177
100
AcDbEntity
  8
0
390
0
  6
Continuous
 62
     7
100
AcDbLine
 10
94.451589
 20
18.189452
 30
0.0
 11
94.418996
 21
18.178099
 31
0.0
  0
LINE
  5
178
100
AcDbEntity
  8
0
390
0
  6
Continuous
 62
     7
100
AcDbLine
 10
94.418996
 20
18.178099
 30
0.0
 11
94.377992
 21
18.177444
 31
0.0
  0
LINE
  5
179
100
AcDbEntity
  8
0
390
0
  6
Continuous
 62
     7
100
AcDbLine
 10
94.377992
 20
18.177444
 30
0.0
 11
94.317079
 21
18.192993
 31
0.0
  0
LINE
  5
17A
100
AcDbEntity
  8
0
390
0
  6
Continuous
 62
     7
100
AcDbLine
 10
94.317079
 20
18.192993
 30
0.0
 11
92.469239
 21
18.88164
 31
0.0
  0
LINE
  5
17B
100
AcDbEntity
  8
0
390
0
  6
Continuous
 62
     7
100
AcDbLine
 10
92.469239
 20
18.88164
 30
0.0
 11
91.942561
 21
19.077631
 31
0.0
  0
LINE
  5
17C
100
AcDbEntity
  8
0
390
0
  6
Continuous
 62
     7
100
AcDbLine
 10
91.942561
 20
19.077631
 30
0.0
 11
91.889415
 21
19.097408
 31
0.0
  0
LINE
  5
17D
100
AcDbEntity
  8
0
390
0
  6
Continuous
 62
     7
100
AcDbLine
 10
120.552404
 20
26.336303
 30
0.0
 11
121.892679
 21
28.172792
 31
0.0
  0
LINE
  5
17E
100
AcDbEntity
  8
0
390
0
  6
Continuous
 62
     7
100
AcDbLine
 10
121.892679
 20
28.172792
 30
0.0
 11
121.830187
 21
28.344432
 31
0.0
  0
LINE
  5
17F
100
AcDbEntity
  8
0
390
0
  6
Continuous
 62
     7
100
AcDbLine
 10
120.15815
 20
28.757158
 30
0.0
 11
120.022966
 21
28.634312
 31
0.0
  0
LINE
  5
180
100
AcDbEntity
  8
0
390
0
  6
Continuous
 62
     7
100
AcDbLine
 10
120.022966
 20
28.634312
 30
0.0
 11
120.354727
 21
26.385098
 31
0.0
  0
POLYLINE
  5
181
100
AcDbEntity
  8
0
390
0
  6
Continuous
 62
     7
100
AcDb2dPolyline
 66
     1
 10
0.0
 20
0.0
 30
0.0
 40
0.1
 41
0.1
  0
VERTEX
  5
182
100
AcDbEntity
  8
0
390
0
 62
     7
100
AcDbVertex
100
AcDb2dVertex
 10
120.354727
 20
26.385098
 30
0.0
  0
VERTEX
  5
183
100
AcDbEntity
  8
0
390
0
 62
     7
100
AcDbVertex
100
AcDb2dVertex
 10
120.415168
 20
26.302361
 30
0.0
  0
VERTEX
  5
184
100
AcDbEntity
  8
0
390
0
 62
     7
100
AcDbVertex
100
AcDb2dVertex
 10
120.51726
 20
26.305153
 30
0.0
  0
VERTEX
  5
185
100
AcDbEntity
  8
0
390
0
 62
     7
100
AcDbVertex
100
AcDb2dVertex
 10
120.552404
 20
26.336303
 30
0.0
  0
SEQEND
  5
186
100
AcDbEntity
  8
0
390
0
  0
LINE
  5
187
100
AcDbEntity
  8
0
390
0
  6
Continuous
 62
     7
100
AcDbLine
 10
122.443986
 20
28.924773
 30
0.0
 11
122.836754
 21
29.441546
 31
0.0
  0
LINE
  5
188
100
AcDbEntity
  8
0
390
0
  6
Continuous
 62
     7
100
AcDbLine
 10
122.836754
 20
29.441546
 30
0.0
 11
122.857868
 21
29.460588
 31
0.0
  0
LINE
  5
189
100
AcDbEntity
  8
0
390
0
  6
Continuous
 62
     7
100
AcDbLine
 10
122.857868
 20
29.460588
 30
0.0
 11
122.867817
 21
29.463415
 31
0.0
  0
LINE
  5
18A
100
AcDbEntity
  8
0
390
0
  6
Continuous
 62
     7
100
AcDbLine
 10
122.867817
 20
29.463415
 30
0.0
 11
122.882906
 21
29.461297
 31
0.0
  0
LINE
  5
18B
100
AcDbEntity
  8
0
390
0
  6
Continuous
 62
     7
100
AcDbLine
 10
122.882906
 20
29.461297
 30
0.0
 11
122.902082
 21
29.450459
 31
0.0
  0
LINE
  5
18C
100
AcDbEntity
  8
0
390
0
  6
Continuous
 62
     7
100
AcDbLine
 10
122.902082
 20
29.450459
 30
0.0
 11
122.916762
 21
29.43389
 31
0.0
  0
LINE
  5
18D
100
AcDbEntity
  8
0
390
0
  6
Continuous
 62
     7
100
AcDbLine
 10
122.916762
 20
29.43389
 30
0.0
 11
122.922164
 21
29.419282
 31
0.0
  0
LINE
  5
18E
100
AcDbEntity
  8
0
390
0
  6
Continuous
 62
     7
100
AcDbLine
 10
122.922164
 20
29.419282
 30
0.0
 11
122.921515
 21
29.406301
 31
0.0
  0
LINE
  5
18F
100
AcDbEntity
  8
0
390
0
  6
Continuous
 62
     7
100
AcDbLine
 10
122.921515
 20
29.406301
 30
0.0
 11
122.907068
 21
29.378023
 31
0.0
  0
LINE
  5
190
100
AcDbEntity
  8
0
390
0
  6
Continuous
 62
     7
100
AcDbLine
 10
122.907068
 20
29.378023
 30
0.0
 11
122.063828
 21
28.249728
 31
0.0
  0
LINE
  5
191
100
AcDbEntity
  8
0
390
0
  6
Continuous
 62
     7
100
AcDbLine
 10
122.063828
 20
28.249728
 30
0.0
 11
121.726618
 21
27.798524
 31
0.0
  0
LINE
  5
192
100
AcDbEntity
  8
0
390
0
  6
Continuous
 62
     7
100
AcDbLine
 10
121.726618
 20
27.798524
 30
0.0
 11
120.549742
 21
26.212234
 31
0.0
  0
LINE
  5
193
100
AcDbEntity
  8
0
390
0
  6
Continuous
 62
     7
100
AcDbLine
 10
120.549742
 20
26.212234
 30
0.0
 11
120.508678
 21
26.167969
 31
0.0
  0
LINE
  5
194
100
AcDbEntity
  8
0
390
0
  6
Continuous
 62
     7
100
AcDbLine
 10
120.508678
 20
26.167969
 30
0.0
 11
120.476579
 21
26.148577
 31
0.0
  0
LINE
  5
195
100
AcDbEntity
  8
0
390
0
  6
Continuous
 62
     7
100
AcDbLine
 10
120.476579
 20
26.148577
 30
0.0
 11
120.445768
 21
26.142106
 31
0.0
  0
LINE
  5
196
100
AcDbEntity
  8
0
390
0
  6
Continuous
 62
     7
100
AcDbLine
 10
120.445768
 20
26.142106
 30
0.0
 11
120.406805
 21
26.146891
 31
0.0
  0
LINE
  5
197
100
AcDbEntity
  8
0
390
0
  6
Continuous
 62
     7
100
AcDbLine
 10
120.406805
 20
26.146891
 30
0.0
 11
120.369631
 21
26.162803
 31
0.0
  0
LINE
  5
198
100
AcDbEntity
  8
0
390
0
  6
Continuous
 62
     7
100
AcDbLine
 10
120.369631
 20
26.162803
 30
0.0
 11
120.343741
 21
26.185625
 31
0.0
  0
LINE
  5
199
100
AcDbEntity
  8
0
390
0
  6
Continuous
 62
     7
100
AcDbLine
 10
120.343741
 20
26.185625
 30
0.0
 11
120.323042
 21
26.221027
 31
0.0
  0
LINE
  5
19A
100
AcDbEntity
  8
0
390
0
  6
Continuous
 62
     7
100
AcDbLine
 10
120.323042
 20
26.221027
 30
0.0
 11
120.306687
 21
26.281729
 31
0.0
  0
LINE
  5
19B
100
AcDbEntity
  8
0
390
0
  6
Continuous
 62
     7
100
AcDbLine
 10
120.306687
 20
26.281729
 30
0.0
 11
119.999579
 21
28.229659
 31
0.0
  0
LINE
  5
19C
100
AcDbEntity
  8
0
390
0
  6
Continuous
 62
     7
100
AcDbLine
 10
119.999579
 20
28.229659
 30
0.0
 11
119.911794
 21
28.784721
 31
0.0
  0
LINE
  5
19D
100
AcDbEntity
  8
0
390
0
  6
Continuous
 62
     7
100
AcDbLine
 10
119.911794
 20
28.784721
 30
0.0
 11
119.804218
 21
29.464913
 31
0.0
  0
LINE
  5
19E
100
AcDbEntity
  8
0
390
0
  6
Continuous
 62
     7
100
AcDbLine
 10
119.899523
 20
29.474093
 30
0.0
 11
120.001856
 21
28.833791
 31
0.0
  0
LINE
  5
19F
100
AcDbEntity
  8
0
390
0
  6
Continuous
 62
     7
100
AcDbLine
 10
120.001856
 20
28.833791
 30
0.0
 11
122.00402
 21
28.339577
 31
0.0
  0
LINE
  5
1A0
100
AcDbEntity
  8
0
390
0
  6
Continuous
 62
     7
100
AcDbLine
 10
122.00402
 20
28.339577
 30
0.0
 11
122.443986
 21
28.924773
 31
0.0
  0
LINE
  5
1A1
100
AcDbEntity
  8
0
390
0
  6
Continuous
 62
     7
100
AcDbLine
 10
125.353646
 20
24.480619
 30
0.0
 11
125.345182
 21
24.477519
 31
0.0
  0
LINE
  5
1A2
100
AcDbEntity
  8
0
390
0
  6
Continuous
 62
     7
100
AcDbLine
 10
125.345182
 20
24.477519
 30
0.0
 11
125.32211
 21
24.478198
 31
0.0
  0
LINE
  5
1A3
100
AcDbEntity
  8
0
390
0
  6
Continuous
 62
     7
100
AcDbLine
 10
125.32211
 20
24.478198
 30
0.0
 11
125.292705
 21
24.487443
 31
0.0
  0
LINE
  5
1A4
100
AcDbEntity
  8
0
390
0
  6
Continuous
 62
     7
100
AcDbLine
 10
125.292705
 20
24.487443
 30
0.0
 11
125.266655
 21
24.50392
 31
0.0
  0
LINE
  5
1A5
100
AcDbEntity
  8
0
390
0
  6
Continuous
 62
     7
100
AcDbLine
 10
125.266655
 20
24.50392
 30
0.0
 11
125.249539
 21
24.522985
 31
0.0
  0
LINE
  5
1A6
100
AcDbEntity
  8
0
390
0
  6
Continuous
 62
     7
100
AcDbLine
 10
125.249539
 20
24.522985
 30
0.0
 11
125.241445
 21
24.542359
 31
0.0
  0
LINE
  5
1A7
100
AcDbEntity
  8
0
390
0
  6
Continuous
 62
     7
100
AcDbLine
 10
125.241445
 20
24.542359
 30
0.0
 11
125.240551
 21
24.579816
 31
0.0
  0
LINE
  5
1A8
100
AcDbEntity
  8
0
390
0
  6
Continuous
 62
     7
100
AcDbLine
 10
125.240551
 20
24.579816
 30
0.0
 11
125.693015
 21
28.104891
 31
0.0
  0
POLYLINE
  5
1A9
100
AcDbEntity
  8
0
390
0
  6
Continuous
 62
     7
100
AcDb2dPolyline
 66
     1
 10
0.0
 20
0.0
 30
0.0
 40
0.1
 41
0.1
  0
VERTEX
  5
1AA
100
AcDbEntity
  8
0
390
0
 62
     7
100
AcDbVertex
100
AcDb2dVertex
 10
125.693015
 20
28.104891
 30
0.0
  0
VERTEX
  5
1AB
100
AcDbEntity
  8
0
390
0
 62
     7
100
AcDbVertex
100
AcDb2dVertex
 10
125.656473
 20
28.201566
 30
0.0
  0
VERTEX
  5
1AC
100
AcDbEntity
  8
0
390
0
 62
     7
100
AcDbVertex
100
AcDb2dVertex
 10
125.556478
 20
28.225419
 30
0.0
  0
VERTEX
  5
1AD
100
AcDbEntity
  8
0
390
0
 62
     7
100
AcDbVertex
100
AcDb2dVertex
 10
125.50085
 20
28.191014
 30
0.0
  0
SEQEND
  5
1AE
100
AcDbEntity
  8
0
390
0
  0
LINE
  5
1AF
100
AcDbEntity
  8
0
390
0
  6
Continuous
 62
     7
100
AcDbLine
 10
125.50085
 20
28.191014
 30
0.0
 11
124.327888
 21
26.840085
 31
0.0
  0
LINE
  5
1B0
100
AcDbEntity
  8
0
390
0
  6
Continuous
 62
     7
100
AcDbLine
 10
124.327888
 20
26.840085
 30
0.0
 11
123.163847
 21
25.496503
 31
0.0
  0
LINE
  5
1B1
100
AcDbEntity
  8
0
390
0
  6
Continuous
 62
     7
100
AcDbLine
 10
123.163847
 20
25.496503
 30
0.0
 11
123.148768
 21
25.485028
 31
0.0
  0
LINE
  5
1B2
100
AcDbEntity
  8
0
390
0
  6
Continuous
 62
     7
100
AcDbLine
 10
123.148768
 20
25.485028
 30
0.0
 11
123.142978
 21
25.484107
 31
0.0
  0
LINE
  5
1B3
100
AcDbEntity
  8
0
390
0
  6
Continuous
 62
     7
100
AcDbLine
 10
123.142978
 20
25.484107
 30
0.0
 11
123.12628
 21
25.488139
 31
0.0
  0
LINE
  5
1B4
100
AcDbEntity
  8
0
390
0
  6
Continuous
 62
     7
100
AcDbLine
 10
123.12628
 20
25.488139
 30
0.0
 11
123.107102
 21
25.500373
 31
0.0
  0
LINE
  5
1B5
100
AcDbEntity
  8
0
390
0
  6
Continuous
 62
     7
100
AcDbLine
 10
123.107102
 20
25.500373
 30
0.0
 11
123.094553
 21
25.515694
 31
0.0
  0
LINE
  5
1B6
100
AcDbEntity
  8
0
390
0
  6
Continuous
 62
     7
100
AcDbLine
 10
123.094553
 20
25.515694
 30
0.0
 11
123.090484
 21
25.528048
 31
0.0
  0
LINE
  5
1B7
100
AcDbEntity
  8
0
390
0
  6
Continuous
 62
     7
100
AcDbLine
 10
123.090484
 20
25.528048
 30
0.0
 11
123.091126
 21
25.535695
 31
0.0
  0
LINE
  5
1B8
100
AcDbEntity
  8
0
390
0
  6
Continuous
 62
     7
100
AcDbLine
 10
123.091126
 20
25.535695
 30
0.0
 11
123.102736
 21
25.555432
 31
0.0
  0
LINE
  5
1B9
100
AcDbEntity
  8
0
390
0
  6
Continuous
 62
     7
100
AcDbLine
 10
123.102736
 20
25.555432
 30
0.0
 11
124.37214
 21
26.999982
 31
0.0
  0
LINE
  5
1BA
100
AcDbEntity
  8
0
390
0
  6
Continuous
 62
     7
100
AcDbLine
 10
124.37214
 20
26.999982
 30
0.0
 11
125.459394
 21
28.231376
 31
0.0
  0
LINE
  5
1BB
100
AcDbEntity
  8
0
390
0
  6
Continuous
 62
     7
100
AcDbLine
 10
125.459394
 20
28.231376
 30
0.0
 11
125.647442
 21
28.444355
 31
0.0
  0
LINE
  5
1BC
100
AcDbEntity
  8
0
390
0
  6
Continuous
 62
     7
100
AcDbLine
 10
125.647442
 20
28.444355
 30
0.0
 11
125.681944
 21
28.475002
 31
0.0
  0
LINE
  5
1BD
100
AcDbEntity
  8
0
390
0
  6
Continuous
 62
     7
100
AcDbLine
 10
125.681944
 20
28.475002
 30
0.0
 11
125.702247
 21
28.483984
 31
0.0
  0
LINE
  5
1BE
100
AcDbEntity
  8
0
390
0
  6
Continuous
 62
     7
100
AcDbLine
 10
125.702247
 20
28.483984
 30
0.0
 11
125.719662
 21
28.484682
 31
0.0
  0
LINE
  5
1BF
100
AcDbEntity
  8
0
390
0
  6
Continuous
 62
     7
100
AcDbLine
 10
125.719662
 20
28.484682
 30
0.0
 11
125.746799
 21
28.475871
 31
0.0
  0
LINE
  5
1C0
100
AcDbEntity
  8
0
390
0
  6
Continuous
 62
     7
100
AcDbLine
 10
125.746799
 20
28.475871
 30
0.0
 11
125.771811
 21
28.458809
 31
0.0
  0
LINE
  5
1C1
100
AcDbEntity
  8
0
390
0
  6
Continuous
 62
     7
100
AcDbLine
 10
125.771811
 20
28.458809
 30
0.0
 11
125.784423
 21
28.441861
 31
0.0
  0
LINE
  5
1C2
100
AcDbEntity
  8
0
390
0
  6
Continuous
 62
     7
100
AcDbLine
 10
125.784423
 20
28.441861
 30
0.0
 11
125.791528
 21
28.417857
 31
0.0
  0
LINE
  5
1C3
100
AcDbEntity
  8
0
390
0
  6
Continuous
 62
     7
100
AcDbLine
 10
125.791528
 20
28.417857
 30
0.0
 11
125.791095
 21
28.371148
 31
0.0
  0
LINE
  5
1C4
100
AcDbEntity
  8
0
390
0
  6
Continuous
 62
     7
100
AcDbLine
 10
125.791095
 20
28.371148
 30
0.0
 11
125.568297
 21
26.623767
 31
0.0
  0
LINE
  5
1C5
100
AcDbEntity
  8
0
390
0
  6
Continuous
 62
     7
100
AcDbLine
 10
125.568297
 20
26.623767
 30
0.0
 11
125.34683
 21
24.869691
 31
0.0
  0
POLYLINE
  5
1C6
100
AcDbEntity
  8
0
390
0
  6
Continuous
 62
     7
100
AcDb2dPolyline
 66
     1
 10
0.0
 20
0.0
 30
0.0
 40
0.1
 41
0.1
  0
VERTEX
  5
1C7
100
AcDbEntity
  8
0
390
0
 62
     7
100
AcDbVertex
100
AcDb2dVertex
 10
125.34683
 20
24.869691
 30
0.0
  0
VERTEX
  5
1C8
100
AcDbEntity
  8
0
390
0
 62
     7
100
AcDbVertex
100
AcDb2dVertex
 10
125.382768
 20
24.773799
 30
0.0
  0
VERTEX
  5
1C9
100
AcDbEntity
  8
0
390
0
 62
     7
100
AcDbVertex
100
AcDb2dVertex
 10
125.482065
 20
24.749053
 30
0.0
  0
VERTEX
  5
1CA
100
AcDbEntity
  8
0
390
0
 62
     7
100
AcDbVertex
100
AcDb2dVertex
 10
125.536906
 20
24.781425
 30
0.0
  0
SEQEND
  5
1CB
100
AcDbEntity
  8
0
390
0
  0
LINE
  5
1CC
100
AcDbEntity
  8
0
390
0
  6
Continuous
 62
     7
100
AcDbLine
 10
125.536906
 20
24.781425
 30
0.0
 11
126.734052
 21
26.082327
 31
0.0
  0
LINE
  5
1CD
100
AcDbEntity
  8
0
390
0
  6
Continuous
 62
     7
100
AcDbLine
 10
126.734052
 20
26.082327
 30
0.0
 11
127.927491
 21
27.377908
 31
0.0
  0
LINE
  5
1CE
100
AcDbEntity
  8
0
390
0
  6
Continuous
 62
     7
100
AcDbLine
 10
127.927491
 20
27.377908
 30
0.0
 11
127.963825
 21
27.409121
 31
0.0
  0
LINE
  5
1CF
100
AcDbEntity
  8
0
390
0
  6
Continuous
 62
     7
100
AcDbLine
 10
127.963825
 20
27.409121
 30
0.0
 11
127.987596
 21
27.419629
 31
0.0
  0
LINE
  5
1D0
100
AcDbEntity
  8
0
390
0
  6
Continuous
 62
     7
100
AcDbLine
 10
127.987596
 20
27.419629
 30
0.0
 11
128.009014
 21
27.421042
 31
0.0
  0
LINE
  5
1D1
100
AcDbEntity
  8
0
390
0
  6
Continuous
 62
     7
100
AcDbLine
 10
128.009014
 20
27.421042
 30
0.0
 11
128.038194
 21
27.413017
 31
0.0
  0
LINE
  5
1D2
100
AcDbEntity
  8
0
390
0
  6
Continuous
 62
     7
100
AcDbLine
 10
128.038194
 20
27.413017
 30
0.0
 11
128.062502
 21
27.39801
 31
0.0
  0
LINE
  5
1D3
100
AcDbEntity
  8
0
390
0
  6
Continuous
 62
     7
100
AcDbLine
 10
128.062502
 20
27.39801
 30
0.0
 11
128.073082
 21
27.384536
 31
0.0
  0
LINE
  5
1D4
100
AcDbEntity
  8
0
390
0
  6
Continuous
 62
     7
100
AcDbLine
 10
128.073082
 20
27.384536
 30
0.0
 11
128.079122
 21
27.364126
 31
0.0
  0
LINE
  5
1D5
100
AcDbEntity
  8
0
390
0
  6
Continuous
 62
     7
100
AcDbLine
 10
128.079122
 20
27.364126
 30
0.0
 11
128.077965
 21
27.31908
 31
0.0
  0
LINE
  5
1D6
100
AcDbEntity
  8
0
390
0
  6
Continuous
 62
     7
100
AcDbLine
 10
128.077965
 20
27.31908
 30
0.0
 11
127.795968
 21
25.412826
 31
0.0
  0
LINE
  5
1D7
100
AcDbEntity
  8
0
390
0
  6
Continuous
 62
     7
100
AcDbLine
 10
127.795968
 20
25.412826
 30
0.0
 11
127.516192
 21
23.509736
 31
0.0
  0
LINE
  5
1D8
100
AcDbEntity
  8
0
390
0
  6
Continuous
 62
     7
100
AcDbLine
 10
127.516192
 20
23.509736
 30
0.0
 11
127.508245
 21
23.486504
 31
0.0
  0
LINE
  5
1D9
100
AcDbEntity
  8
0
390
0
  6
Continuous
 62
     7
100
AcDbLine
 10
127.508245
 20
23.486504
 30
0.0
 11
127.502894
 21
23.481083
 31
0.0
  0
LINE
  5
1DA
100
AcDbEntity
  8
0
390
0
  6
Continuous
 62
     7
100
AcDbLine
 10
127.502894
 20
23.481083
 30
0.0
 11
127.491155
 21
23.476339
 31
0.0
  0
LINE
  5
1DB
100
AcDbEntity
  8
0
390
0
  6
Continuous
 62
     7
100
AcDbLine
 10
127.491155
 20
23.476339
 30
0.0
 11
127.471354
 21
23.476024
 31
0.0
  0
LINE
  5
1DC
100
AcDbEntity
  8
0
390
0
  6
Continuous
 62
     7
100
AcDbLine
 10
127.471354
 20
23.476024
 30
0.0
 11
127.449628
 21
23.482763
 31
0.0
  0
LINE
  5
1DD
100
AcDbEntity
  8
0
390
0
  6
Continuous
 62
     7
100
AcDbLine
 10
127.449628
 20
23.482763
 30
0.0
 11
127.435982
 21
23.492748
 31
0.0
  0
LINE
  5
1DE
100
AcDbEntity
  8
0
390
0
  6
Continuous
 62
     7
100
AcDbLine
 10
127.435982
 20
23.492748
 30
0.0
 11
127.43282
 21
23.498028
 31
0.0
  0
LINE
  5
1DF
100
AcDbEntity
  8
0
390
0
  6
Continuous
 62
     7
100
AcDbLine
 10
127.43282
 20
23.498028
 30
0.0
 11
127.431787
 21
23.518818
 31
0.0
  0
LINE
  5
1E0
100
AcDbEntity
  8
0
390
0
  6
Continuous
 62
     7
100
AcDbLine
 10
127.431787
 20
23.518818
 30
0.0
 11
127.70098
 21
25.276185
 31
0.0
  0
LINE
  5
1E1
100
AcDbEntity
  8
0
390
0
  6
Continuous
 62
     7
100
AcDbLine
 10
127.70098
 20
25.276185
 30
0.0
 11
127.973131
 21
27.044356
 31
0.0
  0
POLYLINE
  5
1E2
100
AcDbEntity
  8
0
390
0
  6
Continuous
 62
     7
100
AcDb2dPolyline
 66
     1
 10
0.0
 20
0.0
 30
0.0
 40
0.1
 41
0.1
  0
VERTEX
  5
1E3
100
AcDbEntity
  8
0
390
0
 62
     7
100
AcDbVertex
100
AcDb2dVertex
 10
127.973131
 20
27.044356
 30
0.0
  0
VERTEX
  5
1E4
100
AcDbEntity
  8
0
390
0
 62
     7
100
AcDbVertex
100
AcDb2dVertex
 10
127.940579
 20
27.140453
 30
0.0
  0
VERTEX
  5
1E5
100
AcDbEntity
  8
0
390
0
 62
     7
100
AcDbVertex
100
AcDb2dVertex
 10
127.840526
 20
27.168466
 30
0.0
  0
VERTEX
  5
1E6
100
AcDbEntity
  8
0
390
0
 62
     7
100
AcDbVertex
100
AcDb2dVertex
 10
127.783274
 20
27.135365
 30
0.0
  0
SEQEND
  5
1E7
100
AcDbEntity
  8
0
390
0
  0
LINE
  5
1E8
100
AcDbEntity
  8
0
390
0
  6
Continuous
 62
     7
100
AcDbLine
 10
127.783274
 20
27.135365
 30
0.0
 11
125.377475
 21
24.507259
 31
0.0
  0
LINE
  5
1E9
100
AcDbEntity
  8
0
390
0
  6
Continuous
 62
     7
100
AcDbLine
 10
125.377475
 20
24.507259
 30
0.0
 11
125.353646
 21
24.480619
 31
0.0
  0
LINE
  5
1EA
100
AcDbEntity
  8
0
390
0
  6
Continuous
 62
     7
100
AcDbLine
 10
98.020117
 20
23.914163
 30
0.0
 11
96.968857
 21
23.158278
 31
0.0
  0
LINE
  5
1EB
100
AcDbEntity
  8
0
390
0
  6
Continuous
 62
     7
100
AcDbLine
 10
96.968857
 20
23.158278
 30
0.0
 11
96.792258
 21
23.009368
 31
0.0
  0
LINE
  5
1EC
100
AcDbEntity
  8
0
390
0
  6
Continuous
 62
     7
100
AcDbLine
 10
96.792258
 20
23.009368
 30
0.0
 11
96.653349
 21
22.840919
 31
0.0
  0
LINE
  5
1ED
100
AcDbEntity
  8
0
390
0
  6
Continuous
 62
     7
100
AcDbLine
 10
96.653349
 20
22.840919
 30
0.0
 11
96.557645
 21
22.655456
 31
0.0
  0
LINE
  5
1EE
100
AcDbEntity
  8
0
390
0
  6
Continuous
 62
     7
100
AcDbLine
 10
96.557645
 20
22.655456
 30
0.0
 11
96.508182
 21
22.4571
 31
0.0
  0
LINE
  5
1EF
100
AcDbEntity
  8
0
390
0
  6
Continuous
 62
     7
100
AcDbLine
 10
96.508182
 20
22.4571
 30
0.0
 11
96.498291
 21
22.26174
 31
0.0
  0
LINE
  5
1F0
100
AcDbEntity
  8
0
390
0
  6
Continuous
 62
     7
100
AcDbLine
 10
96.498291
 20
22.26174
 30
0.0
 11
96.521147
 21
22.079361
 31
0.0
  0
LINE
  5
1F1
100
AcDbEntity
  8
0
390
0
  6
Continuous
 62
     7
100
AcDbLine
 10
96.521147
 20
22.079361
 30
0.0
 11
96.577569
 21
21.909338
 31
0.0
  0
LINE
  5
1F2
100
AcDbEntity
  8
0
390
0
  6
Continuous
 62
     7
100
AcDbLine
 10
96.577569
 20
21.909338
 30
0.0
 11
96.667176
 21
21.754224
 31
0.0
  0
LINE
  5
1F3
100
AcDbEntity
  8
0
390
0
  6
Continuous
 62
     7
100
AcDbLine
 10
96.667176
 20
21.754224
 30
0.0
 11
96.786386
 21
21.617511
 31
0.0
  0
LINE
  5
1F4
100
AcDbEntity
  8
0
390
0
  6
Continuous
 62
     7
100
AcDbLine
 10
96.786386
 20
21.617511
 30
0.0
 11
96.928154
 21
21.507686
 31
0.0
  0
LINE
  5
1F5
100
AcDbEntity
  8
0
390
0
  6
Continuous
 62
     7
100
AcDbLine
 10
96.928154
 20
21.507686
 30
0.0
 11
97.090976
 21
21.425592
 31
0.0
  0
LINE
  5
1F6
100
AcDbEntity
  8
0
390
0
  6
Continuous
 62
     7
100
AcDbLine
 10
97.090976
 20
21.425592
 30
0.0
 11
97.27498
 21
21.370633
 31
0.0
  0
LINE
  5
1F7
100
AcDbEntity
  8
0
390
0
  6
Continuous
 62
     7
100
AcDbLine
 10
97.27498
 20
21.370633
 30
0.0
 11
97.472758
 21
21.351535
 31
0.0
  0
LINE
  5
1F8
100
AcDbEntity
  8
0
390
0
  6
Continuous
 62
     7
100
AcDbLine
 10
97.472758
 20
21.351535
 30
0.0
 11
97.671892
 21
21.378793
 31
0.0
  0
LINE
  5
1F9
100
AcDbEntity
  8
0
390
0
  6
Continuous
 62
     7
100
AcDbLine
 10
97.671892
 20
21.378793
 30
0.0
 11
97.867529
 21
21.451176
 31
0.0
  0
LINE
  5
1FA
100
AcDbEntity
  8
0
390
0
  6
Continuous
 62
     7
100
AcDbLine
 10
97.867529
 20
21.451176
 30
0.0
 11
98.054952
 21
21.564148
 31
0.0
  0
LINE
  5
1FB
100
AcDbEntity
  8
0
390
0
  6
Continuous
 62
     7
100
AcDbLine
 10
98.054952
 20
21.564148
 30
0.0
 11
99.145849
 21
22.348533
 31
0.0
  0
LINE
  5
1FC
100
AcDbEntity
  8
0
390
0
  6
Continuous
 62
     7
100
AcDbLine
 10
99.145849
 20
22.348533
 30
0.0
 11
98.020117
 21
23.914163
 31
0.0
  0
LINE
  5
1FD
100
AcDbEntity
  8
0
390
0
  6
Continuous
 62
     7
100
AcDbLine
 10
99.164455
 20
22.330064
 30
0.0
 11
99.110913
 21
22.27791
 31
0.0
  0
LINE
  5
1FE
100
AcDbEntity
  8
0
390
0
  6
Continuous
 62
     7
100
AcDbLine
 10
99.110913
 20
22.27791
 30
0.0
 11
98.07236
 21
21.531161
 31
0.0
  0
LINE
  5
1FF
100
AcDbEntity
  8
0
390
0
  6
Continuous
 62
     7
100
AcDbLine
 10
98.07236
 20
21.531161
 30
0.0
 11
97.868663
 21
21.407663
 31
0.0
  0
LINE
  5
200
100
AcDbEntity
  8
0
390
0
  6
Continuous
 62
     7
100
AcDbLine
 10
97.868663
 20
21.407663
 30
0.0
 11
97.669318
 21
21.330837
 31
0.0
  0
LINE
  5
201
100
AcDbEntity
  8
0
390
0
  6
Continuous
 62
     7
100
AcDbLine
 10
97.669318
 20
21.330837
 30
0.0
 11
97.469763
 21
21.296829
 31
0.0
  0
LINE
  5
202
100
AcDbEntity
  8
0
390
0
  6
Continuous
 62
     7
100
AcDbLine
 10
97.469763
 20
21.296829
 30
0.0
 11
97.267559
 21
21.304688
 31
0.0
  0
LINE
  5
203
100
AcDbEntity
  8
0
390
0
  6
Continuous
 62
     7
100
AcDbLine
 10
97.267559
 20
21.304688
 30
0.0
 11
97.074105
 21
21.351672
 31
0.0
  0
LINE
  5
204
100
AcDbEntity
  8
0
390
0
  6
Continuous
 62
     7
100
AcDbLine
 10
97.074105
 20
21.351672
 30
0.0
 11
96.901296
 21
21.434549
 31
0.0
  0
LINE
  5
205
100
AcDbEntity
  8
0
390
0
  6
Continuous
 62
     7
100
AcDbLine
 10
96.901296
 20
21.434549
 30
0.0
 11
96.746986
 21
21.554229
 31
0.0
  0
LINE
  5
206
100
AcDbEntity
  8
0
390
0
  6
Continuous
 62
     7
100
AcDbLine
 10
96.746986
 20
21.554229
 30
0.0
 11
96.609995
 21
21.712639
 31
0.0
  0
LINE
  5
207
100
AcDbEntity
  8
0
390
0
  6
Continuous
 62
     7
100
AcDbLine
 10
96.609995
 20
21.712639
 30
0.0
 11
96.505097
 21
21.890594
 31
0.0
  0
LINE
  5
208
100
AcDbEntity
  8
0
390
0
  6
Continuous
 62
     7
100
AcDbLine
 10
96.505097
 20
21.890594
 30
0.0
 11
96.441608
 21
22.073763
 31
0.0
  0
LINE
  5
209
100
AcDbEntity
  8
0
390
0
  6
Continuous
 62
     7
100
AcDbLine
 10
96.441608
 20
22.073763
 30
0.0
 11
96.418146
 21
22.264074
 31
0.0
  0
LINE
  5
20A
100
AcDbEntity
  8
0
390
0
  6
Continuous
 62
     7
100
AcDbLine
 10
96.418146
 20
22.264074
 30
0.0
 11
96.434666
 21
22.463615
 31
0.0
  0
LINE
  5
20B
100
AcDbEntity
  8
0
390
0
  6
Continuous
 62
     7
100
AcDbLine
 10
96.434666
 20
22.463615
 30
0.0
 11
96.490841
 21
22.65906
 31
0.0
  0
LINE
  5
20C
100
AcDbEntity
  8
0
390
0
  6
Continuous
 62
     7
100
AcDbLine
 10
96.490841
 20
22.65906
 30
0.0
 11
96.586
 21
22.838109
 31
0.0
  0
LINE
  5
20D
100
AcDbEntity
  8
0
390
0
  6
Continuous
 62
     7
100
AcDbLine
 10
96.586
 20
22.838109
 30
0.0
 11
96.721837
 21
23.002963
 31
0.0
  0
LINE
  5
20E
100
AcDbEntity
  8
0
390
0
  6
Continuous
 62
     7
100
AcDbLine
 10
96.721837
 20
23.002963
 30
0.0
 11
96.903532
 21
23.15681
 31
0.0
  0
LINE
  5
20F
100
AcDbEntity
  8
0
390
0
  6
Continuous
 62
     7
100
AcDbLine
 10
96.903532
 20
23.15681
 30
0.0
 11
97.99855
 21
23.944159
 31
0.0
  0
LINE
  5
210
100
AcDbEntity
  8
0
390
0
  6
Continuous
 62
     7
100
AcDbLine
 10
97.99855
 20
23.944159
 30
0.0
 11
97.371727
 21
24.815924
 31
0.0
  0
LINE
  5
211
100
AcDbEntity
  8
0
390
0
  6
Continuous
 62
     7
100
AcDbLine
 10
99.143138
 20
22.475065
 30
0.0
 11
99.177288
 21
22.408579
 31
0.0
  0
LINE
  5
212
100
AcDbEntity
  8
0
390
0
  6
Continuous
 62
     7
100
AcDbLine
 10
99.177288
 20
22.408579
 30
0.0
 11
99.180271
 21
22.367785
 31
0.0
  0
LINE
  5
213
100
AcDbEntity
  8
0
390
0
  6
Continuous
 62
     7
100
AcDbLine
 10
99.180271
 20
22.367785
 30
0.0
 11
99.168332
 21
22.33931
 31
0.0
  0
LINE
  5
214
100
AcDbEntity
  8
0
390
0
  6
Continuous
 62
     7
100
AcDbLine
 10
99.168332
 20
22.33931
 30
0.0
 11
99.164455
 21
22.330064
 31
0.0
  0
LINE
  5
215
100
AcDbEntity
  8
0
390
0
  6
Continuous
 62
     7
100
AcDbLine
 10
97.418935
 20
24.87303
 30
0.0
 11
99.143138
 21
22.475065
 31
0.0
  0
LINE
  5
216
100
AcDbEntity
  8
0
390
0
  6
Continuous
 62
     7
100
AcDbLine
 10
98.150201
 20
-21.313035
 30
0.0
 11
98.14585
 21
-21.32687
 31
0.0
  0
LINE
  5
217
100
AcDbEntity
  8
0
390
0
  6
Continuous
 62
     7
100
AcDbLine
 10
98.156083
 20
-21.299705
 30
0.0
 11
98.150201
 21
-21.313035
 31
0.0
  0
LINE
  5
218
100
AcDbEntity
  8
0
390
0
  6
Continuous
 62
     7
100
AcDbLine
 10
98.160925
 20
-21.291728
 30
0.0
 11
98.156083
 21
-21.299705
 31
0.0
  0
LINE
  5
219
100
AcDbEntity
  8
0
390
0
  6
Continuous
 62
     7
100
AcDbLine
 10
98.164092
 20
-21.287924
 30
0.0
 11
98.160925
 21
-21.291728
 31
0.0
  0
LINE
  5
21A
100
AcDbEntity
  8
0
390
0
  6
Continuous
 62
     7
100
AcDbLine
 10
98.16567
 20
-21.286563
 30
0.0
 11
98.164092
 21
-21.287924
 31
0.0
  0
LINE
  5
21B
100
AcDbEntity
  8
0
390
0
  6
Continuous
 62
     7
100
AcDbLine
 10
98.166787
 20
-21.285895
 30
0.0
 11
98.16567
 21
-21.286563
 31
0.0
  0
LINE
  5
21C
100
AcDbEntity
  8
0
390
0
  6
Continuous
 62
     7
100
AcDbLine
 10
98.169382
 20
-21.284894
 30
0.0
 11
98.166787
 21
-21.285895
 31
0.0
  0
LINE
  5
21D
100
AcDbEntity
  8
0
390
0
  6
Continuous
 62
     7
100
AcDbLine
 10
98.175445
 20
-21.283616
 30
0.0
 11
98.169382
 21
-21.284894
 31
0.0
  0
LINE
  5
21E
100
AcDbEntity
  8
0
390
0
  6
Continuous
 62
     7
100
AcDbLine
 10
98.186336
 20
-21.282912
 30
0.0
 11
98.175445
 21
-21.283616
 31
0.0
  0
LINE
  5
21F
100
AcDbEntity
  8
0
390
0
  6
Continuous
 62
     7
100
AcDbLine
 10
98.192019
 20
-21.28325
 30
0.0
 11
98.186336
 21
-21.282912
 31
0.0
  0
LINE
  5
220
100
AcDbEntity
  8
0
390
0
  6
Continuous
 62
     7
100
AcDbLine
 10
98.200285
 20
-21.28585
 30
0.0
 11
98.192019
 21
-21.28325
 31
0.0
  0
LINE
  5
221
100
AcDbEntity
  8
0
390
0
  6
Continuous
 62
     7
100
AcDbLine
 10
98.213615
 20
-21.291731
 30
0.0
 11
98.200285
 21
-21.28585
 31
0.0
  0
LINE
  5
222
100
AcDbEntity
  8
0
390
0
  6
Continuous
 62
     7
100
AcDbLine
 10
98.221593
 20
-21.296573
 30
0.0
 11
98.213615
 21
-21.291731
 31
0.0
  0
LINE
  5
223
100
AcDbEntity
  8
0
390
0
  6
Continuous
 62
     7
100
AcDbLine
 10
98.225396
 20
-21.29974
 30
0.0
 11
98.221593
 21
-21.296573
 31
0.0
  0
LINE
  5
224
100
AcDbEntity
  8
0
390
0
  6
Continuous
 62
     7
100
AcDbLine
 10
98.226757
 20
-21.301318
 30
0.0
 11
98.225396
 21
-21.29974
 31
0.0
  0
LINE
  5
225
100
AcDbEntity
  8
0
390
0
  6
Continuous
 62
     7
100
AcDbLine
 10
98.227426
 20
-21.302435
 30
0.0
 11
98.226757
 21
-21.301318
 31
0.0
  0
LINE
  5
226
100
AcDbEntity
  8
0
390
0
  6
Continuous
 62
     7
100
AcDbLine
 10
98.228426
 20
-21.30503
 30
0.0
 11
98.227426
 21
-21.302435
 31
0.0
  0
LINE
  5
227
100
AcDbEntity
  8
0
390
0
  6
Continuous
 62
     7
100
AcDbLine
 10
98.229704
 20
-21.311093
 30
0.0
 11
98.228426
 21
-21.30503
 31
0.0
  0
LINE
  5
228
100
AcDbEntity
  8
0
390
0
  6
Continuous
 62
     7
100
AcDbLine
 10
98.230408
 20
-21.321984
 30
0.0
 11
98.229704
 21
-21.311093
 31
0.0
  0
LINE
  5
229
100
AcDbEntity
  8
0
390
0
  6
Continuous
 62
     7
100
AcDbLine
 10
98.229349
 20
-21.339825
 30
0.0
 11
98.230408
 21
-21.321984
 31
0.0
  0
LINE
  5
22A
100
AcDbEntity
  8
0
390
0
  6
Continuous
 62
     7
100
AcDbLine
 10
97.679168
 20
-25.146614
 30
0.0
 11
98.229349
 21
-21.339825
 31
0.0
  0
LINE
  5
22B
100
AcDbEntity
  8
0
390
0
  6
Continuous
 62
     7
100
AcDbLine
 10
97.907164
 20
-25.295245
 30
0.0
 11
97.792555
 21
-25.313913
 31
0.0
  0
LINE
  5
22C
100
AcDbEntity
  8
0
390
0
  6
Continuous
 62
     7
100
AcDbLine
 10
101.16822
 20
-23.255682
 30
0.0
 11
97.907164
 21
-25.295245
 31
0.0
  0
LINE
  5
22D
100
AcDbEntity
  8
0
390
0
  6
Continuous
 62
     7
100
AcDbLine
 10
101.184121
 20
-23.247511
 30
0.0
 11
101.16822
 21
-23.255682
 31
0.0
  0
LINE
  5
22E
100
AcDbEntity
  8
0
390
0
  6
Continuous
 62
     7
100
AcDbLine
 10
101.19437
 20
-23.24376
 30
0.0
 11
101.184121
 21
-23.247511
 31
0.0
  0
LINE
  5
22F
100
AcDbEntity
  8
0
390
0
  6
Continuous
 62
     7
100
AcDbLine
 10
101.200432
 20
-23.242482
 30
0.0
 11
101.19437
 21
-23.24376
 31
0.0
  0
LINE
  5
230
100
AcDbEntity
  8
0
390
0
  6
Continuous
 62
     7
100
AcDbLine
 10
101.203209
 20
-23.24235
 30
0.0
 11
101.200432
 21
-23.242482
 31
0.0
  0
LINE
  5
231
100
AcDbEntity
  8
0
390
0
  6
Continuous
 62
     7
100
AcDbLine
 10
101.204497
 20
-23.242511
 30
0.0
 11
101.203209
 21
-23.24235
 31
0.0
  0
LINE
  5
232
100
AcDbEntity
  8
0
390
0
  6
Continuous
 62
     7
100
AcDbLine
 10
101.206486
 20
-23.243118
 30
0.0
 11
101.204497
 21
-23.242511
 31
0.0
  0
LINE
  5
233
100
AcDbEntity
  8
0
390
0
  6
Continuous
 62
     7
100
AcDbLine
 10
101.210917
 20
-23.245319
 30
0.0
 11
101.206486
 21
-23.243118
 31
0.0
  0
LINE
  5
234
100
AcDbEntity
  8
0
390
0
  6
Continuous
 62
     7
100
AcDbLine
 10
101.218563
 20
-23.250662
 30
0.0
 11
101.210917
 21
-23.245319
 31
0.0
  0
LINE
  5
235
100
AcDbEntity
  8
0
390
0
  6
Continuous
 62
     7
100
AcDbLine
 10
101.229321
 20
-23.260484
 30
0.0
 11
101.218563
 21
-23.250662
 31
0.0
  0
LINE
  5
236
100
AcDbEntity
  8
0
390
0
  6
Continuous
 62
     7
100
AcDbLine
 10
101.235039
 20
-23.267003
 30
0.0
 11
101.229321
 21
-23.260484
 31
0.0
  0
LINE
  5
237
100
AcDbEntity
  8
0
390
0
  6
Continuous
 62
     7
100
AcDbLine
 10
101.237645
 20
-23.272074
 30
0.0
 11
101.235039
 21
-23.267003
 31
0.0
  0
LINE
  5
238
100
AcDbEntity
  8
0
390
0
  6
Continuous
 62
     7
100
AcDbLine
 10
101.241396
 20
-23.282323
 30
0.0
 11
101.237645
 21
-23.272074
 31
0.0
  0
LINE
  5
239
100
AcDbEntity
  8
0
390
0
  6
Continuous
 62
     7
100
AcDbLine
 10
101.242674
 20
-23.288385
 30
0.0
 11
101.241396
 21
-23.282323
 31
0.0
  0
LINE
  5
23A
100
AcDbEntity
  8
0
390
0
  6
Continuous
 62
     7
100
AcDbLine
 10
101.242806
 20
-23.291161
 30
0.0
 11
101.242674
 21
-23.288385
 31
0.0
  0
LINE
  5
23B
100
AcDbEntity
  8
0
390
0
  6
Continuous
 62
     7
100
AcDbLine
 10
101.242646
 20
-23.29245
 30
0.0
 11
101.242806
 21
-23.291161
 31
0.0
  0
LINE
  5
23C
100
AcDbEntity
  8
0
390
0
  6
Continuous
 62
     7
100
AcDbLine
 10
101.242038
 20
-23.294439
 30
0.0
 11
101.242646
 21
-23.29245
 31
0.0
  0
LINE
  5
23D
100
AcDbEntity
  8
0
390
0
  6
Continuous
 62
     7
100
AcDbLine
 10
101.239838
 20
-23.298869
 30
0.0
 11
101.242038
 21
-23.294439
 31
0.0
  0
LINE
  5
23E
100
AcDbEntity
  8
0
390
0
  6
Continuous
 62
     7
100
AcDbLine
 10
101.234494
 20
-23.306516
 30
0.0
 11
101.239838
 21
-23.298869
 31
0.0
  0
LINE
  5
23F
100
AcDbEntity
  8
0
390
0
  6
Continuous
 62
     7
100
AcDbLine
 10
101.224672
 20
-23.317274
 30
0.0
 11
101.234494
 21
-23.306516
 31
0.0
  0
LINE
  5
240
100
AcDbEntity
  8
0
390
0
  6
Continuous
 62
     7
100
AcDbLine
 10
101.213767
 20
-23.32684
 30
0.0
 11
101.224672
 21
-23.317274
 31
0.0
  0
LINE
  5
241
100
AcDbEntity
  8
0
390
0
  6
Continuous
 62
     7
100
AcDbLine
 10
97.876298
 20
-25.380676
 30
0.0
 11
101.213767
 21
-23.32684
 31
0.0
  0
LINE
  5
242
100
AcDbEntity
  8
0
390
0
  6
Continuous
 62
     7
100
AcDbLine
 10
98.14585
 20
-21.32687
 30
0.0
 11
97.625128
 21
-25.124151
 31
0.0
  0
LINE
  5
243
100
AcDbEntity
  8
0
390
0
  6
Continuous
 62
     7
100
AcDbLine
 10
115.446175
 20
29.267031
 30
0.0
 11
115.43277
 21
28.997513
 31
0.0
  0
LINE
  5
244
100
AcDbEntity
  8
0
390
0
  6
Continuous
 62
     7
100
AcDbLine
 10
115.43277
 20
28.997513
 30
0.0
 11
116.116258
 21
27.891993
 31
0.0
  0
LINE
  5
245
100
AcDbEntity
  8
0
390
0
  6
Continuous
 62
     7
100
AcDbLine
 10
116.116258
 20
27.891993
 30
0.0
 11
116.775456
 21
26.823092
 31
0.0
  0
LINE
  5
246
100
AcDbEntity
  8
0
390
0
  6
Continuous
 62
     7
100
AcDbLine
 10
116.775456
 20
26.823092
 30
0.0
 11
116.784282
 21
26.800802
 31
0.0
  0
LINE
  5
247
100
AcDbEntity
  8
0
390
0
  6
Continuous
 62
     7
100
AcDbLine
 10
116.784282
 20
26.800802
 30
0.0
 11
116.784084
 21
26.798039
 31
0.0
  0
LINE
  5
248
100
AcDbEntity
  8
0
390
0
  6
Continuous
 62
     7
100
AcDbLine
 10
116.784084
 20
26.798039
 30
0.0
 11
116.781384
 21
26.793249
 31
0.0
  0
LINE
  5
249
100
AcDbEntity
  8
0
390
0
  6
Continuous
 62
     7
100
AcDbLine
 10
116.781384
 20
26.793249
 30
0.0
 11
116.768052
 21
26.782925
 31
0.0
  0
LINE
  5
24A
100
AcDbEntity
  8
0
390
0
  6
Continuous
 62
     7
100
AcDbLine
 10
116.768052
 20
26.782925
 30
0.0
 11
116.745964
 21
26.774782
 31
0.0
  0
LINE
  5
24B
100
AcDbEntity
  8
0
390
0
  6
Continuous
 62
     7
100
AcDbLine
 10
116.745964
 20
26.774782
 30
0.0
 11
116.731156
 21
26.774111
 31
0.0
  0
LINE
  5
24C
100
AcDbEntity
  8
0
390
0
  6
Continuous
 62
     7
100
AcDbLine
 10
116.731156
 20
26.774111
 30
0.0
 11
116.726951
 21
26.775731
 31
0.0
  0
LINE
  5
24D
100
AcDbEntity
  8
0
390
0
  6
Continuous
 62
     7
100
AcDbLine
 10
116.726951
 20
26.775731
 30
0.0
 11
116.710294
 21
26.794404
 31
0.0
  0
LINE
  5
24E
100
AcDbEntity
  8
0
390
0
  6
Continuous
 62
     7
100
AcDbLine
 10
116.710294
 20
26.794404
 30
0.0
 11
116.096486
 21
27.799196
 31
0.0
  0
LINE
  5
24F
100
AcDbEntity
  8
0
390
0
  6
Continuous
 62
     7
100
AcDbLine
 10
116.096486
 20
27.799196
 30
0.0
 11
115.478829
 21
28.813271
 31
0.0
  0
LINE
  5
250
100
AcDbEntity
  8
0
390
0
  6
Continuous
 62
     7
100
AcDbLine
 10
115.478829
 20
28.813271
 30
0.0
 11
115.297003
 21
28.82221
 31
0.0
  0
LINE
  5
251
100
AcDbEntity
  8
0
390
0
  6
Continuous
 62
     7
100
AcDbLine
 10
115.297003
 20
28.82221
 30
0.0
 11
114.582781
 21
27.873507
 31
0.0
  0
LINE
  5
252
100
AcDbEntity
  8
0
390
0
  6
Continuous
 62
     7
100
AcDbLine
 10
114.582781
 20
27.873507
 30
0.0
 11
113.875386
 21
26.931954
 31
0.0
  0
LINE
  5
253
100
AcDbEntity
  8
0
390
0
  6
Continuous
 62
     7
100
AcDbLine
 10
113.875386
 20
26.931954
 30
0.0
 11
113.859552
 21
26.917248
 31
0.0
  0
LINE
  5
254
100
AcDbEntity
  8
0
390
0
  6
Continuous
 62
     7
100
AcDbLine
 10
113.859552
 20
26.917248
 30
0.0
 11
113.858948
 21
26.917078
 31
0.0
  0
LINE
  5
255
100
AcDbEntity
  8
0
390
0
  6
Continuous
 62
     7
100
AcDbLine
 10
113.858948
 20
26.917078
 30
0.0
 11
113.847505
 21
26.9188
 31
0.0
  0
LINE
  5
256
100
AcDbEntity
  8
0
390
0
  6
Continuous
 62
     7
100
AcDbLine
 10
113.847505
 20
26.9188
 30
0.0
 11
113.826371
 21
26.929234
 31
0.0
  0
LINE
  5
257
100
AcDbEntity
  8
0
390
0
  6
Continuous
 62
     7
100
AcDbLine
 10
113.826371
 20
26.929234
 30
0.0
 11
113.811472
 21
26.943069
 31
0.0
  0
LINE
  5
258
100
AcDbEntity
  8
0
390
0
  6
Continuous
 62
     7
100
AcDbLine
 10
113.811472
 20
26.943069
 30
0.0
 11
113.807188
 21
26.951772
 31
0.0
  0
LINE
  5
259
100
AcDbEntity
  8
0
390
0
  6
Continuous
 62
     7
100
AcDbLine
 10
113.807188
 20
26.951772
 30
0.0
 11
113.807147
 21
26.952977
 31
0.0
  0
LINE
  5
25A
100
AcDbEntity
  8
0
390
0
  6
Continuous
 62
     7
100
AcDbLine
 10
113.807147
 20
26.952977
 30
0.0
 11
113.814721
 21
26.968679
 31
0.0
  0
LINE
  5
25B
100
AcDbEntity
  8
0
390
0
  6
Continuous
 62
     7
100
AcDbLine
 10
113.814721
 20
26.968679
 30
0.0
 11
114.572617
 21
27.968197
 31
0.0
  0
LINE
  5
25C
100
AcDbEntity
  8
0
390
0
  6
Continuous
 62
     7
100
AcDbLine
 10
114.572617
 20
27.968197
 30
0.0
 11
115.361195
 21
29.001138
 31
0.0
  0
LINE
  5
25D
100
AcDbEntity
  8
0
390
0
  6
Continuous
 62
     7
100
AcDbLine
 10
115.361195
 20
29.001138
 30
0.0
 11
115.374274
 21
29.264106
 31
0.0
  0
LINE
  5
25E
100
AcDbEntity
  8
0
390
0
  6
Continuous
 62
     7
100
AcDbLine
 10
108.050113
 20
29.449225
 30
0.0
 11
107.978847
 21
29.523579
 31
0.0
  0
LINE
  5
25F
100
AcDbEntity
  8
0
390
0
  6
Continuous
 62
     7
100
AcDbLine
 10
108.15938
 20
29.296598
 30
0.0
 11
108.050113
 21
29.449225
 31
0.0
  0
LINE
  5
260
100
AcDbEntity
  8
0
390
0
  6
Continuous
 62
     7
100
AcDbLine
 10
108.172717
 20
29.264654
 30
0.0
 11
108.15938
 21
29.296598
 31
0.0
  0
LINE
  5
261
100
AcDbEntity
  8
0
390
0
  6
Continuous
 62
     7
100
AcDbLine
 10
108.172176
 20
29.25296
 30
0.0
 11
108.172717
 21
29.264654
 31
0.0
  0
LINE
  5
262
100
AcDbEntity
  8
0
390
0
  6
Continuous
 62
     7
100
AcDbLine
 10
108.166631
 20
29.242384
 30
0.0
 11
108.172176
 21
29.25296
 31
0.0
  0
LINE
  5
263
100
AcDbEntity
  8
0
390
0
  6
Continuous
 62
     7
100
AcDbLine
 10
108.15383
 20
29.231549
 30
0.0
 11
108.166631
 21
29.242384
 31
0.0
  0
LINE
  5
264
100
AcDbEntity
  8
0
390
0
  6
Continuous
 62
     7
100
AcDbLine
 10
108.137965
 20
29.225885
 30
0.0
 11
108.15383
 21
29.231549
 31
0.0
  0
LINE
  5
265
100
AcDbEntity
  8
0
390
0
  6
Continuous
 62
     7
100
AcDbLine
 10
108.123009
 20
29.226568
 30
0.0
 11
108.137965
 21
29.225885
 31
0.0
  0
LINE
  5
266
100
AcDbEntity
  8
0
390
0
  6
Continuous
 62
     7
100
AcDbLine
 10
108.108371
 20
29.233521
 30
0.0
 11
108.123009
 21
29.226568
 31
0.0
  0
LINE
  5
267
100
AcDbEntity
  8
0
390
0
  6
Continuous
 62
     7
100
AcDbLine
 10
108.08256
 20
29.263019
 30
0.0
 11
108.108371
 21
29.233521
 31
0.0
  0
LINE
  5
268
100
AcDbEntity
  8
0
390
0
  6
Continuous
 62
     7
100
AcDbLine
 10
107.98513
 20
29.401538
 30
0.0
 11
108.08256
 21
29.263019
 31
0.0
  0
LINE
  5
269
100
AcDbEntity
  8
0
390
0
  6
Continuous
 62
     7
100
AcDbLine
 10
107.868917
 20
29.528426
 30
0.0
 11
107.98513
 21
29.401538
 31
0.0
  0
LINE
  5
26A
100
AcDbEntity
  8
0
390
0
  6
Continuous
 62
     7
100
AcDbLine
 10
106.534502
 20
29.585864
 30
0.0
 11
106.634286
 21
29.641789
 31
0.0
  0
LINE
  5
26B
100
AcDbEntity
  8
0
390
0
  6
Continuous
 62
     7
100
AcDbLine
 10
106.375242
 20
29.445189
 30
0.0
 11
106.534502
 21
29.585864
 31
0.0
  0
LINE
  5
26C
100
AcDbEntity
  8
0
390
0
  6
Continuous
 62
     7
100
AcDbLine
 10
106.249521
 20
29.271848
 30
0.0
 11
106.375242
 21
29.445189
 31
0.0
  0
LINE
  5
26D
100
AcDbEntity
  8
0
390
0
  6
Continuous
 62
     7
100
AcDbLine
 10
106.162786
 20
29.072227
 30
0.0
 11
106.249521
 21
29.271848
 31
0.0
  0
LINE
  5
26E
100
AcDbEntity
  8
0
390
0
  6
Continuous
 62
     7
100
AcDbLine
 10
106.120204
 20
28.85359
 30
0.0
 11
106.162786
 21
29.072227
 31
0.0
  0
LINE
  5
26F
100
AcDbEntity
  8
0
390
0
  6
Continuous
 62
     7
100
AcDbLine
 10
106.120989
 20
28.618795
 30
0.0
 11
106.120204
 21
28.85359
 31
0.0
  0
LINE
  5
270
100
AcDbEntity
  8
0
390
0
  6
Continuous
 62
     7
100
AcDbLine
 10
106.162816
 20
28.372432
 30
0.0
 11
106.120989
 21
28.618795
 31
0.0
  0
LINE
  5
271
100
AcDbEntity
  8
0
390
0
  6
Continuous
 62
     7
100
AcDbLine
 10
106.769238
 20
25.881076
 30
0.0
 11
106.162816
 21
28.372432
 31
0.0
  0
LINE
  5
272
100
AcDbEntity
  8
0
390
0
  6
Continuous
 62
     7
100
AcDbLine
 10
106.771326
 20
25.851852
 30
0.0
 11
106.769238
 21
25.881076
 31
0.0
  0
LINE
  5
273
100
AcDbEntity
  8
0
390
0
  6
Continuous
 62
     7
100
AcDbLine
 10
106.7684
 20
25.844028
 30
0.0
 11
106.771326
 21
25.851852
 31
0.0
  0
LINE
  5
274
100
AcDbEntity
  8
0
390
0
  6
Continuous
 62
     7
100
AcDbLine
 10
106.761735
 20
25.837225
 30
0.0
 11
106.7684
 21
25.844028
 31
0.0
  0
LINE
  5
275
100
AcDbEntity
  8
0
390
0
  6
Continuous
 62
     7
100
AcDbLine
 10
106.747921
 20
25.831194
 30
0.0
 11
106.761735
 21
25.837225
 31
0.0
  0
LINE
  5
276
100
AcDbEntity
  8
0
390
0
  6
Continuous
 62
     7
100
AcDbLine
 10
106.730795
 20
25.830018
 30
0.0
 11
106.747921
 21
25.831194
 31
0.0
  0
LINE
  5
277
100
AcDbEntity
  8
0
390
0
  6
Continuous
 62
     7
100
AcDbLine
 10
106.717629
 20
25.834001
 30
0.0
 11
106.730795
 21
25.830018
 31
0.0
  0
LINE
  5
278
100
AcDbEntity
  8
0
390
0
  6
Continuous
 62
     7
100
AcDbLine
 10
106.710555
 20
25.839931
 30
0.0
 11
106.717629
 21
25.834001
 31
0.0
  0
LINE
  5
279
100
AcDbEntity
  8
0
390
0
  6
Continuous
 62
     7
100
AcDbLine
 10
106.699425
 20
25.864862
 30
0.0
 11
106.710555
 21
25.839931
 31
0.0
  0
LINE
  5
27A
100
AcDbEntity
  8
0
390
0
  6
Continuous
 62
     7
100
AcDbLine
 10
106.085245
 20
28.388094
 30
0.0
 11
106.699425
 21
25.864862
 31
0.0
  0
LINE
  5
27B
100
AcDbEntity
  8
0
390
0
  6
Continuous
 62
     7
100
AcDbLine
 10
106.042215
 20
28.651191
 30
0.0
 11
106.085245
 21
28.388094
 31
0.0
  0
LINE
  5
27C
100
AcDbEntity
  8
0
390
0
  6
Continuous
 62
     7
100
AcDbLine
 10
106.045664
 20
28.88727
 30
0.0
 11
106.042215
 21
28.651191
 31
0.0
  0
LINE
  5
27D
100
AcDbEntity
  8
0
390
0
  6
Continuous
 62
     7
100
AcDbLine
 10
106.093383
 20
29.101781
 30
0.0
 11
106.045664
 21
28.88727
 31
0.0
  0
LINE
  5
27E
100
AcDbEntity
  8
0
390
0
  6
Continuous
 62
     7
100
AcDbLine
 10
106.185047
 20
29.2976
 30
0.0
 11
106.093383
 21
29.101781
 31
0.0
  0
LINE
  5
27F
100
AcDbEntity
  8
0
390
0
  6
Continuous
 62
     7
100
AcDbLine
 10
106.316117
 20
29.468879
 30
0.0
 11
106.185047
 21
29.2976
 31
0.0
  0
LINE
  5
280
100
AcDbEntity
  8
0
390
0
  6
Continuous
 62
     7
100
AcDbLine
 10
106.482328
 20
29.609219
 30
0.0
 11
106.316117
 21
29.468879
 31
0.0
  0
LINE
  5
281
100
AcDbEntity
  8
0
390
0
  6
Continuous
 62
     7
100
AcDbLine
 10
106.558766
 20
29.650625
 30
0.0
 11
106.482328
 21
29.609219
 31
0.0
  0
LINE
  5
282
100
AcDbEntity
  8
0
390
0
  6
Continuous
 62
     7
100
AcDbLine
 10
102.213701
 20
-25.727422
 30
0.0
 11
104.933879
 21
-26.831993
 31
0.0
  0
LINE
  5
283
100
AcDbEntity
  8
0
390
0
  6
Continuous
 62
     7
100
AcDbLine
 10
101.508382
 20
-27.464378
 30
0.0
 11
102.213701
 21
-25.727422
 31
0.0
  0
LINE
  5
284
100
AcDbEntity
  8
0
390
0
  6
Continuous
 62
     7
100
AcDbLine
 10
101.495898
 20
-27.491346
 30
0.0
 11
101.508382
 21
-27.464378
 31
0.0
  0
LINE
  5
285
100
AcDbEntity
  8
0
390
0
  6
Continuous
 62
     7
100
AcDbLine
 10
101.485682
 20
-27.508206
 30
0.0
 11
101.495898
 21
-27.491346
 31
0.0
  0
LINE
  5
286
100
AcDbEntity
  8
0
390
0
  6
Continuous
 62
     7
100
AcDbLine
 10
101.477571
 20
-27.518237
 30
0.0
 11
101.485682
 21
-27.508206
 31
0.0
  0
LINE
  5
287
100
AcDbEntity
  8
0
390
0
  6
Continuous
 62
     7
100
AcDbLine
 10
101.472457
 20
-27.522813
 30
0.0
 11
101.477571
 21
-27.518237
 31
0.0
  0
LINE
  5
288
100
AcDbEntity
  8
0
390
0
  6
Continuous
 62
     7
100
AcDbLine
 10
101.470256
 20
-27.524149
 30
0.0
 11
101.472457
 21
-27.522813
 31
0.0
  0
LINE
  5
289
100
AcDbEntity
  8
0
390
0
  6
Continuous
 62
     7
100
AcDbLine
 10
101.469266
 20
-27.524507
 30
0.0
 11
101.470256
 21
-27.524149
 31
0.0
  0
LINE
  5
28A
100
AcDbEntity
  8
0
390
0
  6
Continuous
 62
     7
100
AcDbLine
 10
101.466567
 20
-27.524912
 30
0.0
 11
101.469266
 21
-27.524507
 31
0.0
  0
LINE
  5
28B
100
AcDbEntity
  8
0
390
0
  6
Continuous
 62
     7
100
AcDbLine
 10
101.459442
 20
-27.524668
 30
0.0
 11
101.466567
 21
-27.524912
 31
0.0
  0
LINE
  5
28C
100
AcDbEntity
  8
0
390
0
  6
Continuous
 62
     7
100
AcDbLine
 10
101.446463
 20
-27.522118
 30
0.0
 11
101.459442
 21
-27.524668
 31
0.0
  0
LINE
  5
28D
100
AcDbEntity
  8
0
390
0
  6
Continuous
 62
     7
100
AcDbLine
 10
101.427839
 20
-27.515783
 30
0.0
 11
101.446463
 21
-27.522118
 31
0.0
  0
LINE
  5
28E
100
AcDbEntity
  8
0
390
0
  6
Continuous
 62
     7
100
AcDbLine
 10
101.410071
 20
-27.507341
 30
0.0
 11
101.427839
 21
-27.515783
 31
0.0
  0
LINE
  5
28F
100
AcDbEntity
  8
0
390
0
  6
Continuous
 62
     7
100
AcDbLine
 10
101.398988
 20
-27.500119
 30
0.0
 11
101.410071
 21
-27.507341
 31
0.0
  0
LINE
  5
290
100
AcDbEntity
  8
0
390
0
  6
Continuous
 62
     7
100
AcDbLine
 10
101.393709
 20
-27.495326
 30
0.0
 11
101.398988
 21
-27.500119
 31
0.0
  0
LINE
  5
291
100
AcDbEntity
  8
0
390
0
  6
Continuous
 62
     7
100
AcDbLine
 10
101.392057
 20
-27.493154
 30
0.0
 11
101.393709
 21
-27.495326
 31
0.0
  0
LINE
  5
292
100
AcDbEntity
  8
0
390
0
  6
Continuous
 62
     7
100
AcDbLine
 10
101.391597
 20
-27.492207
 30
0.0
 11
101.392057
 21
-27.493154
 31
0.0
  0
LINE
  5
293
100
AcDbEntity
  8
0
390
0
  6
Continuous
 62
     7
100
AcDbLine
 10
101.39095
 20
-27.489715
 30
0.0
 11
101.391597
 21
-27.492207
 31
0.0
  0
LINE
  5
294
100
AcDbEntity
  8
0
390
0
  6
Continuous
 62
     7
100
AcDbLine
 10
101.390474
 20
-27.48287
 30
0.0
 11
101.39095
 21
-27.489715
 31
0.0
  0
LINE
  5
295
100
AcDbEntity
  8
0
390
0
  6
Continuous
 62
     7
100
AcDbLine
 10
101.391652
 20
-27.470024
 30
0.0
 11
101.390474
 21
-27.48287
 31
0.0
  0
LINE
  5
296
100
AcDbEntity
  8
0
390
0
  6
Continuous
 62
     7
100
AcDbLine
 10
101.396082
 20
-27.450815
 30
0.0
 11
101.391652
 21
-27.470024
 31
0.0
  0
LINE
  5
297
100
AcDbEntity
  8
0
390
0
  6
Continuous
 62
     7
100
AcDbLine
 10
101.405934
 20
-27.422778
 30
0.0
 11
101.396082
 21
-27.450815
 31
0.0
  0
LINE
  5
298
100
AcDbEntity
  8
0
390
0
  6
Continuous
 62
     7
100
AcDbLine
 10
102.747971
 20
-24.117822
 30
0.0
 11
101.405934
 21
-27.422778
 31
0.0
  0
LINE
  5
299
100
AcDbEntity
  8
0
390
0
  6
Continuous
 62
     7
100
AcDbLine
 10
102.760455
 20
-24.090852
 30
0.0
 11
102.747971
 21
-24.117822
 31
0.0
  0
LINE
  5
29A
100
AcDbEntity
  8
0
390
0
  6
Continuous
 62
     7
100
AcDbLine
 10
102.77067
 20
-24.073993
 30
0.0
 11
102.760455
 21
-24.090852
 31
0.0
  0
LINE
  5
29B
100
AcDbEntity
  8
0
390
0
  6
Continuous
 62
     7
100
AcDbLine
 10
102.77878
 20
-24.063964
 30
0.0
 11
102.77067
 21
-24.073993
 31
0.0
  0
LINE
  5
29C
100
AcDbEntity
  8
0
390
0
  6
Continuous
 62
     7
100
AcDbLine
 10
102.783891
 20
-24.05939
 30
0.0
 11
102.77878
 21
-24.063964
 31
0.0
  0
LINE
  5
29D
100
AcDbEntity
  8
0
390
0
  6
Continuous
 62
     7
100
AcDbLine
 10
102.786089
 20
-24.058056
 30
0.0
 11
102.783891
 21
-24.05939
 31
0.0
  0
LINE
  5
29E
100
AcDbEntity
  8
0
390
0
  6
Continuous
 62
     7
100
AcDbLine
 10
102.787077
 20
-24.057699
 30
0.0
 11
102.786089
 21
-24.058056
 31
0.0
  0
LINE
  5
29F
100
AcDbEntity
  8
0
390
0
  6
Continuous
 62
     7
100
AcDbLine
 10
102.789774
 20
-24.057294
 30
0.0
 11
102.787077
 21
-24.057699
 31
0.0
  0
LINE
  5
2A0
100
AcDbEntity
  8
0
390
0
  6
Continuous
 62
     7
100
AcDbLine
 10
102.796898
 20
-24.057539
 30
0.0
 11
102.789774
 21
-24.057294
 31
0.0
  0
LINE
  5
2A1
100
AcDbEntity
  8
0
390
0
  6
Continuous
 62
     7
100
AcDbLine
 10
102.809877
 20
-24.060089
 30
0.0
 11
102.796898
 21
-24.057539
 31
0.0
  0
LINE
  5
2A2
100
AcDbEntity
  8
0
390
0
  6
Continuous
 62
     7
100
AcDbLine
 10
102.828506
 20
-24.066426
 30
0.0
 11
102.809877
 21
-24.060089
 31
0.0
  0
LINE
  5
2A3
100
AcDbEntity
  8
0
390
0
  6
Continuous
 62
     7
100
AcDbLine
 10
102.846278
 20
-24.07487
 30
0.0
 11
102.828506
 21
-24.066426
 31
0.0
  0
LINE
  5
2A4
100
AcDbEntity
  8
0
390
0
  6
Continuous
 62
     7
100
AcDbLine
 10
102.857361
 20
-24.082091
 30
0.0
 11
102.846278
 21
-24.07487
 31
0.0
  0
LINE
  5
2A5
100
AcDbEntity
  8
0
390
0
  6
Continuous
 62
     7
100
AcDbLine
 10
102.86264
 20
-24.086883
 30
0.0
 11
102.857361
 21
-24.082091
 31
0.0
  0
LINE
  5
2A6
100
AcDbEntity
  8
0
390
0
  6
Continuous
 62
     7
100
AcDbLine
 10
102.864292
 20
-24.089055
 30
0.0
 11
102.86264
 21
-24.086883
 31
0.0
  0
LINE
  5
2A7
100
AcDbEntity
  8
0
390
0
  6
Continuous
 62
     7
100
AcDbLine
 10
102.864752
 20
-24.090001
 30
0.0
 11
102.864292
 21
-24.089055
 31
0.0
  0
LINE
  5
2A8
100
AcDbEntity
  8
0
390
0
  6
Continuous
 62
     7
100
AcDbLine
 10
102.865398
 20
-24.092493
 30
0.0
 11
102.864752
 21
-24.090001
 31
0.0
  0
LINE
  5
2A9
100
AcDbEntity
  8
0
390
0
  6
Continuous
 62
     7
100
AcDbLine
 10
102.865875
 20
-24.099337
 30
0.0
 11
102.865398
 21
-24.092493
 31
0.0
  0
LINE
  5
2AA
100
AcDbEntity
  8
0
390
0
  6
Continuous
 62
     7
100
AcDbLine
 10
102.864697
 20
-24.112183
 30
0.0
 11
102.865875
 21
-24.099337
 31
0.0
  0
LINE
  5
2AB
100
AcDbEntity
  8
0
390
0
  6
Continuous
 62
     7
100
AcDbLine
 10
102.860268
 20
-24.131392
 30
0.0
 11
102.864697
 21
-24.112183
 31
0.0
  0
LINE
  5
2AC
100
AcDbEntity
  8
0
390
0
  6
Continuous
 62
     7
100
AcDbLine
 10
102.850417
 20
-24.159426
 30
0.0
 11
102.860268
 21
-24.131392
 31
0.0
  0
LINE
  5
2AD
100
AcDbEntity
  8
0
390
0
  6
Continuous
 62
     7
100
AcDbLine
 10
102.225911
 20
-25.697349
 30
0.0
 11
102.850417
 21
-24.159426
 31
0.0
  0
LINE
  5
2AE
100
AcDbEntity
  8
0
390
0
  6
Continuous
 62
     7
100
AcDbLine
 10
104.946088
 20
-26.80192
 30
0.0
 11
102.225911
 21
-25.697349
 31
0.0
  0
LINE
  5
2AF
100
AcDbEntity
  8
0
390
0
  6
Continuous
 62
     7
100
AcDbLine
 10
105.570596
 20
-25.263994
 30
0.0
 11
104.946088
 21
-26.80192
 31
0.0
  0
LINE
  5
2B0
100
AcDbEntity
  8
0
390
0
  6
Continuous
 62
     7
100
AcDbLine
 10
105.58308
 20
-25.237024
 30
0.0
 11
105.570596
 21
-25.263994
 31
0.0
  0
LINE
  5
2B1
100
AcDbEntity
  8
0
390
0
  6
Continuous
 62
     7
100
AcDbLine
 10
105.593295
 20
-25.220165
 30
0.0
 11
105.58308
 21
-25.237024
 31
0.0
  0
LINE
  5
2B2
100
AcDbEntity
  8
0
390
0
  6
Continuous
 62
     7
100
AcDbLine
 10
105.601405
 20
-25.210136
 30
0.0
 11
105.593295
 21
-25.220165
 31
0.0
  0
LINE
  5
2B3
100
AcDbEntity
  8
0
390
0
  6
Continuous
 62
     7
100
AcDbLine
 10
105.606516
 20
-25.205562
 30
0.0
 11
105.601405
 21
-25.210136
 31
0.0
  0
LINE
  5
2B4
100
AcDbEntity
  8
0
390
0
  6
Continuous
 62
     7
100
AcDbLine
 10
105.608714
 20
-25.204228
 30
0.0
 11
105.606516
 21
-25.205562
 31
0.0
  0
LINE
  5
2B5
100
AcDbEntity
  8
0
390
0
  6
Continuous
 62
     7
100
AcDbLine
 10
105.609702
 20
-25.203871
 30
0.0
 11
105.608714
 21
-25.204228
 31
0.0
  0
LINE
  5
2B6
100
AcDbEntity
  8
0
390
0
  6
Continuous
 62
     7
100
AcDbLine
 10
105.612399
 20
-25.203466
 30
0.0
 11
105.609702
 21
-25.203871
 31
0.0
  0
LINE
  5
2B7
100
AcDbEntity
  8
0
390
0
  6
Continuous
 62
     7
100
AcDbLine
 10
105.619523
 20
-25.20371
 30
0.0
 11
105.612399
 21
-25.203466
 31
0.0
  0
LINE
  5
2B8
100
AcDbEntity
  8
0
390
0
  6
Continuous
 62
     7
100
AcDbLine
 10
105.632502
 20
-25.206261
 30
0.0
 11
105.619523
 21
-25.20371
 31
0.0
  0
LINE
  5
2B9
100
AcDbEntity
  8
0
390
0
  6
Continuous
 62
     7
100
AcDbLine
 10
105.651131
 20
-25.212598
 30
0.0
 11
105.632502
 21
-25.206261
 31
0.0
  0
LINE
  5
2BA
100
AcDbEntity
  8
0
390
0
  6
Continuous
 62
     7
100
AcDbLine
 10
105.668903
 20
-25.221042
 30
0.0
 11
105.651131
 21
-25.212598
 31
0.0
  0
LINE
  5
2BB
100
AcDbEntity
  8
0
390
0
  6
Continuous
 62
     7
100
AcDbLine
 10
105.679986
 20
-25.228263
 30
0.0
 11
105.668903
 21
-25.221042
 31
0.0
  0
LINE
  5
2BC
100
AcDbEntity
  8
0
390
0
  6
Continuous
 62
     7
100
AcDbLine
 10
105.685265
 20
-25.233055
 30
0.0
 11
105.679986
 21
-25.228263
 31
0.0
  0
LINE
  5
2BD
100
AcDbEntity
  8
0
390
0
  6
Continuous
 62
     7
100
AcDbLine
 10
105.686917
 20
-25.235227
 30
0.0
 11
105.685265
 21
-25.233055
 31
0.0
  0
LINE
  5
2BE
100
AcDbEntity
  8
0
390
0
  6
Continuous
 62
     7
100
AcDbLine
 10
105.687377
 20
-25.236173
 30
0.0
 11
105.686917
 21
-25.235227
 31
0.0
  0
LINE
  5
2BF
100
AcDbEntity
  8
0
390
0
  6
Continuous
 62
     7
100
AcDbLine
 10
105.688023
 20
-25.238665
 30
0.0
 11
105.687377
 21
-25.236173
 31
0.0
  0
LINE
  5
2C0
100
AcDbEntity
  8
0
390
0
  6
Continuous
 62
     7
100
AcDbLine
 10
105.6885
 20
-25.245509
 30
0.0
 11
105.688023
 21
-25.238665
 31
0.0
  0
LINE
  5
2C1
100
AcDbEntity
  8
0
390
0
  6
Continuous
 62
     7
100
AcDbLine
 10
105.687322
 20
-25.258355
 30
0.0
 11
105.6885
 21
-25.245509
 31
0.0
  0
LINE
  5
2C2
100
AcDbEntity
  8
0
390
0
  6
Continuous
 62
     7
100
AcDbLine
 10
105.682893
 20
-25.277564
 30
0.0
 11
105.687322
 21
-25.258355
 31
0.0
  0
LINE
  5
2C3
100
AcDbEntity
  8
0
390
0
  6
Continuous
 62
     7
100
AcDbLine
 10
105.673042
 20
-25.305598
 30
0.0
 11
105.682893
 21
-25.277564
 31
0.0
  0
LINE
  5
2C4
100
AcDbEntity
  8
0
390
0
  6
Continuous
 62
     7
100
AcDbLine
 10
104.331007
 20
-28.61055
 30
0.0
 11
105.673042
 21
-25.305598
 31
0.0
  0
LINE
  5
2C5
100
AcDbEntity
  8
0
390
0
  6
Continuous
 62
     7
100
AcDbLine
 10
104.318523
 20
-28.637518
 30
0.0
 11
104.331007
 21
-28.61055
 31
0.0
  0
LINE
  5
2C6
100
AcDbEntity
  8
0
390
0
  6
Continuous
 62
     7
100
AcDbLine
 10
104.308307
 20
-28.654378
 30
0.0
 11
104.318523
 21
-28.637518
 31
0.0
  0
LINE
  5
2C7
100
AcDbEntity
  8
0
390
0
  6
Continuous
 62
     7
100
AcDbLine
 10
104.300196
 20
-28.664409
 30
0.0
 11
104.308307
 21
-28.654378
 31
0.0
  0
LINE
  5
2C8
100
AcDbEntity
  8
0
390
0
  6
Continuous
 62
     7
100
AcDbLine
 10
104.295082
 20
-28.668985
 30
0.0
 11
104.300196
 21
-28.664409
 31
0.0
  0
LINE
  5
2C9
100
AcDbEntity
  8
0
390
0
  6
Continuous
 62
     7
100
AcDbLine
 10
104.292881
 20
-28.67032
 30
0.0
 11
104.295082
 21
-28.668985
 31
0.0
  0
LINE
  5
2CA
100
AcDbEntity
  8
0
390
0
  6
Continuous
 62
     7
100
AcDbLine
 10
104.291891
 20
-28.670679
 30
0.0
 11
104.292881
 21
-28.67032
 31
0.0
  0
LINE
  5
2CB
100
AcDbEntity
  8
0
390
0
  6
Continuous
 62
     7
100
AcDbLine
 10
104.289192
 20
-28.671084
 30
0.0
 11
104.291891
 21
-28.670679
 31
0.0
  0
LINE
  5
2CC
100
AcDbEntity
  8
0
390
0
  6
Continuous
 62
     7
100
AcDbLine
 10
104.282067
 20
-28.67084
 30
0.0
 11
104.289192
 21
-28.671084
 31
0.0
  0
LINE
  5
2CD
100
AcDbEntity
  8
0
390
0
  6
Continuous
 62
     7
100
AcDbLine
 10
104.269088
 20
-28.66829
 30
0.0
 11
104.282067
 21
-28.67084
 31
0.0
  0
LINE
  5
2CE
100
AcDbEntity
  8
0
390
0
  6
Continuous
 62
     7
100
AcDbLine
 10
104.250464
 20
-28.661955
 30
0.0
 11
104.269088
 21
-28.66829
 31
0.0
  0
LINE
  5
2CF
100
AcDbEntity
  8
0
390
0
  6
Continuous
 62
     7
100
AcDbLine
 10
104.232696
 20
-28.653513
 30
0.0
 11
104.250464
 21
-28.661955
 31
0.0
  0
LINE
  5
2D0
100
AcDbEntity
  8
0
390
0
  6
Continuous
 62
     7
100
AcDbLine
 10
104.221613
 20
-28.646291
 30
0.0
 11
104.232696
 21
-28.653513
 31
0.0
  0
LINE
  5
2D1
100
AcDbEntity
  8
0
390
0
  6
Continuous
 62
     7
100
AcDbLine
 10
104.216334
 20
-28.641498
 30
0.0
 11
104.221613
 21
-28.646291
 31
0.0
  0
LINE
  5
2D2
100
AcDbEntity
  8
0
390
0
  6
Continuous
 62
     7
100
AcDbLine
 10
104.214682
 20
-28.639326
 30
0.0
 11
104.216334
 21
-28.641498
 31
0.0
  0
LINE
  5
2D3
100
AcDbEntity
  8
0
390
0
  6
Continuous
 62
     7
100
AcDbLine
 10
104.214222
 20
-28.638379
 30
0.0
 11
104.214682
 21
-28.639326
 31
0.0
  0
LINE
  5
2D4
100
AcDbEntity
  8
0
390
0
  6
Continuous
 62
     7
100
AcDbLine
 10
104.213575
 20
-28.635887
 30
0.0
 11
104.214222
 21
-28.638379
 31
0.0
  0
LINE
  5
2D5
100
AcDbEntity
  8
0
390
0
  6
Continuous
 62
     7
100
AcDbLine
 10
104.213099
 20
-28.629042
 30
0.0
 11
104.213575
 21
-28.635887
 31
0.0
  0
LINE
  5
2D6
100
AcDbEntity
  8
0
390
0
  6
Continuous
 62
     7
100
AcDbLine
 10
104.214277
 20
-28.616196
 30
0.0
 11
104.213099
 21
-28.629042
 31
0.0
  0
LINE
  5
2D7
100
AcDbEntity
  8
0
390
0
  6
Continuous
 62
     7
100
AcDbLine
 10
104.218707
 20
-28.596987
 30
0.0
 11
104.214277
 21
-28.616196
 31
0.0
  0
LINE
  5
2D8
100
AcDbEntity
  8
0
390
0
  6
Continuous
 62
     7
100
AcDbLine
 10
104.22856
 20
-28.568949
 30
0.0
 11
104.218707
 21
-28.596987
 31
0.0
  0
LINE
  5
2D9
100
AcDbEntity
  8
0
390
0
  6
Continuous
 62
     7
100
AcDbLine
 10
104.933879
 20
-26.831993
 30
0.0
 11
104.22856
 21
-28.568949
 31
0.0
  0
LINE
  5
2DA
100
AcDbEntity
  8
0
390
0
  6
Continuous
 62
     7
100
AcDbLine
 10
114.353387
 20
-28.250645
 30
0.0
 11
114.274382
 21
-28.414367
 31
0.0
  0
LINE
  5
2DB
100
AcDbEntity
  8
0
390
0
  6
Continuous
 62
     7
100
AcDbLine
 10
114.442067
 20
-28.086634
 30
0.0
 11
114.353387
 21
-28.250645
 31
0.0
  0
LINE
  5
2DC
100
AcDbEntity
  8
0
390
0
  6
Continuous
 62
     7
100
AcDbLine
 10
114.540454
 20
-27.922337
 30
0.0
 11
114.442067
 21
-28.086634
 31
0.0
  0
LINE
  5
2DD
100
AcDbEntity
  8
0
390
0
  6
Continuous
 62
     7
100
AcDbLine
 10
114.648575
 20
-27.757764
 30
0.0
 11
114.540454
 21
-27.922337
 31
0.0
  0
LINE
  5
2DE
100
AcDbEntity
  8
0
390
0
  6
Continuous
 62
     7
100
AcDbLine
 10
114.766454
 20
-27.592925
 30
0.0
 11
114.648575
 21
-27.757764
 31
0.0
  0
LINE
  5
2DF
100
AcDbEntity
  8
0
390
0
  6
Continuous
 62
     7
100
AcDbLine
 10
114.89411
 20
-27.427836
 30
0.0
 11
114.766454
 21
-27.592925
 31
0.0
  0
LINE
  5
2E0
100
AcDbEntity
  8
0
390
0
  6
Continuous
 62
     7
100
AcDbLine
 10
115.03156
 20
-27.262512
 30
0.0
 11
114.89411
 21
-27.427836
 31
0.0
  0
LINE
  5
2E1
100
AcDbEntity
  8
0
390
0
  6
Continuous
 62
     7
100
AcDbLine
 10
115.178815
 20
-27.09697
 30
0.0
 11
115.03156
 21
-27.262512
 31
0.0
  0
LINE
  5
2E2
100
AcDbEntity
  8
0
390
0
  6
Continuous
 62
     7
100
AcDbLine
 10
115.33691
 20
-26.930146
 30
0.0
 11
115.178815
 21
-27.09697
 31
0.0
  0
POLYLINE
  5
2E3
100
AcDbEntity
  8
0
390
0
  6
Continuous
 62
     7
100
AcDb2dPolyline
 66
     1
 10
0.0
 20
0.0
 30
0.0
 40
0.1
 41
0.1
  0
VERTEX
  5
2E4
100
AcDbEntity
  8
0
390
0
 62
     7
100
AcDbVertex
100
AcDb2dVertex
 10
115.264326
 20
-26.761359
 30
0.0
  0
VERTEX
  5
2E5
100
AcDbEntity
  8
0
390
0
 62
     7
100
AcDbVertex
100
AcDb2dVertex
 10
115.352749
 20
-26.814654
 30
0.0
  0
VERTEX
  5
2E6
100
AcDbEntity
  8
0
390
0
 62
     7
100
AcDbVertex
100
AcDb2dVertex
 10
115.346766
 20
-26.917961
 30
0.0
  0
VERTEX
  5
2E7
100
AcDbEntity
  8
0
390
0
 62
     7
100
AcDbVertex
100
AcDb2dVertex
 10
115.33691
 20
-26.930146
 30
0.0
  0
SEQEND
  5
2E8
100
AcDbEntity
  8
0
390
0
  0
LINE
  5
2E9
100
AcDbEntity
  8
0
390
0
  6
Continuous
 62
     7
100
AcDbLine
 10
112.629975
 20
-26.761359
 30
0.0
 11
115.264326
 21
-26.761359
 31
0.0
  0
LINE
  5
2EA
100
AcDbEntity
  8
0
390
0
  6
Continuous
 62
     7
100
AcDbLine
 10
112.600738
 20
-26.759975
 30
0.0
 11
112.629975
 21
-26.761359
 31
0.0
  0
LINE
  5
2EB
100
AcDbEntity
  8
0
390
0
  6
Continuous
 62
     7
100
AcDbLine
 10
112.579605
 20
-26.756618
 30
0.0
 11
112.600738
 21
-26.759975
 31
0.0
  0
LINE
  5
2EC
100
AcDbEntity
  8
0
390
0
  6
Continuous
 62
     7
100
AcDbLine
 10
112.564403
 20
-26.752057
 30
0.0
 11
112.579605
 21
-26.756618
 31
0.0
  0
LINE
  5
2ED
100
AcDbEntity
  8
0
390
0
  6
Continuous
 62
     7
100
AcDbLine
 10
112.554495
 20
-26.747256
 30
0.0
 11
112.564403
 21
-26.752057
 31
0.0
  0
LINE
  5
2EE
100
AcDbEntity
  8
0
390
0
  6
Continuous
 62
     7
100
AcDbLine
 10
112.548427
 20
-26.742787
 30
0.0
 11
112.554495
 21
-26.747256
 31
0.0
  0
LINE
  5
2EF
100
AcDbEntity
  8
0
390
0
  6
Continuous
 62
     7
100
AcDbLine
 10
112.544242
 20
-26.738185
 30
0.0
 11
112.548427
 21
-26.742787
 31
0.0
  0
LINE
  5
2F0
100
AcDbEntity
  8
0
390
0
  6
Continuous
 62
     7
100
AcDbLine
 10
112.540436
 20
-26.731822
 30
0.0
 11
112.544242
 21
-26.738185
 31
0.0
  0
LINE
  5
2F1
100
AcDbEntity
  8
0
390
0
  6
Continuous
 62
     7
100
AcDbLine
 10
112.536686
 20
-26.721697
 30
0.0
 11
112.540436
 21
-26.731822
 31
0.0
  0
LINE
  5
2F2
100
AcDbEntity
  8
0
390
0
  6
Continuous
 62
     7
100
AcDbLine
 10
112.533682
 20
-26.706379
 30
0.0
 11
112.536686
 21
-26.721697
 31
0.0
  0
LINE
  5
2F3
100
AcDbEntity
  8
0
390
0
  6
Continuous
 62
     7
100
AcDbLine
 10
112.532466
 20
-26.685578
 30
0.0
 11
112.533682
 21
-26.706379
 31
0.0
  0
LINE
  5
2F4
100
AcDbEntity
  8
0
390
0
  6
Continuous
 62
     7
100
AcDbLine
 10
112.533682
 20
-26.664777
 30
0.0
 11
112.532466
 21
-26.685578
 31
0.0
  0
LINE
  5
2F5
100
AcDbEntity
  8
0
390
0
  6
Continuous
 62
     7
100
AcDbLine
 10
112.536686
 20
-26.649459
 30
0.0
 11
112.533682
 21
-26.664777
 31
0.0
  0
LINE
  5
2F6
100
AcDbEntity
  8
0
390
0
  6
Continuous
 62
     7
100
AcDbLine
 10
112.540436
 20
-26.639334
 30
0.0
 11
112.536686
 21
-26.649459
 31
0.0
  0
LINE
  5
2F7
100
AcDbEntity
  8
0
390
0
  6
Continuous
 62
     7
100
AcDbLine
 10
112.544242
 20
-26.632972
 30
0.0
 11
112.540436
 21
-26.639334
 31
0.0
  0
LINE
  5
2F8
100
AcDbEntity
  8
0
390
0
  6
Continuous
 62
     7
100
AcDbLine
 10
112.548427
 20
-26.628369
 30
0.0
 11
112.544242
 21
-26.632972
 31
0.0
  0
LINE
  5
2F9
100
AcDbEntity
  8
0
390
0
  6
Continuous
 62
     7
100
AcDbLine
 10
112.554495
 20
-26.6239
 30
0.0
 11
112.548427
 21
-26.628369
 31
0.0
  0
LINE
  5
2FA
100
AcDbEntity
  8
0
390
0
  6
Continuous
 62
     7
100
AcDbLine
 10
112.564403
 20
-26.619099
 30
0.0
 11
112.554495
 21
-26.6239
 31
0.0
  0
LINE
  5
2FB
100
AcDbEntity
  8
0
390
0
  6
Continuous
 62
     7
100
AcDbLine
 10
112.579605
 20
-26.614538
 30
0.0
 11
112.564403
 21
-26.619099
 31
0.0
  0
LINE
  5
2FC
100
AcDbEntity
  8
0
390
0
  6
Continuous
 62
     7
100
AcDbLine
 10
112.600738
 20
-26.611182
 30
0.0
 11
112.579605
 21
-26.614538
 31
0.0
  0
LINE
  5
2FD
100
AcDbEntity
  8
0
390
0
  6
Continuous
 62
     7
100
AcDbLine
 10
112.629975
 20
-26.609797
 30
0.0
 11
112.600738
 21
-26.611182
 31
0.0
  0
LINE
  5
2FE
100
AcDbEntity
  8
0
390
0
  6
Continuous
 62
     7
100
AcDbLine
 10
115.744439
 20
-26.609797
 30
0.0
 11
112.629975
 21
-26.609797
 31
0.0
  0
LINE
  5
2FF
100
AcDbEntity
  8
0
390
0
  6
Continuous
 62
     7
100
AcDbLine
 10
115.761678
 20
-26.612632
 30
0.0
 11
115.744439
 21
-26.609797
 31
0.0
  0
LINE
  5
300
100
AcDbEntity
  8
0
390
0
  6
Continuous
 62
     7
100
AcDbLine
 10
115.778754
 20
-26.617027
 30
0.0
 11
115.761678
 21
-26.612632
 31
0.0
  0
LINE
  5
301
100
AcDbEntity
  8
0
390
0
  6
Continuous
 62
     7
100
AcDbLine
 10
115.791197
 20
-26.621693
 30
0.0
 11
115.778754
 21
-26.617027
 31
0.0
  0
LINE
  5
302
100
AcDbEntity
  8
0
390
0
  6
Continuous
 62
     7
100
AcDbLine
 10
115.799227
 20
-26.62594
 30
0.0
 11
115.791197
 21
-26.621693
 31
0.0
  0
LINE
  5
303
100
AcDbEntity
  8
0
390
0
  6
Continuous
 62
     7
100
AcDbLine
 10
115.803544
 20
-26.629128
 30
0.0
 11
115.799227
 21
-26.62594
 31
0.0
  0
LINE
  5
304
100
AcDbEntity
  8
0
390
0
  6
Continuous
 62
     7
100
AcDbLine
 10
115.805384
 20
-26.631045
 30
0.0
 11
115.803544
 21
-26.629128
 31
0.0
  0
LINE
  5
305
100
AcDbEntity
  8
0
390
0
  6
Continuous
 62
     7
100
AcDbLine
 10
115.806212
 20
-26.632302
 30
0.0
 11
115.805384
 21
-26.631045
 31
0.0
  0
LINE
  5
306
100
AcDbEntity
  8
0
390
0
  6
Continuous
 62
     7
100
AcDbLine
 10
115.807063
 20
-26.634323
 30
0.0
 11
115.806212
 21
-26.632302
 31
0.0
  0
LINE
  5
307
100
AcDbEntity
  8
0
390
0
  6
Continuous
 62
     7
100
AcDbLine
 10
115.808076
 20
-26.638754
 30
0.0
 11
115.807063
 21
-26.634323
 31
0.0
  0
LINE
  5
308
100
AcDbEntity
  8
0
390
0
  6
Continuous
 62
     7
100
AcDbLine
 10
115.809345
 20
-26.657
 30
0.0
 11
115.808076
 21
-26.638754
 31
0.0
  0
LINE
  5
309
100
AcDbEntity
  8
0
390
0
  6
Continuous
 62
     7
100
AcDbLine
 10
115.811737
 20
-26.673912
 30
0.0
 11
115.809345
 21
-26.657
 31
0.0
  0
LINE
  5
30A
100
AcDbEntity
  8
0
390
0
  6
Continuous
 62
     7
100
AcDbLine
 10
115.811874
 20
-26.680577
 30
0.0
 11
115.811737
 21
-26.673912
 31
0.0
  0
LINE
  5
30B
100
AcDbEntity
  8
0
390
0
  6
Continuous
 62
     7
100
AcDbLine
 10
115.811247
 20
-26.686539
 30
0.0
 11
115.811874
 21
-26.680577
 31
0.0
  0
LINE
  5
30C
100
AcDbEntity
  8
0
390
0
  6
Continuous
 62
     7
100
AcDbLine
 10
115.809862
 20
-26.692392
 30
0.0
 11
115.811247
 21
-26.686539
 31
0.0
  0
LINE
  5
30D
100
AcDbEntity
  8
0
390
0
  6
Continuous
 62
     7
100
AcDbLine
 10
115.80751
 20
-26.698687
 30
0.0
 11
115.809862
 21
-26.692392
 31
0.0
  0
LINE
  5
30E
100
AcDbEntity
  8
0
390
0
  6
Continuous
 62
     7
100
AcDbLine
 10
115.803822
 20
-26.705823
 30
0.0
 11
115.80751
 21
-26.698687
 31
0.0
  0
LINE
  5
30F
100
AcDbEntity
  8
0
390
0
  6
Continuous
 62
     7
100
AcDbLine
 10
115.798376
 20
-26.713992
 30
0.0
 11
115.803822
 21
-26.705823
 31
0.0
  0
LINE
  5
310
100
AcDbEntity
  8
0
390
0
  6
Continuous
 62
     7
100
AcDbLine
 10
115.79079
 20
-26.723203
 30
0.0
 11
115.798376
 21
-26.713992
 31
0.0
  0
LINE
  5
311
100
AcDbEntity
  8
0
390
0
  6
Continuous
 62
     7
100
AcDbLine
 10
115.780774
 20
-26.733341
 30
0.0
 11
115.79079
 21
-26.723203
 31
0.0
  0
LINE
  5
312
100
AcDbEntity
  8
0
390
0
  6
Continuous
 62
     7
100
AcDbLine
 10
115.764546
 20
-26.747325
 30
0.0
 11
115.780774
 21
-26.733341
 31
0.0
  0
LINE
  5
313
100
AcDbEntity
  8
0
390
0
  6
Continuous
 62
     7
100
AcDbLine
 10
115.580542
 20
-26.913739
 30
0.0
 11
115.764546
 21
-26.747325
 31
0.0
  0
LINE
  5
314
100
AcDbEntity
  8
0
390
0
  6
Continuous
 62
     7
100
AcDbLine
 10
115.407479
 20
-27.08145
 30
0.0
 11
115.580542
 21
-26.913739
 31
0.0
  0
LINE
  5
315
100
AcDbEntity
  8
0
390
0
  6
Continuous
 62
     7
100
AcDbLine
 10
115.245674
 20
-27.250203
 30
0.0
 11
115.407479
 21
-27.08145
 31
0.0
  0
LINE
  5
316
100
AcDbEntity
  8
0
390
0
  6
Continuous
 62
     7
100
AcDbLine
 10
115.095144
 20
-27.420022
 30
0.0
 11
115.245674
 21
-27.250203
 31
0.0
  0
LINE
  5
317
100
AcDbEntity
  8
0
390
0
  6
Continuous
 62
     7
100
AcDbLine
 10
114.955909
 20
-27.590928
 30
0.0
 11
115.095144
 21
-27.420022
 31
0.0
  0
LINE
  5
318
100
AcDbEntity
  8
0
390
0
  6
Continuous
 62
     7
100
AcDbLine
 10
114.827994
 20
-27.762944
 30
0.0
 11
114.955909
 21
-27.590928
 31
0.0
  0
LINE
  5
319
100
AcDbEntity
  8
0
390
0
  6
Continuous
 62
     7
100
AcDbLine
 10
114.711434
 20
-27.936086
 30
0.0
 11
114.827994
 21
-27.762944
 31
0.0
  0
LINE
  5
31A
100
AcDbEntity
  8
0
390
0
  6
Continuous
 62
     7
100
AcDbLine
 10
114.606264
 20
-28.110367
 30
0.0
 11
114.711434
 21
-27.936086
 31
0.0
  0
LINE
  5
31B
100
AcDbEntity
  8
0
390
0
  6
Continuous
 62
     7
100
AcDbLine
 10
114.512531
 20
-28.28579
 30
0.0
 11
114.606264
 21
-28.110367
 31
0.0
  0
LINE
  5
31C
100
AcDbEntity
  8
0
390
0
  6
Continuous
 62
     7
100
AcDbLine
 10
114.430381
 20
-28.462142
 30
0.0
 11
114.512531
 21
-28.28579
 31
0.0
  0
LINE
  5
31D
100
AcDbEntity
  8
0
390
0
  6
Continuous
 62
     7
100
AcDbLine
 10
114.361796
 20
-28.632199
 30
0.0
 11
114.430381
 21
-28.462142
 31
0.0
  0
LINE
  5
31E
100
AcDbEntity
  8
0
390
0
  6
Continuous
 62
     7
100
AcDbLine
 10
114.300601
 20
-28.804987
 30
0.0
 11
114.361796
 21
-28.632199
 31
0.0
  0
LINE
  5
31F
100
AcDbEntity
  8
0
390
0
  6
Continuous
 62
     7
100
AcDbLine
 10
114.246621
 20
-28.980922
 30
0.0
 11
114.300601
 21
-28.804987
 31
0.0
  0
LINE
  5
320
100
AcDbEntity
  8
0
390
0
  6
Continuous
 62
     7
100
AcDbLine
 10
114.199857
 20
-29.159982
 30
0.0
 11
114.246621
 21
-28.980922
 31
0.0
  0
LINE
  5
321
100
AcDbEntity
  8
0
390
0
  6
Continuous
 62
     7
100
AcDbLine
 10
114.174782
 20
-29.275479
 30
0.0
 11
114.199857
 21
-29.159982
 31
0.0
  0
LINE
  5
322
100
AcDbEntity
  8
0
390
0
  6
Continuous
 62
     7
100
AcDbLine
 10
114.039226
 20
-29.077985
 30
0.0
 11
113.996983
 21
-29.247721
 31
0.0
  0
LINE
  5
323
100
AcDbEntity
  8
0
390
0
  6
Continuous
 62
     7
100
AcDbLine
 10
114.087971
 20
-28.909766
 30
0.0
 11
114.039226
 21
-29.077985
 31
0.0
  0
LINE
  5
324
100
AcDbEntity
  8
0
390
0
  6
Continuous
 62
     7
100
AcDbLine
 10
114.143226
 20
-28.743047
 30
0.0
 11
114.087971
 21
-28.909766
 31
0.0
  0
LINE
  5
325
100
AcDbEntity
  8
0
390
0
  6
Continuous
 62
     7
100
AcDbLine
 10
114.204887
 20
-28.578108
 30
0.0
 11
114.143226
 21
-28.743047
 31
0.0
  0
LINE
  5
326
100
AcDbEntity
  8
0
390
0
  6
Continuous
 62
     7
100
AcDbLine
 10
114.274382
 20
-28.414367
 30
0.0
 11
114.204887
 21
-28.578108
 31
0.0
  0
LINE
  5
327
100
AcDbEntity
  8
0
390
0
  6
Continuous
 62
     7
100
AcDbLine
 10
110.174571
 20
-28.906619
 30
0.0
 11
110.169064
 21
-28.914185
 31
0.0
  0
LINE
  5
328
100
AcDbEntity
  8
0
390
0
  6
Continuous
 62
     7
100
AcDbLine
 10
110.17719
 20
-28.904126
 30
0.0
 11
110.174571
 21
-28.906619
 31
0.0
  0
LINE
  5
329
100
AcDbEntity
  8
0
390
0
  6
Continuous
 62
     7
100
AcDbLine
 10
110.177403
 20
-28.903994
 30
0.0
 11
110.17719
 21
-28.904126
 31
0.0
  0
LINE
  5
32A
100
AcDbEntity
  8
0
390
0
  6
Continuous
 62
     7
100
AcDbLine
 10
110.177638
 20
-28.90391
 30
0.0
 11
110.177403
 21
-28.903994
 31
0.0
  0
LINE
  5
32B
100
AcDbEntity
  8
0
390
0
  6
Continuous
 62
     7
100
AcDbLine
 10
110.181218
 20
-28.90341
 30
0.0
 11
110.177638
 21
-28.90391
 31
0.0
  0
LINE
  5
32C
100
AcDbEntity
  8
0
390
0
  6
Continuous
 62
     7
100
AcDbLine
 10
110.190567
 20
-28.903803
 30
0.0
 11
110.181218
 21
-28.90341
 31
0.0
  0
LINE
  5
32D
100
AcDbEntity
  8
0
390
0
  6
Continuous
 62
     7
100
AcDbLine
 10
110.206513
 20
-28.906931
 30
0.0
 11
110.190567
 21
-28.903803
 31
0.0
  0
LINE
  5
32E
100
AcDbEntity
  8
0
390
0
  6
Continuous
 62
     7
100
AcDbLine
 10
110.228773
 20
-28.914245
 30
0.0
 11
110.206513
 21
-28.906931
 31
0.0
  0
LINE
  5
32F
100
AcDbEntity
  8
0
390
0
  6
Continuous
 62
     7
100
AcDbLine
 10
110.246849
 20
-28.922261
 30
0.0
 11
110.228773
 21
-28.914245
 31
0.0
  0
LINE
  5
330
100
AcDbEntity
  8
0
390
0
  6
Continuous
 62
     7
100
AcDbLine
 10
110.257352
 20
-28.930448
 30
0.0
 11
110.246849
 21
-28.922261
 31
0.0
  0
LINE
  5
331
100
AcDbEntity
  8
0
390
0
  6
Continuous
 62
     7
100
AcDbLine
 10
110.269755
 20
-28.942643
 30
0.0
 11
110.257352
 21
-28.930448
 31
0.0
  0
LINE
  5
332
100
AcDbEntity
  8
0
390
0
  6
Continuous
 62
     7
100
AcDbLine
 10
110.277174
 20
-28.952237
 30
0.0
 11
110.269755
 21
-28.942643
 31
0.0
  0
LINE
  5
333
100
AcDbEntity
  8
0
390
0
  6
Continuous
 62
     7
100
AcDbLine
 10
110.280926
 20
-28.959075
 30
0.0
 11
110.277174
 21
-28.952237
 31
0.0
  0
LINE
  5
334
100
AcDbEntity
  8
0
390
0
  6
Continuous
 62
     7
100
AcDbLine
 10
110.282575
 20
-28.963908
 30
0.0
 11
110.280926
 21
-28.959075
 31
0.0
  0
LINE
  5
335
100
AcDbEntity
  8
0
390
0
  6
Continuous
 62
     7
100
AcDbLine
 10
110.283255
 20
-28.968474
 30
0.0
 11
110.282575
 21
-28.963908
 31
0.0
  0
LINE
  5
336
100
AcDbEntity
  8
0
390
0
  6
Continuous
 62
     7
100
AcDbLine
 10
110.283063
 20
-28.974919
 30
0.0
 11
110.283255
 21
-28.968474
 31
0.0
  0
LINE
  5
337
100
AcDbEntity
  8
0
390
0
  6
Continuous
 62
     7
100
AcDbLine
 10
110.281103
 20
-28.984912
 30
0.0
 11
110.283063
 21
-28.974919
 31
0.0
  0
LINE
  5
338
100
AcDbEntity
  8
0
390
0
  6
Continuous
 62
     7
100
AcDbLine
 10
110.276079
 20
-28.999195
 30
0.0
 11
110.281103
 21
-28.984912
 31
0.0
  0
LINE
  5
339
100
AcDbEntity
  8
0
390
0
  6
Continuous
 62
     7
100
AcDbLine
 10
110.26598
 20
-29.019506
 30
0.0
 11
110.276079
 21
-28.999195
 31
0.0
  0
LINE
  5
33A
100
AcDbEntity
  8
0
390
0
  6
Continuous
 62
     7
100
AcDbLine
 10
110.226212
 20
-29.086714
 30
0.0
 11
110.26598
 21
-29.019506
 31
0.0
  0
LINE
  5
33B
100
AcDbEntity
  8
0
390
0
  6
Continuous
 62
     7
100
AcDbLine
 10
110.183863
 20
-29.152294
 30
0.0
 11
110.226212
 21
-29.086714
 31
0.0
  0
LINE
  5
33C
100
AcDbEntity
  8
0
390
0
  6
Continuous
 62
     7
100
AcDbLine
 10
110.140139
 20
-29.214269
 30
0.0
 11
110.183863
 21
-29.152294
 31
0.0
  0
LINE
  5
33D
100
AcDbEntity
  8
0
390
0
  6
Continuous
 62
     7
100
AcDbLine
 10
110.095061
 20
-29.272665
 30
0.0
 11
110.140139
 21
-29.214269
 31
0.0
  0
LINE
  5
33E
100
AcDbEntity
  8
0
390
0
  6
Continuous
 62
     7
100
AcDbLine
 10
110.048643
 20
-29.327516
 30
0.0
 11
110.095061
 21
-29.272665
 31
0.0
  0
LINE
  5
33F
100
AcDbEntity
  8
0
390
0
  6
Continuous
 62
     7
100
AcDbLine
 10
110.000897
 20
-29.378862
 30
0.0
 11
110.048643
 21
-29.327516
 31
0.0
  0
LINE
  5
340
100
AcDbEntity
  8
0
390
0
  6
Continuous
 62
     7
100
AcDbLine
 10
107.723465
 20
-29.441836
 30
0.0
 11
107.834467
 21
-29.51833
 31
0.0
  0
LINE
  5
341
100
AcDbEntity
  8
0
390
0
  6
Continuous
 62
     7
100
AcDbLine
 10
107.620196
 20
-29.357021
 30
0.0
 11
107.723465
 21
-29.441836
 31
0.0
  0
LINE
  5
342
100
AcDbEntity
  8
0
390
0
  6
Continuous
 62
     7
100
AcDbLine
 10
107.524467
 20
-29.263752
 30
0.0
 11
107.620196
 21
-29.357021
 31
0.0
  0
LINE
  5
343
100
AcDbEntity
  8
0
390
0
  6
Continuous
 62
     7
100
AcDbLine
 10
107.436126
 20
-29.161853
 30
0.0
 11
107.524467
 21
-29.263752
 31
0.0
  0
LINE
  5
344
100
AcDbEntity
  8
0
390
0
  6
Continuous
 62
     7
100
AcDbLine
 10
107.355133
 20
-29.051202
 30
0.0
 11
107.436126
 21
-29.161853
 31
0.0
  0
LINE
  5
345
100
AcDbEntity
  8
0
390
0
  6
Continuous
 62
     7
100
AcDbLine
 10
107.27762
 20
-28.924996
 30
0.0
 11
107.355133
 21
-29.051202
 31
0.0
  0
LINE
  5
346
100
AcDbEntity
  8
0
390
0
  6
Continuous
 62
     7
100
AcDbLine
 10
107.211913
 20
-28.79474
 30
0.0
 11
107.27762
 21
-28.924996
 31
0.0
  0
LINE
  5
347
100
AcDbEntity
  8
0
390
0
  6
Continuous
 62
     7
100
AcDbLine
 10
107.157869
 20
-28.660258
 30
0.0
 11
107.211913
 21
-28.79474
 31
0.0
  0
LINE
  5
348
100
AcDbEntity
  8
0
390
0
  6
Continuous
 62
     7
100
AcDbLine
 10
107.115391
 20
-28.521333
 30
0.0
 11
107.157869
 21
-28.660258
 31
0.0
  0
LINE
  5
349
100
AcDbEntity
  8
0
390
0
  6
Continuous
 62
     7
100
AcDbLine
 10
107.084439
 20
-28.377731
 30
0.0
 11
107.115391
 21
-28.521333
 31
0.0
  0
LINE
  5
34A
100
AcDbEntity
  8
0
390
0
  6
Continuous
 62
     7
100
AcDbLine
 10
107.065034
 20
-28.229228
 30
0.0
 11
107.084439
 21
-28.377731
 31
0.0
  0
LINE
  5
34B
100
AcDbEntity
  8
0
390
0
  6
Continuous
 62
     7
100
AcDbLine
 10
107.057246
 20
-28.075632
 30
0.0
 11
107.065034
 21
-28.229228
 31
0.0
  0
LINE
  5
34C
100
AcDbEntity
  8
0
390
0
  6
Continuous
 62
     7
100
AcDbLine
 10
107.061183
 20
-27.916793
 30
0.0
 11
107.057246
 21
-28.075632
 31
0.0
  0
LINE
  5
34D
100
AcDbEntity
  8
0
390
0
  6
Continuous
 62
     7
100
AcDbLine
 10
107.076971
 20
-27.752612
 30
0.0
 11
107.061183
 21
-27.916793
 31
0.0
  0
LINE
  5
34E
100
AcDbEntity
  8
0
390
0
  6
Continuous
 62
     7
100
AcDbLine
 10
107.104723
 20
-27.583125
 30
0.0
 11
107.076971
 21
-27.752612
 31
0.0
  0
LINE
  5
34F
100
AcDbEntity
  8
0
390
0
  6
Continuous
 62
     7
100
AcDbLine
 10
107.141402
 20
-27.423185
 30
0.0
 11
107.104723
 21
-27.583125
 31
0.0
  0
LINE
  5
350
100
AcDbEntity
  8
0
390
0
  6
Continuous
 62
     7
100
AcDbLine
 10
107.186832
 20
-27.272243
 30
0.0
 11
107.141402
 21
-27.423185
 31
0.0
  0
LINE
  5
351
100
AcDbEntity
  8
0
390
0
  6
Continuous
 62
     7
100
AcDbLine
 10
107.240902
 20
-27.130254
 30
0.0
 11
107.186832
 21
-27.272243
 31
0.0
  0
LINE
  5
352
100
AcDbEntity
  8
0
390
0
  6
Continuous
 62
     7
100
AcDbLine
 10
107.303538
 20
-26.997074
 30
0.0
 11
107.240902
 21
-27.130254
 31
0.0
  0
LINE
  5
353
100
AcDbEntity
  8
0
390
0
  6
Continuous
 62
     7
100
AcDbLine
 10
107.374703
 20
-26.872522
 30
0.0
 11
107.303538
 21
-26.997074
 31
0.0
  0
LINE
  5
354
100
AcDbEntity
  8
0
390
0
  6
Continuous
 62
     7
100
AcDbLine
 10
107.454409
 20
-26.756391
 30
0.0
 11
107.374703
 21
-26.872522
 31
0.0
  0
LINE
  5
355
100
AcDbEntity
  8
0
390
0
  6
Continuous
 62
     7
100
AcDbLine
 10
107.542727
 20
-26.648469
 30
0.0
 11
107.454409
 21
-26.756391
 31
0.0
  0
LINE
  5
356
100
AcDbEntity
  8
0
390
0
  6
Continuous
 62
     7
100
AcDbLine
 10
107.639785
 20
-26.54856
 30
0.0
 11
107.542727
 21
-26.648469
 31
0.0
  0
LINE
  5
357
100
AcDbEntity
  8
0
390
0
  6
Continuous
 62
     7
100
AcDbLine
 10
107.745759
 20
-26.456505
 30
0.0
 11
107.639785
 21
-26.54856
 31
0.0
  0
LINE
  5
358
100
AcDbEntity
  8
0
390
0
  6
Continuous
 62
     7
100
AcDbLine
 10
107.861056
 20
-26.372049
 30
0.0
 11
107.745759
 21
-26.456505
 31
0.0
  0
LINE
  5
359
100
AcDbEntity
  8
0
390
0
  6
Continuous
 62
     7
100
AcDbLine
 10
107.986896
 20
-26.293885
 30
0.0
 11
107.861056
 21
-26.372049
 31
0.0
  0
LINE
  5
35A
100
AcDbEntity
  8
0
390
0
  6
Continuous
 62
     7
100
AcDbLine
 10
108.1147
 20
-26.227151
 30
0.0
 11
107.986896
 21
-26.293885
 31
0.0
  0
LINE
  5
35B
100
AcDbEntity
  8
0
390
0
  6
Continuous
 62
     7
100
AcDbLine
 10
108.244235
 20
-26.17189
 30
0.0
 11
108.1147
 21
-26.227151
 31
0.0
  0
LINE
  5
35C
100
AcDbEntity
  8
0
390
0
  6
Continuous
 62
     7
100
AcDbLine
 10
108.375631
 20
-26.127959
 30
0.0
 11
108.244235
 21
-26.17189
 31
0.0
  0
LINE
  5
35D
100
AcDbEntity
  8
0
390
0
  6
Continuous
 62
     7
100
AcDbLine
 10
108.509064
 20
-26.095245
 30
0.0
 11
108.375631
 21
-26.127959
 31
0.0
  0
LINE
  5
35E
100
AcDbEntity
  8
0
390
0
  6
Continuous
 62
     7
100
AcDbLine
 10
108.644739
 20
-26.073679
 30
0.0
 11
108.509064
 21
-26.095245
 31
0.0
  0
LINE
  5
35F
100
AcDbEntity
  8
0
390
0
  6
Continuous
 62
     7
100
AcDbLine
 10
108.782874
 20
-26.063245
 30
0.0
 11
108.644739
 21
-26.073679
 31
0.0
  0
LINE
  5
360
100
AcDbEntity
  8
0
390
0
  6
Continuous
 62
     7
100
AcDbLine
 10
108.923673
 20
-26.063978
 30
0.0
 11
108.782874
 21
-26.063245
 31
0.0
  0
LINE
  5
361
100
AcDbEntity
  8
0
390
0
  6
Continuous
 62
     7
100
AcDbLine
 10
109.067312
 20
-26.075959
 30
0.0
 11
108.923673
 21
-26.063978
 31
0.0
  0
LINE
  5
362
100
AcDbEntity
  8
0
390
0
  6
Continuous
 62
     7
100
AcDbLine
 10
109.214227
 20
-26.099346
 30
0.0
 11
109.067312
 21
-26.075959
 31
0.0
  0
LINE
  5
363
100
AcDbEntity
  8
0
390
0
  6
Continuous
 62
     7
100
AcDbLine
 10
109.370003
 20
-26.134824
 30
0.0
 11
109.214227
 21
-26.099346
 31
0.0
  0
LINE
  5
364
100
AcDbEntity
  8
0
390
0
  6
Continuous
 62
     7
100
AcDbLine
 10
109.516457
 20
-26.178247
 30
0.0
 11
109.370003
 21
-26.134824
 31
0.0
  0
LINE
  5
365
100
AcDbEntity
  8
0
390
0
  6
Continuous
 62
     7
100
AcDbLine
 10
109.653221
 20
-26.229391
 30
0.0
 11
109.516457
 21
-26.178247
 31
0.0
  0
LINE
  5
366
100
AcDbEntity
  8
0
390
0
  6
Continuous
 62
     7
100
AcDbLine
 10
109.780416
 20
-26.288146
 30
0.0
 11
109.653221
 21
-26.229391
 31
0.0
  0
LINE
  5
367
100
AcDbEntity
  8
0
390
0
  6
Continuous
 62
     7
100
AcDbLine
 10
109.898213
 20
-26.354428
 30
0.0
 11
109.780416
 21
-26.288146
 31
0.0
  0
LINE
  5
368
100
AcDbEntity
  8
0
390
0
  6
Continuous
 62
     7
100
AcDbLine
 10
110.006827
 20
-26.428202
 30
0.0
 11
109.898213
 21
-26.354428
 31
0.0
  0
LINE
  5
369
100
AcDbEntity
  8
0
390
0
  6
Continuous
 62
     7
100
AcDbLine
 10
110.106502
 20
-26.509499
 30
0.0
 11
110.006827
 21
-26.428202
 31
0.0
  0
LINE
  5
36A
100
AcDbEntity
  8
0
390
0
  6
Continuous
 62
     7
100
AcDbLine
 10
110.197486
 20
-26.598422
 30
0.0
 11
110.106502
 21
-26.509499
 31
0.0
  0
LINE
  5
36B
100
AcDbEntity
  8
0
390
0
  6
Continuous
 62
     7
100
AcDbLine
 10
110.28
 20
-26.695149
 30
0.0
 11
110.197486
 21
-26.598422
 31
0.0
  0
LINE
  5
36C
100
AcDbEntity
  8
0
390
0
  6
Continuous
 62
     7
100
AcDbLine
 10
110.355779
 20
-26.802123
 30
0.0
 11
110.28
 21
-26.695149
 31
0.0
  0
LINE
  5
36D
100
AcDbEntity
  8
0
390
0
  6
Continuous
 62
     7
100
AcDbLine
 10
110.39067
 20
-26.856539
 30
0.0
 11
110.355779
 21
-26.802123
 31
0.0
  0
LINE
  5
36E
100
AcDbEntity
  8
0
390
0
  6
Continuous
 62
     7
100
AcDbLine
 10
110.421809
 20
-26.910319
 30
0.0
 11
110.39067
 21
-26.856539
 31
0.0
  0
LINE
  5
36F
100
AcDbEntity
  8
0
390
0
  6
Continuous
 62
     7
100
AcDbLine
 10
110.449109
 20
-26.963222
 30
0.0
 11
110.421809
 21
-26.910319
 31
0.0
  0
LINE
  5
370
100
AcDbEntity
  8
0
390
0
  6
Continuous
 62
     7
100
AcDbLine
 10
110.47263
 20
-27.015229
 30
0.0
 11
110.449109
 21
-26.963222
 31
0.0
  0
LINE
  5
371
100
AcDbEntity
  8
0
390
0
  6
Continuous
 62
     7
100
AcDbLine
 10
110.492442
 20
-27.066331
 30
0.0
 11
110.47263
 21
-27.015229
 31
0.0
  0
LINE
  5
372
100
AcDbEntity
  8
0
390
0
  6
Continuous
 62
     7
100
AcDbLine
 10
110.508623
 20
-27.116535
 30
0.0
 11
110.492442
 21
-27.066331
 31
0.0
  0
LINE
  5
373
100
AcDbEntity
  8
0
390
0
  6
Continuous
 62
     7
100
AcDbLine
 10
110.521256
 20
-27.165871
 30
0.0
 11
110.508623
 21
-27.116535
 31
0.0
  0
LINE
  5
374
100
AcDbEntity
  8
0
390
0
  6
Continuous
 62
     7
100
AcDbLine
 10
110.530423
 20
-27.214391
 30
0.0
 11
110.521256
 21
-27.165871
 31
0.0
  0
LINE
  5
375
100
AcDbEntity
  8
0
390
0
  6
Continuous
 62
     7
100
AcDbLine
 10
110.536203
 20
-27.26217
 30
0.0
 11
110.530423
 21
-27.214391
 31
0.0
  0
LINE
  5
376
100
AcDbEntity
  8
0
390
0
  6
Continuous
 62
     7
100
AcDbLine
 10
110.538568
 20
-27.307562
 30
0.0
 11
110.536203
 21
-27.26217
 31
0.0
  0
LINE
  5
377
100
AcDbEntity
  8
0
390
0
  6
Continuous
 62
     7
100
AcDbLine
 10
110.537469
 20
-27.332209
 30
0.0
 11
110.538568
 21
-27.307562
 31
0.0
  0
LINE
  5
378
100
AcDbEntity
  8
0
390
0
  6
Continuous
 62
     7
100
AcDbLine
 10
110.534485
 20
-27.351357
 30
0.0
 11
110.537469
 21
-27.332209
 31
0.0
  0
LINE
  5
379
100
AcDbEntity
  8
0
390
0
  6
Continuous
 62
     7
100
AcDbLine
 10
110.530509
 20
-27.364956
 30
0.0
 11
110.534485
 21
-27.351357
 31
0.0
  0
LINE
  5
37A
100
AcDbEntity
  8
0
390
0
  6
Continuous
 62
     7
100
AcDbLine
 10
110.526396
 20
-27.373831
 30
0.0
 11
110.530509
 21
-27.364956
 31
0.0
  0
LINE
  5
37B
100
AcDbEntity
  8
0
390
0
  6
Continuous
 62
     7
100
AcDbLine
 10
110.522529
 20
-27.379479
 30
0.0
 11
110.526396
 21
-27.373831
 31
0.0
  0
LINE
  5
37C
100
AcDbEntity
  8
0
390
0
  6
Continuous
 62
     7
100
AcDbLine
 10
110.518377
 20
-27.383709
 30
0.0
 11
110.522529
 21
-27.379479
 31
0.0
  0
LINE
  5
37D
100
AcDbEntity
  8
0
390
0
  6
Continuous
 62
     7
100
AcDbLine
 10
110.512492
 20
-27.387911
 30
0.0
 11
110.518377
 21
-27.383709
 31
0.0
  0
LINE
  5
37E
100
AcDbEntity
  8
0
390
0
  6
Continuous
 62
     7
100
AcDbLine
 10
110.503092
 20
-27.392523
 30
0.0
 11
110.512492
 21
-27.387911
 31
0.0
  0
LINE
  5
37F
100
AcDbEntity
  8
0
390
0
  6
Continuous
 62
     7
100
AcDbLine
 10
110.488762
 20
-27.397112
 30
0.0
 11
110.503092
 21
-27.392523
 31
0.0
  0
LINE
  5
380
100
AcDbEntity
  8
0
390
0
  6
Continuous
 62
     7
100
AcDbLine
 10
110.475609
 20
-27.399557
 30
0.0
 11
110.488762
 21
-27.397112
 31
0.0
  0
LINE
  5
381
100
AcDbEntity
  8
0
390
0
  6
Continuous
 62
     7
100
AcDbLine
 10
110.462814
 20
-27.399179
 30
0.0
 11
110.475609
 21
-27.399557
 31
0.0
  0
LINE
  5
382
100
AcDbEntity
  8
0
390
0
  6
Continuous
 62
     7
100
AcDbLine
 10
110.447701
 20
-27.396873
 30
0.0
 11
110.462814
 21
-27.399179
 31
0.0
  0
LINE
  5
383
100
AcDbEntity
  8
0
390
0
  6
Continuous
 62
     7
100
AcDbLine
 10
110.436791
 20
-27.393615
 30
0.0
 11
110.447701
 21
-27.396873
 31
0.0
  0
LINE
  5
384
100
AcDbEntity
  8
0
390
0
  6
Continuous
 62
     7
100
AcDbLine
 10
110.428954
 20
-27.389891
 30
0.0
 11
110.436791
 21
-27.393615
 31
0.0
  0
LINE
  5
385
100
AcDbEntity
  8
0
390
0
  6
Continuous
 62
     7
100
AcDbLine
 10
110.422708
 20
-27.385565
 30
0.0
 11
110.428954
 21
-27.389891
 31
0.0
  0
LINE
  5
386
100
AcDbEntity
  8
0
390
0
  6
Continuous
 62
     7
100
AcDbLine
 10
110.416702
 20
-27.379756
 30
0.0
 11
110.422708
 21
-27.385565
 31
0.0
  0
LINE
  5
387
100
AcDbEntity
  8
0
390
0
  6
Continuous
 62
     7
100
AcDbLine
 10
110.410193
 20
-27.371134
 30
0.0
 11
110.416702
 21
-27.379756
 31
0.0
  0
LINE
  5
388
100
AcDbEntity
  8
0
390
0
  6
Continuous
 62
     7
100
AcDbLine
 10
110.403165
 20
-27.358418
 30
0.0
 11
110.410193
 21
-27.371134
 31
0.0
  0
LINE
  5
389
100
AcDbEntity
  8
0
390
0
  6
Continuous
 62
     7
100
AcDbLine
 10
110.396099
 20
-27.34073
 30
0.0
 11
110.403165
 21
-27.358418
 31
0.0
  0
LINE
  5
38A
100
AcDbEntity
  8
0
390
0
  6
Continuous
 62
     7
100
AcDbLine
 10
110.39092
 20
-27.322182
 30
0.0
 11
110.396099
 21
-27.34073
 31
0.0
  0
LINE
  5
38B
100
AcDbEntity
  8
0
390
0
  6
Continuous
 62
     7
100
AcDbLine
 10
110.38563
 20
-27.273537
 30
0.0
 11
110.39092
 21
-27.322182
 31
0.0
  0
LINE
  5
38C
100
AcDbEntity
  8
0
390
0
  6
Continuous
 62
     7
100
AcDbLine
 10
110.375929
 20
-27.212183
 30
0.0
 11
110.38563
 21
-27.273537
 31
0.0
  0
LINE
  5
38D
100
AcDbEntity
  8
0
390
0
  6
Continuous
 62
     7
100
AcDbLine
 10
110.363287
 20
-27.151834
 30
0.0
 11
110.375929
 21
-27.212183
 31
0.0
  0
LINE
  5
38E
100
AcDbEntity
  8
0
390
0
  6
Continuous
 62
     7
100
AcDbLine
 10
110.347695
 20
-27.092536
 30
0.0
 11
110.363287
 21
-27.151834
 31
0.0
  0
LINE
  5
38F
100
AcDbEntity
  8
0
390
0
  6
Continuous
 62
     7
100
AcDbLine
 10
110.329153
 20
-27.034343
 30
0.0
 11
110.347695
 21
-27.092536
 31
0.0
  0
LINE
  5
390
100
AcDbEntity
  8
0
390
0
  6
Continuous
 62
     7
100
AcDbLine
 10
110.307666
 20
-26.977307
 30
0.0
 11
110.329153
 21
-27.034343
 31
0.0
  0
LINE
  5
391
100
AcDbEntity
  8
0
390
0
  6
Continuous
 62
     7
100
AcDbLine
 10
110.283252
 20
-26.92148
 30
0.0
 11
110.307666
 21
-26.977307
 31
0.0
  0
LINE
  5
392
100
AcDbEntity
  8
0
390
0
  6
Continuous
 62
     7
100
AcDbLine
 10
110.255934
 20
-26.866911
 30
0.0
 11
110.283252
 21
-26.92148
 31
0.0
  0
LINE
  5
393
100
AcDbEntity
  8
0
390
0
  6
Continuous
 62
     7
100
AcDbLine
 10
110.225742
 20
-26.813644
 30
0.0
 11
110.255934
 21
-26.866911
 31
0.0
  0
LINE
  5
394
100
AcDbEntity
  8
0
390
0
  6
Continuous
 62
     7
100
AcDbLine
 10
110.192099
 20
-26.760753
 30
0.0
 11
110.225742
 21
-26.813644
 31
0.0
  0
LINE
  5
395
100
AcDbEntity
  8
0
390
0
  6
Continuous
 62
     7
100
AcDbLine
 10
110.124425
 20
-26.668728
 30
0.0
 11
110.192099
 21
-26.760753
 31
0.0
  0
LINE
  5
396
100
AcDbEntity
  8
0
390
0
  6
Continuous
 62
     7
100
AcDbLine
 10
110.048828
 20
-26.582591
 30
0.0
 11
110.124425
 21
-26.668728
 31
0.0
  0
LINE
  5
397
100
AcDbEntity
  8
0
390
0
  6
Continuous
 62
     7
100
AcDbLine
 10
109.966091
 20
-26.503422
 30
0.0
 11
110.048828
 21
-26.582591
 31
0.0
  0
LINE
  5
398
100
AcDbEntity
  8
0
390
0
  6
Continuous
 62
     7
100
AcDbLine
 10
109.876407
 20
-26.431383
 30
0.0
 11
109.966091
 21
-26.503422
 31
0.0
  0
LINE
  5
399
100
AcDbEntity
  8
0
390
0
  6
Continuous
 62
     7
100
AcDbLine
 10
109.779998
 20
-26.366578
 30
0.0
 11
109.876407
 21
-26.431383
 31
0.0
  0
LINE
  5
39A
100
AcDbEntity
  8
0
390
0
  6
Continuous
 62
     7
100
AcDbLine
 10
109.677085
 20
-26.309047
 30
0.0
 11
109.779998
 21
-26.366578
 31
0.0
  0
LINE
  5
39B
100
AcDbEntity
  8
0
390
0
  6
Continuous
 62
     7
100
AcDbLine
 10
109.56787
 20
-26.25877
 30
0.0
 11
109.677085
 21
-26.309047
 31
0.0
  0
LINE
  5
39C
100
AcDbEntity
  8
0
390
0
  6
Continuous
 62
     7
100
AcDbLine
 10
109.452519
 20
-26.215683
 30
0.0
 11
109.56787
 21
-26.25877
 31
0.0
  0
LINE
  5
39D
100
AcDbEntity
  8
0
390
0
  6
Continuous
 62
     7
100
AcDbLine
 10
109.331155
 20
-26.179691
 30
0.0
 11
109.452519
 21
-26.215683
 31
0.0
  0
LINE
  5
39E
100
AcDbEntity
  8
0
390
0
  6
Continuous
 62
     7
100
AcDbLine
 10
109.203041
 20
-26.150498
 30
0.0
 11
109.331155
 21
-26.179691
 31
0.0
  0
LINE
  5
39F
100
AcDbEntity
  8
0
390
0
  6
Continuous
 62
     7
100
AcDbLine
 10
109.077918
 20
-26.131365
 30
0.0
 11
109.203041
 21
-26.150498
 31
0.0
  0
LINE
  5
3A0
100
AcDbEntity
  8
0
390
0
  6
Continuous
 62
     7
100
AcDbLine
 10
108.95181
 20
-26.123002
 30
0.0
 11
109.077918
 21
-26.131365
 31
0.0
  0
LINE
  5
3A1
100
AcDbEntity
  8
0
390
0
  6
Continuous
 62
     7
100
AcDbLine
 10
108.825665
 20
-26.125568
 30
0.0
 11
108.95181
 21
-26.123002
 31
0.0
  0
LINE
  5
3A2
100
AcDbEntity
  8
0
390
0
  6
Continuous
 62
     7
100
AcDbLine
 10
108.699731
 20
-26.139048
 30
0.0
 11
108.825665
 21
-26.125568
 31
0.0
  0
LINE
  5
3A3
100
AcDbEntity
  8
0
390
0
  6
Continuous
 62
     7
100
AcDbLine
 10
108.57424
 20
-26.163369
 30
0.0
 11
108.699731
 21
-26.139048
 31
0.0
  0
LINE
  5
3A4
100
AcDbEntity
  8
0
390
0
  6
Continuous
 62
     7
100
AcDbLine
 10
108.449379
 20
-26.198407
 30
0.0
 11
108.57424
 21
-26.163369
 31
0.0
  0
LINE
  5
3A5
100
AcDbEntity
  8
0
390
0
  6
Continuous
 62
     7
100
AcDbLine
 10
108.325284
 20
-26.244011
 30
0.0
 11
108.449379
 21
-26.198407
 31
0.0
  0
LINE
  5
3A6
100
AcDbEntity
  8
0
390
0
  6
Continuous
 62
     7
100
AcDbLine
 10
108.202033
 20
-26.300018
 30
0.0
 11
108.325284
 21
-26.244011
 31
0.0
  0
LINE
  5
3A7
100
AcDbEntity
  8
0
390
0
  6
Continuous
 62
     7
100
AcDbLine
 10
108.079652
 20
-26.366274
 30
0.0
 11
108.202033
 21
-26.300018
 31
0.0
  0
LINE
  5
3A8
100
AcDbEntity
  8
0
390
0
  6
Continuous
 62
     7
100
AcDbLine
 10
107.95712
 20
-26.443277
 30
0.0
 11
108.079652
 21
-26.366274
 31
0.0
  0
LINE
  5
3A9
100
AcDbEntity
  8
0
390
0
  6
Continuous
 62
     7
100
AcDbLine
 10
107.855084
 20
-26.519145
 30
0.0
 11
107.95712
 21
-26.443277
 31
0.0
  0
LINE
  5
3AA
100
AcDbEntity
  8
0
390
0
  6
Continuous
 62
     7
100
AcDbLine
 10
107.759612
 20
-26.605372
 30
0.0
 11
107.855084
 21
-26.519145
 31
0.0
  0
LINE
  5
3AB
100
AcDbEntity
  8
0
390
0
  6
Continuous
 62
     7
100
AcDbLine
 10
107.671784
 20
-26.701044
 30
0.0
 11
107.759612
 21
-26.605372
 31
0.0
  0
LINE
  5
3AC
100
AcDbEntity
  8
0
390
0
  6
Continuous
 62
     7
100
AcDbLine
 10
107.591704
 20
-26.805881
 30
0.0
 11
107.671784
 21
-26.701044
 31
0.0
  0
LINE
  5
3AD
100
AcDbEntity
  8
0
390
0
  6
Continuous
 62
     7
100
AcDbLine
 10
107.519391
 20
-26.919613
 30
0.0
 11
107.591704
 21
-26.805881
 31
0.0
  0
LINE
  5
3AE
100
AcDbEntity
  8
0
390
0
  6
Continuous
 62
     7
100
AcDbLine
 10
107.45479
 20
-27.042014
 30
0.0
 11
107.519391
 21
-26.919613
 31
0.0
  0
LINE
  5
3AF
100
AcDbEntity
  8
0
390
0
  6
Continuous
 62
     7
100
AcDbLine
 10
107.397796
 20
-27.172912
 30
0.0
 11
107.45479
 21
-27.042014
 31
0.0
  0
LINE
  5
3B0
100
AcDbEntity
  8
0
390
0
  6
Continuous
 62
     7
100
AcDbLine
 10
107.34828
 20
-27.312191
 30
0.0
 11
107.397796
 21
-27.172912
 31
0.0
  0
LINE
  5
3B1
100
AcDbEntity
  8
0
390
0
  6
Continuous
 62
     7
100
AcDbLine
 10
107.306106
 20
-27.459789
 30
0.0
 11
107.34828
 21
-27.312191
 31
0.0
  0
LINE
  5
3B2
100
AcDbEntity
  8
0
390
0
  6
Continuous
 62
     7
100
AcDbLine
 10
107.271138
 20
-27.615716
 30
0.0
 11
107.306106
 21
-27.459789
 31
0.0
  0
LINE
  5
3B3
100
AcDbEntity
  8
0
390
0
  6
Continuous
 62
     7
100
AcDbLine
 10
107.243891
 20
-27.776858
 30
0.0
 11
107.271138
 21
-27.615716
 31
0.0
  0
LINE
  5
3B4
100
AcDbEntity
  8
0
390
0
  6
Continuous
 62
     7
100
AcDbLine
 10
107.226532
 20
-27.93255
 30
0.0
 11
107.243891
 21
-27.776858
 31
0.0
  0
LINE
  5
3B5
100
AcDbEntity
  8
0
390
0
  6
Continuous
 62
     7
100
AcDbLine
 10
107.219167
 20
-28.082949
 30
0.0
 11
107.226532
 21
-27.93255
 31
0.0
  0
LINE
  5
3B6
100
AcDbEntity
  8
0
390
0
  6
Continuous
 62
     7
100
AcDbLine
 10
107.221948
 20
-28.22806
 30
0.0
 11
107.219167
 21
-28.082949
 31
0.0
  0
LINE
  5
3B7
100
AcDbEntity
  8
0
390
0
  6
Continuous
 62
     7
100
AcDbLine
 10
107.235043
 20
-28.36784
 30
0.0
 11
107.221948
 21
-28.22806
 31
0.0
  0
LINE
  5
3B8
100
AcDbEntity
  8
0
390
0
  6
Continuous
 62
     7
100
AcDbLine
 10
107.258626
 20
-28.502185
 30
0.0
 11
107.235043
 21
-28.36784
 31
0.0
  0
LINE
  5
3B9
100
AcDbEntity
  8
0
390
0
  6
Continuous
 62
     7
100
AcDbLine
 10
107.292852
 20
-28.630915
 30
0.0
 11
107.258626
 21
-28.502185
 31
0.0
  0
LINE
  5
3BA
100
AcDbEntity
  8
0
390
0
  6
Continuous
 62
     7
100
AcDbLine
 10
107.337828
 20
-28.753778
 30
0.0
 11
107.292852
 21
-28.630915
 31
0.0
  0
LINE
  5
3BB
100
AcDbEntity
  8
0
390
0
  6
Continuous
 62
     7
100
AcDbLine
 10
107.393585
 20
-28.870464
 30
0.0
 11
107.337828
 21
-28.753778
 31
0.0
  0
LINE
  5
3BC
100
AcDbEntity
  8
0
390
0
  6
Continuous
 62
     7
100
AcDbLine
 10
107.459443
 20
-28.979628
 30
0.0
 11
107.393585
 21
-28.870464
 31
0.0
  0
LINE
  5
3BD
100
AcDbEntity
  8
0
390
0
  6
Continuous
 62
     7
100
AcDbLine
 10
107.54384
 20
-29.097281
 30
0.0
 11
107.459443
 21
-28.979628
 31
0.0
  0
LINE
  5
3BE
100
AcDbEntity
  8
0
390
0
  6
Continuous
 62
     7
100
AcDbLine
 10
107.632114
 20
-29.204867
 30
0.0
 11
107.54384
 21
-29.097281
 31
0.0
  0
LINE
  5
3BF
100
AcDbEntity
  8
0
390
0
  6
Continuous
 62
     7
100
AcDbLine
 10
107.725066
 20
-29.303292
 30
0.0
 11
107.632114
 21
-29.204867
 31
0.0
  0
LINE
  5
3C0
100
AcDbEntity
  8
0
390
0
  6
Continuous
 62
     7
100
AcDbLine
 10
107.822731
 20
-29.392403
 30
0.0
 11
107.725066
 21
-29.303292
 31
0.0
  0
LINE
  5
3C1
100
AcDbEntity
  8
0
390
0
  6
Continuous
 62
     7
100
AcDbLine
 10
107.925097
 20
-29.472022
 30
0.0
 11
107.822731
 21
-29.392403
 31
0.0
  0
LINE
  5
3C2
100
AcDbEntity
  8
0
390
0
  6
Continuous
 62
     7
100
AcDbLine
 10
108.032096
 20
-29.541955
 30
0.0
 11
107.925097
 21
-29.472022
 31
0.0
  0
LINE
  5
3C3
100
AcDbEntity
  8
0
390
0
  6
Continuous
 62
     7
100
AcDbLine
 10
109.860094
 20
-29.349732
 30
0.0
 11
109.808647
 21
-29.396398
 31
0.0
  0
LINE
  5
3C4
100
AcDbEntity
  8
0
390
0
  6
Continuous
 62
     7
100
AcDbLine
 10
109.909339
 20
-29.299783
 30
0.0
 11
109.860094
 21
-29.349732
 31
0.0
  0
LINE
  5
3C5
100
AcDbEntity
  8
0
390
0
  6
Continuous
 62
     7
100
AcDbLine
 10
109.956372
 20
-29.246614
 30
0.0
 11
109.909339
 21
-29.299783
 31
0.0
  0
LINE
  5
3C6
100
AcDbEntity
  8
0
390
0
  6
Continuous
 62
     7
100
AcDbLine
 10
110.001191
 20
-29.190285
 30
0.0
 11
109.956372
 21
-29.246614
 31
0.0
  0
LINE
  5
3C7
100
AcDbEntity
  8
0
390
0
  6
Continuous
 62
     7
100
AcDbLine
 10
110.043808
 20
-29.13085
 30
0.0
 11
110.001191
 21
-29.190285
 31
0.0
  0
LINE
  5
3C8
100
AcDbEntity
  8
0
390
0
  6
Continuous
 62
     7
100
AcDbLine
 10
110.084241
 20
-29.068354
 30
0.0
 11
110.043808
 21
-29.13085
 31
0.0
  0
LINE
  5
3C9
100
AcDbEntity
  8
0
390
0
  6
Continuous
 62
     7
100
AcDbLine
 10
110.122516
 20
-29.002836
 30
0.0
 11
110.084241
 21
-29.068354
 31
0.0
  0
LINE
  5
3CA
100
AcDbEntity
  8
0
390
0
  6
Continuous
 62
     7
100
AcDbLine
 10
110.157658
 20
-28.936225
 30
0.0
 11
110.122516
 21
-29.002836
 31
0.0
  0
LINE
  5
3CB
100
AcDbEntity
  8
0
390
0
  6
Continuous
 62
     7
100
AcDbLine
 10
110.169064
 20
-28.914185
 30
0.0
 11
110.157658
 21
-28.936225
 31
0.0
  0
LINE
  5
3CC
100
AcDbEntity
  8
0
390
0
  6
Continuous
 62
     7
100
AcDbLine
 10
118.040286
 20
-27.873026
 30
0.0
 11
118.058478
 21
-28.045302
 31
0.0
  0
LINE
  5
3CD
100
AcDbEntity
  8
0
390
0
  6
Continuous
 62
     7
100
AcDbLine
 10
118.033598
 20
-27.708428
 30
0.0
 11
118.040286
 21
-27.873026
 31
0.0
  0
LINE
  5
3CE
100
AcDbEntity
  8
0
390
0
  6
Continuous
 62
     7
100
AcDbLine
 10
118.038242
 20
-27.55148
 30
0.0
 11
118.033598
 21
-27.708428
 31
0.0
  0
LINE
  5
3CF
100
AcDbEntity
  8
0
390
0
  6
Continuous
 62
     7
100
AcDbLine
 10
118.054039
 20
-27.402096
 30
0.0
 11
118.038242
 21
-27.55148
 31
0.0
  0
LINE
  5
3D0
100
AcDbEntity
  8
0
390
0
  6
Continuous
 62
     7
100
AcDbLine
 10
118.08082
 20
-27.260119
 30
0.0
 11
118.054039
 21
-27.402096
 31
0.0
  0
LINE
  5
3D1
100
AcDbEntity
  8
0
390
0
  6
Continuous
 62
     7
100
AcDbLine
 10
118.118451
 20
-27.125319
 30
0.0
 11
118.08082
 21
-27.260119
 31
0.0
  0
LINE
  5
3D2
100
AcDbEntity
  8
0
390
0
  6
Continuous
 62
     7
100
AcDbLine
 10
118.166863
 20
-26.997399
 30
0.0
 11
118.118451
 21
-27.125319
 31
0.0
  0
LINE
  5
3D3
100
AcDbEntity
  8
0
390
0
  6
Continuous
 62
     7
100
AcDbLine
 10
118.226073
 20
-26.876028
 30
0.0
 11
118.166863
 21
-26.997399
 31
0.0
  0
LINE
  5
3D4
100
AcDbEntity
  8
0
390
0
  6
Continuous
 62
     7
100
AcDbLine
 10
118.296535
 20
-26.760318
 30
0.0
 11
118.226073
 21
-26.876028
 31
0.0
  0
LINE
  5
3D5
100
AcDbEntity
  8
0
390
0
  6
Continuous
 62
     7
100
AcDbLine
 10
118.369848
 20
-26.659953
 30
0.0
 11
118.296535
 21
-26.760318
 31
0.0
  0
LINE
  5
3D6
100
AcDbEntity
  8
0
390
0
  6
Continuous
 62
     7
100
AcDbLine
 10
118.449064
 20
-26.567494
 30
0.0
 11
118.369848
 21
-26.659953
 31
0.0
  0
LINE
  5
3D7
100
AcDbEntity
  8
0
390
0
  6
Continuous
 62
     7
100
AcDbLine
 10
118.533796
 20
-26.483328
 30
0.0
 11
118.449064
 21
-26.567494
 31
0.0
  0
LINE
  5
3D8
100
AcDbEntity
  8
0
390
0
  6
Continuous
 62
     7
100
AcDbLine
 10
118.62416
 20
-26.407245
 30
0.0
 11
118.533796
 21
-26.483328
 31
0.0
  0
LINE
  5
3D9
100
AcDbEntity
  8
0
390
0
  6
Continuous
 62
     7
100
AcDbLine
 10
118.720327
 20
-26.339061
 30
0.0
 11
118.62416
 21
-26.407245
 31
0.0
  0
LINE
  5
3DA
100
AcDbEntity
  8
0
390
0
  6
Continuous
 62
     7
100
AcDbLine
 10
118.822511
 20
-26.278638
 30
0.0
 11
118.720327
 21
-26.339061
 31
0.0
  0
LINE
  5
3DB
100
AcDbEntity
  8
0
390
0
  6
Continuous
 62
     7
100
AcDbLine
 10
118.930945
 20
-26.225899
 30
0.0
 11
118.822511
 21
-26.278638
 31
0.0
  0
LINE
  5
3DC
100
AcDbEntity
  8
0
390
0
  6
Continuous
 62
     7
100
AcDbLine
 10
119.045858
 20
-26.180827
 30
0.0
 11
118.930945
 21
-26.225899
 31
0.0
  0
LINE
  5
3DD
100
AcDbEntity
  8
0
390
0
  6
Continuous
 62
     7
100
AcDbLine
 10
119.167456
 20
-26.143462
 30
0.0
 11
119.045858
 21
-26.180827
 31
0.0
  0
LINE
  5
3DE
100
AcDbEntity
  8
0
390
0
  6
Continuous
 62
     7
100
AcDbLine
 10
119.295825
 20
-26.113903
 30
0.0
 11
119.167456
 21
-26.143462
 31
0.0
  0
LINE
  5
3DF
100
AcDbEntity
  8
0
390
0
  6
Continuous
 62
     7
100
AcDbLine
 10
119.425919
 20
-26.093221
 30
0.0
 11
119.295825
 21
-26.113903
 31
0.0
  0
LINE
  5
3E0
100
AcDbEntity
  8
0
390
0
  6
Continuous
 62
     7
100
AcDbLine
 10
119.55266
 20
-26.082314
 30
0.0
 11
119.425919
 21
-26.093221
 31
0.0
  0
LINE
  5
3E1
100
AcDbEntity
  8
0
390
0
  6
Continuous
 62
     7
100
AcDbLine
 10
119.676089
 20
-26.081056
 30
0.0
 11
119.55266
 21
-26.082314
 31
0.0
  0
LINE
  5
3E2
100
AcDbEntity
  8
0
390
0
  6
Continuous
 62
     7
100
AcDbLine
 10
119.796383
 20
-26.089335
 30
0.0
 11
119.676089
 21
-26.081056
 31
0.0
  0
LINE
  5
3E3
100
AcDbEntity
  8
0
390
0
  6
Continuous
 62
     7
100
AcDbLine
 10
119.91376
 20
-26.10708
 30
0.0
 11
119.796383
 21
-26.089335
 31
0.0
  0
LINE
  5
3E4
100
AcDbEntity
  8
0
390
0
  6
Continuous
 62
     7
100
AcDbLine
 10
120.028466
 20
-26.134275
 30
0.0
 11
119.91376
 21
-26.10708
 31
0.0
  0
LINE
  5
3E5
100
AcDbEntity
  8
0
390
0
  6
Continuous
 62
     7
100
AcDbLine
 10
120.140751
 20
-26.170967
 30
0.0
 11
120.028466
 21
-26.134275
 31
0.0
  0
LINE
  5
3E6
100
AcDbEntity
  8
0
390
0
  6
Continuous
 62
     7
100
AcDbLine
 10
120.250842
 20
-26.217264
 30
0.0
 11
120.140751
 21
-26.170967
 31
0.0
  0
LINE
  5
3E7
100
AcDbEntity
  8
0
390
0
  6
Continuous
 62
     7
100
AcDbLine
 10
120.358925
 20
-26.273316
 30
0.0
 11
120.250842
 21
-26.217264
 31
0.0
  0
LINE
  5
3E8
100
AcDbEntity
  8
0
390
0
  6
Continuous
 62
     7
100
AcDbLine
 10
120.464497
 20
-26.33891
 30
0.0
 11
120.358925
 21
-26.273316
 31
0.0
  0
LINE
  5
3E9
100
AcDbEntity
  8
0
390
0
  6
Continuous
 62
     7
100
AcDbLine
 10
120.573173
 20
-26.419797
 30
0.0
 11
120.464497
 21
-26.33891
 31
0.0
  0
LINE
  5
3EA
100
AcDbEntity
  8
0
390
0
  6
Continuous
 62
     7
100
AcDbLine
 10
120.673538
 20
-26.510149
 30
0.0
 11
120.573173
 21
-26.419797
 31
0.0
  0
LINE
  5
3EB
100
AcDbEntity
  8
0
390
0
  6
Continuous
 62
     7
100
AcDbLine
 10
120.766343
 20
-26.610617
 30
0.0
 11
120.673538
 21
-26.510149
 31
0.0
  0
LINE
  5
3EC
100
AcDbEntity
  8
0
390
0
  6
Continuous
 62
     7
100
AcDbLine
 10
120.851731
 20
-26.721503
 30
0.0
 11
120.766343
 21
-26.610617
 31
0.0
  0
LINE
  5
3ED
100
AcDbEntity
  8
0
390
0
  6
Continuous
 62
     7
100
AcDbLine
 10
120.929747
 20
-26.843108
 30
0.0
 11
120.851731
 21
-26.721503
 31
0.0
  0
LINE
  5
3EE
100
AcDbEntity
  8
0
390
0
  6
Continuous
 62
     7
100
AcDbLine
 10
121.000355
 20
-26.975696
 30
0.0
 11
120.929747
 21
-26.843108
 31
0.0
  0
LINE
  5
3EF
100
AcDbEntity
  8
0
390
0
  6
Continuous
 62
     7
100
AcDbLine
 10
121.063455
 20
-27.119475
 30
0.0
 11
121.000355
 21
-26.975696
 31
0.0
  0
LINE
  5
3F0
100
AcDbEntity
  8
0
390
0
  6
Continuous
 62
     7
100
AcDbLine
 10
121.118914
 20
-27.274593
 30
0.0
 11
121.063455
 21
-27.119475
 31
0.0
  0
LINE
  5
3F1
100
AcDbEntity
  8
0
390
0
  6
Continuous
 62
     7
100
AcDbLine
 10
121.166584
 20
-27.441138
 30
0.0
 11
121.118914
 21
-27.274593
 31
0.0
  0
LINE
  5
3F2
100
AcDbEntity
  8
0
390
0
  6
Continuous
 62
     7
100
AcDbLine
 10
121.206309
 20
-27.619102
 30
0.0
 11
121.166584
 21
-27.441138
 31
0.0
  0
LINE
  5
3F3
100
AcDbEntity
  8
0
390
0
  6
Continuous
 62
     7
100
AcDbLine
 10
121.236859
 20
-27.802708
 30
0.0
 11
121.206309
 21
-27.619102
 31
0.0
  0
LINE
  5
3F4
100
AcDbEntity
  8
0
390
0
  6
Continuous
 62
     7
100
AcDbLine
 10
121.255685
 20
-27.978391
 30
0.0
 11
121.236859
 21
-27.802708
 31
0.0
  0
LINE
  5
3F5
100
AcDbEntity
  8
0
390
0
  6
Continuous
 62
     7
100
AcDbLine
 10
121.262912
 20
-28.145995
 30
0.0
 11
121.255685
 21
-27.978391
 31
0.0
  0
LINE
  5
3F6
100
AcDbEntity
  8
0
390
0
  6
Continuous
 62
     7
100
AcDbLine
 10
121.258714
 20
-28.305536
 30
0.0
 11
121.262912
 21
-28.145995
 31
0.0
  0
LINE
  5
3F7
100
AcDbEntity
  8
0
390
0
  6
Continuous
 62
     7
100
AcDbLine
 10
121.243275
 20
-28.457086
 30
0.0
 11
121.258714
 21
-28.305536
 31
0.0
  0
LINE
  5
3F8
100
AcDbEntity
  8
0
390
0
  6
Continuous
 62
     7
100
AcDbLine
 10
121.216777
 20
-28.600789
 30
0.0
 11
121.243275
 21
-28.457086
 31
0.0
  0
LINE
  5
3F9
100
AcDbEntity
  8
0
390
0
  6
Continuous
 62
     7
100
AcDbLine
 10
121.179371
 20
-28.736867
 30
0.0
 11
121.216777
 21
-28.600789
 31
0.0
  0
LINE
  5
3FA
100
AcDbEntity
  8
0
390
0
  6
Continuous
 62
     7
100
AcDbLine
 10
121.131145
 20
-28.865616
 30
0.0
 11
121.179371
 21
-28.736867
 31
0.0
  0
LINE
  5
3FB
100
AcDbEntity
  8
0
390
0
  6
Continuous
 62
     7
100
AcDbLine
 10
121.072101
 20
-28.987379
 30
0.0
 11
121.131145
 21
-28.865616
 31
0.0
  0
LINE
  5
3FC
100
AcDbEntity
  8
0
390
0
  6
Continuous
 62
     7
100
AcDbLine
 10
121.00176
 20
-29.103123
 30
0.0
 11
121.072101
 21
-28.987379
 31
0.0
  0
LINE
  5
3FD
100
AcDbEntity
  8
0
390
0
  6
Continuous
 62
     7
100
AcDbLine
 10
120.928486
 20
-29.203432
 30
0.0
 11
121.00176
 21
-29.103123
 31
0.0
  0
LINE
  5
3FE
100
AcDbEntity
  8
0
390
0
  6
Continuous
 62
     7
100
AcDbLine
 10
120.849271
 20
-29.295891
 30
0.0
 11
120.928486
 21
-29.203432
 31
0.0
  0
LINE
  5
3FF
100
AcDbEntity
  8
0
390
0
  6
Continuous
 62
     7
100
AcDbLine
 10
120.764538
 20
-29.380057
 30
0.0
 11
120.849271
 21
-29.295891
 31
0.0
  0
LINE
  5
400
100
AcDbEntity
  8
0
390
0
  6
Continuous
 62
     7
100
AcDbLine
 10
120.674175
 20
-29.456139
 30
0.0
 11
120.764538
 21
-29.380057
 31
0.0
  0
LINE
  5
401
100
AcDbEntity
  8
0
390
0
  6
Continuous
 62
     7
100
AcDbLine
 10
120.578008
 20
-29.524323
 30
0.0
 11
120.674175
 21
-29.456139
 31
0.0
  0
LINE
  5
402
100
AcDbEntity
  8
0
390
0
  6
Continuous
 62
     7
100
AcDbLine
 10
118.532009
 20
-29.251465
 30
0.0
 11
118.624954
 21
-29.352772
 31
0.0
  0
LINE
  5
403
100
AcDbEntity
  8
0
390
0
  6
Continuous
 62
     7
100
AcDbLine
 10
118.446351
 20
-29.13931
 30
0.0
 11
118.532009
 21
-29.251465
 31
0.0
  0
LINE
  5
404
100
AcDbEntity
  8
0
390
0
  6
Continuous
 62
     7
100
AcDbLine
 10
118.36795
 20
-29.015999
 30
0.0
 11
118.446351
 21
-29.13931
 31
0.0
  0
LINE
  5
405
100
AcDbEntity
  8
0
390
0
  6
Continuous
 62
     7
100
AcDbLine
 10
118.296865
 20
-28.88127
 30
0.0
 11
118.36795
 21
-29.015999
 31
0.0
  0
LINE
  5
406
100
AcDbEntity
  8
0
390
0
  6
Continuous
 62
     7
100
AcDbLine
 10
118.233207
 20
-28.73492
 30
0.0
 11
118.296865
 21
-28.88127
 31
0.0
  0
LINE
  5
407
100
AcDbEntity
  8
0
390
0
  6
Continuous
 62
     7
100
AcDbLine
 10
118.177123
 20
-28.576813
 30
0.0
 11
118.233207
 21
-28.73492
 31
0.0
  0
LINE
  5
408
100
AcDbEntity
  8
0
390
0
  6
Continuous
 62
     7
100
AcDbLine
 10
118.128767
 20
-28.406871
 30
0.0
 11
118.177123
 21
-28.576813
 31
0.0
  0
LINE
  5
409
100
AcDbEntity
  8
0
390
0
  6
Continuous
 62
     7
100
AcDbLine
 10
118.088314
 20
-28.22519
 30
0.0
 11
118.128767
 21
-28.406871
 31
0.0
  0
LINE
  5
40A
100
AcDbEntity
  8
0
390
0
  6
Continuous
 62
     7
100
AcDbLine
 10
118.058478
 20
-28.045302
 30
0.0
 11
118.088314
 21
-28.22519
 31
0.0
  0
LINE
  5
40B
100
AcDbEntity
  8
0
390
0
  6
Continuous
 62
     7
100
AcDbLine
 10
120.687937
 20
-29.417009
 30
0.0
 11
120.606268
 21
-29.48296
 31
0.0
  0
LINE
  5
40C
100
AcDbEntity
  8
0
390
0
  6
Continuous
 62
     7
100
AcDbLine
 10
120.763465
 20
-29.344467
 30
0.0
 11
120.687937
 21
-29.417009
 31
0.0
  0
LINE
  5
40D
100
AcDbEntity
  8
0
390
0
  6
Continuous
 62
     7
100
AcDbLine
 10
120.832646
 20
-29.26553
 30
0.0
 11
120.763465
 21
-29.344467
 31
0.0
  0
LINE
  5
40E
100
AcDbEntity
  8
0
390
0
  6
Continuous
 62
     7
100
AcDbLine
 10
120.89579
 20
-29.179817
 30
0.0
 11
120.832646
 21
-29.26553
 31
0.0
  0
LINE
  5
40F
100
AcDbEntity
  8
0
390
0
  6
Continuous
 62
     7
100
AcDbLine
 10
120.969016
 20
-29.058326
 30
0.0
 11
120.89579
 21
-29.179817
 31
0.0
  0
LINE
  5
410
100
AcDbEntity
  8
0
390
0
  6
Continuous
 62
     7
100
AcDbLine
 10
121.0305
 20
-28.928339
 30
0.0
 11
120.969016
 21
-29.058326
 31
0.0
  0
LINE
  5
411
100
AcDbEntity
  8
0
390
0
  6
Continuous
 62
     7
100
AcDbLine
 10
121.079831
 20
-28.790902
 30
0.0
 11
121.0305
 21
-28.928339
 31
0.0
  0
LINE
  5
412
100
AcDbEntity
  8
0
390
0
  6
Continuous
 62
     7
100
AcDbLine
 10
121.117096
 20
-28.64639
 30
0.0
 11
121.079831
 21
-28.790902
 31
0.0
  0
LINE
  5
413
100
AcDbEntity
  8
0
390
0
  6
Continuous
 62
     7
100
AcDbLine
 10
121.142467
 20
-28.495083
 30
0.0
 11
121.117096
 21
-28.64639
 31
0.0
  0
LINE
  5
414
100
AcDbEntity
  8
0
390
0
  6
Continuous
 62
     7
100
AcDbLine
 10
121.15616
 20
-28.337163
 30
0.0
 11
121.142467
 21
-28.495083
 31
0.0
  0
LINE
  5
415
100
AcDbEntity
  8
0
390
0
  6
Continuous
 62
     7
100
AcDbLine
 10
121.1584
 20
-28.172718
 30
0.0
 11
121.15616
 21
-28.337163
 31
0.0
  0
LINE
  5
416
100
AcDbEntity
  8
0
390
0
  6
Continuous
 62
     7
100
AcDbLine
 10
121.149391
 20
-28.001762
 30
0.0
 11
121.1584
 21
-28.172718
 31
0.0
  0
LINE
  5
417
100
AcDbEntity
  8
0
390
0
  6
Continuous
 62
     7
100
AcDbLine
 10
121.129309
 20
-27.824264
 30
0.0
 11
121.149391
 21
-28.001762
 31
0.0
  0
LINE
  5
418
100
AcDbEntity
  8
0
390
0
  6
Continuous
 62
     7
100
AcDbLine
 10
121.098275
 20
-27.640027
 30
0.0
 11
121.129309
 21
-27.824264
 31
0.0
  0
LINE
  5
419
100
AcDbEntity
  8
0
390
0
  6
Continuous
 62
     7
100
AcDbLine
 10
121.05872
 20
-27.461147
 30
0.0
 11
121.098275
 21
-27.640027
 31
0.0
  0
LINE
  5
41A
100
AcDbEntity
  8
0
390
0
  6
Continuous
 62
     7
100
AcDbLine
 10
121.011426
 20
-27.292167
 30
0.0
 11
121.05872
 21
-27.461147
 31
0.0
  0
LINE
  5
41B
100
AcDbEntity
  8
0
390
0
  6
Continuous
 62
     7
100
AcDbLine
 10
120.956228
 20
-27.133037
 30
0.0
 11
121.011426
 21
-27.292167
 31
0.0
  0
LINE
  5
41C
100
AcDbEntity
  8
0
390
0
  6
Continuous
 62
     7
100
AcDbLine
 10
120.892956
 20
-26.983806
 30
0.0
 11
120.956228
 21
-27.133037
 31
0.0
  0
LINE
  5
41D
100
AcDbEntity
  8
0
390
0
  6
Continuous
 62
     7
100
AcDbLine
 10
120.821436
 20
-26.844578
 30
0.0
 11
120.892956
 21
-26.983806
 31
0.0
  0
LINE
  5
41E
100
AcDbEntity
  8
0
390
0
  6
Continuous
 62
     7
100
AcDbLine
 10
120.741508
 20
-26.715529
 30
0.0
 11
120.821436
 21
-26.844578
 31
0.0
  0
LINE
  5
41F
100
AcDbEntity
  8
0
390
0
  6
Continuous
 62
     7
100
AcDbLine
 10
120.653062
 20
-26.596912
 30
0.0
 11
120.741508
 21
-26.715529
 31
0.0
  0
LINE
  5
420
100
AcDbEntity
  8
0
390
0
  6
Continuous
 62
     7
100
AcDbLine
 10
120.556067
 20
-26.48905
 30
0.0
 11
120.653062
 21
-26.596912
 31
0.0
  0
LINE
  5
421
100
AcDbEntity
  8
0
390
0
  6
Continuous
 62
     7
100
AcDbLine
 10
120.450604
 20
-26.392307
 30
0.0
 11
120.556067
 21
-26.48905
 31
0.0
  0
LINE
  5
422
100
AcDbEntity
  8
0
390
0
  6
Continuous
 62
     7
100
AcDbLine
 10
120.337389
 20
-26.307418
 30
0.0
 11
120.450604
 21
-26.392307
 31
0.0
  0
LINE
  5
423
100
AcDbEntity
  8
0
390
0
  6
Continuous
 62
     7
100
AcDbLine
 10
120.246801
 20
-26.251641
 30
0.0
 11
120.337389
 21
-26.307418
 31
0.0
  0
LINE
  5
424
100
AcDbEntity
  8
0
390
0
  6
Continuous
 62
     7
100
AcDbLine
 10
120.153087
 20
-26.204368
 30
0.0
 11
120.246801
 21
-26.251641
 31
0.0
  0
LINE
  5
425
100
AcDbEntity
  8
0
390
0
  6
Continuous
 62
     7
100
AcDbLine
 10
120.055886
 20
-26.165401
 30
0.0
 11
120.153087
 21
-26.204368
 31
0.0
  0
LINE
  5
426
100
AcDbEntity
  8
0
390
0
  6
Continuous
 62
     7
100
AcDbLine
 10
119.955457
 20
-26.134845
 30
0.0
 11
120.055886
 21
-26.165401
 31
0.0
  0
LINE
  5
427
100
AcDbEntity
  8
0
390
0
  6
Continuous
 62
     7
100
AcDbLine
 10
119.852077
 20
-26.112733
 30
0.0
 11
119.955457
 21
-26.134845
 31
0.0
  0
LINE
  5
428
100
AcDbEntity
  8
0
390
0
  6
Continuous
 62
     7
100
AcDbLine
 10
119.746002
 20
-26.099031
 30
0.0
 11
119.852077
 21
-26.112733
 31
0.0
  0
LINE
  5
429
100
AcDbEntity
  8
0
390
0
  6
Continuous
 62
     7
100
AcDbLine
 10
119.637448
 20
-26.093644
 30
0.0
 11
119.746002
 21
-26.099031
 31
0.0
  0
LINE
  5
42A
100
AcDbEntity
  8
0
390
0
  6
Continuous
 62
     7
100
AcDbLine
 10
119.52658
 20
-26.096442
 30
0.0
 11
119.637448
 21
-26.093644
 31
0.0
  0
LINE
  5
42B
100
AcDbEntity
  8
0
390
0
  6
Continuous
 62
     7
100
AcDbLine
 10
119.413501
 20
-26.107275
 30
0.0
 11
119.52658
 21
-26.096442
 31
0.0
  0
LINE
  5
42C
100
AcDbEntity
  8
0
390
0
  6
Continuous
 62
     7
100
AcDbLine
 10
119.298176
 20
-26.126007
 30
0.0
 11
119.413501
 21
-26.107275
 31
0.0
  0
LINE
  5
42D
100
AcDbEntity
  8
0
390
0
  6
Continuous
 62
     7
100
AcDbLine
 10
119.184231
 20
-26.151841
 30
0.0
 11
119.298176
 21
-26.126007
 31
0.0
  0
LINE
  5
42E
100
AcDbEntity
  8
0
390
0
  6
Continuous
 62
     7
100
AcDbLine
 10
119.075328
 20
-26.184157
 30
0.0
 11
119.184231
 21
-26.151841
 31
0.0
  0
LINE
  5
42F
100
AcDbEntity
  8
0
390
0
  6
Continuous
 62
     7
100
AcDbLine
 10
118.971485
 20
-26.223096
 30
0.0
 11
119.075328
 21
-26.184157
 31
0.0
  0
LINE
  5
430
100
AcDbEntity
  8
0
390
0
  6
Continuous
 62
     7
100
AcDbLine
 10
118.872854
 20
-26.268756
 30
0.0
 11
118.971485
 21
-26.223096
 31
0.0
  0
LINE
  5
431
100
AcDbEntity
  8
0
390
0
  6
Continuous
 62
     7
100
AcDbLine
 10
118.779635
 20
-26.321197
 30
0.0
 11
118.872854
 21
-26.268756
 31
0.0
  0
LINE
  5
432
100
AcDbEntity
  8
0
390
0
  6
Continuous
 62
     7
100
AcDbLine
 10
118.692066
 20
-26.380425
 30
0.0
 11
118.779635
 21
-26.321197
 31
0.0
  0
LINE
  5
433
100
AcDbEntity
  8
0
390
0
  6
Continuous
 62
     7
100
AcDbLine
 10
118.610396
 20
-26.446377
 30
0.0
 11
118.692066
 21
-26.380425
 31
0.0
  0
LINE
  5
434
100
AcDbEntity
  8
0
390
0
  6
Continuous
 62
     7
100
AcDbLine
 10
118.534869
 20
-26.518919
 30
0.0
 11
118.610396
 21
-26.446377
 31
0.0
  0
LINE
  5
435
100
AcDbEntity
  8
0
390
0
  6
Continuous
 62
     7
100
AcDbLine
 10
118.465688
 20
-26.597856
 30
0.0
 11
118.534869
 21
-26.518919
 31
0.0
  0
LINE
  5
436
100
AcDbEntity
  8
0
390
0
  6
Continuous
 62
     7
100
AcDbLine
 10
118.40259
 20
-26.683506
 30
0.0
 11
118.465688
 21
-26.597856
 31
0.0
  0
LINE
  5
437
100
AcDbEntity
  8
0
390
0
  6
Continuous
 62
     7
100
AcDbLine
 10
118.329418
 20
-26.804624
 30
0.0
 11
118.40259
 21
-26.683506
 31
0.0
  0
LINE
  5
438
100
AcDbEntity
  8
0
390
0
  6
Continuous
 62
     7
100
AcDbLine
 10
118.267875
 20
-26.933829
 30
0.0
 11
118.329418
 21
-26.804624
 31
0.0
  0
LINE
  5
439
100
AcDbEntity
  8
0
390
0
  6
Continuous
 62
     7
100
AcDbLine
 10
118.218348
 20
-27.070172
 30
0.0
 11
118.267875
 21
-26.933829
 31
0.0
  0
LINE
  5
43A
100
AcDbEntity
  8
0
390
0
  6
Continuous
 62
     7
100
AcDbLine
 10
118.180777
 20
-27.213284
 30
0.0
 11
118.218348
 21
-27.070172
 31
0.0
  0
LINE
  5
43B
100
AcDbEntity
  8
0
390
0
  6
Continuous
 62
     7
100
AcDbLine
 10
118.155012
 20
-27.362877
 30
0.0
 11
118.180777
 21
-27.213284
 31
0.0
  0
LINE
  5
43C
100
AcDbEntity
  8
0
390
0
  6
Continuous
 62
     7
100
AcDbLine
 10
118.140856
 20
-27.518759
 30
0.0
 11
118.155012
 21
-27.362877
 31
0.0
  0
LINE
  5
43D
100
AcDbEntity
  8
0
390
0
  6
Continuous
 62
     7
100
AcDbLine
 10
118.138095
 20
-27.680826
 30
0.0
 11
118.140856
 21
-27.518759
 31
0.0
  0
LINE
  5
43E
100
AcDbEntity
  8
0
390
0
  6
Continuous
 62
     7
100
AcDbLine
 10
118.146529
 20
-27.849045
 30
0.0
 11
118.138095
 21
-27.680826
 31
0.0
  0
LINE
  5
43F
100
AcDbEntity
  8
0
390
0
  6
Continuous
 62
     7
100
AcDbLine
 10
118.165981
 20
-28.023438
 30
0.0
 11
118.146529
 21
-27.849045
 31
0.0
  0
LINE
  5
440
100
AcDbEntity
  8
0
390
0
  6
Continuous
 62
     7
100
AcDbLine
 10
118.196317
 20
-28.204109
 30
0.0
 11
118.165981
 21
-28.023438
 31
0.0
  0
LINE
  5
441
100
AcDbEntity
  8
0
390
0
  6
Continuous
 62
     7
100
AcDbLine
 10
118.236558
 20
-28.386555
 30
0.0
 11
118.196317
 21
-28.204109
 31
0.0
  0
LINE
  5
442
100
AcDbEntity
  8
0
390
0
  6
Continuous
 62
     7
100
AcDbLine
 10
118.28443
 20
-28.558652
 30
0.0
 11
118.236558
 21
-28.386555
 31
0.0
  0
LINE
  5
443
100
AcDbEntity
  8
0
390
0
  6
Continuous
 62
     7
100
AcDbLine
 10
118.340118
 20
-28.720534
 30
0.0
 11
118.28443
 21
-28.558652
 31
0.0
  0
LINE
  5
444
100
AcDbEntity
  8
0
390
0
  6
Continuous
 62
     7
100
AcDbLine
 10
118.403797
 20
-28.872167
 30
0.0
 11
118.340118
 21
-28.720534
 31
0.0
  0
LINE
  5
445
100
AcDbEntity
  8
0
390
0
  6
Continuous
 62
     7
100
AcDbLine
 10
118.475651
 20
-29.013459
 30
0.0
 11
118.403797
 21
-28.872167
 31
0.0
  0
LINE
  5
446
100
AcDbEntity
  8
0
390
0
  6
Continuous
 62
     7
100
AcDbLine
 10
118.555856
 20
-29.144244
 30
0.0
 11
118.475651
 21
-29.013459
 31
0.0
  0
LINE
  5
447
100
AcDbEntity
  8
0
390
0
  6
Continuous
 62
     7
100
AcDbLine
 10
118.644544
 20
-29.264275
 30
0.0
 11
118.555856
 21
-29.144244
 31
0.0
  0
LINE
  5
448
100
AcDbEntity
  8
0
390
0
  6
Continuous
 62
     7
100
AcDbLine
 10
118.74177
 20
-29.373224
 30
0.0
 11
118.644544
 21
-29.264275
 31
0.0
  0
LINE
  5
449
100
AcDbEntity
  8
0
390
0
  6
Continuous
 62
     7
100
AcDbLine
 10
128.923884
 20
-24.002646
 30
0.0
 11
129.000079
 21
-23.982551
 31
0.0
  0
LINE
  5
44A
100
AcDbEntity
  8
0
390
0
  6
Continuous
 62
     7
100
AcDbLine
 10
128.850357
 20
-24.019088
 30
0.0
 11
128.923884
 21
-24.002646
 31
0.0
  0
LINE
  5
44B
100
AcDbEntity
  8
0
390
0
  6
Continuous
 62
     7
100
AcDbLine
 10
128.779528
 20
-24.031922
 30
0.0
 11
128.850357
 21
-24.019088
 31
0.0
  0
LINE
  5
44C
100
AcDbEntity
  8
0
390
0
  6
Continuous
 62
     7
100
AcDbLine
 10
128.711424
 20
-24.041203
 30
0.0
 11
128.779528
 21
-24.031922
 31
0.0
  0
LINE
  5
44D
100
AcDbEntity
  8
0
390
0
  6
Continuous
 62
     7
100
AcDbLine
 10
128.646063
 20
-24.046994
 30
0.0
 11
128.711424
 21
-24.041203
 31
0.0
  0
LINE
  5
44E
100
AcDbEntity
  8
0
390
0
  6
Continuous
 62
     7
100
AcDbLine
 10
128.583451
 20
-24.04937
 30
0.0
 11
128.646063
 21
-24.046994
 31
0.0
  0
LINE
  5
44F
100
AcDbEntity
  8
0
390
0
  6
Continuous
 62
     7
100
AcDbLine
 10
128.523578
 20
-24.048412
 30
0.0
 11
128.583451
 21
-24.04937
 31
0.0
  0
LINE
  5
450
100
AcDbEntity
  8
0
390
0
  6
Continuous
 62
     7
100
AcDbLine
 10
128.466416
 20
-24.044207
 30
0.0
 11
128.523578
 21
-24.048412
 31
0.0
  0
LINE
  5
451
100
AcDbEntity
  8
0
390
0
  6
Continuous
 62
     7
100
AcDbLine
 10
128.411814
 20
-24.03683
 30
0.0
 11
128.466416
 21
-24.044207
 31
0.0
  0
LINE
  5
452
100
AcDbEntity
  8
0
390
0
  6
Continuous
 62
     7
100
AcDbLine
 10
128.354754
 20
-24.025433
 30
0.0
 11
128.411814
 21
-24.03683
 31
0.0
  0
LINE
  5
453
100
AcDbEntity
  8
0
390
0
  6
Continuous
 62
     7
100
AcDbLine
 10
128.301827
 20
-24.011534
 30
0.0
 11
128.354754
 21
-24.025433
 31
0.0
  0
LINE
  5
454
100
AcDbEntity
  8
0
390
0
  6
Continuous
 62
     7
100
AcDbLine
 10
128.253661
 20
-23.995433
 30
0.0
 11
128.301827
 21
-24.011534
 31
0.0
  0
LINE
  5
455
100
AcDbEntity
  8
0
390
0
  6
Continuous
 62
     7
100
AcDbLine
 10
128.210175
 20
-23.977315
 30
0.0
 11
128.253661
 21
-23.995433
 31
0.0
  0
LINE
  5
456
100
AcDbEntity
  8
0
390
0
  6
Continuous
 62
     7
100
AcDbLine
 10
128.171224
 20
-23.957355
 30
0.0
 11
128.210175
 21
-23.977315
 31
0.0
  0
LINE
  5
457
100
AcDbEntity
  8
0
390
0
  6
Continuous
 62
     7
100
AcDbLine
 10
128.136576
 20
-23.935698
 30
0.0
 11
128.171224
 21
-23.957355
 31
0.0
  0
LINE
  5
458
100
AcDbEntity
  8
0
390
0
  6
Continuous
 62
     7
100
AcDbLine
 10
128.105924
 20
-23.912417
 30
0.0
 11
128.136576
 21
-23.935698
 31
0.0
  0
LINE
  5
459
100
AcDbEntity
  8
0
390
0
  6
Continuous
 62
     7
100
AcDbLine
 10
128.078902
 20
-23.887482
 30
0.0
 11
128.105924
 21
-23.912417
 31
0.0
  0
LINE
  5
45A
100
AcDbEntity
  8
0
390
0
  6
Continuous
 62
     7
100
AcDbLine
 10
128.055131
 20
-23.860735
 30
0.0
 11
128.078902
 21
-23.887482
 31
0.0
  0
LINE
  5
45B
100
AcDbEntity
  8
0
390
0
  6
Continuous
 62
     7
100
AcDbLine
 10
128.033779
 20
-23.831211
 30
0.0
 11
128.055131
 21
-23.860735
 31
0.0
  0
LINE
  5
45C
100
AcDbEntity
  8
0
390
0
  6
Continuous
 62
     7
100
AcDbLine
 10
128.006503
 20
-23.785438
 30
0.0
 11
128.033779
 21
-23.831211
 31
0.0
  0
LINE
  5
45D
100
AcDbEntity
  8
0
390
0
  6
Continuous
 62
     7
100
AcDbLine
 10
127.982968
 20
-23.737777
 30
0.0
 11
128.006503
 21
-23.785438
 31
0.0
  0
LINE
  5
45E
100
AcDbEntity
  8
0
390
0
  6
Continuous
 62
     7
100
AcDbLine
 10
127.963505
 20
-23.688844
 30
0.0
 11
127.982968
 21
-23.737777
 31
0.0
  0
LINE
  5
45F
100
AcDbEntity
  8
0
390
0
  6
Continuous
 62
     7
100
AcDbLine
 10
127.948016
 20
-23.638431
 30
0.0
 11
127.963505
 21
-23.688844
 31
0.0
  0
LINE
  5
460
100
AcDbEntity
  8
0
390
0
  6
Continuous
 62
     7
100
AcDbLine
 10
127.936458
 20
-23.586313
 30
0.0
 11
127.948016
 21
-23.638431
 31
0.0
  0
LINE
  5
461
100
AcDbEntity
  8
0
390
0
  6
Continuous
 62
     7
100
AcDbLine
 10
127.928839
 20
-23.532269
 30
0.0
 11
127.936458
 21
-23.586313
 31
0.0
  0
LINE
  5
462
100
AcDbEntity
  8
0
390
0
  6
Continuous
 62
     7
100
AcDbLine
 10
127.92522
 20
-23.476104
 30
0.0
 11
127.928839
 21
-23.532269
 31
0.0
  0
LINE
  5
463
100
AcDbEntity
  8
0
390
0
  6
Continuous
 62
     7
100
AcDbLine
 10
127.925694
 20
-23.417659
 30
0.0
 11
127.92522
 21
-23.476104
 31
0.0
  0
LINE
  5
464
100
AcDbEntity
  8
0
390
0
  6
Continuous
 62
     7
100
AcDbLine
 10
127.930382
 20
-23.35682
 30
0.0
 11
127.925694
 21
-23.417659
 31
0.0
  0
LINE
  5
465
100
AcDbEntity
  8
0
390
0
  6
Continuous
 62
     7
100
AcDbLine
 10
127.939234
 20
-23.294732
 30
0.0
 11
127.930382
 21
-23.35682
 31
0.0
  0
LINE
  5
466
100
AcDbEntity
  8
0
390
0
  6
Continuous
 62
     7
100
AcDbLine
 10
127.962627
 20
-23.189381
 30
0.0
 11
127.939234
 21
-23.294732
 31
0.0
  0
LINE
  5
467
100
AcDbEntity
  8
0
390
0
  6
Continuous
 62
     7
100
AcDbLine
 10
127.997003
 20
-23.087789
 30
0.0
 11
127.962627
 21
-23.189381
 31
0.0
  0
LINE
  5
468
100
AcDbEntity
  8
0
390
0
  6
Continuous
 62
     7
100
AcDbLine
 10
128.043204
 20
-22.987179
 30
0.0
 11
127.997003
 21
-23.087789
 31
0.0
  0
LINE
  5
469
100
AcDbEntity
  8
0
390
0
  6
Continuous
 62
     7
100
AcDbLine
 10
128.101619
 20
-22.88729
 30
0.0
 11
128.043204
 21
-22.987179
 31
0.0
  0
LINE
  5
46A
100
AcDbEntity
  8
0
390
0
  6
Continuous
 62
     7
100
AcDbLine
 10
128.172639
 20
-22.788024
 30
0.0
 11
128.101619
 21
-22.88729
 31
0.0
  0
LINE
  5
46B
100
AcDbEntity
  8
0
390
0
  6
Continuous
 62
     7
100
AcDbLine
 10
128.256602
 20
-22.689417
 30
0.0
 11
128.172639
 21
-22.788024
 31
0.0
  0
LINE
  5
46C
100
AcDbEntity
  8
0
390
0
  6
Continuous
 62
     7
100
AcDbLine
 10
128.353764
 20
-22.591591
 30
0.0
 11
128.256602
 21
-22.689417
 31
0.0
  0
LINE
  5
46D
100
AcDbEntity
  8
0
390
0
  6
Continuous
 62
     7
100
AcDbLine
 10
128.464304
 20
-22.494714
 30
0.0
 11
128.353764
 21
-22.591591
 31
0.0
  0
LINE
  5
46E
100
AcDbEntity
  8
0
390
0
  6
Continuous
 62
     7
100
AcDbLine
 10
128.58833
 20
-22.398965
 30
0.0
 11
128.464304
 21
-22.494714
 31
0.0
  0
LINE
  5
46F
100
AcDbEntity
  8
0
390
0
  6
Continuous
 62
     7
100
AcDbLine
 10
128.725813
 20
-22.304573
 30
0.0
 11
128.58833
 21
-22.398965
 31
0.0
  0
LINE
  5
470
100
AcDbEntity
  8
0
390
0
  6
Continuous
 62
     7
100
AcDbLine
 10
128.867962
 20
-22.217368
 30
0.0
 11
128.725813
 21
-22.304573
 31
0.0
  0
LINE
  5
471
100
AcDbEntity
  8
0
390
0
  6
Continuous
 62
     7
100
AcDbLine
 10
129.005879
 20
-22.143007
 30
0.0
 11
128.867962
 21
-22.217368
 31
0.0
  0
LINE
  5
472
100
AcDbEntity
  8
0
390
0
  6
Continuous
 62
     7
100
AcDbLine
 10
129.13934
 20
-22.081426
 30
0.0
 11
129.005879
 21
-22.143007
 31
0.0
  0
LINE
  5
473
100
AcDbEntity
  8
0
390
0
  6
Continuous
 62
     7
100
AcDbLine
 10
129.268227
 20
-22.032451
 30
0.0
 11
129.13934
 21
-22.081426
 31
0.0
  0
LINE
  5
474
100
AcDbEntity
  8
0
390
0
  6
Continuous
 62
     7
100
AcDbLine
 10
129.392459
 20
-21.995853
 30
0.0
 11
129.268227
 21
-22.032451
 31
0.0
  0
LINE
  5
475
100
AcDbEntity
  8
0
390
0
  6
Continuous
 62
     7
100
AcDbLine
 10
129.512029
 20
-21.971346
 30
0.0
 11
129.392459
 21
-21.995853
 31
0.0
  0
LINE
  5
476
100
AcDbEntity
  8
0
390
0
  6
Continuous
 62
     7
100
AcDbLine
 10
129.627042
 20
-21.958608
 30
0.0
 11
129.512029
 21
-21.971346
 31
0.0
  0
LINE
  5
477
100
AcDbEntity
  8
0
390
0
  6
Continuous
 62
     7
100
AcDbLine
 10
129.737745
 20
-21.957322
 30
0.0
 11
129.627042
 21
-21.958608
 31
0.0
  0
LINE
  5
478
100
AcDbEntity
  8
0
390
0
  6
Continuous
 62
     7
100
AcDbLine
 10
129.844536
 20
-21.967238
 30
0.0
 11
129.737745
 21
-21.957322
 31
0.0
  0
LINE
  5
479
100
AcDbEntity
  8
0
390
0
  6
Continuous
 62
     7
100
AcDbLine
 10
129.950292
 20
-21.988715
 30
0.0
 11
129.844536
 21
-21.967238
 31
0.0
  0
LINE
  5
47A
100
AcDbEntity
  8
0
390
0
  6
Continuous
 62
     7
100
AcDbLine
 10
130.010611
 20
-22.005881
 30
0.0
 11
129.950292
 21
-21.988715
 31
0.0
  0
LINE
  5
47B
100
AcDbEntity
  8
0
390
0
  6
Continuous
 62
     7
100
AcDbLine
 10
130.068096
 20
-22.026345
 30
0.0
 11
130.010611
 21
-22.005881
 31
0.0
  0
LINE
  5
47C
100
AcDbEntity
  8
0
390
0
  6
Continuous
 62
     7
100
AcDbLine
 10
130.121681
 20
-22.049683
 30
0.0
 11
130.068096
 21
-22.026345
 31
0.0
  0
LINE
  5
47D
100
AcDbEntity
  8
0
390
0
  6
Continuous
 62
     7
100
AcDbLine
 10
130.171519
 20
-22.075835
 30
0.0
 11
130.121681
 21
-22.049683
 31
0.0
  0
LINE
  5
47E
100
AcDbEntity
  8
0
390
0
  6
Continuous
 62
     7
100
AcDbLine
 10
130.217792
 20
-22.104776
 30
0.0
 11
130.171519
 21
-22.075835
 31
0.0
  0
LINE
  5
47F
100
AcDbEntity
  8
0
390
0
  6
Continuous
 62
     7
100
AcDbLine
 10
130.260704
 20
-22.136534
 30
0.0
 11
130.217792
 21
-22.104776
 31
0.0
  0
LINE
  5
480
100
AcDbEntity
  8
0
390
0
  6
Continuous
 62
     7
100
AcDbLine
 10
130.300459
 20
-22.171188
 30
0.0
 11
130.260704
 21
-22.136534
 31
0.0
  0
LINE
  5
481
100
AcDbEntity
  8
0
390
0
  6
Continuous
 62
     7
100
AcDbLine
 10
130.337245
 20
-22.208871
 30
0.0
 11
130.300459
 21
-22.171188
 31
0.0
  0
LINE
  5
482
100
AcDbEntity
  8
0
390
0
  6
Continuous
 62
     7
100
AcDbLine
 10
130.371214
 20
-22.249758
 30
0.0
 11
130.337245
 21
-22.208871
 31
0.0
  0
LINE
  5
483
100
AcDbEntity
  8
0
390
0
  6
Continuous
 62
     7
100
AcDbLine
 10
130.401935
 20
-22.293292
 30
0.0
 11
130.371214
 21
-22.249758
 31
0.0
  0
LINE
  5
484
100
AcDbEntity
  8
0
390
0
  6
Continuous
 62
     7
100
AcDbLine
 10
130.420222
 20
-22.324806
 30
0.0
 11
130.401935
 21
-22.293292
 31
0.0
  0
LINE
  5
485
100
AcDbEntity
  8
0
390
0
  6
Continuous
 62
     7
100
AcDbLine
 10
130.434988
 20
-22.357401
 30
0.0
 11
130.420222
 21
-22.324806
 31
0.0
  0
LINE
  5
486
100
AcDbEntity
  8
0
390
0
  6
Continuous
 62
     7
100
AcDbLine
 10
130.446777
 20
-22.392228
 30
0.0
 11
130.434988
 21
-22.357401
 31
0.0
  0
LINE
  5
487
100
AcDbEntity
  8
0
390
0
  6
Continuous
 62
     7
100
AcDbLine
 10
130.455577
 20
-22.4297
 30
0.0
 11
130.446777
 21
-22.392228
 31
0.0
  0
LINE
  5
488
100
AcDbEntity
  8
0
390
0
  6
Continuous
 62
     7
100
AcDbLine
 10
130.461269
 20
-22.470161
 30
0.0
 11
130.455577
 21
-22.4297
 31
0.0
  0
LINE
  5
489
100
AcDbEntity
  8
0
390
0
  6
Continuous
 62
     7
100
AcDbLine
 10
130.46366
 20
-22.513863
 30
0.0
 11
130.461269
 21
-22.470161
 31
0.0
  0
LINE
  5
48A
100
AcDbEntity
  8
0
390
0
  6
Continuous
 62
     7
100
AcDbLine
 10
130.462526
 20
-22.560958
 30
0.0
 11
130.46366
 21
-22.513863
 31
0.0
  0
LINE
  5
48B
100
AcDbEntity
  8
0
390
0
  6
Continuous
 62
     7
100
AcDbLine
 10
130.457643
 20
-22.611509
 30
0.0
 11
130.462526
 21
-22.560958
 31
0.0
  0
LINE
  5
48C
100
AcDbEntity
  8
0
390
0
  6
Continuous
 62
     7
100
AcDbLine
 10
130.448814
 20
-22.665514
 30
0.0
 11
130.457643
 21
-22.611509
 31
0.0
  0
LINE
  5
48D
100
AcDbEntity
  8
0
390
0
  6
Continuous
 62
     7
100
AcDbLine
 10
130.435984
 20
-22.722424
 30
0.0
 11
130.448814
 21
-22.665514
 31
0.0
  0
LINE
  5
48E
100
AcDbEntity
  8
0
390
0
  6
Continuous
 62
     7
100
AcDbLine
 10
130.420549
 20
-22.775587
 30
0.0
 11
130.435984
 21
-22.722424
 31
0.0
  0
LINE
  5
48F
100
AcDbEntity
  8
0
390
0
  6
Continuous
 62
     7
100
AcDbLine
 10
130.401435
 20
-22.829614
 30
0.0
 11
130.420549
 21
-22.775587
 31
0.0
  0
LINE
  5
490
100
AcDbEntity
  8
0
390
0
  6
Continuous
 62
     7
100
AcDbLine
 10
130.37858
 20
-22.884469
 30
0.0
 11
130.401435
 21
-22.829614
 31
0.0
  0
LINE
  5
491
100
AcDbEntity
  8
0
390
0
  6
Continuous
 62
     7
100
AcDbLine
 10
130.351907
 20
-22.940157
 30
0.0
 11
130.37858
 21
-22.884469
 31
0.0
  0
LINE
  5
492
100
AcDbEntity
  8
0
390
0
  6
Continuous
 62
     7
100
AcDbLine
 10
130.321349
 20
-22.996668
 30
0.0
 11
130.351907
 21
-22.940157
 31
0.0
  0
LINE
  5
493
100
AcDbEntity
  8
0
390
0
  6
Continuous
 62
     7
100
AcDbLine
 10
130.286848
 20
-23.053984
 30
0.0
 11
130.321349
 21
-22.996668
 31
0.0
  0
LINE
  5
494
100
AcDbEntity
  8
0
390
0
  6
Continuous
 62
     7
100
AcDbLine
 10
130.248353
 20
-23.112076
 30
0.0
 11
130.286848
 21
-23.053984
 31
0.0
  0
LINE
  5
495
100
AcDbEntity
  8
0
390
0
  6
Continuous
 62
     7
100
AcDbLine
 10
130.205826
 20
-23.170911
 30
0.0
 11
130.248353
 21
-23.112076
 31
0.0
  0
LINE
  5
496
100
AcDbEntity
  8
0
390
0
  6
Continuous
 62
     7
100
AcDbLine
 10
130.159236
 20
-23.230454
 30
0.0
 11
130.205826
 21
-23.170911
 31
0.0
  0
LINE
  5
497
100
AcDbEntity
  8
0
390
0
  6
Continuous
 62
     7
100
AcDbLine
 10
130.106948
 20
-23.292583
 30
0.0
 11
130.159236
 21
-23.230454
 31
0.0
  0
POLYLINE
  5
498
100
AcDbEntity
  8
0
390
0
  6
Continuous
 62
     7
100
AcDb2dPolyline
 66
     1
 10
0.0
 20
0.0
 30
0.0
 40
0.1
 41
0.1
  0
VERTEX
  5
499
100
AcDbEntity
  8
0
390
0
 62
     7
100
AcDbVertex
100
AcDb2dVertex
 10
130.260056
 20
-23.534186
 30
0.0
  0
VERTEX
  5
49A
100
AcDbEntity
  8
0
390
0
 62
     7
100
AcDbVertex
100
AcDb2dVertex
 10
130.254052
 20
-23.535642
 30
0.0
  0
VERTEX
  5
49B
100
AcDbEntity
  8
0
390
0
 62
     7
100
AcDbVertex
100
AcDb2dVertex
 10
130.247996
 20
-23.536849
 30
0.0
  0
VERTEX
  5
49C
100
AcDbEntity
  8
0
390
0
 62
     7
100
AcDbVertex
100
AcDb2dVertex
 10
130.241792
 20
-23.537819
 30
0.0
  0
VERTEX
  5
49D
100
AcDbEntity
  8
0
390
0
 62
     7
100
AcDbVertex
100
AcDb2dVertex
 10
130.235551
 20
-23.538528
 30
0.0
  0
VERTEX
  5
49E
100
AcDbEntity
  8
0
390
0
 62
     7
100
AcDbVertex
100
AcDb2dVertex
 10
130.22929
 20
-23.538977
 30
0.0
  0
VERTEX
  5
49F
100
AcDbEntity
  8
0
390
0
 62
     7
100
AcDbVertex
100
AcDb2dVertex
 10
130.223025
 20
-23.539163
 30
0.0
  0
VERTEX
  5
4A0
100
AcDbEntity
  8
0
390
0
 62
     7
100
AcDbVertex
100
AcDb2dVertex
 10
130.216645
 20
-23.539083
 30
0.0
  0
VERTEX
  5
4A1
100
AcDbEntity
  8
0
390
0
 62
     7
100
AcDbVertex
100
AcDb2dVertex
 10
130.210279
 20
-23.538732
 30
0.0
  0
VERTEX
  5
4A2
100
AcDbEntity
  8
0
390
0
 62
     7
100
AcDbVertex
100
AcDb2dVertex
 10
130.204137
 20
-23.538136
 30
0.0
  0
VERTEX
  5
4A3
100
AcDbEntity
  8
0
390
0
 62
     7
100
AcDbVertex
100
AcDb2dVertex
 10
130.198029
 20
-23.537287
 30
0.0
  0
VERTEX
  5
4A4
100
AcDbEntity
  8
0
390
0
 62
     7
100
AcDbVertex
100
AcDb2dVertex
 10
130.191862
 20
-23.536168
 30
0.0
  0
VERTEX
  5
4A5
100
AcDbEntity
  8
0
390
0
 62
     7
100
AcDbVertex
100
AcDb2dVertex
 10
130.185746
 20
-23.534792
 30
0.0
  0
VERTEX
  5
4A6
100
AcDbEntity
  8
0
390
0
 62
     7
100
AcDbVertex
100
AcDb2dVertex
 10
130.179697
 20
-23.533163
 30
0.0
  0
VERTEX
  5
4A7
100
AcDbEntity
  8
0
390
0
 62
     7
100
AcDbVertex
100
AcDb2dVertex
 10
130.173729
 20
-23.531287
 30
0.0
  0
VERTEX
  5
4A8
100
AcDbEntity
  8
0
390
0
 62
     7
100
AcDbVertex
100
AcDb2dVertex
 10
130.167742
 20
-23.529123
 30
0.0
  0
VERTEX
  5
4A9
100
AcDbEntity
  8
0
390
0
 62
     7
100
AcDbVertex
100
AcDb2dVertex
 10
130.161856
 20
-23.526708
 30
0.0
  0
VERTEX
  5
4AA
100
AcDbEntity
  8
0
390
0
 62
     7
100
AcDbVertex
100
AcDb2dVertex
 10
130.156205
 20
-23.524108
 30
0.0
  0
VERTEX
  5
4AB
100
AcDbEntity
  8
0
390
0
 62
     7
100
AcDbVertex
100
AcDb2dVertex
 10
130.150669
 20
-23.521277
 30
0.0
  0
VERTEX
  5
4AC
100
AcDbEntity
  8
0
390
0
 62
     7
100
AcDbVertex
100
AcDb2dVertex
 10
130.145166
 20
-23.518166
 30
0.0
  0
VERTEX
  5
4AD
100
AcDbEntity
  8
0
390
0
 62
     7
100
AcDbVertex
100
AcDb2dVertex
 10
130.139796
 20
-23.514824
 30
0.0
  0
VERTEX
  5
4AE
100
AcDbEntity
  8
0
390
0
 62
     7
100
AcDbVertex
100
AcDb2dVertex
 10
130.134573
 20
-23.51126
 30
0.0
  0
VERTEX
  5
4AF
100
AcDbEntity
  8
0
390
0
 62
     7
100
AcDbVertex
100
AcDb2dVertex
 10
130.12951
 20
-23.507484
 30
0.0
  0
VERTEX
  5
4B0
100
AcDbEntity
  8
0
390
0
 62
     7
100
AcDbVertex
100
AcDb2dVertex
 10
130.124525
 20
-23.503424
 30
0.0
  0
VERTEX
  5
4B1
100
AcDbEntity
  8
0
390
0
 62
     7
100
AcDbVertex
100
AcDb2dVertex
 10
130.119718
 20
-23.499155
 30
0.0
  0
VERTEX
  5
4B2
100
AcDbEntity
  8
0
390
0
 62
     7
100
AcDbVertex
100
AcDb2dVertex
 10
130.1152
 20
-23.494785
 30
0.0
  0
VERTEX
  5
4B3
100
AcDbEntity
  8
0
390
0
 62
     7
100
AcDbVertex
100
AcDb2dVertex
 10
130.110869
 20
-23.490231
 30
0.0
  0
VERTEX
  5
4B4
100
AcDbEntity
  8
0
390
0
 62
     7
100
AcDbVertex
100
AcDb2dVertex
 10
130.106705
 20
-23.485465
 30
0.0
  0
VERTEX
  5
4B5
100
AcDbEntity
  8
0
390
0
 62
     7
100
AcDbVertex
100
AcDb2dVertex
 10
130.102745
 20
-23.480527
 30
0.0
  0
VERTEX
  5
4B6
100
AcDbEntity
  8
0
390
0
 62
     7
100
AcDbVertex
100
AcDb2dVertex
 10
130.098918
 20
-23.475314
 30
0.0
  0
VERTEX
  5
4B7
100
AcDbEntity
  8
0
390
0
 62
     7
100
AcDbVertex
100
AcDb2dVertex
 10
130.095318
 20
-23.46994
 30
0.0
  0
VERTEX
  5
4B8
100
AcDbEntity
  8
0
390
0
 62
     7
100
AcDbVertex
100
AcDb2dVertex
 10
130.091928
 20
-23.464373
 30
0.0
  0
VERTEX
  5
4B9
100
AcDbEntity
  8
0
390
0
 62
     7
100
AcDbVertex
100
AcDb2dVertex
 10
130.088783
 20
-23.458662
 30
0.0
  0
VERTEX
  5
4BA
100
AcDbEntity
  8
0
390
0
 62
     7
100
AcDbVertex
100
AcDb2dVertex
 10
130.08598
 20
-23.453014
 30
0.0
  0
VERTEX
  5
4BB
100
AcDbEntity
  8
0
390
0
 62
     7
100
AcDbVertex
100
AcDb2dVertex
 10
130.083415
 20
-23.44725
 30
0.0
  0
VERTEX
  5
4BC
100
AcDbEntity
  8
0
390
0
 62
     7
100
AcDbVertex
100
AcDb2dVertex
 10
130.081079
 20
-23.44134
 30
0.0
  0
VERTEX
  5
4BD
100
AcDbEntity
  8
0
390
0
 62
     7
100
AcDbVertex
100
AcDb2dVertex
 10
130.078995
 20
-23.435334
 30
0.0
  0
VERTEX
  5
4BE
100
AcDbEntity
  8
0
390
0
 62
     7
100
AcDbVertex
100
AcDb2dVertex
 10
130.077129
 20
-23.429106
 30
0.0
  0
VERTEX
  5
4BF
100
AcDbEntity
  8
0
390
0
 62
     7
100
AcDbVertex
100
AcDb2dVertex
 10
130.075533
 20
-23.422801
 30
0.0
  0
VERTEX
  5
4C0
100
AcDbEntity
  8
0
390
0
 62
     7
100
AcDbVertex
100
AcDb2dVertex
 10
130.074203
 20
-23.41638
 30
0.0
  0
VERTEX
  5
4C1
100
AcDbEntity
  8
0
390
0
 62
     7
100
AcDbVertex
100
AcDb2dVertex
 10
130.073154
 20
-23.409905
 30
0.0
  0
VERTEX
  5
4C2
100
AcDbEntity
  8
0
390
0
 62
     7
100
AcDbVertex
100
AcDb2dVertex
 10
130.072416
 20
-23.403665
 30
0.0
  0
VERTEX
  5
4C3
100
AcDbEntity
  8
0
390
0
 62
     7
100
AcDbVertex
100
AcDb2dVertex
 10
130.07194
 20
-23.397396
 30
0.0
  0
VERTEX
  5
4C4
100
AcDbEntity
  8
0
390
0
 62
     7
100
AcDbVertex
100
AcDb2dVertex
 10
130.071726
 20
-23.391065
 30
0.0
  0
VERTEX
  5
4C5
100
AcDbEntity
  8
0
390
0
 62
     7
100
AcDbVertex
100
AcDb2dVertex
 10
130.07178
 20
-23.384728
 30
0.0
  0
VERTEX
  5
4C6
100
AcDbEntity
  8
0
390
0
 62
     7
100
AcDbVertex
100
AcDb2dVertex
 10
130.072112
 20
-23.378254
 30
0.0
  0
VERTEX
  5
4C7
100
AcDbEntity
  8
0
390
0
 62
     7
100
AcDbVertex
100
AcDb2dVertex
 10
130.072724
 20
-23.371796
 30
0.0
  0
VERTEX
  5
4C8
100
AcDbEntity
  8
0
390
0
 62
     7
100
AcDbVertex
100
AcDb2dVertex
 10
130.073622
 20
-23.365319
 30
0.0
  0
VERTEX
  5
4C9
100
AcDbEntity
  8
0
390
0
 62
     7
100
AcDbVertex
100
AcDb2dVertex
 10
130.074803
 20
-23.358884
 30
0.0
  0
VERTEX
  5
4CA
100
AcDbEntity
  8
0
390
0
 62
     7
100
AcDbVertex
100
AcDb2dVertex
 10
130.07619
 20
-23.352802
 30
0.0
  0
VERTEX
  5
4CB
100
AcDbEntity
  8
0
390
0
 62
     7
100
AcDbVertex
100
AcDb2dVertex
 10
130.077828
 20
-23.346779
 30
0.0
  0
VERTEX
  5
4CC
100
AcDbEntity
  8
0
390
0
 62
     7
100
AcDbVertex
100
AcDb2dVertex
 10
130.079754
 20
-23.340722
 30
0.0
  0
VERTEX
  5
4CD
100
AcDbEntity
  8
0
390
0
 62
     7
100
AcDbVertex
100
AcDb2dVertex
 10
130.081937
 20
-23.334744
 30
0.0
  0
VERTEX
  5
4CE
100
AcDbEntity
  8
0
390
0
 62
     7
100
AcDbVertex
100
AcDb2dVertex
 10
130.084372
 20
-23.328861
 30
0.0
  0
VERTEX
  5
4CF
100
AcDbEntity
  8
0
390
0
 62
     7
100
AcDbVertex
100
AcDb2dVertex
 10
130.087054
 20
-23.323089
 30
0.0
  0
VERTEX
  5
4D0
100
AcDbEntity
  8
0
390
0
 62
     7
100
AcDbVertex
100
AcDb2dVertex
 10
130.090037
 20
-23.317328
 30
0.0
  0
VERTEX
  5
4D1
100
AcDbEntity
  8
0
390
0
 62
     7
100
AcDbVertex
100
AcDb2dVertex
 10
130.093268
 20
-23.311699
 30
0.0
  0
VERTEX
  5
4D2
100
AcDbEntity
  8
0
390
0
 62
     7
100
AcDbVertex
100
AcDb2dVertex
 10
130.096393
 20
-23.30674
 30
0.0
  0
VERTEX
  5
4D3
100
AcDbEntity
  8
0
390
0
 62
     7
100
AcDbVertex
100
AcDb2dVertex
 10
130.09971
 20
-23.301905
 30
0.0
  0
VERTEX
  5
4D4
100
AcDbEntity
  8
0
390
0
 62
     7
100
AcDbVertex
100
AcDb2dVertex
 10
130.103237
 20
-23.297173
 30
0.0
  0
VERTEX
  5
4D5
100
AcDbEntity
  8
0
390
0
 62
     7
100
AcDbVertex
100
AcDb2dVertex
 10
130.106948
 20
-23.292583
 30
0.0
  0
SEQEND
  5
4D6
100
AcDbEntity
  8
0
390
0
  0
LINE
  5
4D7
100
AcDbEntity
  8
0
390
0
  6
Continuous
 62
     7
100
AcDbLine
 10
130.369333
 20
-23.505293
 30
0.0
 11
130.260056
 21
-23.534186
 31
0.0
  0
LINE
  5
4D8
100
AcDbEntity
  8
0
390
0
  6
Continuous
 62
     7
100
AcDbLine
 10
130.471196
 20
-23.482216
 30
0.0
 11
130.369333
 21
-23.505293
 31
0.0
  0
LINE
  5
4D9
100
AcDbEntity
  8
0
390
0
  6
Continuous
 62
     7
100
AcDbLine
 10
130.567915
 20
-23.464283
 30
0.0
 11
130.471196
 21
-23.482216
 31
0.0
  0
LINE
  5
4DA
100
AcDbEntity
  8
0
390
0
  6
Continuous
 62
     7
100
AcDbLine
 10
130.659409
 20
-23.45143
 30
0.0
 11
130.567915
 21
-23.464283
 31
0.0
  0
LINE
  5
4DB
100
AcDbEntity
  8
0
390
0
  6
Continuous
 62
     7
100
AcDbLine
 10
130.745598
 20
-23.443565
 30
0.0
 11
130.659409
 21
-23.45143
 31
0.0
  0
LINE
  5
4DC
100
AcDbEntity
  8
0
390
0
  6
Continuous
 62
     7
100
AcDbLine
 10
130.826403
 20
-23.44057
 30
0.0
 11
130.745598
 21
-23.443565
 31
0.0
  0
LINE
  5
4DD
100
AcDbEntity
  8
0
390
0
  6
Continuous
 62
     7
100
AcDbLine
 10
130.901765
 20
-23.442295
 30
0.0
 11
130.826403
 21
-23.44057
 31
0.0
  0
LINE
  5
4DE
100
AcDbEntity
  8
0
390
0
  6
Continuous
 62
     7
100
AcDbLine
 10
130.971651
 20
-23.448555
 30
0.0
 11
130.901765
 21
-23.442295
 31
0.0
  0
LINE
  5
4DF
100
AcDbEntity
  8
0
390
0
  6
Continuous
 62
     7
100
AcDbLine
 10
131.036084
 20
-23.459132
 30
0.0
 11
130.971651
 21
-23.448555
 31
0.0
  0
LINE
  5
4E0
100
AcDbEntity
  8
0
390
0
  6
Continuous
 62
     7
100
AcDbLine
 10
131.096075
 20
-23.47402
 30
0.0
 11
131.036084
 21
-23.459132
 31
0.0
  0
LINE
  5
4E1
100
AcDbEntity
  8
0
390
0
  6
Continuous
 62
     7
100
AcDbLine
 10
131.153509
 20
-23.49295
 30
0.0
 11
131.096075
 21
-23.47402
 31
0.0
  0
LINE
  5
4E2
100
AcDbEntity
  8
0
390
0
  6
Continuous
 62
     7
100
AcDbLine
 10
131.208507
 20
-23.515238
 30
0.0
 11
131.153509
 21
-23.49295
 31
0.0
  0
LINE
  5
4E3
100
AcDbEntity
  8
0
390
0
  6
Continuous
 62
     7
100
AcDbLine
 10
131.260381
 20
-23.540578
 30
0.0
 11
131.208507
 21
-23.515238
 31
0.0
  0
LINE
  5
4E4
100
AcDbEntity
  8
0
390
0
  6
Continuous
 62
     7
100
AcDbLine
 10
131.309288
 20
-23.568972
 30
0.0
 11
131.260381
 21
-23.540578
 31
0.0
  0
LINE
  5
4E5
100
AcDbEntity
  8
0
390
0
  6
Continuous
 62
     7
100
AcDbLine
 10
131.355394
 20
-23.600456
 30
0.0
 11
131.309288
 21
-23.568972
 31
0.0
  0
LINE
  5
4E6
100
AcDbEntity
  8
0
390
0
  6
Continuous
 62
     7
100
AcDbLine
 10
131.398858
 20
-23.635109
 30
0.0
 11
131.355394
 21
-23.600456
 31
0.0
  0
LINE
  5
4E7
100
AcDbEntity
  8
0
390
0
  6
Continuous
 62
     7
100
AcDbLine
 10
131.439821
 20
-23.673043
 30
0.0
 11
131.398858
 21
-23.635109
 31
0.0
  0
LINE
  5
4E8
100
AcDbEntity
  8
0
390
0
  6
Continuous
 62
     7
100
AcDbLine
 10
131.478395
 20
-23.714397
 30
0.0
 11
131.439821
 21
-23.673043
 31
0.0
  0
LINE
  5
4E9
100
AcDbEntity
  8
0
390
0
  6
Continuous
 62
     7
100
AcDbLine
 10
131.514654
 20
-23.759322
 30
0.0
 11
131.478395
 21
-23.714397
 31
0.0
  0
LINE
  5
4EA
100
AcDbEntity
  8
0
390
0
  6
Continuous
 62
     7
100
AcDbLine
 10
131.547997
 20
-23.807064
 30
0.0
 11
131.514654
 21
-23.759322
 31
0.0
  0
LINE
  5
4EB
100
AcDbEntity
  8
0
390
0
  6
Continuous
 62
     7
100
AcDbLine
 10
131.578398
 20
-23.859159
 30
0.0
 11
131.547997
 21
-23.807064
 31
0.0
  0
LINE
  5
4EC
100
AcDbEntity
  8
0
390
0
  6
Continuous
 62
     7
100
AcDbLine
 10
131.602918
 20
-23.912422
 30
0.0
 11
131.578398
 21
-23.859159
 31
0.0
  0
LINE
  5
4ED
100
AcDbEntity
  8
0
390
0
  6
Continuous
 62
     7
100
AcDbLine
 10
131.622243
 20
-23.968077
 30
0.0
 11
131.602918
 21
-23.912422
 31
0.0
  0
LINE
  5
4EE
100
AcDbEntity
  8
0
390
0
  6
Continuous
 62
     7
100
AcDbLine
 10
131.636446
 20
-24.026515
 30
0.0
 11
131.622243
 21
-23.968077
 31
0.0
  0
LINE
  5
4EF
100
AcDbEntity
  8
0
390
0
  6
Continuous
 62
     7
100
AcDbLine
 10
131.645484
 20
-24.088107
 30
0.0
 11
131.636446
 21
-24.026515
 31
0.0
  0
LINE
  5
4F0
100
AcDbEntity
  8
0
390
0
  6
Continuous
 62
     7
100
AcDbLine
 10
131.649225
 20
-24.15316
 30
0.0
 11
131.645484
 21
-24.088107
 31
0.0
  0
LINE
  5
4F1
100
AcDbEntity
  8
0
390
0
  6
Continuous
 62
     7
100
AcDbLine
 10
130.325229
 20
-25.642728
 30
0.0
 11
130.459979
 21
-25.576218
 31
0.0
  0
LINE
  5
4F2
100
AcDbEntity
  8
0
390
0
  6
Continuous
 62
     7
100
AcDbLine
 10
130.194938
 20
-25.698198
 30
0.0
 11
130.325229
 21
-25.642728
 31
0.0
  0
LINE
  5
4F3
100
AcDbEntity
  8
0
390
0
  6
Continuous
 62
     7
100
AcDbLine
 10
130.069207
 20
-25.742755
 30
0.0
 11
130.194938
 21
-25.698198
 31
0.0
  0
LINE
  5
4F4
100
AcDbEntity
  8
0
390
0
  6
Continuous
 62
     7
100
AcDbLine
 10
129.948107
 20
-25.776572
 30
0.0
 11
130.069207
 21
-25.742755
 31
0.0
  0
LINE
  5
4F5
100
AcDbEntity
  8
0
390
0
  6
Continuous
 62
     7
100
AcDbLine
 10
129.831669
 20
-25.799861
 30
0.0
 11
129.948107
 21
-25.776572
 31
0.0
  0
LINE
  5
4F6
100
AcDbEntity
  8
0
390
0
  6
Continuous
 62
     7
100
AcDbLine
 10
129.719848
 20
-25.812868
 30
0.0
 11
129.831669
 21
-25.799861
 31
0.0
  0
LINE
  5
4F7
100
AcDbEntity
  8
0
390
0
  6
Continuous
 62
     7
100
AcDbLine
 10
129.612507
 20
-25.815853
 30
0.0
 11
129.719848
 21
-25.812868
 31
0.0
  0
LINE
  5
4F8
100
AcDbEntity
  8
0
390
0
  6
Continuous
 62
     7
100
AcDbLine
 10
129.508514
 20
-25.808992
 30
0.0
 11
129.612507
 21
-25.815853
 31
0.0
  0
LINE
  5
4F9
100
AcDbEntity
  8
0
390
0
  6
Continuous
 62
     7
100
AcDbLine
 10
129.4318
 20
-25.797216
 30
0.0
 11
129.508514
 21
-25.808992
 31
0.0
  0
LINE
  5
4FA
100
AcDbEntity
  8
0
390
0
  6
Continuous
 62
     7
100
AcDbLine
 10
129.359117
 20
-25.780663
 30
0.0
 11
129.4318
 21
-25.797216
 31
0.0
  0
LINE
  5
4FB
100
AcDbEntity
  8
0
390
0
  6
Continuous
 62
     7
100
AcDbLine
 10
129.291893
 20
-25.759749
 30
0.0
 11
129.359117
 21
-25.780663
 31
0.0
  0
LINE
  5
4FC
100
AcDbEntity
  8
0
390
0
  6
Continuous
 62
     7
100
AcDbLine
 10
129.229927
 20
-25.734632
 30
0.0
 11
129.291893
 21
-25.759749
 31
0.0
  0
LINE
  5
4FD
100
AcDbEntity
  8
0
390
0
  6
Continuous
 62
     7
100
AcDbLine
 10
129.172946
 20
-25.705413
 30
0.0
 11
129.229927
 21
-25.734632
 31
0.0
  0
LINE
  5
4FE
100
AcDbEntity
  8
0
390
0
  6
Continuous
 62
     7
100
AcDbLine
 10
129.120611
 20
-25.672109
 30
0.0
 11
129.172946
 21
-25.705413
 31
0.0
  0
LINE
  5
4FF
100
AcDbEntity
  8
0
390
0
  6
Continuous
 62
     7
100
AcDbLine
 10
129.072561
 20
-25.634629
 30
0.0
 11
129.120611
 21
-25.672109
 31
0.0
  0
LINE
  5
500
100
AcDbEntity
  8
0
390
0
  6
Continuous
 62
     7
100
AcDbLine
 10
129.028455
 20
-25.592769
 30
0.0
 11
129.072561
 21
-25.634629
 31
0.0
  0
LINE
  5
501
100
AcDbEntity
  8
0
390
0
  6
Continuous
 62
     7
100
AcDbLine
 10
128.988025
 20
-25.546233
 30
0.0
 11
129.028455
 21
-25.592769
 31
0.0
  0
LINE
  5
502
100
AcDbEntity
  8
0
390
0
  6
Continuous
 62
     7
100
AcDbLine
 10
128.950635
 20
-25.494024
 30
0.0
 11
128.988025
 21
-25.546233
 31
0.0
  0
LINE
  5
503
100
AcDbEntity
  8
0
390
0
  6
Continuous
 62
     7
100
AcDbLine
 10
128.920497
 20
-25.444004
 30
0.0
 11
128.950635
 21
-25.494024
 31
0.0
  0
LINE
  5
504
100
AcDbEntity
  8
0
390
0
  6
Continuous
 62
     7
100
AcDbLine
 10
128.894203
 20
-25.392608
 30
0.0
 11
128.920497
 21
-25.444004
 31
0.0
  0
LINE
  5
505
100
AcDbEntity
  8
0
390
0
  6
Continuous
 62
     7
100
AcDbLine
 10
128.872113
 20
-25.340549
 30
0.0
 11
128.894203
 21
-25.392608
 31
0.0
  0
LINE
  5
506
100
AcDbEntity
  8
0
390
0
  6
Continuous
 62
     7
100
AcDbLine
 10
128.85412
 20
-25.287698
 30
0.0
 11
128.872113
 21
-25.340549
 31
0.0
  0
LINE
  5
507
100
AcDbEntity
  8
0
390
0
  6
Continuous
 62
     7
100
AcDbLine
 10
128.84014
 20
-25.233897
 30
0.0
 11
128.85412
 21
-25.287698
 31
0.0
  0
LINE
  5
508
100
AcDbEntity
  8
0
390
0
  6
Continuous
 62
     7
100
AcDbLine
 10
128.830129
 20
-25.178972
 30
0.0
 11
128.84014
 21
-25.233897
 31
0.0
  0
LINE
  5
509
100
AcDbEntity
  8
0
390
0
  6
Continuous
 62
     7
100
AcDbLine
 10
128.824082
 20
-25.122745
 30
0.0
 11
128.830129
 21
-25.178972
 31
0.0
  0
LINE
  5
50A
100
AcDbEntity
  8
0
390
0
  6
Continuous
 62
     7
100
AcDbLine
 10
128.82203
 20
-25.065049
 30
0.0
 11
128.824082
 21
-25.122745
 31
0.0
  0
LINE
  5
50B
100
AcDbEntity
  8
0
390
0
  6
Continuous
 62
     7
100
AcDbLine
 10
128.824037
 20
-25.005741
 30
0.0
 11
128.82203
 21
-25.065049
 31
0.0
  0
LINE
  5
50C
100
AcDbEntity
  8
0
390
0
  6
Continuous
 62
     7
100
AcDbLine
 10
128.830088
 20
-24.94572
 30
0.0
 11
128.824037
 21
-25.005741
 31
0.0
  0
LINE
  5
50D
100
AcDbEntity
  8
0
390
0
  6
Continuous
 62
     7
100
AcDbLine
 10
128.840961
 20
-24.885129
 30
0.0
 11
128.830088
 21
-24.94572
 31
0.0
  0
LINE
  5
50E
100
AcDbEntity
  8
0
390
0
  6
Continuous
 62
     7
100
AcDbLine
 10
128.857834
 20
-24.822026
 30
0.0
 11
128.840961
 21
-24.885129
 31
0.0
  0
LINE
  5
50F
100
AcDbEntity
  8
0
390
0
  6
Continuous
 62
     7
100
AcDbLine
 10
128.881191
 20
-24.755351
 30
0.0
 11
128.857834
 21
-24.822026
 31
0.0
  0
LINE
  5
510
100
AcDbEntity
  8
0
390
0
  6
Continuous
 62
     7
100
AcDbLine
 10
128.91126
 20
-24.685199
 30
0.0
 11
128.881191
 21
-24.755351
 31
0.0
  0
LINE
  5
511
100
AcDbEntity
  8
0
390
0
  6
Continuous
 62
     7
100
AcDbLine
 10
128.948211
 20
-24.6117
 30
0.0
 11
128.91126
 21
-24.685199
 31
0.0
  0
LINE
  5
512
100
AcDbEntity
  8
0
390
0
  6
Continuous
 62
     7
100
AcDbLine
 10
128.992159
 20
-24.534994
 30
0.0
 11
128.948211
 21
-24.6117
 31
0.0
  0
LINE
  5
513
100
AcDbEntity
  8
0
390
0
  6
Continuous
 62
     7
100
AcDbLine
 10
129.04318
 20
-24.455218
 30
0.0
 11
128.992159
 21
-24.534994
 31
0.0
  0
LINE
  5
514
100
AcDbEntity
  8
0
390
0
  6
Continuous
 62
     7
100
AcDbLine
 10
129.101321
 20
-24.372497
 30
0.0
 11
129.04318
 21
-24.455218
 31
0.0
  0
LINE
  5
515
100
AcDbEntity
  8
0
390
0
  6
Continuous
 62
     7
100
AcDbLine
 10
129.166605
 20
-24.286941
 30
0.0
 11
129.101321
 21
-24.372497
 31
0.0
  0
LINE
  5
516
100
AcDbEntity
  8
0
390
0
  6
Continuous
 62
     7
100
AcDbLine
 10
129.240556
 20
-24.196801
 30
0.0
 11
129.166605
 21
-24.286941
 31
0.0
  0
POLYLINE
  5
517
100
AcDbEntity
  8
0
390
0
  6
Continuous
 62
     7
100
AcDb2dPolyline
 66
     1
 10
0.0
 20
0.0
 30
0.0
 40
0.1
 41
0.1
  0
VERTEX
  5
518
100
AcDbEntity
  8
0
390
0
 62
     7
100
AcDbVertex
100
AcDb2dVertex
 10
129.081258
 20
-23.958056
 30
0.0
  0
VERTEX
  5
519
100
AcDbEntity
  8
0
390
0
 62
     7
100
AcDbVertex
100
AcDb2dVertex
 10
129.087195
 20
-23.956397
 30
0.0
  0
VERTEX
  5
51A
100
AcDbEntity
  8
0
390
0
 62
     7
100
AcDbVertex
100
AcDb2dVertex
 10
129.093193
 20
-23.954984
 30
0.0
  0
VERTEX
  5
51B
100
AcDbEntity
  8
0
390
0
 62
     7
100
AcDbVertex
100
AcDb2dVertex
 10
129.099349
 20
-23.953801
 30
0.0
  0
VERTEX
  5
51C
100
AcDbEntity
  8
0
390
0
 62
     7
100
AcDbVertex
100
AcDb2dVertex
 10
129.105552
 20
-23.952875
 30
0.0
  0
VERTEX
  5
51D
100
AcDbEntity
  8
0
390
0
 62
     7
100
AcDbVertex
100
AcDb2dVertex
 10
129.111787
 20
-23.952209
 30
0.0
  0
VERTEX
  5
51E
100
AcDbEntity
  8
0
390
0
 62
     7
100
AcDbVertex
100
AcDb2dVertex
 10
129.118036
 20
-23.951804
 30
0.0
  0
VERTEX
  5
51F
100
AcDbEntity
  8
0
390
0
 62
     7
100
AcDbVertex
100
AcDb2dVertex
 10
129.12441
 20
-23.951661
 30
0.0
  0
VERTEX
  5
520
100
AcDbEntity
  8
0
390
0
 62
     7
100
AcDbVertex
100
AcDb2dVertex
 10
129.130783
 20
-23.951789
 30
0.0
  0
VERTEX
  5
521
100
AcDbEntity
  8
0
390
0
 62
     7
100
AcDbVertex
100
AcDb2dVertex
 10
129.136943
 20
-23.952171
 30
0.0
  0
VERTEX
  5
522
100
AcDbEntity
  8
0
390
0
 62
     7
100
AcDbVertex
100
AcDb2dVertex
 10
129.14308
 20
-23.952805
 30
0.0
  0
VERTEX
  5
523
100
AcDbEntity
  8
0
390
0
 62
     7
100
AcDbVertex
100
AcDb2dVertex
 10
129.149287
 20
-23.953709
 30
0.0
  0
VERTEX
  5
524
100
AcDbEntity
  8
0
390
0
 62
     7
100
AcDbVertex
100
AcDb2dVertex
 10
129.155454
 20
-23.954872
 30
0.0
  0
VERTEX
  5
525
100
AcDbEntity
  8
0
390
0
 62
     7
100
AcDbVertex
100
AcDb2dVertex
 10
129.161564
 20
-23.95629
 30
0.0
  0
VERTEX
  5
526
100
AcDbEntity
  8
0
390
0
 62
     7
100
AcDbVertex
100
AcDb2dVertex
 10
129.167601
 20
-23.95796
 30
0.0
  0
VERTEX
  5
527
100
AcDbEntity
  8
0
390
0
 62
     7
100
AcDbVertex
100
AcDb2dVertex
 10
129.173668
 20
-23.959918
 30
0.0
  0
VERTEX
  5
528
100
AcDbEntity
  8
0
390
0
 62
     7
100
AcDbVertex
100
AcDb2dVertex
 10
129.179644
 20
-23.96213
 30
0.0
  0
VERTEX
  5
529
100
AcDbEntity
  8
0
390
0
 62
     7
100
AcDbVertex
100
AcDb2dVertex
 10
129.18535
 20
-23.964518
 30
0.0
  0
VERTEX
  5
52A
100
AcDbEntity
  8
0
390
0
 62
     7
100
AcDbVertex
100
AcDb2dVertex
 10
129.19095
 20
-23.967139
 30
0.0
  0
VERTEX
  5
52B
100
AcDbEntity
  8
0
390
0
 62
     7
100
AcDbVertex
100
AcDb2dVertex
 10
129.196527
 20
-23.970037
 30
0.0
  0
VERTEX
  5
52C
100
AcDbEntity
  8
0
390
0
 62
     7
100
AcDbVertex
100
AcDb2dVertex
 10
129.201979
 20
-23.973168
 30
0.0
  0
VERTEX
  5
52D
100
AcDbEntity
  8
0
390
0
 62
     7
100
AcDbVertex
100
AcDb2dVertex
 10
129.207293
 20
-23.976521
 30
0.0
  0
VERTEX
  5
52E
100
AcDbEntity
  8
0
390
0
 62
     7
100
AcDbVertex
100
AcDb2dVertex
 10
129.212454
 20
-23.980089
 30
0.0
  0
VERTEX
  5
52F
100
AcDbEntity
  8
0
390
0
 62
     7
100
AcDbVertex
100
AcDb2dVertex
 10
129.217549
 20
-23.983939
 30
0.0
  0
VERTEX
  5
530
100
AcDbEntity
  8
0
390
0
 62
     7
100
AcDbVertex
100
AcDb2dVertex
 10
129.222473
 20
-23.988001
 30
0.0
  0
VERTEX
  5
531
100
AcDbEntity
  8
0
390
0
 62
     7
100
AcDbVertex
100
AcDb2dVertex
 10
129.227108
 20
-23.992163
 30
0.0
  0
VERTEX
  5
532
100
AcDbEntity
  8
0
390
0
 62
     7
100
AcDbVertex
100
AcDb2dVertex
 10
129.231564
 20
-23.996512
 30
0.0
  0
VERTEX
  5
533
100
AcDbEntity
  8
0
390
0
 62
     7
100
AcDbVertex
100
AcDb2dVertex
 10
129.235905
 20
-24.00112
 30
0.0
  0
VERTEX
  5
534
100
AcDbEntity
  8
0
390
0
 62
     7
100
AcDbVertex
100
AcDb2dVertex
 10
129.24005
 20
-24.005909
 30
0.0
  0
VERTEX
  5
535
100
AcDbEntity
  8
0
390
0
 62
     7
100
AcDbVertex
100
AcDb2dVertex
 10
129.243988
 20
-24.010866
 30
0.0
  0
VERTEX
  5
536
100
AcDbEntity
  8
0
390
0
 62
     7
100
AcDbVertex
100
AcDb2dVertex
 10
129.24771
 20
-24.01598
 30
0.0
  0
VERTEX
  5
537
100
AcDbEntity
  8
0
390
0
 62
     7
100
AcDbVertex
100
AcDb2dVertex
 10
129.251273
 20
-24.021341
 30
0.0
  0
VERTEX
  5
538
100
AcDbEntity
  8
0
390
0
 62
     7
100
AcDbVertex
100
AcDb2dVertex
 10
129.254602
 20
-24.02685
 30
0.0
  0
VERTEX
  5
539
100
AcDbEntity
  8
0
390
0
 62
     7
100
AcDbVertex
100
AcDb2dVertex
 10
129.257618
 20
-24.032355
 30
0.0
  0
VERTEX
  5
53A
100
AcDbEntity
  8
0
390
0
 62
     7
100
AcDbVertex
100
AcDb2dVertex
 10
129.260401
 20
-24.037981
 30
0.0
  0
VERTEX
  5
53B
100
AcDbEntity
  8
0
390
0
 62
     7
100
AcDbVertex
100
AcDb2dVertex
 10
129.262963
 20
-24.043758
 30
0.0
  0
VERTEX
  5
53C
100
AcDbEntity
  8
0
390
0
 62
     7
100
AcDbVertex
100
AcDb2dVertex
 10
129.265279
 20
-24.049637
 30
0.0
  0
VERTEX
  5
53D
100
AcDbEntity
  8
0
390
0
 62
     7
100
AcDbVertex
100
AcDb2dVertex
 10
129.267387
 20
-24.055739
 30
0.0
  0
VERTEX
  5
53E
100
AcDbEntity
  8
0
390
0
 62
     7
100
AcDbVertex
100
AcDb2dVertex
 10
129.269231
 20
-24.061927
 30
0.0
  0
VERTEX
  5
53F
100
AcDbEntity
  8
0
390
0
 62
     7
100
AcDbVertex
100
AcDb2dVertex
 10
129.270817
 20
-24.068235
 30
0.0
  0
VERTEX
  5
540
100
AcDbEntity
  8
0
390
0
 62
     7
100
AcDbVertex
100
AcDb2dVertex
 10
129.272129
 20
-24.074607
 30
0.0
  0
VERTEX
  5
541
100
AcDbEntity
  8
0
390
0
 62
     7
100
AcDbVertex
100
AcDb2dVertex
 10
129.273136
 20
-24.080832
 30
0.0
  0
VERTEX
  5
542
100
AcDbEntity
  8
0
390
0
 62
     7
100
AcDbVertex
100
AcDb2dVertex
 10
129.27388
 20
-24.087095
 30
0.0
  0
VERTEX
  5
543
100
AcDbEntity
  8
0
390
0
 62
     7
100
AcDbVertex
100
AcDb2dVertex
 10
129.274363
 20
-24.09343
 30
0.0
  0
VERTEX
  5
544
100
AcDbEntity
  8
0
390
0
 62
     7
100
AcDbVertex
100
AcDb2dVertex
 10
129.274577
 20
-24.099783
 30
0.0
  0
VERTEX
  5
545
100
AcDbEntity
  8
0
390
0
 62
     7
100
AcDbVertex
100
AcDb2dVertex
 10
129.274518
 20
-24.106282
 30
0.0
  0
VERTEX
  5
546
100
AcDbEntity
  8
0
390
0
 62
     7
100
AcDbVertex
100
AcDb2dVertex
 10
129.274177
 20
-24.112776
 30
0.0
  0
VERTEX
  5
547
100
AcDbEntity
  8
0
390
0
 62
     7
100
AcDbVertex
100
AcDb2dVertex
 10
129.273548
 20
-24.119302
 30
0.0
  0
VERTEX
  5
548
100
AcDbEntity
  8
0
390
0
 62
     7
100
AcDbVertex
100
AcDb2dVertex
 10
129.272635
 20
-24.125797
 30
0.0
  0
VERTEX
  5
549
100
AcDbEntity
  8
0
390
0
 62
     7
100
AcDbVertex
100
AcDb2dVertex
 10
129.271493
 20
-24.13198
 30
0.0
  0
VERTEX
  5
54A
100
AcDbEntity
  8
0
390
0
 62
     7
100
AcDbVertex
100
AcDb2dVertex
 10
129.270092
 20
-24.138114
 30
0.0
  0
VERTEX
  5
54B
100
AcDbEntity
  8
0
390
0
 62
     7
100
AcDbVertex
100
AcDb2dVertex
 10
129.268422
 20
-24.144231
 30
0.0
  0
VERTEX
  5
54C
100
AcDbEntity
  8
0
390
0
 62
     7
100
AcDbVertex
100
AcDb2dVertex
 10
129.266493
 20
-24.150275
 30
0.0
  0
VERTEX
  5
54D
100
AcDbEntity
  8
0
390
0
 62
     7
100
AcDbVertex
100
AcDb2dVertex
 10
129.264256
 20
-24.15637
 30
0.0
  0
VERTEX
  5
54E
100
AcDbEntity
  8
0
390
0
 62
     7
100
AcDbVertex
100
AcDb2dVertex
 10
129.261757
 20
-24.162366
 30
0.0
  0
VERTEX
  5
54F
100
AcDbEntity
  8
0
390
0
 62
     7
100
AcDbVertex
100
AcDb2dVertex
 10
129.258975
 20
-24.168297
 30
0.0
  0
VERTEX
  5
550
100
AcDbEntity
  8
0
390
0
 62
     7
100
AcDbVertex
100
AcDb2dVertex
 10
129.255935
 20
-24.174106
 30
0.0
  0
VERTEX
  5
551
100
AcDbEntity
  8
0
390
0
 62
     7
100
AcDbVertex
100
AcDb2dVertex
 10
129.252503
 20
-24.180007
 30
0.0
  0
VERTEX
  5
552
100
AcDbEntity
  8
0
390
0
 62
     7
100
AcDbVertex
100
AcDb2dVertex
 10
129.248803
 20
-24.18575
 30
0.0
  0
VERTEX
  5
553
100
AcDbEntity
  8
0
390
0
 62
     7
100
AcDbVertex
100
AcDb2dVertex
 10
129.244808
 20
-24.191369
 30
0.0
  0
VERTEX
  5
554
100
AcDbEntity
  8
0
390
0
 62
     7
100
AcDbVertex
100
AcDb2dVertex
 10
129.240556
 20
-24.196801
 30
0.0
  0
SEQEND
  5
555
100
AcDbEntity
  8
0
390
0
  0
LINE
  5
556
100
AcDbEntity
  8
0
390
0
  6
Continuous
 62
     7
100
AcDbLine
 10
129.000079
 20
-23.982551
 30
0.0
 11
129.081258
 21
-23.958056
 31
0.0
  0
LINE
  5
557
100
AcDbEntity
  8
0
390
0
  6
Continuous
 62
     7
100
AcDbLine
 10
131.545035
 20
-24.142533
 30
0.0
 11
131.549246
 21
-24.225635
 31
0.0
  0
LINE
  5
558
100
AcDbEntity
  8
0
390
0
  6
Continuous
 62
     7
100
AcDbLine
 10
131.531517
 20
-24.061231
 30
0.0
 11
131.545035
 21
-24.142533
 31
0.0
  0
LINE
  5
559
100
AcDbEntity
  8
0
390
0
  6
Continuous
 62
     7
100
AcDbLine
 10
131.508594
 20
-23.982417
 30
0.0
 11
131.531517
 21
-24.061231
 31
0.0
  0
LINE
  5
55A
100
AcDbEntity
  8
0
390
0
  6
Continuous
 62
     7
100
AcDbLine
 10
131.47642
 20
-23.906814
 30
0.0
 11
131.508594
 21
-23.982417
 31
0.0
  0
LINE
  5
55B
100
AcDbEntity
  8
0
390
0
  6
Continuous
 62
     7
100
AcDbLine
 10
131.435536
 20
-23.835295
 30
0.0
 11
131.47642
 21
-23.906814
 31
0.0
  0
LINE
  5
55C
100
AcDbEntity
  8
0
390
0
  6
Continuous
 62
     7
100
AcDbLine
 10
131.383378
 20
-23.763304
 30
0.0
 11
131.435536
 21
-23.835295
 31
0.0
  0
LINE
  5
55D
100
AcDbEntity
  8
0
390
0
  6
Continuous
 62
     7
100
AcDbLine
 10
131.325042
 20
-23.698735
 30
0.0
 11
131.383378
 21
-23.763304
 31
0.0
  0
LINE
  5
55E
100
AcDbEntity
  8
0
390
0
  6
Continuous
 62
     7
100
AcDbLine
 10
131.260332
 20
-23.641707
 30
0.0
 11
131.325042
 21
-23.698735
 31
0.0
  0
LINE
  5
55F
100
AcDbEntity
  8
0
390
0
  6
Continuous
 62
     7
100
AcDbLine
 10
131.189628
 20
-23.592782
 30
0.0
 11
131.260332
 21
-23.641707
 31
0.0
  0
LINE
  5
560
100
AcDbEntity
  8
0
390
0
  6
Continuous
 62
     7
100
AcDbLine
 10
131.113507
 20
-23.552374
 30
0.0
 11
131.189628
 21
-23.592782
 31
0.0
  0
LINE
  5
561
100
AcDbEntity
  8
0
390
0
  6
Continuous
 62
     7
100
AcDbLine
 10
131.032632
 20
-23.520669
 30
0.0
 11
131.113507
 21
-23.552374
 31
0.0
  0
LINE
  5
562
100
AcDbEntity
  8
0
390
0
  6
Continuous
 62
     7
100
AcDbLine
 10
130.947619
 20
-23.497613
 30
0.0
 11
131.032632
 21
-23.520669
 31
0.0
  0
LINE
  5
563
100
AcDbEntity
  8
0
390
0
  6
Continuous
 62
     7
100
AcDbLine
 10
130.858947
 20
-23.482976
 30
0.0
 11
130.947619
 21
-23.497613
 31
0.0
  0
LINE
  5
564
100
AcDbEntity
  8
0
390
0
  6
Continuous
 62
     7
100
AcDbLine
 10
130.766915
 20
-23.47643
 30
0.0
 11
130.858947
 21
-23.482976
 31
0.0
  0
LINE
  5
565
100
AcDbEntity
  8
0
390
0
  6
Continuous
 62
     7
100
AcDbLine
 10
130.672005
 20
-23.47763
 30
0.0
 11
130.766915
 21
-23.47643
 31
0.0
  0
LINE
  5
566
100
AcDbEntity
  8
0
390
0
  6
Continuous
 62
     7
100
AcDbLine
 10
130.576164
 20
-23.485597
 30
0.0
 11
130.672005
 21
-23.47763
 31
0.0
  0
LINE
  5
567
100
AcDbEntity
  8
0
390
0
  6
Continuous
 62
     7
100
AcDbLine
 10
130.480524
 20
-23.499589
 30
0.0
 11
130.576164
 21
-23.485597
 31
0.0
  0
LINE
  5
568
100
AcDbEntity
  8
0
390
0
  6
Continuous
 62
     7
100
AcDbLine
 10
130.384684
 20
-23.51958
 30
0.0
 11
130.480524
 21
-23.499589
 31
0.0
  0
LINE
  5
569
100
AcDbEntity
  8
0
390
0
  6
Continuous
 62
     7
100
AcDbLine
 10
130.288705
 20
-23.545495
 30
0.0
 11
130.384684
 21
-23.51958
 31
0.0
  0
LINE
  5
56A
100
AcDbEntity
  8
0
390
0
  6
Continuous
 62
     7
100
AcDbLine
 10
130.192626
 20
-23.577258
 30
0.0
 11
130.288705
 21
-23.545495
 31
0.0
  0
LINE
  5
56B
100
AcDbEntity
  8
0
390
0
  6
Continuous
 62
     7
100
AcDbLine
 10
130.096465
 20
-23.614794
 30
0.0
 11
130.192626
 21
-23.577258
 31
0.0
  0
LINE
  5
56C
100
AcDbEntity
  8
0
390
0
  6
Continuous
 62
     7
100
AcDbLine
 10
130.000227
 20
-23.658032
 30
0.0
 11
130.096465
 21
-23.614794
 31
0.0
  0
LINE
  5
56D
100
AcDbEntity
  8
0
390
0
  6
Continuous
 62
     7
100
AcDbLine
 10
129.903901
 20
-23.70691
 30
0.0
 11
130.000227
 21
-23.658032
 31
0.0
  0
LINE
  5
56E
100
AcDbEntity
  8
0
390
0
  6
Continuous
 62
     7
100
AcDbLine
 10
129.807468
 20
-23.761375
 30
0.0
 11
129.903901
 21
-23.70691
 31
0.0
  0
LINE
  5
56F
100
AcDbEntity
  8
0
390
0
  6
Continuous
 62
     7
100
AcDbLine
 10
129.710861
 20
-23.821406
 30
0.0
 11
129.807468
 21
-23.761375
 31
0.0
  0
LINE
  5
570
100
AcDbEntity
  8
0
390
0
  6
Continuous
 62
     7
100
AcDbLine
 10
129.616726
 20
-23.885246
 30
0.0
 11
129.710861
 21
-23.821406
 31
0.0
  0
LINE
  5
571
100
AcDbEntity
  8
0
390
0
  6
Continuous
 62
     7
100
AcDbLine
 10
129.527748
 20
-23.95119
 30
0.0
 11
129.616726
 21
-23.885246
 31
0.0
  0
LINE
  5
572
100
AcDbEntity
  8
0
390
0
  6
Continuous
 62
     7
100
AcDbLine
 10
129.443917
 20
-24.019308
 30
0.0
 11
129.527748
 21
-23.95119
 31
0.0
  0
LINE
  5
573
100
AcDbEntity
  8
0
390
0
  6
Continuous
 62
     7
100
AcDbLine
 10
129.365274
 20
-24.08964
 30
0.0
 11
129.443917
 21
-24.019308
 31
0.0
  0
LINE
  5
574
100
AcDbEntity
  8
0
390
0
  6
Continuous
 62
     7
100
AcDbLine
 10
129.291873
 20
-24.162221
 30
0.0
 11
129.365274
 21
-24.08964
 31
0.0
  0
LINE
  5
575
100
AcDbEntity
  8
0
390
0
  6
Continuous
 62
     7
100
AcDbLine
 10
129.223778
 20
-24.237075
 30
0.0
 11
129.291873
 21
-24.162221
 31
0.0
  0
LINE
  5
576
100
AcDbEntity
  8
0
390
0
  6
Continuous
 62
     7
100
AcDbLine
 10
129.161066
 20
-24.314215
 30
0.0
 11
129.223778
 21
-24.237075
 31
0.0
  0
LINE
  5
577
100
AcDbEntity
  8
0
390
0
  6
Continuous
 62
     7
100
AcDbLine
 10
129.103823
 20
-24.393638
 30
0.0
 11
129.161066
 21
-24.314215
 31
0.0
  0
LINE
  5
578
100
AcDbEntity
  8
0
390
0
  6
Continuous
 62
     7
100
AcDbLine
 10
129.052141
 20
-24.475319
 30
0.0
 11
129.103823
 21
-24.393638
 31
0.0
  0
LINE
  5
579
100
AcDbEntity
  8
0
390
0
  6
Continuous
 62
     7
100
AcDbLine
 10
129.005881
 20
-24.559633
 30
0.0
 11
129.052141
 21
-24.475319
 31
0.0
  0
LINE
  5
57A
100
AcDbEntity
  8
0
390
0
  6
Continuous
 62
     7
100
AcDbLine
 10
128.966182
 20
-24.645849
 30
0.0
 11
129.005881
 21
-24.559633
 31
0.0
  0
LINE
  5
57B
100
AcDbEntity
  8
0
390
0
  6
Continuous
 62
     7
100
AcDbLine
 10
128.934729
 20
-24.732587
 30
0.0
 11
128.966182
 21
-24.645849
 31
0.0
  0
LINE
  5
57C
100
AcDbEntity
  8
0
390
0
  6
Continuous
 62
     7
100
AcDbLine
 10
128.912036
 20
-24.819546
 30
0.0
 11
128.934729
 21
-24.732587
 31
0.0
  0
LINE
  5
57D
100
AcDbEntity
  8
0
390
0
  6
Continuous
 62
     7
100
AcDbLine
 10
128.898521
 20
-24.906586
 30
0.0
 11
128.912036
 21
-24.819546
 31
0.0
  0
LINE
  5
57E
100
AcDbEntity
  8
0
390
0
  6
Continuous
 62
     7
100
AcDbLine
 10
128.89459
 20
-24.993365
 30
0.0
 11
128.898521
 21
-24.906586
 31
0.0
  0
LINE
  5
57F
100
AcDbEntity
  8
0
390
0
  6
Continuous
 62
     7
100
AcDbLine
 10
128.900544
 20
-25.07934
 30
0.0
 11
128.89459
 21
-24.993365
 31
0.0
  0
LINE
  5
580
100
AcDbEntity
  8
0
390
0
  6
Continuous
 62
     7
100
AcDbLine
 10
128.916482
 20
-25.16383
 30
0.0
 11
128.900544
 21
-25.07934
 31
0.0
  0
LINE
  5
581
100
AcDbEntity
  8
0
390
0
  6
Continuous
 62
     7
100
AcDbLine
 10
128.942259
 20
-25.246141
 30
0.0
 11
128.916482
 21
-25.16383
 31
0.0
  0
LINE
  5
582
100
AcDbEntity
  8
0
390
0
  6
Continuous
 62
     7
100
AcDbLine
 10
128.977519
 20
-25.325696
 30
0.0
 11
128.942259
 21
-25.246141
 31
0.0
  0
LINE
  5
583
100
AcDbEntity
  8
0
390
0
  6
Continuous
 62
     7
100
AcDbLine
 10
129.021962
 20
-25.402439
 30
0.0
 11
128.977519
 21
-25.325696
 31
0.0
  0
LINE
  5
584
100
AcDbEntity
  8
0
390
0
  6
Continuous
 62
     7
100
AcDbLine
 10
129.072234
 20
-25.471426
 30
0.0
 11
129.021962
 21
-25.402439
 31
0.0
  0
LINE
  5
585
100
AcDbEntity
  8
0
390
0
  6
Continuous
 62
     7
100
AcDbLine
 10
129.129325
 20
-25.533633
 30
0.0
 11
129.072234
 21
-25.471426
 31
0.0
  0
LINE
  5
586
100
AcDbEntity
  8
0
390
0
  6
Continuous
 62
     7
100
AcDbLine
 10
129.192963
 20
-25.588381
 30
0.0
 11
129.129325
 21
-25.533633
 31
0.0
  0
LINE
  5
587
100
AcDbEntity
  8
0
390
0
  6
Continuous
 62
     7
100
AcDbLine
 10
129.262658
 20
-25.635118
 30
0.0
 11
129.192963
 21
-25.588381
 31
0.0
  0
LINE
  5
588
100
AcDbEntity
  8
0
390
0
  6
Continuous
 62
     7
100
AcDbLine
 10
129.337754
 20
-25.673495
 30
0.0
 11
129.262658
 21
-25.635118
 31
0.0
  0
LINE
  5
589
100
AcDbEntity
  8
0
390
0
  6
Continuous
 62
     7
100
AcDbLine
 10
129.417564
 20
-25.703419
 30
0.0
 11
129.337754
 21
-25.673495
 31
0.0
  0
LINE
  5
58A
100
AcDbEntity
  8
0
390
0
  6
Continuous
 62
     7
100
AcDbLine
 10
129.501503
 20
-25.725036
 30
0.0
 11
129.417564
 21
-25.703419
 31
0.0
  0
LINE
  5
58B
100
AcDbEntity
  8
0
390
0
  6
Continuous
 62
     7
100
AcDbLine
 10
129.589158
 20
-25.738637
 30
0.0
 11
129.501503
 21
-25.725036
 31
0.0
  0
LINE
  5
58C
100
AcDbEntity
  8
0
390
0
  6
Continuous
 62
     7
100
AcDbLine
 10
129.6803
 20
-25.744575
 30
0.0
 11
129.589158
 21
-25.738637
 31
0.0
  0
LINE
  5
58D
100
AcDbEntity
  8
0
390
0
  6
Continuous
 62
     7
100
AcDbLine
 10
129.774658
 20
-25.743195
 30
0.0
 11
129.6803
 21
-25.744575
 31
0.0
  0
LINE
  5
58E
100
AcDbEntity
  8
0
390
0
  6
Continuous
 62
     7
100
AcDbLine
 10
129.87035
 20
-25.73524
 30
0.0
 11
129.774658
 21
-25.743195
 31
0.0
  0
LINE
  5
58F
100
AcDbEntity
  8
0
390
0
  6
Continuous
 62
     7
100
AcDbLine
 10
129.965991
 20
-25.721248
 30
0.0
 11
129.87035
 21
-25.73524
 31
0.0
  0
LINE
  5
590
100
AcDbEntity
  8
0
390
0
  6
Continuous
 62
     7
100
AcDbLine
 10
130.06183
 20
-25.701258
 30
0.0
 11
129.965991
 21
-25.721248
 31
0.0
  0
LINE
  5
591
100
AcDbEntity
  8
0
390
0
  6
Continuous
 62
     7
100
AcDbLine
 10
130.157809
 20
-25.675342
 30
0.0
 11
130.06183
 21
-25.701258
 31
0.0
  0
LINE
  5
592
100
AcDbEntity
  8
0
390
0
  6
Continuous
 62
     7
100
AcDbLine
 10
130.253889
 20
-25.64358
 30
0.0
 11
130.157809
 21
-25.675342
 31
0.0
  0
LINE
  5
593
100
AcDbEntity
  8
0
390
0
  6
Continuous
 62
     7
100
AcDbLine
 10
130.350049
 20
-25.606044
 30
0.0
 11
130.253889
 21
-25.64358
 31
0.0
  0
LINE
  5
594
100
AcDbEntity
  8
0
390
0
  6
Continuous
 62
     7
100
AcDbLine
 10
130.446287
 20
-25.562806
 30
0.0
 11
130.350049
 21
-25.606044
 31
0.0
  0
LINE
  5
595
100
AcDbEntity
  8
0
390
0
  6
Continuous
 62
     7
100
AcDbLine
 10
128.165568
 20
-23.814271
 30
0.0
 11
128.133594
 21
-23.77817
 31
0.0
  0
LINE
  5
596
100
AcDbEntity
  8
0
390
0
  6
Continuous
 62
     7
100
AcDbLine
 10
128.201016
 20
-23.847286
 30
0.0
 11
128.165568
 21
-23.814271
 31
0.0
  0
LINE
  5
597
100
AcDbEntity
  8
0
390
0
  6
Continuous
 62
     7
100
AcDbLine
 10
128.239627
 20
-23.877139
 30
0.0
 11
128.201016
 21
-23.847286
 31
0.0
  0
LINE
  5
598
100
AcDbEntity
  8
0
390
0
  6
Continuous
 62
     7
100
AcDbLine
 10
128.281119
 20
-23.903851
 30
0.0
 11
128.239627
 21
-23.877139
 31
0.0
  0
LINE
  5
599
100
AcDbEntity
  8
0
390
0
  6
Continuous
 62
     7
100
AcDbLine
 10
128.325271
 20
-23.927515
 30
0.0
 11
128.281119
 21
-23.903851
 31
0.0
  0
LINE
  5
59A
100
AcDbEntity
  8
0
390
0
  6
Continuous
 62
     7
100
AcDbLine
 10
128.371929
 20
-23.948265
 30
0.0
 11
128.325271
 21
-23.927515
 31
0.0
  0
LINE
  5
59B
100
AcDbEntity
  8
0
390
0
  6
Continuous
 62
     7
100
AcDbLine
 10
128.420998
 20
-23.966252
 30
0.0
 11
128.371929
 21
-23.948265
 31
0.0
  0
LINE
  5
59C
100
AcDbEntity
  8
0
390
0
  6
Continuous
 62
     7
100
AcDbLine
 10
128.472437
 20
-23.981621
 30
0.0
 11
128.420998
 21
-23.966252
 31
0.0
  0
LINE
  5
59D
100
AcDbEntity
  8
0
390
0
  6
Continuous
 62
     7
100
AcDbLine
 10
128.52845
 20
-23.995037
 30
0.0
 11
128.472437
 21
-23.981621
 31
0.0
  0
LINE
  5
59E
100
AcDbEntity
  8
0
390
0
  6
Continuous
 62
     7
100
AcDbLine
 10
128.6241
 20
-24.009502
 30
0.0
 11
128.52845
 21
-23.995037
 31
0.0
  0
LINE
  5
59F
100
AcDbEntity
  8
0
390
0
  6
Continuous
 62
     7
100
AcDbLine
 10
128.724895
 20
-24.013175
 30
0.0
 11
128.6241
 21
-24.009502
 31
0.0
  0
LINE
  5
5A0
100
AcDbEntity
  8
0
390
0
  6
Continuous
 62
     7
100
AcDbLine
 10
128.828187
 20
-24.00605
 30
0.0
 11
128.724895
 21
-24.013175
 31
0.0
  0
LINE
  5
5A1
100
AcDbEntity
  8
0
390
0
  6
Continuous
 62
     7
100
AcDbLine
 10
128.933776
 20
-23.98851
 30
0.0
 11
128.828187
 21
-24.00605
 31
0.0
  0
LINE
  5
5A2
100
AcDbEntity
  8
0
390
0
  6
Continuous
 62
     7
100
AcDbLine
 10
129.041627
 20
-23.960909
 30
0.0
 11
128.933776
 21
-23.98851
 31
0.0
  0
LINE
  5
5A3
100
AcDbEntity
  8
0
390
0
  6
Continuous
 62
     7
100
AcDbLine
 10
129.151814
 20
-23.923536
 30
0.0
 11
129.041627
 21
-23.960909
 31
0.0
  0
LINE
  5
5A4
100
AcDbEntity
  8
0
390
0
  6
Continuous
 62
     7
100
AcDbLine
 10
129.264467
 20
-23.876605
 30
0.0
 11
129.151814
 21
-23.923536
 31
0.0
  0
LINE
  5
5A5
100
AcDbEntity
  8
0
390
0
  6
Continuous
 62
     7
100
AcDbLine
 10
129.379741
 20
-23.820264
 30
0.0
 11
129.264467
 21
-23.876605
 31
0.0
  0
LINE
  5
5A6
100
AcDbEntity
  8
0
390
0
  6
Continuous
 62
     7
100
AcDbLine
 10
129.497785
 20
-23.75461
 30
0.0
 11
129.379741
 21
-23.820264
 31
0.0
  0
LINE
  5
5A7
100
AcDbEntity
  8
0
390
0
  6
Continuous
 62
     7
100
AcDbLine
 10
129.618807
 20
-23.679659
 30
0.0
 11
129.497785
 21
-23.75461
 31
0.0
  0
LINE
  5
5A8
100
AcDbEntity
  8
0
390
0
  6
Continuous
 62
     7
100
AcDbLine
 10
129.736503
 20
-23.599584
 30
0.0
 11
129.618807
 21
-23.679659
 31
0.0
  0
LINE
  5
5A9
100
AcDbEntity
  8
0
390
0
  6
Continuous
 62
     7
100
AcDbLine
 10
129.844493
 20
-23.518448
 30
0.0
 11
129.736503
 21
-23.599584
 31
0.0
  0
LINE
  5
5AA
100
AcDbEntity
  8
0
390
0
  6
Continuous
 62
     7
100
AcDbLine
 10
129.942849
 20
-23.436055
 30
0.0
 11
129.844493
 21
-23.518448
 31
0.0
  0
LINE
  5
5AB
100
AcDbEntity
  8
0
390
0
  6
Continuous
 62
     7
100
AcDbLine
 10
130.031542
 20
-23.352228
 30
0.0
 11
129.942849
 21
-23.436055
 31
0.0
  0
LINE
  5
5AC
100
AcDbEntity
  8
0
390
0
  6
Continuous
 62
     7
100
AcDbLine
 10
130.110501
 20
-23.266768
 30
0.0
 11
130.031542
 21
-23.352228
 31
0.0
  0
LINE
  5
5AD
100
AcDbEntity
  8
0
390
0
  6
Continuous
 62
     7
100
AcDbLine
 10
130.179582
 20
-23.179466
 30
0.0
 11
130.110501
 21
-23.266768
 31
0.0
  0
LINE
  5
5AE
100
AcDbEntity
  8
0
390
0
  6
Continuous
 62
     7
100
AcDbLine
 10
130.238553
 20
-23.090138
 30
0.0
 11
130.179582
 21
-23.179466
 31
0.0
  0
LINE
  5
5AF
100
AcDbEntity
  8
0
390
0
  6
Continuous
 62
     7
100
AcDbLine
 10
130.287074
 20
-22.998672
 30
0.0
 11
130.238553
 21
-23.090138
 31
0.0
  0
LINE
  5
5B0
100
AcDbEntity
  8
0
390
0
  6
Continuous
 62
     7
100
AcDbLine
 10
130.324716
 20
-22.905096
 30
0.0
 11
130.287074
 21
-22.998672
 31
0.0
  0
LINE
  5
5B1
100
AcDbEntity
  8
0
390
0
  6
Continuous
 62
     7
100
AcDbLine
 10
130.350405
 20
-22.811831
 30
0.0
 11
130.324716
 21
-22.905096
 31
0.0
  0
LINE
  5
5B2
100
AcDbEntity
  8
0
390
0
  6
Continuous
 62
     7
100
AcDbLine
 10
130.360931
 20
-22.755205
 30
0.0
 11
130.350405
 21
-22.811831
 31
0.0
  0
LINE
  5
5B3
100
AcDbEntity
  8
0
390
0
  6
Continuous
 62
     7
100
AcDbLine
 10
130.367812
 20
-22.701964
 30
0.0
 11
130.360931
 21
-22.755205
 31
0.0
  0
LINE
  5
5B4
100
AcDbEntity
  8
0
390
0
  6
Continuous
 62
     7
100
AcDbLine
 10
130.371338
 20
-22.649822
 30
0.0
 11
130.367812
 21
-22.701964
 31
0.0
  0
LINE
  5
5B5
100
AcDbEntity
  8
0
390
0
  6
Continuous
 62
     7
100
AcDbLine
 10
130.371359
 20
-22.598759
 30
0.0
 11
130.371338
 21
-22.649822
 31
0.0
  0
LINE
  5
5B6
100
AcDbEntity
  8
0
390
0
  6
Continuous
 62
     7
100
AcDbLine
 10
130.3677
 20
-22.5488
 30
0.0
 11
130.371359
 21
-22.598759
 31
0.0
  0
LINE
  5
5B7
100
AcDbEntity
  8
0
390
0
  6
Continuous
 62
     7
100
AcDbLine
 10
130.360174
 20
-22.500032
 30
0.0
 11
130.3677
 21
-22.5488
 31
0.0
  0
LINE
  5
5B8
100
AcDbEntity
  8
0
390
0
  6
Continuous
 62
     7
100
AcDbLine
 10
130.348607
 20
-22.452618
 30
0.0
 11
130.360174
 21
-22.500032
 31
0.0
  0
LINE
  5
5B9
100
AcDbEntity
  8
0
390
0
  6
Continuous
 62
     7
100
AcDbLine
 10
130.332866
 20
-22.406806
 30
0.0
 11
130.348607
 21
-22.452618
 31
0.0
  0
LINE
  5
5BA
100
AcDbEntity
  8
0
390
0
  6
Continuous
 62
     7
100
AcDbLine
 10
130.312892
 20
-22.362914
 30
0.0
 11
130.332866
 21
-22.406806
 31
0.0
  0
LINE
  5
5BB
100
AcDbEntity
  8
0
390
0
  6
Continuous
 62
     7
100
AcDbLine
 10
130.289144
 20
-22.322008
 30
0.0
 11
130.312892
 21
-22.362914
 31
0.0
  0
LINE
  5
5BC
100
AcDbEntity
  8
0
390
0
  6
Continuous
 62
     7
100
AcDbLine
 10
130.265052
 20
-22.287774
 30
0.0
 11
130.289144
 21
-22.322008
 31
0.0
  0
LINE
  5
5BD
100
AcDbEntity
  8
0
390
0
  6
Continuous
 62
     7
100
AcDbLine
 10
130.238897
 20
-22.255822
 30
0.0
 11
130.265052
 21
-22.287774
 31
0.0
  0
LINE
  5
5BE
100
AcDbEntity
  8
0
390
0
  6
Continuous
 62
     7
100
AcDbLine
 10
130.210354
 20
-22.225539
 30
0.0
 11
130.238897
 21
-22.255822
 31
0.0
  0
LINE
  5
5BF
100
AcDbEntity
  8
0
390
0
  6
Continuous
 62
     7
100
AcDbLine
 10
130.179552
 20
-22.196933
 30
0.0
 11
130.210354
 21
-22.225539
 31
0.0
  0
LINE
  5
5C0
100
AcDbEntity
  8
0
390
0
  6
Continuous
 62
     7
100
AcDbLine
 10
130.146599
 20
-22.169982
 30
0.0
 11
130.179552
 21
-22.196933
 31
0.0
  0
LINE
  5
5C1
100
AcDbEntity
  8
0
390
0
  6
Continuous
 62
     7
100
AcDbLine
 10
130.111588
 20
-22.144642
 30
0.0
 11
130.146599
 21
-22.169982
 31
0.0
  0
LINE
  5
5C2
100
AcDbEntity
  8
0
390
0
  6
Continuous
 62
     7
100
AcDbLine
 10
130.074585
 20
-22.120859
 30
0.0
 11
130.111588
 21
-22.144642
 31
0.0
  0
LINE
  5
5C3
100
AcDbEntity
  8
0
390
0
  6
Continuous
 62
     7
100
AcDbLine
 10
130.03564
 20
-22.098569
 30
0.0
 11
130.074585
 21
-22.120859
 31
0.0
  0
LINE
  5
5C4
100
AcDbEntity
  8
0
390
0
  6
Continuous
 62
     7
100
AcDbLine
 10
129.994784
 20
-22.07771
 30
0.0
 11
130.03564
 21
-22.098569
 31
0.0
  0
LINE
  5
5C5
100
AcDbEntity
  8
0
390
0
  6
Continuous
 62
     7
100
AcDbLine
 10
129.949642
 20
-22.05713
 30
0.0
 11
129.994784
 21
-22.07771
 31
0.0
  0
LINE
  5
5C6
100
AcDbEntity
  8
0
390
0
  6
Continuous
 62
     7
100
AcDbLine
 10
129.848348
 20
-22.020579
 30
0.0
 11
129.949642
 21
-22.05713
 31
0.0
  0
LINE
  5
5C7
100
AcDbEntity
  8
0
390
0
  6
Continuous
 62
     7
100
AcDbLine
 10
129.738087
 20
-21.997816
 30
0.0
 11
129.848348
 21
-22.020579
 31
0.0
  0
LINE
  5
5C8
100
AcDbEntity
  8
0
390
0
  6
Continuous
 62
     7
100
AcDbLine
 10
129.623711
 20
-21.990079
 30
0.0
 11
129.738087
 21
-21.997816
 31
0.0
  0
LINE
  5
5C9
100
AcDbEntity
  8
0
390
0
  6
Continuous
 62
     7
100
AcDbLine
 10
129.505951
 20
-21.996888
 30
0.0
 11
129.623711
 21
-21.990079
 31
0.0
  0
LINE
  5
5CA
100
AcDbEntity
  8
0
390
0
  6
Continuous
 62
     7
100
AcDbLine
 10
129.385165
 20
-22.017637
 30
0.0
 11
129.505951
 21
-21.996888
 31
0.0
  0
LINE
  5
5CB
100
AcDbEntity
  8
0
390
0
  6
Continuous
 62
     7
100
AcDbLine
 10
129.261404
 20
-22.051765
 30
0.0
 11
129.385165
 21
-22.017637
 31
0.0
  0
LINE
  5
5CC
100
AcDbEntity
  8
0
390
0
  6
Continuous
 62
     7
100
AcDbLine
 10
129.134527
 20
-22.098837
 30
0.0
 11
129.261404
 21
-22.051765
 31
0.0
  0
LINE
  5
5CD
100
AcDbEntity
  8
0
390
0
  6
Continuous
 62
     7
100
AcDbLine
 10
129.004305
 20
-22.158551
 30
0.0
 11
129.134527
 21
-22.098837
 31
0.0
  0
LINE
  5
5CE
100
AcDbEntity
  8
0
390
0
  6
Continuous
 62
     7
100
AcDbLine
 10
128.870493
 20
-22.230721
 30
0.0
 11
129.004305
 21
-22.158551
 31
0.0
  0
LINE
  5
5CF
100
AcDbEntity
  8
0
390
0
  6
Continuous
 62
     7
100
AcDbLine
 10
128.732771
 20
-22.315295
 30
0.0
 11
128.870493
 21
-22.230721
 31
0.0
  0
LINE
  5
5D0
100
AcDbEntity
  8
0
390
0
  6
Continuous
 62
     7
100
AcDbLine
 10
128.599493
 20
-22.406712
 30
0.0
 11
128.732771
 21
-22.315295
 31
0.0
  0
LINE
  5
5D1
100
AcDbEntity
  8
0
390
0
  6
Continuous
 62
     7
100
AcDbLine
 10
128.479137
 20
-22.499602
 30
0.0
 11
128.599493
 21
-22.406712
 31
0.0
  0
LINE
  5
5D2
100
AcDbEntity
  8
0
390
0
  6
Continuous
 62
     7
100
AcDbLine
 10
128.371621
 20
-22.594278
 30
0.0
 11
128.479137
 21
-22.499602
 31
0.0
  0
LINE
  5
5D3
100
AcDbEntity
  8
0
390
0
  6
Continuous
 62
     7
100
AcDbLine
 10
128.277014
 20
-22.691041
 30
0.0
 11
128.371621
 21
-22.594278
 31
0.0
  0
LINE
  5
5D4
100
AcDbEntity
  8
0
390
0
  6
Continuous
 62
     7
100
AcDbLine
 10
128.1955
 20
-22.790221
 30
0.0
 11
128.277014
 21
-22.691041
 31
0.0
  0
LINE
  5
5D5
100
AcDbEntity
  8
0
390
0
  6
Continuous
 62
     7
100
AcDbLine
 10
128.127418
 20
-22.892125
 30
0.0
 11
128.1955
 21
-22.790221
 31
0.0
  0
LINE
  5
5D6
100
AcDbEntity
  8
0
390
0
  6
Continuous
 62
     7
100
AcDbLine
 10
128.073301
 20
-22.996934
 30
0.0
 11
128.127418
 21
-22.892125
 31
0.0
  0
LINE
  5
5D7
100
AcDbEntity
  8
0
390
0
  6
Continuous
 62
     7
100
AcDbLine
 10
128.03385
 20
-23.104569
 30
0.0
 11
128.073301
 21
-22.996934
 31
0.0
  0
LINE
  5
5D8
100
AcDbEntity
  8
0
390
0
  6
Continuous
 62
     7
100
AcDbLine
 10
128.0098
 20
-23.214555
 30
0.0
 11
128.03385
 21
-23.104569
 31
0.0
  0
LINE
  5
5D9
100
AcDbEntity
  8
0
390
0
  6
Continuous
 62
     7
100
AcDbLine
 10
128.001993
 20
-23.321955
 30
0.0
 11
128.0098
 21
-23.214555
 31
0.0
  0
LINE
  5
5DA
100
AcDbEntity
  8
0
390
0
  6
Continuous
 62
     7
100
AcDbLine
 10
128.002432
 20
-23.371564
 30
0.0
 11
128.001993
 21
-23.321955
 31
0.0
  0
LINE
  5
5DB
100
AcDbEntity
  8
0
390
0
  6
Continuous
 62
     7
100
AcDbLine
 10
128.004869
 20
-23.417373
 30
0.0
 11
128.002432
 21
-23.371564
 31
0.0
  0
LINE
  5
5DC
100
AcDbEntity
  8
0
390
0
  6
Continuous
 62
     7
100
AcDbLine
 10
128.009391
 20
-23.462018
 30
0.0
 11
128.004869
 21
-23.417373
 31
0.0
  0
LINE
  5
5DD
100
AcDbEntity
  8
0
390
0
  6
Continuous
 62
     7
100
AcDbLine
 10
128.016068
 20
-23.505496
 30
0.0
 11
128.009391
 21
-23.462018
 31
0.0
  0
LINE
  5
5DE
100
AcDbEntity
  8
0
390
0
  6
Continuous
 62
     7
100
AcDbLine
 10
128.024977
 20
-23.547789
 30
0.0
 11
128.016068
 21
-23.505496
 31
0.0
  0
LINE
  5
5DF
100
AcDbEntity
  8
0
390
0
  6
Continuous
 62
     7
100
AcDbLine
 10
128.036197
 20
-23.588855
 30
0.0
 11
128.024977
 21
-23.547789
 31
0.0
  0
LINE
  5
5E0
100
AcDbEntity
  8
0
390
0
  6
Continuous
 62
     7
100
AcDbLine
 10
128.049802
 20
-23.628631
 30
0.0
 11
128.036197
 21
-23.588855
 31
0.0
  0
LINE
  5
5E1
100
AcDbEntity
  8
0
390
0
  6
Continuous
 62
     7
100
AcDbLine
 10
128.065859
 20
-23.667023
 30
0.0
 11
128.049802
 21
-23.628631
 31
0.0
  0
LINE
  5
5E2
100
AcDbEntity
  8
0
390
0
  6
Continuous
 62
     7
100
AcDbLine
 10
128.084413
 20
-23.703913
 30
0.0
 11
128.065859
 21
-23.667023
 31
0.0
  0
LINE
  5
5E3
100
AcDbEntity
  8
0
390
0
  6
Continuous
 62
     7
100
AcDbLine
 10
128.105888
 20
-23.739842
 30
0.0
 11
128.084413
 21
-23.703913
 31
0.0
  0
LINE
  5
5E4
100
AcDbEntity
  8
0
390
0
  6
Continuous
 62
     7
100
AcDbLine
 10
128.133594
 20
-23.77817
 30
0.0
 11
128.105888
 21
-23.739842
 31
0.0
  0
CIRCLE
  5
5E5
100
AcDbEntity
  8
0
390
0
  6
Continuous
 62
     7
100
AcDbCircle
 10
114.232809
 20
0.0
 30
0.0
 40
23.5
210
0.0
220
0.0
230
1.0
  0
LINE
  5
5E6
100
AcDbEntity
  8
0
390
0
  6
Continuous
 62
     7
100
AcDbLine
 10
123.107058
 20
-27.066973
 30
0.0
 11
123.108617
 21
-27.07531
 31
0.0
  0
LINE
  5
5E7
100
AcDbEntity
  8
0
390
0
  6
Continuous
 62
     7
100
AcDbLine
 10
123.106973
 20
-27.06271
 30
0.0
 11
123.107058
 21
-27.066973
 31
0.0
  0
LINE
  5
5E8
100
AcDbEntity
  8
0
390
0
  6
Continuous
 62
     7
100
AcDbLine
 10
123.107208
 20
-27.061318
 30
0.0
 11
123.106973
 21
-27.06271
 31
0.0
  0
LINE
  5
5E9
100
AcDbEntity
  8
0
390
0
  6
Continuous
 62
     7
100
AcDbLine
 10
123.107435
 20
-27.06073
 30
0.0
 11
123.107208
 21
-27.061318
 31
0.0
  0
LINE
  5
5EA
100
AcDbEntity
  8
0
390
0
  6
Continuous
 62
     7
100
AcDbLine
 10
123.108585
 20
-27.058918
 30
0.0
 11
123.107435
 21
-27.06073
 31
0.0
  0
LINE
  5
5EB
100
AcDbEntity
  8
0
390
0
  6
Continuous
 62
     7
100
AcDbLine
 10
123.112343
 20
-27.054856
 30
0.0
 11
123.108585
 21
-27.058918
 31
0.0
  0
LINE
  5
5EC
100
AcDbEntity
  8
0
390
0
  6
Continuous
 62
     7
100
AcDbLine
 10
123.120218
 20
-27.048645
 30
0.0
 11
123.112343
 21
-27.054856
 31
0.0
  0
LINE
  5
5ED
100
AcDbEntity
  8
0
390
0
  6
Continuous
 62
     7
100
AcDbLine
 10
123.133078
 20
-27.040985
 30
0.0
 11
123.120218
 21
-27.048645
 31
0.0
  0
LINE
  5
5EE
100
AcDbEntity
  8
0
390
0
  6
Continuous
 62
     7
100
AcDbLine
 10
123.153118
 20
-27.031794
 30
0.0
 11
123.133078
 21
-27.040985
 31
0.0
  0
LINE
  5
5EF
100
AcDbEntity
  8
0
390
0
  6
Continuous
 62
     7
100
AcDbLine
 10
126.588887
 20
-25.643668
 30
0.0
 11
123.153118
 21
-27.031794
 31
0.0
  0
LINE
  5
5F0
100
AcDbEntity
  8
0
390
0
  6
Continuous
 62
     7
100
AcDbLine
 10
126.609686
 20
-25.636359
 30
0.0
 11
126.588887
 21
-25.643668
 31
0.0
  0
LINE
  5
5F1
100
AcDbEntity
  8
0
390
0
  6
Continuous
 62
     7
100
AcDbLine
 10
126.624257
 20
-25.632936
 30
0.0
 11
126.609686
 21
-25.636359
 31
0.0
  0
LINE
  5
5F2
100
AcDbEntity
  8
0
390
0
  6
Continuous
 62
     7
100
AcDbLine
 10
126.634235
 20
-25.631933
 30
0.0
 11
126.624257
 21
-25.632936
 31
0.0
  0
LINE
  5
5F3
100
AcDbEntity
  8
0
390
0
  6
Continuous
 62
     7
100
AcDbLine
 10
126.639759
 20
-25.632245
 30
0.0
 11
126.634235
 21
-25.631933
 31
0.0
  0
LINE
  5
5F4
100
AcDbEntity
  8
0
390
0
  6
Continuous
 62
     7
100
AcDbLine
 10
126.641843
 20
-25.632749
 30
0.0
 11
126.639759
 21
-25.632245
 31
0.0
  0
LINE
  5
5F5
100
AcDbEntity
  8
0
390
0
  6
Continuous
 62
     7
100
AcDbLine
 10
126.642414
 20
-25.633014
 30
0.0
 11
126.641843
 21
-25.632749
 31
0.0
  0
LINE
  5
5F6
100
AcDbEntity
  8
0
390
0
  6
Continuous
 62
     7
100
AcDbLine
 10
126.643549
 20
-25.633851
 30
0.0
 11
126.642414
 21
-25.633014
 31
0.0
  0
LINE
  5
5F7
100
AcDbEntity
  8
0
390
0
  6
Continuous
 62
     7
100
AcDbLine
 10
126.646449
 20
-25.636977
 30
0.0
 11
126.643549
 21
-25.633851
 31
0.0
  0
LINE
  5
5F8
100
AcDbEntity
  8
0
390
0
  6
Continuous
 62
     7
100
AcDbLine
 10
126.651118
 20
-25.644058
 30
0.0
 11
126.646449
 21
-25.636977
 31
0.0
  0
LINE
  5
5F9
100
AcDbEntity
  8
0
390
0
  6
Continuous
 62
     7
100
AcDbLine
 10
126.656722
 20
-25.65584
 30
0.0
 11
126.651118
 21
-25.644058
 31
0.0
  0
LINE
  5
5FA
100
AcDbEntity
  8
0
390
0
  6
Continuous
 62
     7
100
AcDbLine
 10
126.660874
 20
-25.668207
 30
0.0
 11
126.656722
 21
-25.65584
 31
0.0
  0
LINE
  5
5FB
100
AcDbEntity
  8
0
390
0
  6
Continuous
 62
     7
100
AcDbLine
 10
126.662433
 20
-25.676541
 30
0.0
 11
126.660874
 21
-25.668207
 31
0.0
  0
LINE
  5
5FC
100
AcDbEntity
  8
0
390
0
  6
Continuous
 62
     7
100
AcDbLine
 10
126.662518
 20
-25.680802
 30
0.0
 11
126.662433
 21
-25.676541
 31
0.0
  0
LINE
  5
5FD
100
AcDbEntity
  8
0
390
0
  6
Continuous
 62
     7
100
AcDbLine
 10
126.662283
 20
-25.682191
 30
0.0
 11
126.662518
 21
-25.680802
 31
0.0
  0
LINE
  5
5FE
100
AcDbEntity
  8
0
390
0
  6
Continuous
 62
     7
100
AcDbLine
 10
126.662058
 20
-25.682776
 30
0.0
 11
126.662283
 21
-25.682191
 31
0.0
  0
LINE
  5
5FF
100
AcDbEntity
  8
0
390
0
  6
Continuous
 62
     7
100
AcDbLine
 10
126.660909
 20
-25.684586
 30
0.0
 11
126.662058
 21
-25.682776
 31
0.0
  0
LINE
  5
600
100
AcDbEntity
  8
0
390
0
  6
Continuous
 62
     7
100
AcDbLine
 10
126.657152
 20
-25.688647
 30
0.0
 11
126.660909
 21
-25.684586
 31
0.0
  0
LINE
  5
601
100
AcDbEntity
  8
0
390
0
  6
Continuous
 62
     7
100
AcDbLine
 10
126.649278
 20
-25.694856
 30
0.0
 11
126.657152
 21
-25.688647
 31
0.0
  0
LINE
  5
602
100
AcDbEntity
  8
0
390
0
  6
Continuous
 62
     7
100
AcDbLine
 10
126.636417
 20
-25.702515
 30
0.0
 11
126.649278
 21
-25.694856
 31
0.0
  0
LINE
  5
603
100
AcDbEntity
  8
0
390
0
  6
Continuous
 62
     7
100
AcDbLine
 10
126.616375
 20
-25.711706
 30
0.0
 11
126.636417
 21
-25.702515
 31
0.0
  0
LINE
  5
604
100
AcDbEntity
  8
0
390
0
  6
Continuous
 62
     7
100
AcDbLine
 10
123.180602
 20
-27.099834
 30
0.0
 11
126.616375
 21
-25.711706
 31
0.0
  0
LINE
  5
605
100
AcDbEntity
  8
0
390
0
  6
Continuous
 62
     7
100
AcDbLine
 10
123.1598
 20
-27.107145
 30
0.0
 11
123.180602
 21
-27.099834
 31
0.0
  0
LINE
  5
606
100
AcDbEntity
  8
0
390
0
  6
Continuous
 62
     7
100
AcDbLine
 10
123.145228
 20
-27.110569
 30
0.0
 11
123.1598
 21
-27.107145
 31
0.0
  0
LINE
  5
607
100
AcDbEntity
  8
0
390
0
  6
Continuous
 62
     7
100
AcDbLine
 10
123.135249
 20
-27.111573
 30
0.0
 11
123.145228
 21
-27.110569
 31
0.0
  0
LINE
  5
608
100
AcDbEntity
  8
0
390
0
  6
Continuous
 62
     7
100
AcDbLine
 10
123.129726
 20
-27.111261
 30
0.0
 11
123.135249
 21
-27.111573
 31
0.0
  0
LINE
  5
609
100
AcDbEntity
  8
0
390
0
  6
Continuous
 62
     7
100
AcDbLine
 10
123.127641
 20
-27.110757
 30
0.0
 11
123.129726
 21
-27.111261
 31
0.0
  0
LINE
  5
60A
100
AcDbEntity
  8
0
390
0
  6
Continuous
 62
     7
100
AcDbLine
 10
123.127072
 20
-27.110493
 30
0.0
 11
123.127641
 21
-27.110757
 31
0.0
  0
LINE
  5
60B
100
AcDbEntity
  8
0
390
0
  6
Continuous
 62
     7
100
AcDbLine
 10
123.125938
 20
-27.109657
 30
0.0
 11
123.127072
 21
-27.110493
 31
0.0
  0
LINE
  5
60C
100
AcDbEntity
  8
0
390
0
  6
Continuous
 62
     7
100
AcDbLine
 10
123.12304
 20
-27.106533
 30
0.0
 11
123.125938
 21
-27.109657
 31
0.0
  0
LINE
  5
60D
100
AcDbEntity
  8
0
390
0
  6
Continuous
 62
     7
100
AcDbLine
 10
123.118372
 20
-27.099455
 30
0.0
 11
123.12304
 21
-27.106533
 31
0.0
  0
LINE
  5
60E
100
AcDbEntity
  8
0
390
0
  6
Continuous
 62
     7
100
AcDbLine
 10
123.112769
 20
-27.087677
 30
0.0
 11
123.118372
 21
-27.099455
 31
0.0
  0
LINE
  5
60F
100
AcDbEntity
  8
0
390
0
  6
Continuous
 62
     7
100
AcDbLine
 10
123.108617
 20
-27.07531
 30
0.0
 11
123.112769
 21
-27.087677
 31
0.0
  0
CIRCLE
  5
610
100
AcDbEntity
  8
0
390
0
  6
Continuous
 62
     7
100
AcDbCircle
 10
-110.897544
 20
0.0
 30
0.0
 40
32.308326
210
0.0
220
0.0
230
1.0
  0
CIRCLE
  5
611
100
AcDbEntity
  8
0
390
0
  6
Continuous
 62
     7
100
AcDbCircle
 10
-110.897544
 20
0.0
 30
0.0
 40
23.5
210
0.0
220
0.0
230
1.0
  0
ARC
  5
612
100
AcDbEntity
  8
0
390
0
  6
Continuous
 62
     7
100
AcDbCircle
 10
-35.409349
 20
75.488195
 30
0.0
 40
72.501714
210
0.0
220
0.0
230
1.0
100
AcDbArc
 50
217.817827
 51
232.182173
  0
ARC
  5
613
100
AcDbEntity
  8
0
390
0
  6
Continuous
 62
     7
100
AcDbCircle
 10
-85.995489
 20
10.314769
 30
0.0
 40
10.0
210
0.0
220
0.0
230
1.0
100
AcDbArc
 50
352.817656
 51
52.182344
  0
ARC
  5
614
100
AcDbEntity
  8
0
390
0
  6
Continuous
 62
     7
100
AcDbCircle
 10
-4.141116
 20
0.0
 30
0.0
 40
72.501714
210
0.0
220
0.0
230
1.0
100
AcDbArc
 50
172.817827
 51
187.182173
  0
ARC
  5
615
100
AcDbEntity
  8
0
390
0
  6
Continuous
 62
     7
100
AcDbCircle
 10
-85.995489
 20
-10.314768
 30
0.0
 40
10.0
210
0.0
220
0.0
230
1.0
100
AcDbArc
 50
307.817656
 51
7.182344
  0
ARC
  5
616
100
AcDbEntity
  8
0
390
0
  6
Continuous
 62
     7
100
AcDbCircle
 10
-35.409349
 20
-75.488194
 30
0.0
 40
72.501714
210
0.0
220
0.0
230
1.0
100
AcDbArc
 50
127.817827
 51
142.182173
  0
ARC
  5
617
100
AcDbEntity
  8
0
390
0
  6
Continuous
 62
     7
100
AcDbCircle
 10
-100.582775
 20
-24.902054
 30
0.0
 40
10.0
210
0.0
220
0.0
230
0.9999999999999999
100
AcDbArc
 50
262.817656
 51
322.182344
  0
ARC
  5
618
100
AcDbEntity
  8
0
390
0
  6
Continuous
 62
     7
100
AcDbCircle
 10
-110.897544
 20
-106.756331
 30
0.0
 40
72.501618
210
0.0
220
0.0
230
1.0
100
AcDbArc
 50
82.817817
 51
97.182183
  0
ARC
  5
619
100
AcDbEntity
  8
0
390
0
  6
Continuous
 62
     7
100
AcDbCircle
 10
-121.212313
 20
-24.902054
 30
0.0
 40
10.0
210
0.0
220
0.0
230
0.9999999999999999
100
AcDbArc
 50
217.817656
 51
277.182344
  0
ARC
  5
61A
100
AcDbEntity
  8
0
390
0
  6
Continuous
 62
     7
100
AcDbCircle
 10
-186.385738
 20
-75.488194
 30
0.0
 40
72.501714
210
0.0
220
0.0
230
1.0
100
AcDbArc
 50
37.817827
 51
52.182173
  0
ARC
  5
61B
100
AcDbEntity
  8
0
390
0
  6
Continuous
 62
     7
100
AcDbCircle
 10
-135.799599
 20
-10.314768
 30
0.0
 40
10.0
210
0.0
220
0.0
230
1.0
100
AcDbArc
 50
172.817656
 51
232.182344
  0
ARC
  5
61C
100
AcDbEntity
  8
0
390
0
  6
Continuous
 62
     7
100
AcDbCircle
 10
-217.653972
 20
0.0
 30
0.0
 40
72.501714
210
0.0
220
0.0
230
1.0
100
AcDbArc
 50
352.817827
 51
7.182173
  0
ARC
  5
61D
100
AcDbEntity
  8
0
390
0
  6
Continuous
 62
     7
100
AcDbCircle
 10
-135.799599
 20
10.314769
 30
0.0
 40
10.0
210
0.0
220
0.0
230
0.9999999999999999
100
AcDbArc
 50
127.817656
 51
187.182344
  0
ARC
  5
61E
100
AcDbEntity
  8
0
390
0
  6
Continuous
 62
     7
100
AcDbCircle
 10
-186.385738
 20
75.488195
 30
0.0
 40
72.501714
210
0.0
220
0.0
230
1.0
100
AcDbArc
 50
307.817827
 51
322.182173
  0
ARC
  5
61F
100
AcDbEntity
  8
0
390
0
  6
Continuous
 62
     7
100
AcDbCircle
 10
-121.212313
 20
24.902055
 30
0.0
 40
10.0
210
0.0
220
0.0
230
0.9999999999999999
100
AcDbArc
 50
82.817656
 51
142.182344
  0
ARC
  5
620
100
AcDbEntity
  8
0
390
0
  6
Continuous
 62
     7
100
AcDbCircle
 10
-110.897544
 20
106.756332
 30
0.0
 40
72.501618
210
0.0
220
0.0
230
1.0
100
AcDbArc
 50
262.817817
 51
277.182183
  0
ARC
  5
621
100
AcDbEntity
  8
0
390
0
  6
Continuous
 62
     7
100
AcDbCircle
 10
-100.582775
 20
24.902055
 30
0.0
 40
10.0
210
0.0
220
0.0
230
1.0
100
AcDbArc
 50
37.817656
 51
97.182344
  0
POINT
  5
622
100
AcDbEntity
  8
0
390
0
 62
     7
100
AcDbPoint
 10
0.0
 20
0.0
 30
0.0
  0
ENDSEC
  0
SECTION
  2
OBJECTS
  0
DICTIONARY
  5
19
100
AcDbDictionary
280
     0
281
     1
  3
ACAD_GROUP
350
1A
  3
ACAD_MLINESTYLE
350
1B
  3
ACAD_LAYOUT
350
1E
  3
ACAD_PLOTSETTINGS
350
22
  3
ACAD_PLOTSTYLENAME
350
1F
  3
ACAD_WIPEOUT_VARS
350
23
  0
DICTIONARY
  5
1A
102
{ACAD_REACTORS
330
19
102
}
100
AcDbDictionary
280
     0
281
     1
  0
DICTIONARY
  5
1B
102
{ACAD_REACTORS
330
19
102
}
100
AcDbDictionary
280
     0
281
     1
  3
Standard
350
1C
  0
MLINESTYLE
  5
1C
102
{ACAD_REACTORS
330
1B
102
}
100
AcDbMlineStyle
  2
Standard
 70
     0
  3

 62
     0
 51
90.0
 52
90.0
 71
     2
 49
0.5
 62
   256
  6
ByLayer
 49
-0.5
 62
   256
  6
ByLayer
  0
ACDBDICTIONARYWDFLT
  5
1F
102
{ACAD_REACTORS
330
19
102
}
100
AcDbDictionary
281
     1
  3
Normal
350
1D
100
AcDbDictionaryWithDefault
340
1D
  0
ACDBPLACEHOLDER
  5
1D
102
{ACAD_REACTORS
330
1F
102
}
  0
LAYOUT
  5
20
102
{ACAD_REACTORS
330
1E
102
}
100
AcDbPlotSettings
  1

  2

  4

  6

 40
0.0
 41
0.0
 42
0.0
 43
0.0
 44
0.0
 45
0.0
 46
0.0
 47
0.0
 48
0.0
 49
0.0
140
0.0
141
0.0
142
1.0
143
1.0
 70
  1024
 72
     0
 73
     0
 74
     0
  7

 75
     0
147
1.0
148
0.0
149
0.0
100
AcDbLayout
  1
Model
 70
     0
 71
     1
 10
0.0
 20
0.0
 11
0.0
 21
0.0
 12
0.0
 22
0.0
 32
0.0
 14
0.0
 24
0.0
 34
0.0
 15
0.0
 25
0.0
 35
0.0
146
0.0
 13
0.0
 23
0.0
 33
0.0
 16
0.0
 26
0.0
 36
0.0
 17
0.0
 27
0.0
 37
0.0
 76
     0
330
A
331
0
345
0
346
0
  0
LAYOUT
  5
21
102
{ACAD_REACTORS
330
1E
102
}
100
AcDbPlotSettings
  1

  2

  4

  6

 40
0.0
 41
0.0
 42
0.0
 43
0.0
 44
0.0
 45
0.0
 46
0.0
 47
0.0
 48
0.0
 49
0.0
140
0.0
141
0.0
142
1.0
143
1.0
 70
     0
 72
     0
 73
     0
 74
     0
  7

 75
     0
147
1.0
148
0.0
149
0.0
100
AcDbLayout
  1
Layout1
 70
     0
 71
     2
 10
0.0
 20
0.0
 11
0.0
 21
0.0
 12
0.0
 22
0.0
 32
0.0
 14
0.0
 24
0.0
 34
0.0
 15
0.0
 25
0.0
 35
0.0
146
0.0
 13
0.0
 23
0.0
 33
0.0
 16
0.0
 26
0.0
 36
0.0
 17
0.0
 27
0.0
 37
0.0
 76
     0
330
B
331
0
345
0
346
0
  0
DICTIONARY
  5
1E
102
{ACAD_REACTORS
330
19
102
}
100
AcDbDictionary
280
     0
281
     1
  3
Layout1
350
21
  3
Model
350
20
  0
DICTIONARY
  5
22
102
{ACAD_REACTORS
330
19
102
}
100
AcDbDictionary
280
     0
281
     1
  0
WIPEOUTVARIABLES
  5
23
100
AcDbWipeoutVariables
 70
     1
  0
ENDSEC
  0
EOF
