  0
SECTION
  2
HEADER
  9
$ACADVER
  1
AC1015
  9
$ACADMAINTVER
 70
     6
  9
$DWGCODEPAGE
  3
DOS932
  9
$INSBASE
 10
0.0
 20
0.0
 30
0.0
  9
$EXTMIN
 10
-109.098219
 20
-24.397187
 30
0.0
  9
$EXTMAX
 10
322.723879
 20
257.862542
 30
9.906
  9
$LIMMIN
 10
-109.098219
 20
-24.397187
  9
$LIMMAX
 10
322.723879
 20
257.862542
  9
$ORTHOMODE
 70
     0
  9
$REGENMODE
 70
     1
  9
$FILLMODE
 70
     1
  9
$QTEXTMODE
 70
     0
  9
$MIRRTEXT
 70
     1
  9
$LTSCALE
 40
10.0
  9
$ATTMODE
 70
     1
  9
$TEXTSIZE
 40
0.2
  9
$TRACEWID
 40
0.05
  9
$TEXTSTYLE
  7
Standard
  9
$CLAYER
  8
0
  9
$CELTYPE
  6
Continuous
  9
$CECOLOR
 62
   256
  9
$CELTSCALE
 40
1.0
  9
$DISPSILH
 70
     0
  9
$DIMSCALE
 40
1.0
  9
$DIMASZ
 40
1.40208
  9
$DIMEXO
 40
1.40208
  9
$DIMDLI
 40
0.38
  9
$DIMRND
 40
0.0
  9
$DIMDLE
 40
0.0
  9
$DIMEXE
 40
1.05156
  9
$DIMTP
 40
0.0
  9
$DIMTM
 40
0.0
  9
$DIMTXT
 40
3.5052
  9
$DIMCEN
 40
0.09
  9
$DIMTSZ
 40
0.0
  9
$DIMTOL
 70
     0
  9
$DIMLIM
 70
     0
  9
$DIMTIH
 70
     0
  9
$DIMTOH
 70
     0
  9
$DIMSE1
 70
     0
  9
$DIMSE2
 70
     0
  9
$DIMTAD
 70
     1
  9
$DIMZIN
 70
     0
  9
$DIMBLK
  1

  9
$DIMASO
 70
     1
  9
$DIMSHO
 70
     1
  9
$DIMPOST
  1

  9
$DIMAPOST
  1

  9
$DIMALT
 70
     0
  9
$DIMALTD
 70
     2
  9
$DIMALTF
 40
25.4
  9
$DIMLFAC
 40
1.0
  9
$DIMTOFL
 70
     0
  9
$DIMTVP
 40
0.0
  9
$DIMTIX
 70
     0
  9
$DIMSOXD
 70
     0
  9
$DIMSAH
 70
     0
  9
$DIMBLK1
  1

  9
$DIMBLK2
  1

  9
$DIMSTYLE
  2
Standard
  9
$DIMCLRD
 70
     7
  9
$DIMCLRE
 70
     7
  9
$DIMCLRT
 70
     7
  9
$DIMTFAC
 40
0.5
  9
$DIMGAP
 40
1.7526
  9
$DIMJUST
 70
     0
  9
$DIMSD1
 70
     0
  9
$DIMSD2
 70
     0
  9
$DIMTOLJ
 70
     1
  9
$DIMTZIN
 70
     0
  9
$DIMALTZ
 70
     0
  9
$DIMALTTZ
 70
     0
  9
$DIMUPT
 70
     0
  9
$DIMDEC
 70
     2
  9
$DIMTDEC
 70
     4
  9
$DIMALTU
 70
     2
  9
$DIMALTTD
 70
     2
  9
$DIMTXSTY
  7
Standard
  9
$DIMAUNIT
 70
     0
  9
$DIMADEC
 70
     0
  9
$DIMALTRND
 40
0.0
  9
$DIMAZIN
 70
     0
  9
$DIMDSEP
 70
     0
  9
$DIMATFIT
 70
     3
  9
$DIMFRAC
 70
     0
  9
$DIMLDRBLK
  1

  9
$DIMLUNIT
 70
     2
  9
$DIMLWD
 70
     0
  9
$DIMLWE
 70
     0
  9
$DIMTMOVE
 70
     0
  9
$LUNITS
 70
     2
  9
$LUPREC
 70
     4
  9
$SKETCHINC
 40
0.1
  9
$FILLETRAD
 40
0.0
  9
$AUNITS
 70
     0
  9
$AUPREC
 70
     0
  9
$MENU
  1
acad
  9
$ELEVATION
 40
0.0
  9
$PELEVATION
 40
0.0
  9
$THICKNESS
 40
0.0
  9
$LIMCHECK
 70
     0
  9
$CHAMFERA
 40
0.0
  9
$CHAMFERB
 40
0.0
  9
$CHAMFERC
 40
0.0
  9
$CHAMFERD
 40
0.0
  9
$SKPOLY
 70
     0
  9
$TDCREATE
 40
2459781.659930556
  9
$TDUCREATE
 40
0.000000000
  9
$TDUPDATE
 40
2459781.284884259
  9
$TDUUPDATE
 40
0.000000000
  9
$TDINDWG
 40
0.0000000000
  9
$TDUSRTIMER
 40
0.0000000000
  9
$USRTIMER
 70
     1
  9
$ANGBASE
 50
0.0
  9
$ANGDIR
 70
     0
  9
$PDMODE
 70
     0
  9
$PDSIZE
 40
0.0
  9
$PLINEWID
 40
0.0
  9
$SPLFRAME
 70
     0
  9
$SPLINETYPE
 70
     6
  9
$SPLINESEGS
 70
     8
  9
$HANDSEED
  5
736
  9
$SURFTAB1
 70
     6
  9
$SURFTAB2
 70
     6
  9
$SURFTYPE
 70
     6
  9
$SURFU
 70
     6
  9
$SURFV
 70
     6
  9
$UCSBASE
  2

  9
$UCSNAME
  2

  9
$UCSORG
 10
0.0
 20
0.0
 30
0.0
  9
$UCSXDIR
 10
1.0
 20
0.0
 30
0.0
  9
$UCSYDIR
 10
0.0
 20
1.0
 30
0.0
  9
$UCSORTHOREF
  2

  9
$UCSORTHOVIEW
 70
     0
  9
$UCSORGTOP
 10
0.0
 20
0.0
 30
0.0
  9
$UCSORGBOTTOM
 10
0.0
 20
0.0
 30
0.0
  9
$UCSORGLEFT
 10
0.0
 20
0.0
 30
0.0
  9
$UCSORGRIGHT
 10
0.0
 20
0.0
 30
0.0
  9
$UCSORGFRONT
 10
0.0
 20
0.0
 30
0.0
  9
$UCSORGBACK
 10
0.0
 20
0.0
 30
0.0
  9
$PUCSBASE
  2

  9
$PUCSNAME
  2

  9
$PUCSORG
 10
0.0
 20
0.0
 30
0.0
  9
$PUCSXDIR
 10
1.0
 20
0.0
 30
0.0
  9
$PUCSYDIR
 10
0.0
 20
1.0
 30
0.0
  9
$PUCSORTHOREF
  2

  9
$PUCSORTHOVIEW
 70
     0
  9
$PUCSORGTOP
 10
0.0
 20
0.0
 30
0.0
  9
$PUCSORGBOTTOM
 10
0.0
 20
0.0
 30
0.0
  9
$PUCSORGLEFT
 10
0.0
 20
0.0
 30
0.0
  9
$PUCSORGRIGHT
 10
0.0
 20
0.0
 30
0.0
  9
$PUCSORGFRONT
 10
0.0
 20
0.0
 30
0.0
  9
$PUCSORGBACK
 10
0.0
 20
0.0
 30
0.0
  9
$USERI1
 70
     0
  9
$USERI2
 70
     0
  9
$USERI3
 70
     0
  9
$USERI4
 70
     0
  9
$USERI5
 70
     0
  9
$USERR1
 40
0.0
  9
$USERR2
 40
0.0
  9
$USERR3
 40
0.0
  9
$USERR4
 40
0.0
  9
$USERR5
 40
0.0
  9
$WORLDVIEW
 70
     1
  9
$SHADEDGE
 70
     3
  9
$SHADEDIF
 70
    70
  9
$TILEMODE
 70
     1
  9
$MAXACTVP
 70
    16
  9
$PINSBASE
 10
0.0
 20
0.0
 30
0.0
  9
$PLIMCHECK
 70
     0
  9
$PEXTMIN
 10
1.000000E+20
 20
1.000000E+20
 30
1.000000E+20
  9
$PEXTMAX
 10
-1.000000E+20
 20
-1.000000E+20
 30
-1.000000E+20
  9
$PLIMMIN
 10
0.0
 20
0.0
  9
$PLIMMAX
 10
12.0
 20
9.0
  9
$UNITMODE
 70
     0
  9
$VISRETAIN
 70
     0
  9
$PLINEGEN
 70
     1
  9
$PSLTSCALE
 70
     0
  9
$TREEDEPTH
 70
  3020
  9
$CMLSTYLE
  2
Standard
  9
$CMLJUST
 70
     0
  9
$CMLSCALE
 40
1.0
  9
$PROXYGRAPHICS
 70
     0
  9
$MEASUREMENT
 70
     0
  9
$CELWEIGHT
370
     0
  9
$ENDCAPS
280
     0
  9
$JOINSTYLE
280
     0
  9
$LWDISPLAY
290
     0
  9
$INSUNITS
 70
     0
  9
$HYPERLINKBASE
  1

  9
$STYLESHEET
  1

  9
$XEDIT
290
     1
  9
$CEPSNTYPE
380
     0
  9
$PSTYLEMODE
290
     1
  9
$FINGERPRINTGUID
  2

  9
$VERSIONGUID
  2

  9
$EXTNAMES
290
     1
  9
$PSVPSCALE
 40
0.0
  0
ENDSEC
  0
SECTION
  2
CLASSES
  0
CLASS
  1
LWPOLYLINE
  2
AcDbPolyline
  3
AutoCAD 2000
 90
        0
280
     0
281
     1
  0
CLASS
  1
IMAGE
  2
AcDbRasterImage
  3
ISM
 90
      127
280
     0
281
     1
  0
CLASS
  1
OLE2FRAME
  2
AcDbOle2Frame
  3
AutoCAD 2000
 90
        0
280
     0
281
     1
  0
CLASS
  1
HATCH
  2
AcDbHatch
  3
AutoCAD 2000
 90
        0
280
     0
281
     1
  0
CLASS
  1
DICTIONARYVAR
  2
AcDbDictionaryVar
  3
AutoCAD 2000
 90
        0
280
     0
281
     0
  0
CLASS
  1
RASTERVARIABLES
  2
AcDbRasterVariables
  3
ISM
 90
        0
280
     0
281
     0
  0
CLASS
  1
IMAGEDEF
  2
AcDbRasterImageDef
  3
ISM
 90
        0
280
     0
281
     0
  0
CLASS
  1
IMAGEDEF_REACTOR
  2
AcDbRasterImageDefReactor
  3
ISM
 90
        1
280
     0
281
     0
  0
CLASS
  1
IDBUFFER
  2
AcDbIdBuffer
  3
AutoCAD 2000
 90
        0
280
     0
281
     0
  0
CLASS
  1
SPATIAL_FILTER
  2
AcDbSpatialFilter
  3
AutoCAD 2000
 90
        0
280
     0
281
     0
  0
CLASS
  1
XRECORD
  2
AcDbXrecord
  3
AutoCAD 2000
 90
        0
280
     0
281
     0
  0
CLASS
  1
SORTENTSTABLE
  2
AcDbSortentsTable
  3
AutoCAD 2000
 90
        0
280
     0
281
     0
  0
CLASS
  1
LAYER_INDEX
  2
AcDbLayerIndex
  3
AutoCAD 2000
 90
        0
280
     0
281
     0
  0
CLASS
  1
SPATIAL_INDEX
  2
AcDbSpatialIndex
  3
AutoCAD 2000
 90
        0
280
     0
281
     0
  0
CLASS
  1
OBJECT_PTR
  2
CAseDLPNTableRecord
  3
"ASE-LPNTableRecord"
 90
        1
280
     0
281
     0
  0
CLASS
  1
LAYOUT
  2
AcDbLayout
  3
AutoCAD 2000
 90
        0
280
     0
281
     0
  0
CLASS
  1
PLOTSETTINGS
  2
AcDbPlotSettings
  3
AutoCAD 2000
 90
        0
280
     0
281
     0
  0
CLASS
  1
ACDBDICTIONARYWDFLT
  2
AcDbDictionaryWithDefault
  3
AutoCAD 2000
 90
        0
280
     0
281
     0
  0
CLASS
  1
ACDBPLACEHOLDER
  2
AcDbPlaceHolder
  3
AutoCAD 2000
 90
        0
280
     0
281
     0
  0
CLASS
  1
VBA_PROJECT
  2
AcDbVbaProject
  3
acadvba
 90
        0
280
     0
281
     0
  0
CLASS
  1
WIPEOUT
  2
AcDbWipeout
  3
WipeOut|AutoCAD Express Tool|expresstools@autodesk.com
 90
      127
280
     0
281
     1
  0
CLASS
  1
WIPEOUTVARIABLES
  2
AcDbWipeoutVariables
  3
WipeOut|AutoCAD Express Tool|expresstools@autodesk.com
 90
        0
280
     0
281
     0
  0
CLASS
  1
RTEXT
  2
RText
  3
RText|AutoCAD Express Tool|expresstools@autodesk.com
 90
        0
280
     0
281
     1
  0
CLASS
  1
ARCALIGNEDTEXT
  2
AcDbArcAlignedText
  3
ATEXT|AutoCAD Express Tool|expresstools@autodesk.com
 90
        0
280
     0
281
     1
  0
ENDSEC
  0
SECTION
  2
TABLES
  0
TABLE
  2
VPORT
  5
7
100
AcDbSymbolTable
 70
     1
  0
VPORT
  5
15
100
AcDbSymbolTableRecord
100
AcDbViewportTableRecord
  2
*ACTIVE
 70
     0
 10
0.0
 20
0.0
 11
1.0
 21
1.0
 12
6.591288
 22
4.579184
 13
0.0
 23
0.0
 14
1.0
 24
1.0
 15
0.0
 25
0.0
 16
0.0
 26
0.0
 36
1.0
 17
0.0
 27
0.0
 37
0.0
 40
9.158369
 41
0.688564
 42
50.0
 43
0.0
 44
0.0
 50
0.0
 51
0.0
 71
     0
 72
   100
 73
     1
 74
     1
 75
     0
 76
     0
 77
     0
 78
     0
281
     0
 65
     0
110
0.0
120
0.0
130
0.0
111
1.0
121
0.0
131
0.0
112
0.0
122
1.0
132
0.0
345
0
346
0
 79
     0
146
0.0
  0
ENDTAB
  0
TABLE
  2
LTYPE
  5
4
100
AcDbSymbolTable
 70
     3
  0
LTYPE
  5
11
100
AcDbSymbolTableRecord
100
AcDbLinetypeTableRecord
  2
ByBlock
 70
    64
  3

 72
    65
 73
     0
 40
0.0
  0
LTYPE
  5
12
100
AcDbSymbolTableRecord
100
AcDbLinetypeTableRecord
  2
ByLayer
 70
    64
  3

 72
    65
 73
     0
 40
0.0
  0
LTYPE
  5
13
100
AcDbSymbolTableRecord
100
AcDbLinetypeTableRecord
  2
Continuous
 70
    64
  3
Solid line
 72
    65
 73
     0
 40
0.0
  0
ENDTAB
  0
TABLE
  2
LAYER
  5
2
100
AcDbSymbolTable
 70
     1
  0
LAYER
  5
14
100
AcDbSymbolTableRecord
100
AcDbLayerTableRecord
  2
0
 70
     0
 62
     7
  6
Continuous
290
     1
370
    -3
390
1D
  0
ENDTAB
  0
TABLE
  2
STYLE
  5
3
100
AcDbSymbolTable
 70
     1
  0
STYLE
  5
17
100
AcDbSymbolTableRecord
100
AcDbTextStyleTableRecord
  2
Standard
 70
     0
 40
0.0
 41
1.0
 50
0.0
 71
     0
 42
0.0
  3
FG教科書体NT-M
  4

1001
ACAD
1000
FG教科書体NT-M
1071
        0
  0
ENDTAB
  0
TABLE
  2
VIEW
  5
5
100
AcDbSymbolTable
 70
     0
  0
ENDTAB
  0
TABLE
  2
UCS
  5
6
100
AcDbSymbolTable
 70
     0
  0
ENDTAB
  0
TABLE
  2
APPID
  5
8
100
AcDbSymbolTable
 70
     2
  0
APPID
  5
16
100
AcDbSymbolTableRecord
100
AcDbRegAppTableRecord
  2
ACAD
 70
     0
  0
APPID
  5
26
100
AcDbSymbolTableRecord
100
AcDbRegAppTableRecord
  2
TOPsolid_Design
 70
     0
  0
ENDTAB
  0
TABLE
  2
DIMSTYLE
  5
9
100
AcDbSymbolTable
 70
     1
100
AcDbDimStyleTable
 71
     0
  0
DIMSTYLE
105
18
100
AcDbSymbolTableRecord
100
AcDbDimStyleTableRecord
  2
Standard
 70
     0
  3

  4

 40
1.0
 41
1.40208
 42
1.40208
 43
0.38
 44
1.05156
 45
0.0
 46
0.0
 47
0.0
 48
0.0
 71
     0
 72
     0
 73
     0
 74
     0
 75
     0
 76
     0
 77
     1
 78
     0
 79
     0
140
3.5052
141
0.09
142
0.0
143
25.4
144
1.0
145
0.0
146
0.5
147
1.7526
148
0.0
170
     0
171
     2
172
     0
173
     0
174
     0
175
     0
176
     7
177
     7
178
     7
179
     0
271
     2
272
     4
273
     2
274
     2
275
     0
276
     0
277
     2
278
    46
279
     0
280
     0
281
     0
282
     0
283
     1
284
     0
285
     0
286
     0
288
     0
289
     3
340
17
341
0
342
0
343
0
344
0
371
    -2
372
    -2
  0
ENDTAB
  0
TABLE
  2
BLOCK_RECORD
  5
1
100
AcDbSymbolTable
 70
     0
  0
BLOCK_RECORD
  5
A
100
AcDbSymbolTableRecord
100
AcDbBlockTableRecord
  2
*MODEL_SPACE
340
20
  0
BLOCK_RECORD
  5
B
100
AcDbSymbolTableRecord
100
AcDbBlockTableRecord
  2
*PAPER_SPACE
340
21
  0
ENDTAB
  0
ENDSEC
  0
SECTION
  2
BLOCKS
  0
BLOCK
  5
D
100
AcDbEntity
  8
0
390
0
100
AcDbBlockBegin
  2
*MODEL_SPACE
 70
     0
 10
0.0
 20
0.0
 30
0.0
  3
*MODEL_SPACE
  1

  0
ENDBLK
  5
E
100
AcDbEntity
  8
0
390
0
100
AcDbBlockEnd
  0
BLOCK
  5
F
100
AcDbEntity
 67
     1
  8
0
390
0
100
AcDbBlockBegin
  2
*PAPER_SPACE
 70
     0
 10
0.0
 20
0.0
 30
0.0
  3
*PAPER_SPACE
  1

  0
ENDBLK
  5
10
100
AcDbEntity
 67
     1
  8
0
390
0
100
AcDbBlockEnd
  0
ENDSEC
  0
SECTION
  2
ENTITIES
  0
LINE
  5
27
100
AcDbEntity
  8
0
390
0
  6
Continuous
 62
     7
100
AcDbLine
 10
-4.75
 20
-6.665455
 30
0.0
 11
-4.75
 21
6.665454
 31
0.0
  0
ARC
  5
28
100
AcDbEntity
  8
0
390
0
  6
Continuous
 62
     7
100
AcDbCircle
 10
5.102805
 20
17.918189
 30
0.0
 40
14.956664
210
0.0
220
0.0
230
1.0
100
AcDbArc
 50
228.794869
 51
243.562889
  0
POLYLINE
  5
29
100
AcDbEntity
  8
0
390
0
  6
Continuous
 62
     7
100
AcDb2dPolyline
 66
     1
 10
0.0
 20
0.0
 30
0.0
 40
0.1
 41
0.1
  0
VERTEX
  5
2A
100
AcDbEntity
  8
0
390
0
 62
     7
100
AcDbVertex
100
AcDb2dVertex
 10
-1.55613
 20
4.525639
 30
0.0
 42
-0.086181
  0
VERTEX
  5
2B
100
AcDbEntity
  8
0
390
0
 62
     7
100
AcDbVertex
100
AcDb2dVertex
 10
4.112652
 20
0.866865
 30
0.0
 42
-0.089817
  0
VERTEX
  5
2C
100
AcDbEntity
  8
0
390
0
 62
     7
100
AcDbVertex
100
AcDb2dVertex
 10
4.437287
 20
0.332708
 30
0.0
  0
VERTEX
  5
2D
100
AcDbEntity
  8
0
390
0
 62
     7
100
AcDbVertex
100
AcDb2dVertex
 10
4.476192
 20
0.195187
 30
0.0
  0
VERTEX
  5
2E
100
AcDbEntity
  8
0
390
0
 62
     7
100
AcDbVertex
100
AcDb2dVertex
 10
4.494104
 20
0.070578
 30
0.0
  0
VERTEX
  5
2F
100
AcDbEntity
  8
0
390
0
 62
     7
100
AcDbVertex
100
AcDb2dVertex
 10
4.495562
 20
-0.047995
 30
0.0
  0
VERTEX
  5
30
100
AcDbEntity
  8
0
390
0
 62
     7
100
AcDbVertex
100
AcDb2dVertex
 10
4.481506
 20
-0.168146
 30
0.0
 42
-0.21369
  0
VERTEX
  5
31
100
AcDbEntity
  8
0
390
0
 62
     7
100
AcDbVertex
100
AcDb2dVertex
 10
2.612558
 20
-2.123668
 30
0.0
 42
-0.033081
  0
VERTEX
  5
32
100
AcDbEntity
  8
0
390
0
 62
     7
100
AcDbVertex
100
AcDb2dVertex
 10
-1.55613
 20
-4.52564
 30
0.0
  0
SEQEND
  5
33
100
AcDbEntity
  8
0
390
0
  0
ARC
  5
34
100
AcDbEntity
  8
0
390
0
  6
Continuous
 62
     7
100
AcDbCircle
 10
5.109703
 20
-17.928485
 30
0.0
 40
14.968955
210
0.0
220
0.0
230
1.0
100
AcDbArc
 50
116.443207
 51
131.199034
  0
LINE
  5
35
100
AcDbEntity
  8
0
390
0
  6
Continuous
 62
     7
100
AcDbLine
 10
8.15
 20
4.525639
 30
0.0
 11
-1.55613
 21
4.525639
 31
0.0
  0
LINE
  5
36
100
AcDbEntity
  8
0
390
0
  6
Continuous
 62
     7
100
AcDbLine
 10
8.15
 20
-4.52564
 30
0.0
 11
-1.55613
 21
-4.52564
 31
0.0
  0
LINE
  5
37
100
AcDbEntity
  8
0
390
0
  6
Continuous
 62
     7
100
AcDbLine
 10
8.15
 20
-4.52564
 30
0.0
 11
8.15
 21
4.525639
 31
0.0
  0
ARC
  5
38
100
AcDbEntity
  8
0
390
0
  6
Continuous
 62
     7
100
AcDbCircle
 10
1.476144
 20
11.108585
 30
0.0
 40
7.64894
210
0.0
220
0.0
230
1.0
100
AcDbArc
 50
200.538749
 51
215.512594
  0
LINE
  5
39
100
AcDbEntity
  8
0
390
0
  6
Continuous
 62
     7
100
AcDbLine
 10
8.15
 20
8.425025
 30
0.0
 11
-5.686592
 21
8.425025
 31
0.0
  0
LINE
  5
3A
100
AcDbEntity
  8
0
390
0
  6
Continuous
 62
     7
100
AcDbLine
 10
8.15
 20
4.525639
 30
0.0
 11
8.15
 21
8.425025
 31
0.0
  0
ARC
  5
3B
100
AcDbEntity
  8
0
390
0
  6
Continuous
 62
     7
100
AcDbCircle
 10
1.470933
 20
-11.105812
 30
0.0
 40
7.643087
210
0.0
220
0.0
230
1.0
100
AcDbArc
 50
144.48164
 51
159.467017
  0
LINE
  5
3C
100
AcDbEntity
  8
0
390
0
  6
Continuous
 62
     7
100
AcDbLine
 10
8.15
 20
-8.425025
 30
0.0
 11
-5.686592
 21
-8.425025
 31
0.0
  0
LINE
  5
3D
100
AcDbEntity
  8
0
390
0
  6
Continuous
 62
     7
100
AcDbLine
 10
8.15
 20
-8.425025
 30
0.0
 11
8.15
 21
-4.52564
 31
0.0
  0
LINE
  5
3E
100
AcDbEntity
  8
0
390
0
  6
Continuous
 62
     7
100
AcDbLine
 10
-6.264265
 20
23.7
 30
0.0
 11
-5.686592
 21
23.894113
 31
0.0
  0
ARC
  5
3F
100
AcDbEntity
  8
0
390
0
  6
Continuous
 62
     7
100
AcDbCircle
 10
4.769504
 20
-11.947057
 30
0.0
 40
11.033343
210
0.0
220
0.0
230
1.0
100
AcDbArc
 50
161.384415
 51
198.615584
  0
ARC
  5
40
100
AcDbEntity
  8
0
390
0
  6
Continuous
 62
     7
100
AcDbCircle
 10
2.749914
 20
-12.654457
 30
0.0
 40
8.893637
210
0.0
220
0.0
230
1.0
100
AcDbArc
 50
198.45
 51
212.510831
  0
LINE
  5
41
100
AcDbEntity
  8
0
390
0
  6
Continuous
 62
     7
100
AcDbLine
 10
-4.75
 20
-24.099877
 30
0.0
 11
-4.75
 21
-17.434423
 31
0.0
  0
LINE
  5
42
100
AcDbEntity
  8
0
390
0
  6
Continuous
 62
     7
100
AcDbLine
 10
-4.75
 20
-24.099877
 30
0.0
 11
-5.686592
 21
-23.894114
 31
0.0
  0
LINE
  5
43
100
AcDbEntity
  8
0
390
0
  6
Continuous
 62
     7
100
AcDbLine
 10
-5.686592
 20
-23.894114
 30
0.0
 11
-6.264265
 21
-23.7
 31
0.0
  0
LINE
  5
44
100
AcDbEntity
  8
0
390
0
  6
Continuous
 62
     7
100
AcDbLine
 10
-5.686592
 20
23.894113
 30
0.0
 11
-4.75
 21
24.099877
 31
0.0
  0
LINE
  5
45
100
AcDbEntity
  8
0
390
0
  6
Continuous
 62
     7
100
AcDbLine
 10
-4.75
 20
17.434422
 30
0.0
 11
-4.75
 21
24.099877
 31
0.0
  0
ARC
  5
46
100
AcDbEntity
  8
0
390
0
  6
Continuous
 62
     7
100
AcDbCircle
 10
2.742704
 20
12.657893
 30
0.0
 40
8.885711
210
0.0
220
0.0
230
1.0
100
AcDbArc
 50
147.482866
 51
161.556303
  0
ARC
  5
47
100
AcDbEntity
  8
0
390
0
  6
Continuous
 62
     7
100
AcDbCircle
 10
4.735553
 20
11.947057
 30
0.0
 40
11.001174
210
0.0
220
0.0
230
1.0
100
AcDbArc
 50
161.327972
 51
198.67203
  0
LINE
  5
48
100
AcDbEntity
  8
0
390
0
  6
Continuous
 62
     7
100
AcDbLine
 10
8.15
 20
-15.469088
 30
0.0
 11
-5.686592
 21
-15.469088
 31
0.0
  0
LINE
  5
49
100
AcDbEntity
  8
0
390
0
  6
Continuous
 62
     7
100
AcDbLine
 10
8.15
 20
-8.425025
 30
0.0
 11
8.15
 21
-15.469088
 31
0.0
  0
LINE
  5
4A
100
AcDbEntity
  8
0
390
0
  6
Continuous
 62
     7
100
AcDbLine
 10
8.15
 20
15.469088
 30
0.0
 11
-5.686592
 21
15.469088
 31
0.0
  0
LINE
  5
4B
100
AcDbEntity
  8
0
390
0
  6
Continuous
 62
     7
100
AcDbLine
 10
8.15
 20
15.469088
 30
0.0
 11
8.15
 21
8.425025
 31
0.0
  0
ARC
  5
4C
100
AcDbEntity
  8
0
390
0
  6
Continuous
 62
     7
100
AcDbCircle
 10
5.735504
 20
-6.751448
 30
0.0
 40
14.969027
210
0.0
220
0.0
230
0.9999999999999999
100
AcDbArc
 50
225.534469
 51
240.848878
  0
LINE
  5
4D
100
AcDbEntity
  8
0
390
0
  6
Continuous
 62
     7
100
AcDbLine
 10
8.15
 20
-19.824467
 30
0.0
 11
-1.55613
 21
-19.824467
 31
0.0
  0
LINE
  5
4E
100
AcDbEntity
  8
0
390
0
  6
Continuous
 62
     7
100
AcDbLine
 10
8.15
 20
-19.824467
 30
0.0
 11
8.15
 21
-15.469088
 31
0.0
  0
ARC
  5
4F
100
AcDbEntity
  8
0
390
0
  6
Continuous
 62
     7
100
AcDbCircle
 10
5.740626
 20
6.744604
 30
0.0
 40
14.977498
210
0.0
220
0.0
230
1.0
100
AcDbArc
 50
119.155479
 51
134.461174
  0
LINE
  5
50
100
AcDbEntity
  8
0
390
0
  6
Continuous
 62
     7
100
AcDbLine
 10
8.15
 20
19.824466
 30
0.0
 11
-1.55613
 21
19.824466
 31
0.0
  0
LINE
  5
51
100
AcDbEntity
  8
0
390
0
  6
Continuous
 62
     7
100
AcDbLine
 10
8.15
 20
15.469088
 30
0.0
 11
8.15
 21
19.824466
 31
0.0
  0
POLYLINE
  5
52
100
AcDbEntity
  8
0
390
0
  6
Continuous
 62
     7
100
AcDb2dPolyline
 66
     1
 10
0.0
 20
0.0
 30
0.0
 40
0.1
 41
0.1
  0
VERTEX
  5
53
100
AcDbEntity
  8
0
390
0
 62
     7
100
AcDbVertex
100
AcDb2dVertex
 10
-1.55613
 20
-19.824467
 30
0.0
 42
-0.036037
  0
VERTEX
  5
54
100
AcDbEntity
  8
0
390
0
 62
     7
100
AcDbVertex
100
AcDb2dVertex
 10
4.319393
 20
-23.031945
 30
0.0
  0
VERTEX
  5
55
100
AcDbEntity
  8
0
390
0
 62
     7
100
AcDbVertex
100
AcDb2dVertex
 10
4.390072
 20
-23.10585
 30
0.0
  0
VERTEX
  5
56
100
AcDbEntity
  8
0
390
0
 62
     7
100
AcDbVertex
100
AcDb2dVertex
 10
4.452254
 20
-23.192228
 30
0.0
  0
VERTEX
  5
57
100
AcDbEntity
  8
0
390
0
 62
     7
100
AcDbVertex
100
AcDb2dVertex
 10
4.494104
 20
-23.304996
 30
0.0
  0
VERTEX
  5
58
100
AcDbEntity
  8
0
390
0
 62
     7
100
AcDbVertex
100
AcDb2dVertex
 10
4.481506
 20
-23.423066
 30
0.0
  0
VERTEX
  5
59
100
AcDbEntity
  8
0
390
0
 62
     7
100
AcDbVertex
100
AcDb2dVertex
 10
4.423173
 20
-23.518101
 30
0.0
  0
VERTEX
  5
5A
100
AcDbEntity
  8
0
390
0
 62
     7
100
AcDbVertex
100
AcDb2dVertex
 10
4.332344
 20
-23.602205
 30
0.0
  0
VERTEX
  5
5B
100
AcDbEntity
  8
0
390
0
 62
     7
100
AcDbVertex
100
AcDb2dVertex
 10
4.219369
 20
-23.676453
 30
0.0
  0
VERTEX
  5
5C
100
AcDbEntity
  8
0
390
0
 62
     7
100
AcDbVertex
100
AcDb2dVertex
 10
4.090281
 20
-23.742811
 30
0.0
 42
-0.094027
  0
VERTEX
  5
5D
100
AcDbEntity
  8
0
390
0
 62
     7
100
AcDbVertex
100
AcDb2dVertex
 10
-0.355602
 20
-24.385565
 30
0.0
  0
SEQEND
  5
5E
100
AcDbEntity
  8
0
390
0
  0
LINE
  5
5F
100
AcDbEntity
  8
0
390
0
  6
Continuous
 62
     7
100
AcDbLine
 10
-1.556131
 20
-24.350106
 30
0.0
 11
-4.75
 21
-24.099877
 31
0.0
  0
LINE
  5
60
100
AcDbEntity
  8
0
390
0
  6
Continuous
 62
     7
100
AcDbLine
 10
-4.75
 20
24.099877
 30
0.0
 11
-1.556131
 21
24.350106
 31
0.0
  0
LINE
  5
61
100
AcDbEntity
  8
0
390
0
  6
Continuous
 62
     7
100
AcDbLine
 10
-1.556131
 20
24.350106
 30
0.0
 11
-0.356282
 21
24.385564
 31
0.0
  0
POLYLINE
  5
62
100
AcDbEntity
  8
0
390
0
  6
Continuous
 62
     7
100
AcDb2dPolyline
 66
     1
 10
0.0
 20
0.0
 30
0.0
 40
0.1
 41
0.1
  0
VERTEX
  5
63
100
AcDbEntity
  8
0
390
0
 62
     7
100
AcDbVertex
100
AcDb2dVertex
 10
-0.356282
 20
24.385564
 30
0.0
 42
-0.134448
  0
VERTEX
  5
64
100
AcDbEntity
  8
0
390
0
 62
     7
100
AcDbVertex
100
AcDb2dVertex
 10
4.319393
 20
23.611802
 30
0.0
  0
VERTEX
  5
65
100
AcDbEntity
  8
0
390
0
 62
     7
100
AcDbVertex
100
AcDb2dVertex
 10
4.415089
 20
23.527352
 30
0.0
  0
VERTEX
  5
66
100
AcDbEntity
  8
0
390
0
 62
     7
100
AcDbVertex
100
AcDb2dVertex
 10
4.476192
 20
23.43604
 30
0.0
  0
VERTEX
  5
67
100
AcDbEntity
  8
0
390
0
 62
     7
100
AcDbVertex
100
AcDb2dVertex
 10
4.496789
 20
23.336715
 30
0.0
  0
VERTEX
  5
68
100
AcDbEntity
  8
0
390
0
 62
     7
100
AcDbVertex
100
AcDb2dVertex
 10
4.470719
 20
23.228081
 30
0.0
  0
VERTEX
  5
69
100
AcDbEntity
  8
0
390
0
 62
     7
100
AcDbVertex
100
AcDb2dVertex
 10
4.402909
 20
23.121321
 30
0.0
  0
VERTEX
  5
6A
100
AcDbEntity
  8
0
390
0
 62
     7
100
AcDbVertex
100
AcDb2dVertex
 10
4.332344
 20
23.044339
 30
0.0
  0
VERTEX
  5
6B
100
AcDbEntity
  8
0
390
0
 62
     7
100
AcDbVertex
100
AcDb2dVertex
 10
4.219369
 20
22.945227
 30
0.0
  0
VERTEX
  5
6C
100
AcDbEntity
  8
0
390
0
 62
     7
100
AcDbVertex
100
AcDb2dVertex
 10
4.090281
 20
22.84942
 30
0.0
 42
-0.011923
  0
VERTEX
  5
6D
100
AcDbEntity
  8
0
390
0
 62
     7
100
AcDbVertex
100
AcDb2dVertex
 10
-1.55613
 20
19.824466
 30
0.0
  0
SEQEND
  5
6E
100
AcDbEntity
  8
0
390
0
  0
LINE
  5
6F
100
AcDbEntity
  8
0
390
0
  6
Continuous
 62
     7
100
AcDbLine
 10
8.15
 20
19.824466
 30
0.0
 11
8.15
 21
24.385564
 31
0.0
  0
LINE
  5
70
100
AcDbEntity
  8
0
390
0
  6
Continuous
 62
     7
100
AcDbLine
 10
-0.355602
 20
-24.385565
 30
0.0
 11
-1.556131
 21
-24.350106
 31
0.0
  0
LINE
  5
71
100
AcDbEntity
  8
0
390
0
  6
Continuous
 62
     7
100
AcDbLine
 10
8.15
 20
-24.385565
 30
0.0
 11
8.15
 21
-19.824467
 31
0.0
  0
ARC
  5
72
100
AcDbEntity
  8
0
390
0
  6
Continuous
 62
     7
100
AcDbCircle
 10
-1.35
 20
-19.0
 30
0.0
 40
6.8
210
0.0
220
0.0
230
1.0
100
AcDbArc
 50
180.0
 51
223.735835
  0
ARC
  5
73
100
AcDbEntity
  8
0
390
0
  6
Continuous
 62
     7
100
AcDbCircle
 10
-1.35
 20
19.0
 30
0.0
 40
6.8
210
0.0
220
0.0
230
1.0
100
AcDbArc
 50
136.264165
 51
180.0
  0
LINE
  5
74
100
AcDbEntity
  8
0
390
0
  6
Continuous
 62
     7
100
AcDbLine
 10
-8.15
 20
19.0
 30
0.0
 11
-8.15
 21
-19.0
 31
0.0
  0
LINE
  5
75
100
AcDbEntity
  8
0
390
0
  6
Continuous
 62
     7
100
AcDbLine
 10
8.15
 20
24.385564
 30
0.0
 11
-0.355865
 21
24.385564
 31
0.0
  0
LINE
  5
76
100
AcDbEntity
  8
0
390
0
  6
Continuous
 62
     7
100
AcDbLine
 10
-0.354908
 20
-24.385565
 30
0.0
 11
8.15
 21
-24.385565
 31
0.0
  0
ARC
  5
77
100
AcDbEntity
  8
0
390
0
  6
Continuous
 62
     7
100
AcDbCircle
 10
-82.14686
 20
0.0
 30
0.0
 40
24.888973
210
0.0
220
0.0
230
1.0
100
AcDbArc
 50
344.466156
 51
15.533844
  0
LINE
  5
78
100
AcDbEntity
  8
0
390
0
  6
Continuous
 62
     7
100
AcDbLine
 10
-58.167021
 20
-6.665455
 30
0.0
 11
-59.420505
 21
-8.425025
 31
0.0
  0
ARC
  5
79
100
AcDbEntity
  8
0
390
0
  6
Continuous
 62
     7
100
AcDbCircle
 10
-24.642773
 20
-33.2
 30
0.0
 40
42.7
210
0.0
220
0.0
230
1.0
100
AcDbArc
 50
144.534673
 51
155.465327
  0
LINE
  5
7A
100
AcDbEntity
  8
0
390
0
  6
Continuous
 62
     7
100
AcDbLine
 10
-63.487397
 20
-15.469088
 30
0.0
 11
-64.384488
 21
-17.434423
 31
0.0
  0
ARC
  5
7B
100
AcDbEntity
  8
0
390
0
  6
Continuous
 62
     7
100
AcDbCircle
 10
-82.14686
 20
0.0
 30
0.0
 40
24.888973
210
0.0
220
0.0
230
1.0
100
AcDbArc
 50
284.466157
 51
315.533844
  0
LINE
  5
7C
100
AcDbEntity
  8
0
390
0
  6
Continuous
 62
     7
100
AcDbLine
 10
-75.929393
 20
-24.099877
 30
0.0
 11
-78.079967
 21
-23.894114
 31
0.0
  0
ARC
  5
7D
100
AcDbEntity
  8
0
390
0
  6
Continuous
 62
     7
100
AcDbCircle
 10
-82.14686
 20
-66.4
 30
0.0
 40
42.7
210
0.0
220
0.0
230
1.0
100
AcDbArc
 50
84.534671
 51
95.465329
  0
LINE
  5
7E
100
AcDbEntity
  8
0
390
0
  6
Continuous
 62
     7
100
AcDbLine
 10
-86.213753
 20
-23.894114
 30
0.0
 11
-88.364327
 21
-24.099877
 31
0.0
  0
ARC
  5
7F
100
AcDbEntity
  8
0
390
0
  6
Continuous
 62
     7
100
AcDbCircle
 10
-82.14686
 20
0.0
 30
0.0
 40
24.888973
210
0.0
220
0.0
230
1.0
100
AcDbArc
 50
224.466156
 51
255.533843
  0
LINE
  5
80
100
AcDbEntity
  8
0
390
0
  6
Continuous
 62
     7
100
AcDbLine
 10
-99.909232
 20
-17.434423
 30
0.0
 11
-100.806324
 21
-15.469088
 31
0.0
  0
ARC
  5
81
100
AcDbEntity
  8
0
390
0
  6
Continuous
 62
     7
100
AcDbCircle
 10
-139.650947
 20
-33.2
 30
0.0
 40
42.7
210
0.0
220
0.0
230
0.9999999999999999
100
AcDbArc
 50
24.534673
 51
35.465327
  0
LINE
  5
82
100
AcDbEntity
  8
0
390
0
  6
Continuous
 62
     7
100
AcDbLine
 10
-104.873216
 20
-8.425025
 30
0.0
 11
-106.126699
 21
-6.665455
 31
0.0
  0
ARC
  5
83
100
AcDbEntity
  8
0
390
0
  6
Continuous
 62
     7
100
AcDbCircle
 10
-82.14686
 20
0.0
 30
0.0
 40
24.888973
210
0.0
220
0.0
230
1.0
100
AcDbArc
 50
164.466156
 51
195.533844
  0
LINE
  5
84
100
AcDbEntity
  8
0
390
0
  6
Continuous
 62
     7
100
AcDbLine
 10
-106.126699
 20
6.665454
 30
0.0
 11
-104.873216
 21
8.425025
 31
0.0
  0
ARC
  5
85
100
AcDbEntity
  8
0
390
0
  6
Continuous
 62
     7
100
AcDbCircle
 10
-139.652387
 20
33.200831
 30
0.0
 40
42.701655
210
0.0
220
0.0
230
1.0
100
AcDbArc
 50
324.534885
 51
335.465115
  0
LINE
  5
86
100
AcDbEntity
  8
0
390
0
  6
Continuous
 62
     7
100
AcDbLine
 10
-100.806324
 20
15.469088
 30
0.0
 11
-99.909232
 21
17.434422
 31
0.0
  0
ARC
  5
87
100
AcDbEntity
  8
0
390
0
  6
Continuous
 62
     7
100
AcDbCircle
 10
-82.14686
 20
0.0
 30
0.0
 40
24.888973
210
0.0
220
0.0
230
1.0
100
AcDbArc
 50
104.466157
 51
135.533844
  0
LINE
  5
88
100
AcDbEntity
  8
0
390
0
  6
Continuous
 62
     7
100
AcDbLine
 10
-88.364327
 20
24.099877
 30
0.0
 11
-86.213753
 21
23.894113
 31
0.0
  0
ARC
  5
89
100
AcDbEntity
  8
0
390
0
  6
Continuous
 62
     7
100
AcDbCircle
 10
-82.14686
 20
66.4
 30
0.0
 40
42.7
210
0.0
220
0.0
230
1.0
100
AcDbArc
 50
264.534671
 51
275.465329
  0
LINE
  5
8A
100
AcDbEntity
  8
0
390
0
  6
Continuous
 62
     7
100
AcDbLine
 10
-78.079967
 20
23.894113
 30
0.0
 11
-75.929393
 21
24.099877
 31
0.0
  0
ARC
  5
8B
100
AcDbEntity
  8
0
390
0
  6
Continuous
 62
     7
100
AcDbCircle
 10
-82.14686
 20
0.0
 30
0.0
 40
24.888973
210
0.0
220
0.0
230
0.9999999999999999
100
AcDbArc
 50
44.466156
 51
75.533843
  0
LINE
  5
8C
100
AcDbEntity
  8
0
390
0
  6
Continuous
 62
     7
100
AcDbLine
 10
-64.384488
 20
17.434422
 30
0.0
 11
-63.487397
 21
15.469088
 31
0.0
  0
ARC
  5
8D
100
AcDbEntity
  8
0
390
0
  6
Continuous
 62
     7
100
AcDbCircle
 10
-24.642773
 20
33.2
 30
0.0
 40
42.7
210
0.0
220
0.0
230
1.0
100
AcDbArc
 50
204.534673
 51
215.465327
  0
LINE
  5
8E
100
AcDbEntity
  8
0
390
0
  6
Continuous
 62
     7
100
AcDbLine
 10
-59.420505
 20
8.425025
 30
0.0
 11
-58.167021
 21
6.665454
 31
0.0
  0
CIRCLE
  5
8F
100
AcDbEntity
  8
0
390
0
  6
Continuous
 62
     7
100
AcDbCircle
 10
-82.14686
 20
0.0
 30
0.0
 40
14.5
210
0.0
220
0.0
230
1.0
  0
ARC
  5
90
100
AcDbEntity
  8
0
390
0
  6
Continuous
 62
     7
100
AcDbCircle
 10
-72.571183
 20
-16.58556
 30
0.0
 40
7.800004
210
0.0
220
0.0
230
1.0
100
AcDbArc
 50
264.534694
 51
335.465304
  0
LINE
  5
91
100
AcDbEntity
  8
0
390
0
  6
Continuous
 62
     7
100
AcDbLine
 10
-73.314078
 20
-24.350106
 30
0.0
 11
-75.929393
 21
-24.099877
 31
0.0
  0
LINE
  5
92
100
AcDbEntity
  8
0
390
0
  6
Continuous
 62
     7
100
AcDbLine
 10
-64.384488
 20
-17.434423
 30
0.0
 11
-65.475441
 21
-19.824467
 31
0.0
  0
ARC
  5
93
100
AcDbEntity
  8
0
390
0
  6
Continuous
 62
     7
100
AcDbCircle
 10
-101.298215
 20
0.0
 30
0.0
 40
7.800004
210
0.0
220
0.0
230
1.0
100
AcDbArc
 50
144.534696
 51
215.465304
  0
LINE
  5
94
100
AcDbEntity
  8
0
390
0
  6
Continuous
 62
     7
100
AcDbLine
 10
-107.651061
 20
4.525639
 30
0.0
 11
-106.126699
 21
6.665454
 31
0.0
  0
LINE
  5
95
100
AcDbEntity
  8
0
390
0
  6
Continuous
 62
     7
100
AcDbLine
 10
-106.126699
 20
-6.665455
 30
0.0
 11
-107.651061
 21
-4.52564
 31
0.0
  0
ARC
  5
96
100
AcDbEntity
  8
0
390
0
  6
Continuous
 62
     7
100
AcDbCircle
 10
-72.571183
 20
16.58556
 30
0.0
 40
7.800004
210
0.0
220
0.0
230
1.0
100
AcDbArc
 50
24.534696
 51
95.465306
  0
LINE
  5
97
100
AcDbEntity
  8
0
390
0
  6
Continuous
 62
     7
100
AcDbLine
 10
-75.929393
 20
24.099877
 30
0.0
 11
-73.314078
 21
24.350106
 31
0.0
  0
LINE
  5
98
100
AcDbEntity
  8
0
390
0
  6
Continuous
 62
     7
100
AcDbLine
 10
-65.475441
 20
19.824466
 30
0.0
 11
-64.384488
 21
17.434422
 31
0.0
  0
ARC
  5
99
100
AcDbEntity
  8
0
390
0
  6
Continuous
 62
     7
100
AcDbCircle
 10
-91.722538
 20
-16.58556
 30
0.0
 40
7.800004
210
0.0
220
0.0
230
0.9999999999999999
100
AcDbArc
 50
204.534696
 51
275.465306
  0
LINE
  5
9A
100
AcDbEntity
  8
0
390
0
  6
Continuous
 62
     7
100
AcDbLine
 10
-88.364327
 20
-24.099877
 30
0.0
 11
-90.979642
 21
-24.350106
 31
0.0
  0
LINE
  5
9B
100
AcDbEntity
  8
0
390
0
  6
Continuous
 62
     7
100
AcDbLine
 10
-98.81828
 20
-19.824467
 30
0.0
 11
-99.909232
 21
-17.434423
 31
0.0
  0
ARC
  5
9C
100
AcDbEntity
  8
0
390
0
  6
Continuous
 62
     7
100
AcDbCircle
 10
-91.722538
 20
16.58556
 30
0.0
 40
7.800004
210
0.0
220
0.0
230
1.0
100
AcDbArc
 50
84.534694
 51
155.465304
  0
LINE
  5
9D
100
AcDbEntity
  8
0
390
0
  6
Continuous
 62
     7
100
AcDbLine
 10
-90.979642
 20
24.350106
 30
0.0
 11
-88.364327
 21
24.099877
 31
0.0
  0
LINE
  5
9E
100
AcDbEntity
  8
0
390
0
  6
Continuous
 62
     7
100
AcDbLine
 10
-99.909232
 20
17.434422
 30
0.0
 11
-98.81828
 21
19.824466
 31
0.0
  0
ARC
  5
9F
100
AcDbEntity
  8
0
390
0
  6
Continuous
 62
     7
100
AcDbCircle
 10
-62.995505
 20
0.0
 30
0.0
 40
7.800004
210
0.0
220
0.0
230
1.0
100
AcDbArc
 50
324.534696
 51
35.465304
  0
LINE
  5
A0
100
AcDbEntity
  8
0
390
0
  6
Continuous
 62
     7
100
AcDbLine
 10
-58.167021
 20
6.665454
 30
0.0
 11
-56.642659
 21
4.525639
 31
0.0
  0
LINE
  5
A1
100
AcDbEntity
  8
0
390
0
  6
Continuous
 62
     7
100
AcDbLine
 10
-56.642659
 20
-4.52564
 30
0.0
 11
-58.167021
 21
-6.665455
 31
0.0
  0
ARC
  5
A2
100
AcDbEntity
  8
0
390
0
  6
Continuous
 62
     7
100
AcDbCircle
 10
28.855432
 20
-33.2
 30
0.0
 40
47.5
210
0.0
220
0.0
230
1.0
100
AcDbArc
 50
17.520361
 51
42.479639
  0
ARC
  5
A3
100
AcDbEntity
  8
0
390
0
  6
Continuous
 62
     7
100
AcDbCircle
 10
86.359519
 20
0.0
 30
0.0
 40
22.5
210
0.0
220
0.0
230
1.0
100
AcDbArc
 50
237.141888
 51
242.858111
  0
ARC
  5
A4
100
AcDbEntity
  8
0
390
0
  6
Continuous
 62
     7
100
AcDbCircle
 10
86.359519
 20
-66.4
 30
0.0
 40
47.5
210
0.0
220
0.0
230
1.0
100
AcDbArc
 50
77.520361
 51
102.479639
  0
ARC
  5
A5
100
AcDbEntity
  8
0
390
0
  6
Continuous
 62
     7
100
AcDbCircle
 10
86.359519
 20
0.0
 30
0.0
 40
22.5
210
0.0
220
0.0
230
1.0
100
AcDbArc
 50
297.141889
 51
302.858112
  0
ARC
  5
A6
100
AcDbEntity
  8
0
390
0
  6
Continuous
 62
     7
100
AcDbCircle
 10
143.863606
 20
-33.2
 30
0.0
 40
47.5
210
0.0
220
0.0
230
1.0
100
AcDbArc
 50
137.520361
 51
162.479639
  0
ARC
  5
A7
100
AcDbEntity
  8
0
390
0
  6
Continuous
 62
     7
100
AcDbCircle
 10
86.359519
 20
0.0
 30
0.0
 40
22.5
210
0.0
220
0.0
230
0.9999999999999999
100
AcDbArc
 50
357.141888
 51
2.858112
  0
ARC
  5
A8
100
AcDbEntity
  8
0
390
0
  6
Continuous
 62
     7
100
AcDbCircle
 10
143.863606
 20
33.2
 30
0.0
 40
47.5
210
0.0
220
0.0
230
1.0
100
AcDbArc
 50
197.520361
 51
222.479639
  0
ARC
  5
A9
100
AcDbEntity
  8
0
390
0
  6
Continuous
 62
     7
100
AcDbCircle
 10
86.359519
 20
0.0
 30
0.0
 40
22.5
210
0.0
220
0.0
230
1.0
100
AcDbArc
 50
57.141888
 51
62.858111
  0
ARC
  5
AA
100
AcDbEntity
  8
0
390
0
  6
Continuous
 62
     7
100
AcDbCircle
 10
86.359519
 20
66.4
 30
0.0
 40
47.5
210
0.0
220
0.0
230
1.0
100
AcDbArc
 50
257.520361
 51
282.479639
  0
ARC
  5
AB
100
AcDbEntity
  8
0
390
0
  6
Continuous
 62
     7
100
AcDbCircle
 10
86.359519
 20
0.0
 30
0.0
 40
22.5
210
0.0
220
0.0
230
1.0
100
AcDbArc
 50
117.141889
 51
122.858112
  0
ARC
  5
AC
100
AcDbEntity
  8
0
390
0
  6
Continuous
 62
     7
100
AcDbCircle
 10
28.855432
 20
33.2
 30
0.0
 40
47.5
210
0.0
220
0.0
230
1.0
100
AcDbArc
 50
317.520361
 51
342.479639
  0
ARC
  5
AD
100
AcDbEntity
  8
0
390
0
  6
Continuous
 62
     7
100
AcDbCircle
 10
86.359519
 20
0.0
 30
0.0
 40
22.5
210
0.0
220
0.0
230
0.9999999999999999
100
AcDbArc
 50
177.141888
 51
182.858112
  0
ARC
  5
AE
100
AcDbEntity
  8
0
390
0
  6
Continuous
 62
     7
100
AcDbCircle
 10
67.208159
 20
0.0
 30
0.0
 40
7.8
210
0.0
220
0.0
230
1.0
100
AcDbArc
 50
144.534673
 51
215.465327
  0
LINE
  5
AF
100
AcDbEntity
  8
0
390
0
  6
Continuous
 62
     7
100
AcDbLine
 10
60.855318
 20
4.525639
 30
0.0
 11
63.633164
 21
8.425025
 31
0.0
  0
ARC
  5
B0
100
AcDbEntity
  8
0
390
0
  6
Continuous
 62
     7
100
AcDbCircle
 10
28.855432
 20
33.2
 30
0.0
 40
42.7
210
0.0
220
0.0
230
1.0
100
AcDbArc
 50
324.534673
 51
335.465327
  0
LINE
  5
B1
100
AcDbEntity
  8
0
390
0
  6
Continuous
 62
     7
100
AcDbLine
 10
67.700056
 20
15.469088
 30
0.0
 11
69.6881
 21
19.824466
 31
0.0
  0
ARC
  5
B2
100
AcDbEntity
  8
0
390
0
  6
Continuous
 62
     7
100
AcDbCircle
 10
76.783839
 20
16.585564
 30
0.0
 40
7.8
210
0.0
220
0.0
230
1.0
100
AcDbArc
 50
84.534671
 51
155.465327
  0
LINE
  5
B3
100
AcDbEntity
  8
0
390
0
  6
Continuous
 62
     7
100
AcDbLine
 10
77.526738
 20
24.350106
 30
0.0
 11
82.292626
 21
23.894113
 31
0.0
  0
ARC
  5
B4
100
AcDbEntity
  8
0
390
0
  6
Continuous
 62
     7
100
AcDbCircle
 10
86.359519
 20
66.4
 30
0.0
 40
42.7
210
0.0
220
0.0
230
1.0
100
AcDbArc
 50
264.534671
 51
275.465329
  0
LINE
  5
B5
100
AcDbEntity
  8
0
390
0
  6
Continuous
 62
     7
100
AcDbLine
 10
90.426412
 20
23.894113
 30
0.0
 11
95.192301
 21
24.350106
 31
0.0
  0
ARC
  5
B6
100
AcDbEntity
  8
0
390
0
  6
Continuous
 62
     7
100
AcDbCircle
 10
95.935199
 20
16.585564
 30
0.0
 40
7.8
210
0.0
220
0.0
230
1.0
100
AcDbArc
 50
24.534673
 51
95.465329
  0
LINE
  5
B7
100
AcDbEntity
  8
0
390
0
  6
Continuous
 62
     7
100
AcDbLine
 10
103.030939
 20
19.824466
 30
0.0
 11
105.018983
 21
15.469088
 31
0.0
  0
ARC
  5
B8
100
AcDbEntity
  8
0
390
0
  6
Continuous
 62
     7
100
AcDbCircle
 10
143.863606
 20
33.2
 30
0.0
 40
42.7
210
0.0
220
0.0
230
1.0
100
AcDbArc
 50
204.534673
 51
215.465327
  0
LINE
  5
B9
100
AcDbEntity
  8
0
390
0
  6
Continuous
 62
     7
100
AcDbLine
 10
109.085875
 20
8.425025
 30
0.0
 11
111.863721
 21
4.525639
 31
0.0
  0
ARC
  5
BA
100
AcDbEntity
  8
0
390
0
  6
Continuous
 62
     7
100
AcDbCircle
 10
105.51088
 20
0.0
 30
0.0
 40
7.8
210
0.0
220
0.0
230
1.0
100
AcDbArc
 50
324.534673
 51
35.465327
  0
LINE
  5
BB
100
AcDbEntity
  8
0
390
0
  6
Continuous
 62
     7
100
AcDbLine
 10
111.863721
 20
-4.52564
 30
0.0
 11
109.085875
 21
-8.425025
 31
0.0
  0
ARC
  5
BC
100
AcDbEntity
  8
0
390
0
  6
Continuous
 62
     7
100
AcDbCircle
 10
143.863606
 20
-33.2
 30
0.0
 40
42.7
210
0.0
220
0.0
230
1.0
100
AcDbArc
 50
144.534673
 51
155.465327
  0
LINE
  5
BD
100
AcDbEntity
  8
0
390
0
  6
Continuous
 62
     7
100
AcDbLine
 10
105.018983
 20
-15.469088
 30
0.0
 11
103.030939
 21
-19.824467
 31
0.0
  0
ARC
  5
BE
100
AcDbEntity
  8
0
390
0
  6
Continuous
 62
     7
100
AcDbCircle
 10
95.935199
 20
-16.585565
 30
0.0
 40
7.8
210
0.0
220
0.0
230
1.0
100
AcDbArc
 50
264.534671
 51
335.465327
  0
LINE
  5
BF
100
AcDbEntity
  8
0
390
0
  6
Continuous
 62
     7
100
AcDbLine
 10
95.192301
 20
-24.350106
 30
0.0
 11
90.426412
 21
-23.894114
 31
0.0
  0
ARC
  5
C0
100
AcDbEntity
  8
0
390
0
  6
Continuous
 62
     7
100
AcDbCircle
 10
86.359519
 20
-66.4
 30
0.0
 40
42.7
210
0.0
220
0.0
230
1.0
100
AcDbArc
 50
84.534671
 51
95.465329
  0
LINE
  5
C1
100
AcDbEntity
  8
0
390
0
  6
Continuous
 62
     7
100
AcDbLine
 10
82.292626
 20
-23.894114
 30
0.0
 11
77.526738
 21
-24.350106
 31
0.0
  0
ARC
  5
C2
100
AcDbEntity
  8
0
390
0
  6
Continuous
 62
     7
100
AcDbCircle
 10
76.783839
 20
-16.585565
 30
0.0
 40
7.8
210
0.0
220
0.0
230
1.0
100
AcDbArc
 50
204.534673
 51
275.465329
  0
LINE
  5
C3
100
AcDbEntity
  8
0
390
0
  6
Continuous
 62
     7
100
AcDbLine
 10
69.6881
 20
-19.824467
 30
0.0
 11
67.700056
 21
-15.469088
 31
0.0
  0
ARC
  5
C4
100
AcDbEntity
  8
0
390
0
  6
Continuous
 62
     7
100
AcDbCircle
 10
28.855432
 20
-33.2
 30
0.0
 40
42.7
210
0.0
220
0.0
230
1.0
100
AcDbArc
 50
24.534673
 51
35.465327
  0
LINE
  5
C5
100
AcDbEntity
  8
0
390
0
  6
Continuous
 62
     7
100
AcDbLine
 10
63.633164
 20
-8.425025
 30
0.0
 11
60.855318
 21
-4.52564
 31
0.0
  0
CIRCLE
  5
C6
100
AcDbEntity
  8
0
390
0
  6
Continuous
 62
     7
100
AcDbCircle
 10
86.359519
 20
0.0
 30
0.0
 40
15.429286
210
0.0
220
0.0
230
1.0
  0
CIRCLE
  5
C7
100
AcDbEntity
  8
0
390
0
  6
Continuous
 62
     7
100
AcDbCircle
 10
86.359519
 20
0.0
 30
0.0
 40
14.5
210
0.0
220
0.0
230
1.0
  0
LINE
  5
C8
100
AcDbEntity
  8
0
390
0
  6
Continuous
 62
     7
100
AcDbLine
 10
73.22638
 20
-15.340688
 30
0.0
 11
73.24288
 21
-15.335204
 31
0.0
  0
LINE
  5
C9
100
AcDbEntity
  8
0
390
0
  6
Continuous
 62
     7
100
AcDbLine
 10
73.21191
 20
-15.343664
 30
0.0
 11
73.22638
 21
-15.340688
 31
0.0
  0
LINE
  5
CA
100
AcDbEntity
  8
0
390
0
  6
Continuous
 62
     7
100
AcDbLine
 10
73.199027
 20
-15.344637
 30
0.0
 11
73.21191
 21
-15.343664
 31
0.0
  0
LINE
  5
CB
100
AcDbEntity
  8
0
390
0
  6
Continuous
 62
     7
100
AcDbLine
 10
73.18702
 20
-15.343938
 30
0.0
 11
73.199027
 21
-15.344637
 31
0.0
  0
LINE
  5
CC
100
AcDbEntity
  8
0
390
0
  6
Continuous
 62
     7
100
AcDbLine
 10
73.175038
 20
-15.341593
 30
0.0
 11
73.18702
 21
-15.343938
 31
0.0
  0
LINE
  5
CD
100
AcDbEntity
  8
0
390
0
  6
Continuous
 62
     7
100
AcDbLine
 10
73.1623
 20
-15.337296
 30
0.0
 11
73.175038
 21
-15.341593
 31
0.0
  0
LINE
  5
CE
100
AcDbEntity
  8
0
390
0
  6
Continuous
 62
     7
100
AcDbLine
 10
73.148273
 20
-15.330523
 30
0.0
 11
73.1623
 21
-15.337296
 31
0.0
  0
LINE
  5
CF
100
AcDbEntity
  8
0
390
0
  6
Continuous
 62
     7
100
AcDbLine
 10
73.13273
 20
-15.320686
 30
0.0
 11
73.148273
 21
-15.330523
 31
0.0
  0
LINE
  5
D0
100
AcDbEntity
  8
0
390
0
  6
Continuous
 62
     7
100
AcDbLine
 10
73.116041
 20
-15.307548
 30
0.0
 11
73.13273
 21
-15.320686
 31
0.0
  0
LINE
  5
D1
100
AcDbEntity
  8
0
390
0
  6
Continuous
 62
     7
100
AcDbLine
 10
73.103042
 20
-15.295066
 30
0.0
 11
73.116041
 21
-15.307548
 31
0.0
  0
LINE
  5
D2
100
AcDbEntity
  8
0
390
0
  6
Continuous
 62
     7
100
AcDbLine
 10
73.093017
 20
-15.283072
 30
0.0
 11
73.103042
 21
-15.295066
 31
0.0
  0
LINE
  5
D3
100
AcDbEntity
  8
0
390
0
  6
Continuous
 62
     7
100
AcDbLine
 10
73.085372
 20
-15.271368
 30
0.0
 11
73.093017
 21
-15.283072
 31
0.0
  0
LINE
  5
D4
100
AcDbEntity
  8
0
390
0
  6
Continuous
 62
     7
100
AcDbLine
 10
73.079604
 20
-15.259599
 30
0.0
 11
73.085372
 21
-15.271368
 31
0.0
  0
LINE
  5
D5
100
AcDbEntity
  8
0
390
0
  6
Continuous
 62
     7
100
AcDbLine
 10
73.075345
 20
-15.247203
 30
0.0
 11
73.079604
 21
-15.259599
 31
0.0
  0
LINE
  5
D6
100
AcDbEntity
  8
0
390
0
  6
Continuous
 62
     7
100
AcDbLine
 10
73.072459
 20
-15.233525
 30
0.0
 11
73.075345
 21
-15.247203
 31
0.0
  0
LINE
  5
D7
100
AcDbEntity
  8
0
390
0
  6
Continuous
 62
     7
100
AcDbLine
 10
73.071048
 20
-15.217958
 30
0.0
 11
73.072459
 21
-15.233525
 31
0.0
  0
LINE
  5
D8
100
AcDbEntity
  8
0
390
0
  6
Continuous
 62
     7
100
AcDbLine
 10
73.07139
 20
-15.20005
 30
0.0
 11
73.071048
 21
-15.217958
 31
0.0
  0
LINE
  5
D9
100
AcDbEntity
  8
0
390
0
  6
Continuous
 62
     7
100
AcDbLine
 10
73.073843
 20
-15.179544
 30
0.0
 11
73.07139
 21
-15.20005
 31
0.0
  0
LINE
  5
DA
100
AcDbEntity
  8
0
390
0
  6
Continuous
 62
     7
100
AcDbLine
 10
73.078967
 20
-15.155383
 30
0.0
 11
73.073843
 21
-15.179544
 31
0.0
  0
LINE
  5
DB
100
AcDbEntity
  8
0
390
0
  6
Continuous
 62
     7
100
AcDbLine
 10
73.921061
 20
-12.14095
 30
0.0
 11
73.078967
 21
-15.155383
 31
0.0
  0
LINE
  5
DC
100
AcDbEntity
  8
0
390
0
  6
Continuous
 62
     7
100
AcDbLine
 10
73.92601
 20
-12.130462
 30
0.0
 11
73.921061
 21
-12.14095
 31
0.0
  0
LINE
  5
DD
100
AcDbEntity
  8
0
390
0
  6
Continuous
 62
     7
100
AcDbLine
 10
73.932115
 20
-12.120542
 30
0.0
 11
73.92601
 21
-12.130462
 31
0.0
  0
LINE
  5
DE
100
AcDbEntity
  8
0
390
0
  6
Continuous
 62
     7
100
AcDbLine
 10
73.936814
 20
-12.11475
 30
0.0
 11
73.932115
 21
-12.120542
 31
0.0
  0
LINE
  5
DF
100
AcDbEntity
  8
0
390
0
  6
Continuous
 62
     7
100
AcDbLine
 10
73.939733
 20
-12.112083
 30
0.0
 11
73.936814
 21
-12.11475
 31
0.0
  0
LINE
  5
E0
100
AcDbEntity
  8
0
390
0
  6
Continuous
 62
     7
100
AcDbLine
 10
73.941125
 20
-12.111179
 30
0.0
 11
73.939733
 21
-12.112083
 31
0.0
  0
LINE
  5
E1
100
AcDbEntity
  8
0
390
0
  6
Continuous
 62
     7
100
AcDbLine
 10
73.942078
 20
-12.110773
 30
0.0
 11
73.941125
 21
-12.111179
 31
0.0
  0
LINE
  5
E2
100
AcDbEntity
  8
0
390
0
  6
Continuous
 62
     7
100
AcDbLine
 10
73.944238
 20
-12.110263
 30
0.0
 11
73.942078
 21
-12.110773
 31
0.0
  0
LINE
  5
E3
100
AcDbEntity
  8
0
390
0
  6
Continuous
 62
     7
100
AcDbLine
 10
73.949178
 20
-12.109909
 30
0.0
 11
73.944238
 21
-12.110263
 31
0.0
  0
LINE
  5
E4
100
AcDbEntity
  8
0
390
0
  6
Continuous
 62
     7
100
AcDbLine
 10
73.957882
 20
-12.110534
 30
0.0
 11
73.949178
 21
-12.109909
 31
0.0
  0
LINE
  5
E5
100
AcDbEntity
  8
0
390
0
  6
Continuous
 62
     7
100
AcDbLine
 10
73.962347
 20
-12.111418
 30
0.0
 11
73.957882
 21
-12.110534
 31
0.0
  0
LINE
  5
E6
100
AcDbEntity
  8
0
390
0
  6
Continuous
 62
     7
100
AcDbLine
 10
73.968613
 20
-12.114374
 30
0.0
 11
73.962347
 21
-12.111418
 31
0.0
  0
LINE
  5
E7
100
AcDbEntity
  8
0
390
0
  6
Continuous
 62
     7
100
AcDbLine
 10
73.978534
 20
-12.120479
 30
0.0
 11
73.968613
 21
-12.114374
 31
0.0
  0
LINE
  5
E8
100
AcDbEntity
  8
0
390
0
  6
Continuous
 62
     7
100
AcDbLine
 10
73.984326
 20
-12.125178
 30
0.0
 11
73.978534
 21
-12.120479
 31
0.0
  0
LINE
  5
E9
100
AcDbEntity
  8
0
390
0
  6
Continuous
 62
     7
100
AcDbLine
 10
73.986992
 20
-12.128097
 30
0.0
 11
73.984326
 21
-12.125178
 31
0.0
  0
LINE
  5
EA
100
AcDbEntity
  8
0
390
0
  6
Continuous
 62
     7
100
AcDbLine
 10
73.987896
 20
-12.12949
 30
0.0
 11
73.986992
 21
-12.128097
 31
0.0
  0
LINE
  5
EB
100
AcDbEntity
  8
0
390
0
  6
Continuous
 62
     7
100
AcDbLine
 10
73.988302
 20
-12.130442
 30
0.0
 11
73.987896
 21
-12.12949
 31
0.0
  0
LINE
  5
EC
100
AcDbEntity
  8
0
390
0
  6
Continuous
 62
     7
100
AcDbLine
 10
73.988812
 20
-12.132603
 30
0.0
 11
73.988302
 21
-12.130442
 31
0.0
  0
LINE
  5
ED
100
AcDbEntity
  8
0
390
0
  6
Continuous
 62
     7
100
AcDbLine
 10
73.989166
 20
-12.137542
 30
0.0
 11
73.988812
 21
-12.132603
 31
0.0
  0
LINE
  5
EE
100
AcDbEntity
  8
0
390
0
  6
Continuous
 62
     7
100
AcDbLine
 10
73.988542
 20
-12.146246
 30
0.0
 11
73.989166
 21
-12.137542
 31
0.0
  0
LINE
  5
EF
100
AcDbEntity
  8
0
390
0
  6
Continuous
 62
     7
100
AcDbLine
 10
73.985766
 20
-12.160269
 30
0.0
 11
73.988542
 21
-12.146246
 31
0.0
  0
LINE
  5
F0
100
AcDbEntity
  8
0
390
0
  6
Continuous
 62
     7
100
AcDbLine
 10
73.13658
 20
-15.117165
 30
0.0
 11
73.985766
 21
-12.160269
 31
0.0
  0
POLYLINE
  5
F1
100
AcDbEntity
  8
0
390
0
  6
Continuous
 62
     7
100
AcDb2dPolyline
 66
     1
 10
0.0
 20
0.0
 30
0.0
 40
0.1
 41
0.1
  0
VERTEX
  5
F2
100
AcDbEntity
  8
0
390
0
 62
     7
100
AcDbVertex
100
AcDb2dVertex
 10
73.301154
 20
-15.259723
 30
0.0
  0
VERTEX
  5
F3
100
AcDbEntity
  8
0
390
0
 62
     7
100
AcDbVertex
100
AcDb2dVertex
 10
73.199907
 20
-15.258431
 30
0.0
  0
VERTEX
  5
F4
100
AcDbEntity
  8
0
390
0
 62
     7
100
AcDbVertex
100
AcDb2dVertex
 10
73.134849
 20
-15.176647
 30
0.0
  0
VERTEX
  5
F5
100
AcDbEntity
  8
0
390
0
 62
     7
100
AcDbVertex
100
AcDb2dVertex
 10
73.13658
 20
-15.117165
 30
0.0
  0
SEQEND
  5
F6
100
AcDbEntity
  8
0
390
0
  0
LINE
  5
F7
100
AcDbEntity
  8
0
390
0
  6
Continuous
 62
     7
100
AcDbLine
 10
76.106698
 20
-13.997479
 30
0.0
 11
73.301154
 21
-15.259723
 31
0.0
  0
LINE
  5
F8
100
AcDbEntity
  8
0
390
0
  6
Continuous
 62
     7
100
AcDbLine
 10
76.120182
 20
-13.992731
 30
0.0
 11
76.106698
 21
-13.997479
 31
0.0
  0
LINE
  5
F9
100
AcDbEntity
  8
0
390
0
  6
Continuous
 62
     7
100
AcDbLine
 10
76.128709
 20
-13.990872
 30
0.0
 11
76.120182
 21
-13.992731
 31
0.0
  0
LINE
  5
FA
100
AcDbEntity
  8
0
390
0
  6
Continuous
 62
     7
100
AcDbLine
 10
76.13365
 20
-13.990517
 30
0.0
 11
76.128709
 21
-13.990872
 31
0.0
  0
LINE
  5
FB
100
AcDbEntity
  8
0
390
0
  6
Continuous
 62
     7
100
AcDbLine
 10
76.135862
 20
-13.990714
 30
0.0
 11
76.13365
 21
-13.990517
 31
0.0
  0
LINE
  5
FC
100
AcDbEntity
  8
0
390
0
  6
Continuous
 62
     7
100
AcDbLine
 10
76.136863
 20
-13.99098
 30
0.0
 11
76.135862
 21
-13.990714
 31
0.0
  0
LINE
  5
FD
100
AcDbEntity
  8
0
390
0
  6
Continuous
 62
     7
100
AcDbLine
 10
76.138371
 20
-13.991676
 30
0.0
 11
76.136863
 21
-13.99098
 31
0.0
  0
LINE
  5
FE
100
AcDbEntity
  8
0
390
0
  6
Continuous
 62
     7
100
AcDbLine
 10
76.14164
 20
-13.993899
 30
0.0
 11
76.138371
 21
-13.991676
 31
0.0
  0
LINE
  5
FF
100
AcDbEntity
  8
0
390
0
  6
Continuous
 62
     7
100
AcDbLine
 10
76.147118
 20
-13.998962
 30
0.0
 11
76.14164
 21
-13.993899
 31
0.0
  0
LINE
  5
100
100
AcDbEntity
  8
0
390
0
  6
Continuous
 62
     7
100
AcDbLine
 10
76.154575
 20
-14.00791
 30
0.0
 11
76.147118
 21
-13.998962
 31
0.0
  0
LINE
  5
101
100
AcDbEntity
  8
0
390
0
  6
Continuous
 62
     7
100
AcDbLine
 10
76.158394
 20
-14.013689
 30
0.0
 11
76.154575
 21
-14.00791
 31
0.0
  0
LINE
  5
102
100
AcDbEntity
  8
0
390
0
  6
Continuous
 62
     7
100
AcDbLine
 10
76.159907
 20
-14.017984
 30
0.0
 11
76.158394
 21
-14.013689
 31
0.0
  0
LINE
  5
103
100
AcDbEntity
  8
0
390
0
  6
Continuous
 62
     7
100
AcDbLine
 10
76.161766
 20
-14.026511
 30
0.0
 11
76.159907
 21
-14.017984
 31
0.0
  0
LINE
  5
104
100
AcDbEntity
  8
0
390
0
  6
Continuous
 62
     7
100
AcDbLine
 10
76.16212
 20
-14.031452
 30
0.0
 11
76.161766
 21
-14.026511
 31
0.0
  0
LINE
  5
105
100
AcDbEntity
  8
0
390
0
  6
Continuous
 62
     7
100
AcDbLine
 10
76.161924
 20
-14.033664
 30
0.0
 11
76.16212
 21
-14.031452
 31
0.0
  0
LINE
  5
106
100
AcDbEntity
  8
0
390
0
  6
Continuous
 62
     7
100
AcDbLine
 10
76.161658
 20
-14.034665
 30
0.0
 11
76.161924
 21
-14.033664
 31
0.0
  0
LINE
  5
107
100
AcDbEntity
  8
0
390
0
  6
Continuous
 62
     7
100
AcDbLine
 10
76.160961
 20
-14.036173
 30
0.0
 11
76.161658
 21
-14.034665
 31
0.0
  0
LINE
  5
108
100
AcDbEntity
  8
0
390
0
  6
Continuous
 62
     7
100
AcDbLine
 10
76.158738
 20
-14.039442
 30
0.0
 11
76.160961
 21
-14.036173
 31
0.0
  0
LINE
  5
109
100
AcDbEntity
  8
0
390
0
  6
Continuous
 62
     7
100
AcDbLine
 10
76.153676
 20
-14.044919
 30
0.0
 11
76.158738
 21
-14.039442
 31
0.0
  0
LINE
  5
10A
100
AcDbEntity
  8
0
390
0
  6
Continuous
 62
     7
100
AcDbLine
 10
76.144728
 20
-14.052377
 30
0.0
 11
76.153676
 21
-14.044919
 31
0.0
  0
LINE
  5
10B
100
AcDbEntity
  8
0
390
0
  6
Continuous
 62
     7
100
AcDbLine
 10
76.135053
 20
-14.058771
 30
0.0
 11
76.144728
 21
-14.052377
 31
0.0
  0
LINE
  5
10C
100
AcDbEntity
  8
0
390
0
  6
Continuous
 62
     7
100
AcDbLine
 10
73.24288
 20
-15.335204
 30
0.0
 11
73.267405
 21
-15.324029
 31
0.0
  0
POLYLINE
  5
10D
100
AcDbEntity
  8
0
390
0
  6
Continuous
 62
     7
100
AcDb2dPolyline
 66
     1
 10
0.0
 20
0.0
 30
0.0
 40
0.1
 41
0.1
  0
VERTEX
  5
10E
100
AcDbEntity
  8
0
390
0
 62
     7
100
AcDbVertex
100
AcDb2dVertex
 10
70.204948
 20
6.753663
 30
0.0
  0
VERTEX
  5
10F
100
AcDbEntity
  8
0
390
0
 62
     7
100
AcDbVertex
100
AcDb2dVertex
 10
70.275174
 20
6.679493
 30
0.0
  0
VERTEX
  5
110
100
AcDbEntity
  8
0
390
0
 62
     7
100
AcDbVertex
100
AcDb2dVertex
 10
70.254444
 20
6.579929
 30
0.0
  0
VERTEX
  5
111
100
AcDbEntity
  8
0
390
0
 62
     7
100
AcDbVertex
100
AcDb2dVertex
 10
70.203533
 20
6.545051
 30
0.0
  0
SEQEND
  5
112
100
AcDbEntity
  8
0
390
0
  0
LINE
  5
113
100
AcDbEntity
  8
0
390
0
  6
Continuous
 62
     7
100
AcDbLine
 10
70.361572
 20
6.795988
 30
0.0
 11
70.335358
 21
6.806656
 31
0.0
  0
LINE
  5
114
100
AcDbEntity
  8
0
390
0
  6
Continuous
 62
     7
100
AcDbLine
 10
70.378313
 20
6.786455
 30
0.0
 11
70.361572
 21
6.795988
 31
0.0
  0
LINE
  5
115
100
AcDbEntity
  8
0
390
0
  6
Continuous
 62
     7
100
AcDbLine
 10
70.389046
 20
6.777873
 30
0.0
 11
70.378313
 21
6.786455
 31
0.0
  0
LINE
  5
116
100
AcDbEntity
  8
0
390
0
  6
Continuous
 62
     7
100
AcDbLine
 10
70.395395
 20
6.770567
 30
0.0
 11
70.389046
 21
6.777873
 31
0.0
  0
LINE
  5
117
100
AcDbEntity
  8
0
390
0
  6
Continuous
 62
     7
100
AcDbLine
 10
70.399331
 20
6.763672
 30
0.0
 11
70.395395
 21
6.770567
 31
0.0
  0
LINE
  5
118
100
AcDbEntity
  8
0
390
0
  6
Continuous
 62
     7
100
AcDbLine
 10
70.402152
 20
6.755153
 30
0.0
 11
70.399331
 21
6.763672
 31
0.0
  0
LINE
  5
119
100
AcDbEntity
  8
0
390
0
  6
Continuous
 62
     7
100
AcDbLine
 10
70.40382
 20
6.742758
 30
0.0
 11
70.402152
 21
6.755153
 31
0.0
  0
LINE
  5
11A
100
AcDbEntity
  8
0
390
0
  6
Continuous
 62
     7
100
AcDbLine
 10
70.403294
 20
6.72503
 30
0.0
 11
70.40382
 21
6.742758
 31
0.0
  0
LINE
  5
11B
100
AcDbEntity
  8
0
390
0
  6
Continuous
 62
     7
100
AcDbLine
 10
70.399323
 20
6.701537
 30
0.0
 11
70.403294
 21
6.72503
 31
0.0
  0
LINE
  5
11C
100
AcDbEntity
  8
0
390
0
  6
Continuous
 62
     7
100
AcDbLine
 10
70.390489
 20
6.670935
 30
0.0
 11
70.399323
 21
6.701537
 31
0.0
  0
LINE
  5
11D
100
AcDbEntity
  8
0
390
0
  6
Continuous
 62
     7
100
AcDbLine
 10
70.38502
 20
6.65569
 30
0.0
 11
70.390489
 21
6.670935
 31
0.0
  0
LINE
  5
11E
100
AcDbEntity
  8
0
390
0
  6
Continuous
 62
     7
100
AcDbLine
 10
70.378822
 20
6.639974
 30
0.0
 11
70.38502
 21
6.65569
 31
0.0
  0
LINE
  5
11F
100
AcDbEntity
  8
0
390
0
  6
Continuous
 62
     7
100
AcDbLine
 10
70.372583
 20
6.625608
 30
0.0
 11
70.378822
 21
6.639974
 31
0.0
  0
LINE
  5
120
100
AcDbEntity
  8
0
390
0
  6
Continuous
 62
     7
100
AcDbLine
 10
70.366352
 20
6.612607
 30
0.0
 11
70.372583
 21
6.625608
 31
0.0
  0
LINE
  5
121
100
AcDbEntity
  8
0
390
0
  6
Continuous
 62
     7
100
AcDbLine
 10
70.360184
 20
6.600983
 30
0.0
 11
70.366352
 21
6.612607
 31
0.0
  0
LINE
  5
122
100
AcDbEntity
  8
0
390
0
  6
Continuous
 62
     7
100
AcDbLine
 10
70.354146
 20
6.590738
 30
0.0
 11
70.360184
 21
6.600983
 31
0.0
  0
LINE
  5
123
100
AcDbEntity
  8
0
390
0
  6
Continuous
 62
     7
100
AcDbLine
 10
70.348311
 20
6.581867
 30
0.0
 11
70.354146
 21
6.590738
 31
0.0
  0
LINE
  5
124
100
AcDbEntity
  8
0
390
0
  6
Continuous
 62
     7
100
AcDbLine
 10
70.342761
 20
6.574347
 30
0.0
 11
70.348311
 21
6.581867
 31
0.0
  0
LINE
  5
125
100
AcDbEntity
  8
0
390
0
  6
Continuous
 62
     7
100
AcDbLine
 10
70.337583
 20
6.568133
 30
0.0
 11
70.342761
 21
6.574347
 31
0.0
  0
LINE
  5
126
100
AcDbEntity
  8
0
390
0
  6
Continuous
 62
     7
100
AcDbLine
 10
70.332273
 20
6.562537
 30
0.0
 11
70.337583
 21
6.568133
 31
0.0
  0
LINE
  5
127
100
AcDbEntity
  8
0
390
0
  6
Continuous
 62
     7
100
AcDbLine
 10
70.320959
 20
6.551846
 30
0.0
 11
70.332273
 21
6.562537
 31
0.0
  0
LINE
  5
128
100
AcDbEntity
  8
0
390
0
  6
Continuous
 62
     7
100
AcDbLine
 10
70.30888
 20
6.541334
 30
0.0
 11
70.320959
 21
6.551846
 31
0.0
  0
LINE
  5
129
100
AcDbEntity
  8
0
390
0
  6
Continuous
 62
     7
100
AcDbLine
 10
70.296608
 20
6.531528
 30
0.0
 11
70.30888
 21
6.541334
 31
0.0
  0
LINE
  5
12A
100
AcDbEntity
  8
0
390
0
  6
Continuous
 62
     7
100
AcDbLine
 10
70.284133
 20
6.522404
 30
0.0
 11
70.296608
 21
6.531528
 31
0.0
  0
LINE
  5
12B
100
AcDbEntity
  8
0
390
0
  6
Continuous
 62
     7
100
AcDbLine
 10
70.27144
 20
6.51394
 30
0.0
 11
70.284133
 21
6.522404
 31
0.0
  0
LINE
  5
12C
100
AcDbEntity
  8
0
390
0
  6
Continuous
 62
     7
100
AcDbLine
 10
70.258512
 20
6.506117
 30
0.0
 11
70.27144
 21
6.51394
 31
0.0
  0
LINE
  5
12D
100
AcDbEntity
  8
0
390
0
  6
Continuous
 62
     7
100
AcDbLine
 10
70.245327
 20
6.498914
 30
0.0
 11
70.258512
 21
6.506117
 31
0.0
  0
LINE
  5
12E
100
AcDbEntity
  8
0
390
0
  6
Continuous
 62
     7
100
AcDbLine
 10
70.231862
 20
6.492317
 30
0.0
 11
70.245327
 21
6.498914
 31
0.0
  0
LINE
  5
12F
100
AcDbEntity
  8
0
390
0
  6
Continuous
 62
     7
100
AcDbLine
 10
70.21809
 20
6.486313
 30
0.0
 11
70.231862
 21
6.492317
 31
0.0
  0
LINE
  5
130
100
AcDbEntity
  8
0
390
0
  6
Continuous
 62
     7
100
AcDbLine
 10
70.204264
 20
6.480999
 30
0.0
 11
70.21809
 21
6.486313
 31
0.0
  0
LINE
  5
131
100
AcDbEntity
  8
0
390
0
  6
Continuous
 62
     7
100
AcDbLine
 10
69.576121
 20
4.491196
 30
0.0
 11
67.229093
 21
5.294773
 31
0.0
  0
LINE
  5
132
100
AcDbEntity
  8
0
390
0
  6
Continuous
 62
     7
100
AcDbLine
 10
69.598361
 20
4.482374
 30
0.0
 11
69.576121
 21
4.491196
 31
0.0
  0
LINE
  5
133
100
AcDbEntity
  8
0
390
0
  6
Continuous
 62
     7
100
AcDbLine
 10
69.612495
 20
4.474854
 30
0.0
 11
69.598361
 21
4.482374
 31
0.0
  0
LINE
  5
134
100
AcDbEntity
  8
0
390
0
  6
Continuous
 62
     7
100
AcDbLine
 10
69.621104
 20
4.468655
 30
0.0
 11
69.612495
 21
4.474854
 31
0.0
  0
LINE
  5
135
100
AcDbEntity
  8
0
390
0
  6
Continuous
 62
     7
100
AcDbLine
 10
69.625226
 20
4.464535
 30
0.0
 11
69.621104
 21
4.468655
 31
0.0
  0
LINE
  5
136
100
AcDbEntity
  8
0
390
0
  6
Continuous
 62
     7
100
AcDbLine
 10
69.626605
 20
4.462526
 30
0.0
 11
69.625226
 21
4.464535
 31
0.0
  0
LINE
  5
137
100
AcDbEntity
  8
0
390
0
  6
Continuous
 62
     7
100
AcDbLine
 10
69.627088
 20
4.461392
 30
0.0
 11
69.626605
 21
4.462526
 31
0.0
  0
LINE
  5
138
100
AcDbEntity
  8
0
390
0
  6
Continuous
 62
     7
100
AcDbLine
 10
69.627609
 20
4.458886
 30
0.0
 11
69.627088
 21
4.461392
 31
0.0
  0
LINE
  5
139
100
AcDbEntity
  8
0
390
0
  6
Continuous
 62
     7
100
AcDbLine
 10
69.627739
 20
4.452847
 30
0.0
 11
69.627609
 21
4.458886
 31
0.0
  0
LINE
  5
13A
100
AcDbEntity
  8
0
390
0
  6
Continuous
 62
     7
100
AcDbLine
 10
69.626243
 20
4.442082
 30
0.0
 11
69.627739
 21
4.452847
 31
0.0
  0
LINE
  5
13B
100
AcDbEntity
  8
0
390
0
  6
Continuous
 62
     7
100
AcDbLine
 10
69.621948
 20
4.426686
 30
0.0
 11
69.626243
 21
4.442082
 31
0.0
  0
LINE
  5
13C
100
AcDbEntity
  8
0
390
0
  6
Continuous
 62
     7
100
AcDbLine
 10
69.615906
 20
4.411888
 30
0.0
 11
69.621948
 21
4.426686
 31
0.0
  0
LINE
  5
13D
100
AcDbEntity
  8
0
390
0
  6
Continuous
 62
     7
100
AcDbLine
 10
69.61049
 20
4.402465
 30
0.0
 11
69.615906
 21
4.411888
 31
0.0
  0
LINE
  5
13E
100
AcDbEntity
  8
0
390
0
  6
Continuous
 62
     7
100
AcDbLine
 10
69.606686
 20
4.397773
 30
0.0
 11
69.61049
 21
4.402465
 31
0.0
  0
LINE
  5
13F
100
AcDbEntity
  8
0
390
0
  6
Continuous
 62
     7
100
AcDbLine
 10
69.604739
 20
4.396112
 30
0.0
 11
69.606686
 21
4.397773
 31
0.0
  0
LINE
  5
140
100
AcDbEntity
  8
0
390
0
  6
Continuous
 62
     7
100
AcDbLine
 10
69.603662
 20
4.395512
 30
0.0
 11
69.604739
 21
4.396112
 31
0.0
  0
LINE
  5
141
100
AcDbEntity
  8
0
390
0
  6
Continuous
 62
     7
100
AcDbLine
 10
69.601342
 20
4.39477
 30
0.0
 11
69.603662
 21
4.395512
 31
0.0
  0
LINE
  5
142
100
AcDbEntity
  8
0
390
0
  6
Continuous
 62
     7
100
AcDbLine
 10
69.595559
 20
4.394041
 30
0.0
 11
69.601342
 21
4.39477
 31
0.0
  0
LINE
  5
143
100
AcDbEntity
  8
0
390
0
  6
Continuous
 62
     7
100
AcDbLine
 10
69.584957
 20
4.394419
 30
0.0
 11
69.595559
 21
4.394041
 31
0.0
  0
LINE
  5
144
100
AcDbEntity
  8
0
390
0
  6
Continuous
 62
     7
100
AcDbLine
 10
69.56918
 20
4.39714
 30
0.0
 11
69.584957
 21
4.394419
 31
0.0
  0
LINE
  5
145
100
AcDbEntity
  8
0
390
0
  6
Continuous
 62
     7
100
AcDbLine
 10
69.546201
 20
4.403798
 30
0.0
 11
69.56918
 21
4.39714
 31
0.0
  0
POLYLINE
  5
146
100
AcDbEntity
  8
0
390
0
  6
Continuous
 62
     7
100
AcDb2dPolyline
 66
     1
 10
0.0
 20
0.0
 30
0.0
 40
0.1
 41
0.1
  0
VERTEX
  5
147
100
AcDbEntity
  8
0
390
0
 62
     7
100
AcDbVertex
100
AcDb2dVertex
 10
101.976485
 20
7.919618
 30
0.0
  0
VERTEX
  5
148
100
AcDbEntity
  8
0
390
0
 62
     7
100
AcDbVertex
100
AcDb2dVertex
 10
101.874143
 20
7.914367
 30
0.0
  0
VERTEX
  5
149
100
AcDbEntity
  8
0
390
0
 62
     7
100
AcDbVertex
100
AcDb2dVertex
 10
101.812038
 20
7.994866
 30
0.0
  0
VERTEX
  5
14A
100
AcDbEntity
  8
0
390
0
 62
     7
100
AcDbVertex
100
AcDb2dVertex
 10
101.818535
 20
8.055901
 30
0.0
  0
SEQEND
  5
14B
100
AcDbEntity
  8
0
390
0
  0
LINE
  5
14C
100
AcDbEntity
  8
0
390
0
  6
Continuous
 62
     7
100
AcDbLine
 10
101.907209
 20
7.77287
 30
0.0
 11
101.932326
 21
7.78592
 31
0.0
  0
LINE
  5
14D
100
AcDbEntity
  8
0
390
0
  6
Continuous
 62
     7
100
AcDbLine
 10
101.889094
 20
7.766298
 30
0.0
 11
101.907209
 21
7.77287
 31
0.0
  0
LINE
  5
14E
100
AcDbEntity
  8
0
390
0
  6
Continuous
 62
     7
100
AcDbLine
 10
101.875598
 20
7.763686
 30
0.0
 11
101.889094
 21
7.766298
 31
0.0
  0
LINE
  5
14F
100
AcDbEntity
  8
0
390
0
  6
Continuous
 62
     7
100
AcDbLine
 10
101.865914
 20
7.763586
 30
0.0
 11
101.875598
 21
7.763686
 31
0.0
  0
LINE
  5
150
100
AcDbEntity
  8
0
390
0
  6
Continuous
 62
     7
100
AcDbLine
 10
101.858108
 20
7.765059
 30
0.0
 11
101.865914
 21
7.763586
 31
0.0
  0
LINE
  5
151
100
AcDbEntity
  8
0
390
0
  6
Continuous
 62
     7
100
AcDbLine
 10
101.849789
 20
7.768433
 30
0.0
 11
101.858108
 21
7.765059
 31
0.0
  0
LINE
  5
152
100
AcDbEntity
  8
0
390
0
  6
Continuous
 62
     7
100
AcDbLine
 10
101.839264
 20
7.775198
 30
0.0
 11
101.849789
 21
7.768433
 31
0.0
  0
LINE
  5
153
100
AcDbEntity
  8
0
390
0
  6
Continuous
 62
     7
100
AcDbLine
 10
101.826102
 20
7.787092
 30
0.0
 11
101.839264
 21
7.775198
 31
0.0
  0
LINE
  5
154
100
AcDbEntity
  8
0
390
0
  6
Continuous
 62
     7
100
AcDbLine
 10
101.810782
 20
7.805346
 30
0.0
 11
101.826102
 21
7.787092
 31
0.0
  0
LINE
  5
155
100
AcDbEntity
  8
0
390
0
  6
Continuous
 62
     7
100
AcDbLine
 10
101.793199
 20
7.831914
 30
0.0
 11
101.810782
 21
7.805346
 31
0.0
  0
LINE
  5
156
100
AcDbEntity
  8
0
390
0
  6
Continuous
 62
     7
100
AcDbLine
 10
101.785132
 20
7.845962
 30
0.0
 11
101.793199
 21
7.831914
 31
0.0
  0
LINE
  5
157
100
AcDbEntity
  8
0
390
0
  6
Continuous
 62
     7
100
AcDbLine
 10
101.777181
 20
7.860868
 30
0.0
 11
101.785132
 21
7.845962
 31
0.0
  0
LINE
  5
158
100
AcDbEntity
  8
0
390
0
  6
Continuous
 62
     7
100
AcDbLine
 10
101.770284
 20
7.874929
 30
0.0
 11
101.777181
 21
7.860868
 31
0.0
  0
LINE
  5
159
100
AcDbEntity
  8
0
390
0
  6
Continuous
 62
     7
100
AcDbLine
 10
101.764422
 20
7.888101
 30
0.0
 11
101.770284
 21
7.874929
 31
0.0
  0
LINE
  5
15A
100
AcDbEntity
  8
0
390
0
  6
Continuous
 62
     7
100
AcDbLine
 10
101.759568
 20
7.900331
 30
0.0
 11
101.764422
 21
7.888101
 31
0.0
  0
LINE
  5
15B
100
AcDbEntity
  8
0
390
0
  6
Continuous
 62
     7
100
AcDbLine
 10
101.755681
 20
7.911569
 30
0.0
 11
101.759568
 21
7.900331
 31
0.0
  0
LINE
  5
15C
100
AcDbEntity
  8
0
390
0
  6
Continuous
 62
     7
100
AcDbLine
 10
101.752708
 20
7.921762
 30
0.0
 11
101.755681
 21
7.911569
 31
0.0
  0
LINE
  5
15D
100
AcDbEntity
  8
0
390
0
  6
Continuous
 62
     7
100
AcDbLine
 10
101.750579
 20
7.930861
 30
0.0
 11
101.752708
 21
7.921762
 31
0.0
  0
LINE
  5
15E
100
AcDbEntity
  8
0
390
0
  6
Continuous
 62
     7
100
AcDbLine
 10
101.749204
 20
7.938831
 30
0.0
 11
101.750579
 21
7.930861
 31
0.0
  0
LINE
  5
15F
100
AcDbEntity
  8
0
390
0
  6
Continuous
 62
     7
100
AcDbLine
 10
101.748384
 20
7.946514
 30
0.0
 11
101.749204
 21
7.938831
 31
0.0
  0
LINE
  5
160
100
AcDbEntity
  8
0
390
0
  6
Continuous
 62
     7
100
AcDbLine
 10
101.747573
 20
7.962073
 30
0.0
 11
101.748384
 21
7.946514
 31
0.0
  0
LINE
  5
161
100
AcDbEntity
  8
0
390
0
  6
Continuous
 62
     7
100
AcDbLine
 10
101.747396
 20
7.978087
 30
0.0
 11
101.747573
 21
7.962073
 31
0.0
  0
LINE
  5
162
100
AcDbEntity
  8
0
390
0
  6
Continuous
 62
     7
100
AcDbLine
 10
101.747881
 20
7.99379
 30
0.0
 11
101.747396
 21
7.978087
 31
0.0
  0
LINE
  5
163
100
AcDbEntity
  8
0
390
0
  6
Continuous
 62
     7
100
AcDbLine
 10
101.749018
 20
8.009205
 30
0.0
 11
101.747881
 21
7.99379
 31
0.0
  0
LINE
  5
164
100
AcDbEntity
  8
0
390
0
  6
Continuous
 62
     7
100
AcDbLine
 10
101.750799
 20
8.024357
 30
0.0
 11
101.749018
 21
8.009205
 31
0.0
  0
LINE
  5
165
100
AcDbEntity
  8
0
390
0
  6
Continuous
 62
     7
100
AcDbLine
 10
101.75322
 20
8.039274
 30
0.0
 11
101.750799
 21
8.024357
 31
0.0
  0
LINE
  5
166
100
AcDbEntity
  8
0
390
0
  6
Continuous
 62
     7
100
AcDbLine
 10
101.756281
 20
8.053984
 30
0.0
 11
101.75322
 21
8.039274
 31
0.0
  0
LINE
  5
167
100
AcDbEntity
  8
0
390
0
  6
Continuous
 62
     7
100
AcDbLine
 10
101.759984
 20
8.068514
 30
0.0
 11
101.756281
 21
8.053984
 31
0.0
  0
LINE
  5
168
100
AcDbEntity
  8
0
390
0
  6
Continuous
 62
     7
100
AcDbLine
 10
101.764338
 20
8.082894
 30
0.0
 11
101.759984
 21
8.068514
 31
0.0
  0
LINE
  5
169
100
AcDbEntity
  8
0
390
0
  6
Continuous
 62
     7
100
AcDbLine
 10
101.769253
 20
8.09687
 30
0.0
 11
101.764338
 21
8.082894
 31
0.0
  0
LINE
  5
16A
100
AcDbEntity
  8
0
390
0
  6
Continuous
 62
     7
100
AcDbLine
 10
100.639804
 20
9.853806
 30
0.0
 11
100.66094
 21
9.865026
 31
0.0
  0
LINE
  5
16B
100
AcDbEntity
  8
0
390
0
  6
Continuous
 62
     7
100
AcDbLine
 10
100.624914
 20
9.847915
 30
0.0
 11
100.639804
 21
9.853806
 31
0.0
  0
LINE
  5
16C
100
AcDbEntity
  8
0
390
0
  6
Continuous
 62
     7
100
AcDbLine
 10
100.614609
 20
9.845375
 30
0.0
 11
100.624914
 21
9.847915
 31
0.0
  0
LINE
  5
16D
100
AcDbEntity
  8
0
390
0
  6
Continuous
 62
     7
100
AcDbLine
 10
100.608796
 20
9.844906
 30
0.0
 11
100.614609
 21
9.845375
 31
0.0
  0
LINE
  5
16E
100
AcDbEntity
  8
0
390
0
  6
Continuous
 62
     7
100
AcDbLine
 10
100.606369
 20
9.845158
 30
0.0
 11
100.608796
 21
9.844906
 31
0.0
  0
LINE
  5
16F
100
AcDbEntity
  8
0
390
0
  6
Continuous
 62
     7
100
AcDbLine
 10
100.605188
 20
9.845527
 30
0.0
 11
100.606369
 21
9.845158
 31
0.0
  0
LINE
  5
170
100
AcDbEntity
  8
0
390
0
  6
Continuous
 62
     7
100
AcDbLine
 10
100.602939
 20
9.846756
 30
0.0
 11
100.605188
 21
9.845527
 31
0.0
  0
LINE
  5
171
100
AcDbEntity
  8
0
390
0
  6
Continuous
 62
     7
100
AcDbLine
 10
100.598252
 20
9.850573
 30
0.0
 11
100.602939
 21
9.846756
 31
0.0
  0
LINE
  5
172
100
AcDbEntity
  8
0
390
0
  6
Continuous
 62
     7
100
AcDbLine
 10
100.591021
 20
9.858693
 30
0.0
 11
100.598252
 21
9.850573
 31
0.0
  0
LINE
  5
173
100
AcDbEntity
  8
0
390
0
  6
Continuous
 62
     7
100
AcDbLine
 10
100.582079
 20
9.871943
 30
0.0
 11
100.591021
 21
9.858693
 31
0.0
  0
LINE
  5
174
100
AcDbEntity
  8
0
390
0
  6
Continuous
 62
     7
100
AcDbLine
 10
100.574727
 20
9.886135
 30
0.0
 11
100.582079
 21
9.871943
 31
0.0
  0
LINE
  5
175
100
AcDbEntity
  8
0
390
0
  6
Continuous
 62
     7
100
AcDbLine
 10
100.57106
 20
9.896369
 30
0.0
 11
100.574727
 21
9.886135
 31
0.0
  0
LINE
  5
176
100
AcDbEntity
  8
0
390
0
  6
Continuous
 62
     7
100
AcDbLine
 10
100.569952
 20
9.902309
 30
0.0
 11
100.57106
 21
9.896369
 31
0.0
  0
LINE
  5
177
100
AcDbEntity
  8
0
390
0
  6
Continuous
 62
     7
100
AcDbLine
 10
100.569949
 20
9.904871
 30
0.0
 11
100.569952
 21
9.902309
 31
0.0
  0
LINE
  5
178
100
AcDbEntity
  8
0
390
0
  6
Continuous
 62
     7
100
AcDbLine
 10
100.570191
 20
9.906084
 30
0.0
 11
100.569949
 21
9.904871
 31
0.0
  0
LINE
  5
179
100
AcDbEntity
  8
0
390
0
  6
Continuous
 62
     7
100
AcDbLine
 10
100.571131
 20
9.908335
 30
0.0
 11
100.570191
 21
9.906084
 31
0.0
  0
LINE
  5
17A
100
AcDbEntity
  8
0
390
0
  6
Continuous
 62
     7
100
AcDbLine
 10
100.574326
 20
9.913215
 30
0.0
 11
100.571131
 21
9.908335
 31
0.0
  0
LINE
  5
17B
100
AcDbEntity
  8
0
390
0
  6
Continuous
 62
     7
100
AcDbLine
 10
100.581489
 20
9.921047
 30
0.0
 11
100.574326
 21
9.913215
 31
0.0
  0
LINE
  5
17C
100
AcDbEntity
  8
0
390
0
  6
Continuous
 62
     7
100
AcDbLine
 10
100.59379
 20
9.931301
 30
0.0
 11
100.581489
 21
9.921047
 31
0.0
  0
LINE
  5
17D
100
AcDbEntity
  8
0
390
0
  6
Continuous
 62
     7
100
AcDbLine
 10
100.613758
 20
9.944488
 30
0.0
 11
100.59379
 21
9.931301
 31
0.0
  0
LINE
  5
17E
100
AcDbEntity
  8
0
390
0
  6
Continuous
 62
     7
100
AcDbLine
 10
99.938557
 20
15.045579
 30
0.0
 11
99.925481
 21
15.036325
 31
0.0
  0
LINE
  5
17F
100
AcDbEntity
  8
0
390
0
  6
Continuous
 62
     7
100
AcDbLine
 10
99.947972
 20
15.050488
 30
0.0
 11
99.938557
 21
15.045579
 31
0.0
  0
LINE
  5
180
100
AcDbEntity
  8
0
390
0
  6
Continuous
 62
     7
100
AcDbLine
 10
99.953512
 20
15.052323
 30
0.0
 11
99.947972
 21
15.050488
 31
0.0
  0
LINE
  5
181
100
AcDbEntity
  8
0
390
0
  6
Continuous
 62
     7
100
AcDbLine
 10
99.955934
 20
15.052653
 30
0.0
 11
99.953512
 21
15.052323
 31
0.0
  0
LINE
  5
182
100
AcDbEntity
  8
0
390
0
  6
Continuous
 62
     7
100
AcDbLine
 10
99.957172
 20
15.052574
 30
0.0
 11
99.955934
 21
15.052653
 31
0.0
  0
LINE
  5
183
100
AcDbEntity
  8
0
390
0
  6
Continuous
 62
     7
100
AcDbLine
 10
99.959651
 20
15.051912
 30
0.0
 11
99.957172
 21
15.052574
 31
0.0
  0
LINE
  5
184
100
AcDbEntity
  8
0
390
0
  6
Continuous
 62
     7
100
AcDbLine
 10
99.965112
 20
15.049311
 30
0.0
 11
99.959651
 21
15.051912
 31
0.0
  0
LINE
  5
185
100
AcDbEntity
  8
0
390
0
  6
Continuous
 62
     7
100
AcDbLine
 10
100.00847
 20
14.933199
 30
0.0
 11
100.009594
 21
14.949027
 31
0.0
  0
LINE
  5
186
100
AcDbEntity
  8
0
390
0
  6
Continuous
 62
     7
100
AcDbLine
 10
99.486731
 20
11.473772
 30
0.0
 11
100.00847
 21
14.933199
 31
0.0
  0
POLYLINE
  5
187
100
AcDbEntity
  8
0
390
0
  6
Continuous
 62
     7
100
AcDb2dPolyline
 66
     1
 10
0.0
 20
0.0
 30
0.0
 40
0.1
 41
0.1
  0
VERTEX
  5
188
100
AcDbEntity
  8
0
390
0
 62
     7
100
AcDbVertex
100
AcDb2dVertex
 10
99.672464
 20
11.378776
 30
0.0
  0
VERTEX
  5
189
100
AcDbEntity
  8
0
390
0
 62
     7
100
AcDbVertex
100
AcDb2dVertex
 10
99.57434
 20
11.349423
 30
0.0
  0
VERTEX
  5
18A
100
AcDbEntity
  8
0
390
0
 62
     7
100
AcDbVertex
100
AcDb2dVertex
 10
99.494891
 20
11.412897
 30
0.0
  0
VERTEX
  5
18B
100
AcDbEntity
  8
0
390
0
 62
     7
100
AcDbVertex
100
AcDb2dVertex
 10
99.486731
 20
11.473772
 30
0.0
  0
SEQEND
  5
18C
100
AcDbEntity
  8
0
390
0
  0
LINE
  5
18D
100
AcDbEntity
  8
0
390
0
  6
Continuous
 62
     7
100
AcDbLine
 10
99.639932
 20
11.219734
 30
0.0
 11
99.661248
 21
11.238366
 31
0.0
  0
LINE
  5
18E
100
AcDbEntity
  8
0
390
0
  6
Continuous
 62
     7
100
AcDbLine
 10
99.623883
 20
11.209055
 30
0.0
 11
99.639932
 21
11.219734
 31
0.0
  0
LINE
  5
18F
100
AcDbEntity
  8
0
390
0
  6
Continuous
 62
     7
100
AcDbLine
 10
99.611384
 20
11.203319
 30
0.0
 11
99.623883
 21
11.209055
 31
0.0
  0
LINE
  5
190
100
AcDbEntity
  8
0
390
0
  6
Continuous
 62
     7
100
AcDbLine
 10
99.601994
 20
11.200927
 30
0.0
 11
99.611384
 21
11.203319
 31
0.0
  0
LINE
  5
191
100
AcDbEntity
  8
0
390
0
  6
Continuous
 62
     7
100
AcDbLine
 10
99.594056
 20
11.200508
 30
0.0
 11
99.601994
 21
11.200927
 31
0.0
  0
LINE
  5
192
100
AcDbEntity
  8
0
390
0
  6
Continuous
 62
     7
100
AcDbLine
 10
99.585168
 20
11.201817
 30
0.0
 11
99.594056
 21
11.200508
 31
0.0
  0
LINE
  5
193
100
AcDbEntity
  8
0
390
0
  6
Continuous
 62
     7
100
AcDbLine
 10
99.573334
 20
11.2059
 30
0.0
 11
99.585168
 21
11.201817
 31
0.0
  0
LINE
  5
194
100
AcDbEntity
  8
0
390
0
  6
Continuous
 62
     7
100
AcDbLine
 10
99.557724
 20
11.214341
 30
0.0
 11
99.573334
 21
11.2059
 31
0.0
  0
LINE
  5
195
100
AcDbEntity
  8
0
390
0
  6
Continuous
 62
     7
100
AcDbLine
 10
99.53851
 20
11.228451
 30
0.0
 11
99.557724
 21
11.214341
 31
0.0
  0
LINE
  5
196
100
AcDbEntity
  8
0
390
0
  6
Continuous
 62
     7
100
AcDbLine
 10
99.515131
 20
11.250102
 30
0.0
 11
99.53851
 21
11.228451
 31
0.0
  0
LINE
  5
197
100
AcDbEntity
  8
0
390
0
  6
Continuous
 62
     7
100
AcDbLine
 10
99.503966
 20
11.261842
 30
0.0
 11
99.515131
 21
11.250102
 31
0.0
  0
LINE
  5
198
100
AcDbEntity
  8
0
390
0
  6
Continuous
 62
     7
100
AcDbLine
 10
99.492706
 20
11.274446
 30
0.0
 11
99.503966
 21
11.261842
 31
0.0
  0
LINE
  5
199
100
AcDbEntity
  8
0
390
0
  6
Continuous
 62
     7
100
AcDbLine
 10
99.482671
 20
11.286479
 30
0.0
 11
99.492706
 21
11.274446
 31
0.0
  0
LINE
  5
19A
100
AcDbEntity
  8
0
390
0
  6
Continuous
 62
     7
100
AcDbLine
 10
99.473853
 20
11.297892
 30
0.0
 11
99.482671
 21
11.286479
 31
0.0
  0
LINE
  5
19B
100
AcDbEntity
  8
0
390
0
  6
Continuous
 62
     7
100
AcDbLine
 10
99.466236
 20
11.30863
 30
0.0
 11
99.473853
 21
11.297892
 31
0.0
  0
LINE
  5
19C
100
AcDbEntity
  8
0
390
0
  6
Continuous
 62
     7
100
AcDbLine
 10
99.459794
 20
11.318633
 30
0.0
 11
99.466236
 21
11.30863
 31
0.0
  0
LINE
  5
19D
100
AcDbEntity
  8
0
390
0
  6
Continuous
 62
     7
100
AcDbLine
 10
99.454488
 20
11.327837
 30
0.0
 11
99.459794
 21
11.318633
 31
0.0
  0
LINE
  5
19E
100
AcDbEntity
  8
0
390
0
  6
Continuous
 62
     7
100
AcDbLine
 10
99.45026
 20
11.336178
 30
0.0
 11
99.454488
 21
11.327837
 31
0.0
  0
LINE
  5
19F
100
AcDbEntity
  8
0
390
0
  6
Continuous
 62
     7
100
AcDbLine
 10
99.447034
 20
11.3436
 30
0.0
 11
99.45026
 21
11.336178
 31
0.0
  0
LINE
  5
1A0
100
AcDbEntity
  8
0
390
0
  6
Continuous
 62
     7
100
AcDbLine
 10
99.444418
 20
11.350865
 30
0.0
 11
99.447034
 21
11.3436
 31
0.0
  0
LINE
  5
1A1
100
AcDbEntity
  8
0
390
0
  6
Continuous
 62
     7
100
AcDbLine
 10
99.439948
 20
11.365783
 30
0.0
 11
99.444418
 21
11.350865
 31
0.0
  0
LINE
  5
1A2
100
AcDbEntity
  8
0
390
0
  6
Continuous
 62
     7
100
AcDbLine
 10
99.435983
 20
11.381302
 30
0.0
 11
99.439948
 21
11.365783
 31
0.0
  0
LINE
  5
1A3
100
AcDbEntity
  8
0
390
0
  6
Continuous
 62
     7
100
AcDbLine
 10
99.432735
 20
11.396676
 30
0.0
 11
99.435983
 21
11.381302
 31
0.0
  0
LINE
  5
1A4
100
AcDbEntity
  8
0
390
0
  6
Continuous
 62
     7
100
AcDbLine
 10
99.430188
 20
11.411925
 30
0.0
 11
99.432735
 21
11.396676
 31
0.0
  0
LINE
  5
1A5
100
AcDbEntity
  8
0
390
0
  6
Continuous
 62
     7
100
AcDbLine
 10
99.42833
 20
11.427072
 30
0.0
 11
99.430188
 21
11.411925
 31
0.0
  0
LINE
  5
1A6
100
AcDbEntity
  8
0
390
0
  6
Continuous
 62
     7
100
AcDbLine
 10
99.42715
 20
11.442141
 30
0.0
 11
99.42833
 21
11.427072
 31
0.0
  0
LINE
  5
1A7
100
AcDbEntity
  8
0
390
0
  6
Continuous
 62
     7
100
AcDbLine
 10
99.42664
 20
11.45716
 30
0.0
 11
99.42715
 21
11.442141
 31
0.0
  0
LINE
  5
1A8
100
AcDbEntity
  8
0
390
0
  6
Continuous
 62
     7
100
AcDbLine
 10
99.426797
 20
11.472158
 30
0.0
 11
99.42664
 21
11.45716
 31
0.0
  0
LINE
  5
1A9
100
AcDbEntity
  8
0
390
0
  6
Continuous
 62
     7
100
AcDbLine
 10
99.427622
 20
11.487164
 30
0.0
 11
99.426797
 21
11.472158
 31
0.0
  0
LINE
  5
1AA
100
AcDbEntity
  8
0
390
0
  6
Continuous
 62
     7
100
AcDbLine
 10
99.42909
 20
11.501913
 30
0.0
 11
99.427622
 21
11.487164
 31
0.0
  0
LINE
  5
1AB
100
AcDbEntity
  8
0
390
0
  6
Continuous
 62
     7
100
AcDbLine
 10
99.892024
 20
14.598975
 30
0.0
 11
99.42909
 21
11.501913
 31
0.0
  0
POLYLINE
  5
1AC
100
AcDbEntity
  8
0
390
0
  6
Continuous
 62
     7
100
AcDb2dPolyline
 66
     1
 10
0.0
 20
0.0
 30
0.0
 40
0.1
 41
0.1
  0
VERTEX
  5
1AD
100
AcDbEntity
  8
0
390
0
 62
     7
100
AcDbVertex
100
AcDb2dVertex
 10
99.706269
 20
14.693829
 30
0.0
  0
VERTEX
  5
1AE
100
AcDbEntity
  8
0
390
0
 62
     7
100
AcDbVertex
100
AcDb2dVertex
 10
99.805659
 20
14.722926
 30
0.0
  0
VERTEX
  5
1AF
100
AcDbEntity
  8
0
390
0
 62
     7
100
AcDbVertex
100
AcDb2dVertex
 10
99.884404
 20
14.658412
 30
0.0
  0
VERTEX
  5
1B0
100
AcDbEntity
  8
0
390
0
 62
     7
100
AcDbVertex
100
AcDb2dVertex
 10
99.892024
 20
14.598975
 30
0.0
  0
SEQEND
  5
1B1
100
AcDbEntity
  8
0
390
0
  0
LINE
  5
1B2
100
AcDbEntity
  8
0
390
0
  6
Continuous
 62
     7
100
AcDbLine
 10
97.933263
 20
12.957561
 30
0.0
 11
99.706269
 21
14.693829
 31
0.0
  0
LINE
  5
1B3
100
AcDbEntity
  8
0
390
0
  6
Continuous
 62
     7
100
AcDbLine
 10
97.915381
 20
12.941651
 30
0.0
 11
97.933263
 21
12.957561
 31
0.0
  0
LINE
  5
1B4
100
AcDbEntity
  8
0
390
0
  6
Continuous
 62
     7
100
AcDbLine
 10
97.902305
 20
12.932397
 30
0.0
 11
97.915381
 21
12.941651
 31
0.0
  0
LINE
  5
1B5
100
AcDbEntity
  8
0
390
0
  6
Continuous
 62
     7
100
AcDbLine
 10
97.89289
 20
12.927487
 30
0.0
 11
97.902305
 21
12.932397
 31
0.0
  0
LINE
  5
1B6
100
AcDbEntity
  8
0
390
0
  6
Continuous
 62
     7
100
AcDbLine
 10
97.88735
 20
12.925653
 30
0.0
 11
97.89289
 21
12.927487
 31
0.0
  0
LINE
  5
1B7
100
AcDbEntity
  8
0
390
0
  6
Continuous
 62
     7
100
AcDbLine
 10
97.884928
 20
12.925323
 30
0.0
 11
97.88735
 21
12.925653
 31
0.0
  0
LINE
  5
1B8
100
AcDbEntity
  8
0
390
0
  6
Continuous
 62
     7
100
AcDbLine
 10
97.88369
 20
12.925401
 30
0.0
 11
97.884928
 21
12.925323
 31
0.0
  0
LINE
  5
1B9
100
AcDbEntity
  8
0
390
0
  6
Continuous
 62
     7
100
AcDbLine
 10
97.881211
 20
12.926064
 30
0.0
 11
97.88369
 21
12.925401
 31
0.0
  0
LINE
  5
1BA
100
AcDbEntity
  8
0
390
0
  6
Continuous
 62
     7
100
AcDbLine
 10
97.87575
 20
12.928664
 30
0.0
 11
97.881211
 21
12.926064
 31
0.0
  0
LINE
  5
1BB
100
AcDbEntity
  8
0
390
0
  6
Continuous
 62
     7
100
AcDbLine
 10
97.866798
 20
12.934843
 30
0.0
 11
97.87575
 21
12.928664
 31
0.0
  0
LINE
  5
1BC
100
AcDbEntity
  8
0
390
0
  6
Continuous
 62
     7
100
AcDbLine
 10
97.854969
 20
12.945602
 30
0.0
 11
97.866798
 21
12.934843
 31
0.0
  0
LINE
  5
1BD
100
AcDbEntity
  8
0
390
0
  6
Continuous
 62
     7
100
AcDbLine
 10
97.84446
 20
12.957655
 30
0.0
 11
97.854969
 21
12.945602
 31
0.0
  0
LINE
  5
1BE
100
AcDbEntity
  8
0
390
0
  6
Continuous
 62
     7
100
AcDbLine
 10
97.83847
 20
12.966735
 30
0.0
 11
97.84446
 21
12.957655
 31
0.0
  0
LINE
  5
1BF
100
AcDbEntity
  8
0
390
0
  6
Continuous
 62
     7
100
AcDbLine
 10
97.835984
 20
12.972249
 30
0.0
 11
97.83847
 21
12.966735
 31
0.0
  0
LINE
  5
1C0
100
AcDbEntity
  8
0
390
0
  6
Continuous
 62
     7
100
AcDbLine
 10
97.835374
 20
12.974742
 30
0.0
 11
97.835984
 21
12.972249
 31
0.0
  0
LINE
  5
1C1
100
AcDbEntity
  8
0
390
0
  6
Continuous
 62
     7
100
AcDbLine
 10
97.835321
 20
12.975982
 30
0.0
 11
97.835374
 21
12.974742
 31
0.0
  0
LINE
  5
1C2
100
AcDbEntity
  8
0
390
0
  6
Continuous
 62
     7
100
AcDbLine
 10
97.835702
 20
12.978397
 30
0.0
 11
97.835321
 21
12.975982
 31
0.0
  0
LINE
  5
1C3
100
AcDbEntity
  8
0
390
0
  6
Continuous
 62
     7
100
AcDbLine
 10
97.837652
 20
12.983899
 30
0.0
 11
97.835702
 21
12.978397
 31
0.0
  0
LINE
  5
1C4
100
AcDbEntity
  8
0
390
0
  6
Continuous
 62
     7
100
AcDbLine
 10
97.842758
 20
12.993209
 30
0.0
 11
97.837652
 21
12.983899
 31
0.0
  0
LINE
  5
1C5
100
AcDbEntity
  8
0
390
0
  6
Continuous
 62
     7
100
AcDbLine
 10
97.852284
 20
13.006089
 30
0.0
 11
97.842758
 21
12.993209
 31
0.0
  0
LINE
  5
1C6
100
AcDbEntity
  8
0
390
0
  6
Continuous
 62
     7
100
AcDbLine
 10
97.868565
 20
13.023634
 30
0.0
 11
97.852284
 21
13.006089
 31
0.0
  0
LINE
  5
1C7
100
AcDbEntity
  8
0
390
0
  6
Continuous
 62
     7
100
AcDbLine
 10
99.925481
 20
15.036325
 30
0.0
 11
99.907599
 21
15.020415
 31
0.0
  0
LINE
  5
1C8
100
AcDbEntity
  8
0
390
0
  6
Continuous
 62
     7
100
AcDbLine
 10
81.734317
 20
18.900843
 30
0.0
 11
81.773727
 21
18.818783
 31
0.0
  0
LINE
  5
1C9
100
AcDbEntity
  8
0
390
0
  6
Continuous
 62
     7
100
AcDbLine
 10
81.693349
 20
18.977141
 30
0.0
 11
81.734317
 21
18.900843
 31
0.0
  0
LINE
  5
1CA
100
AcDbEntity
  8
0
390
0
  6
Continuous
 62
     7
100
AcDbLine
 10
81.650704
 20
19.047704
 30
0.0
 11
81.693349
 21
18.977141
 31
0.0
  0
LINE
  5
1CB
100
AcDbEntity
  8
0
390
0
  6
Continuous
 62
     7
100
AcDbLine
 10
81.606235
 20
19.112541
 30
0.0
 11
81.650704
 21
19.047704
 31
0.0
  0
LINE
  5
1CC
100
AcDbEntity
  8
0
390
0
  6
Continuous
 62
     7
100
AcDbLine
 10
80.308928
 20
19.239224
 30
0.0
 11
80.366314
 21
19.278147
 31
0.0
  0
LINE
  5
1CD
100
AcDbEntity
  8
0
390
0
  6
Continuous
 62
     7
100
AcDbLine
 10
80.255759
 20
19.196438
 30
0.0
 11
80.308928
 21
19.239224
 31
0.0
  0
LINE
  5
1CE
100
AcDbEntity
  8
0
390
0
  6
Continuous
 62
     7
100
AcDbLine
 10
80.207
 20
19.149813
 30
0.0
 11
80.255759
 21
19.196438
 31
0.0
  0
LINE
  5
1CF
100
AcDbEntity
  8
0
390
0
  6
Continuous
 62
     7
100
AcDbLine
 10
80.162848
 20
19.099428
 30
0.0
 11
80.207
 21
19.149813
 31
0.0
  0
LINE
  5
1D0
100
AcDbEntity
  8
0
390
0
  6
Continuous
 62
     7
100
AcDbLine
 10
80.123485
 20
19.045426
 30
0.0
 11
80.162848
 21
19.099428
 31
0.0
  0
LINE
  5
1D1
100
AcDbEntity
  8
0
390
0
  6
Continuous
 62
     7
100
AcDbLine
 10
80.088794
 20
18.987565
 30
0.0
 11
80.123485
 21
19.045426
 31
0.0
  0
LINE
  5
1D2
100
AcDbEntity
  8
0
390
0
  6
Continuous
 62
     7
100
AcDbLine
 10
80.055527
 20
18.917376
 30
0.0
 11
80.088794
 21
18.987565
 31
0.0
  0
LINE
  5
1D3
100
AcDbEntity
  8
0
390
0
  6
Continuous
 62
     7
100
AcDbLine
 10
80.0293
 20
18.842899
 30
0.0
 11
80.055527
 21
18.917376
 31
0.0
  0
LINE
  5
1D4
100
AcDbEntity
  8
0
390
0
  6
Continuous
 62
     7
100
AcDbLine
 10
80.010287
 20
18.764927
 30
0.0
 11
80.0293
 21
18.842899
 31
0.0
  0
LINE
  5
1D5
100
AcDbEntity
  8
0
390
0
  6
Continuous
 62
     7
100
AcDbLine
 10
79.998358
 20
18.683732
 30
0.0
 11
80.010287
 21
18.764927
 31
0.0
  0
LINE
  5
1D6
100
AcDbEntity
  8
0
390
0
  6
Continuous
 62
     7
100
AcDbLine
 10
79.993332
 20
18.599491
 30
0.0
 11
79.998358
 21
18.683732
 31
0.0
  0
LINE
  5
1D7
100
AcDbEntity
  8
0
390
0
  6
Continuous
 62
     7
100
AcDbLine
 10
79.995015
 20
18.512297
 30
0.0
 11
79.993332
 21
18.599491
 31
0.0
  0
LINE
  5
1D8
100
AcDbEntity
  8
0
390
0
  6
Continuous
 62
     7
100
AcDbLine
 10
80.003225
 20
18.422171
 30
0.0
 11
79.995015
 21
18.512297
 31
0.0
  0
LINE
  5
1D9
100
AcDbEntity
  8
0
390
0
  6
Continuous
 62
     7
100
AcDbLine
 10
80.017807
 20
18.329087
 30
0.0
 11
80.003225
 21
18.422171
 31
0.0
  0
LINE
  5
1DA
100
AcDbEntity
  8
0
390
0
  6
Continuous
 62
     7
100
AcDbLine
 10
80.038638
 20
18.23299
 30
0.0
 11
80.017807
 21
18.329087
 31
0.0
  0
LINE
  5
1DB
100
AcDbEntity
  8
0
390
0
  6
Continuous
 62
     7
100
AcDbLine
 10
80.065292
 20
18.135022
 30
0.0
 11
80.038638
 21
18.23299
 31
0.0
  0
LINE
  5
1DC
100
AcDbEntity
  8
0
390
0
  6
Continuous
 62
     7
100
AcDbLine
 10
80.591446
 20
16.370042
 30
0.0
 11
80.065292
 21
18.135022
 31
0.0
  0
LINE
  5
1DD
100
AcDbEntity
  8
0
390
0
  6
Continuous
 62
     7
100
AcDbLine
 10
80.597177
 20
16.346813
 30
0.0
 11
80.591446
 21
16.370042
 31
0.0
  0
LINE
  5
1DE
100
AcDbEntity
  8
0
390
0
  6
Continuous
 62
     7
100
AcDbLine
 10
80.599263
 20
16.33094
 30
0.0
 11
80.597177
 21
16.346813
 31
0.0
  0
LINE
  5
1DF
100
AcDbEntity
  8
0
390
0
  6
Continuous
 62
     7
100
AcDbLine
 10
80.599215
 20
16.32033
 30
0.0
 11
80.599263
 21
16.33094
 31
0.0
  0
LINE
  5
1E0
100
AcDbEntity
  8
0
390
0
  6
Continuous
 62
     7
100
AcDbLine
 10
80.598255
 20
16.314582
 30
0.0
 11
80.599215
 21
16.32033
 31
0.0
  0
LINE
  5
1E1
100
AcDbEntity
  8
0
390
0
  6
Continuous
 62
     7
100
AcDbLine
 10
80.59742
 20
16.312293
 30
0.0
 11
80.598255
 21
16.314582
 31
0.0
  0
LINE
  5
1E2
100
AcDbEntity
  8
0
390
0
  6
Continuous
 62
     7
100
AcDbLine
 10
80.596777
 20
16.311241
 30
0.0
 11
80.59742
 21
16.312293
 31
0.0
  0
LINE
  5
1E3
100
AcDbEntity
  8
0
390
0
  6
Continuous
 62
     7
100
AcDbLine
 10
80.59504
 20
16.309362
 30
0.0
 11
80.596777
 21
16.311241
 31
0.0
  0
LINE
  5
1E4
100
AcDbEntity
  8
0
390
0
  6
Continuous
 62
     7
100
AcDbLine
 10
80.590199
 20
16.305749
 30
0.0
 11
80.59504
 21
16.309362
 31
0.0
  0
LINE
  5
1E5
100
AcDbEntity
  8
0
390
0
  6
Continuous
 62
     7
100
AcDbLine
 10
80.580565
 20
16.300716
 30
0.0
 11
80.590199
 21
16.305749
 31
0.0
  0
LINE
  5
1E6
100
AcDbEntity
  8
0
390
0
  6
Continuous
 62
     7
100
AcDbLine
 10
80.565536
 20
16.295272
 30
0.0
 11
80.580565
 21
16.300716
 31
0.0
  0
LINE
  5
1E7
100
AcDbEntity
  8
0
390
0
  6
Continuous
 62
     7
100
AcDbLine
 10
80.54998
 20
16.291598
 30
0.0
 11
80.565536
 21
16.295272
 31
0.0
  0
LINE
  5
1E8
100
AcDbEntity
  8
0
390
0
  6
Continuous
 62
     7
100
AcDbLine
 10
80.539164
 20
16.290535
 30
0.0
 11
80.54998
 21
16.291598
 31
0.0
  0
LINE
  5
1E9
100
AcDbEntity
  8
0
390
0
  6
Continuous
 62
     7
100
AcDbLine
 10
80.533135
 20
16.290907
 30
0.0
 11
80.539164
 21
16.290535
 31
0.0
  0
LINE
  5
1EA
100
AcDbEntity
  8
0
390
0
  6
Continuous
 62
     7
100
AcDbLine
 10
80.530653
 20
16.291528
 30
0.0
 11
80.533135
 21
16.290907
 31
0.0
  0
LINE
  5
1EB
100
AcDbEntity
  8
0
390
0
  6
Continuous
 62
     7
100
AcDbLine
 10
80.529539
 20
16.292057
 30
0.0
 11
80.530653
 21
16.291528
 31
0.0
  0
LINE
  5
1EC
100
AcDbEntity
  8
0
390
0
  6
Continuous
 62
     7
100
AcDbLine
 10
80.527587
 20
16.293515
 30
0.0
 11
80.529539
 21
16.292057
 31
0.0
  0
LINE
  5
1ED
100
AcDbEntity
  8
0
390
0
  6
Continuous
 62
     7
100
AcDbLine
 10
80.523636
 20
16.2978
 30
0.0
 11
80.527587
 21
16.293515
 31
0.0
  0
LINE
  5
1EE
100
AcDbEntity
  8
0
390
0
  6
Continuous
 62
     7
100
AcDbLine
 10
80.517786
 20
16.306651
 30
0.0
 11
80.523636
 21
16.2978
 31
0.0
  0
LINE
  5
1EF
100
AcDbEntity
  8
0
390
0
  6
Continuous
 62
     7
100
AcDbLine
 10
80.510839
 20
16.321076
 30
0.0
 11
80.517786
 21
16.306651
 31
0.0
  0
LINE
  5
1F0
100
AcDbEntity
  8
0
390
0
  6
Continuous
 62
     7
100
AcDbLine
 10
80.502916
 20
16.343652
 30
0.0
 11
80.510839
 21
16.321076
 31
0.0
  0
LINE
  5
1F1
100
AcDbEntity
  8
0
390
0
  6
Continuous
 62
     7
100
AcDbLine
 10
79.973127
 20
18.120831
 30
0.0
 11
80.502916
 21
16.343652
 31
0.0
  0
LINE
  5
1F2
100
AcDbEntity
  8
0
390
0
  6
Continuous
 62
     7
100
AcDbLine
 10
79.945973
 20
18.222366
 30
0.0
 11
79.973127
 21
18.120831
 31
0.0
  0
LINE
  5
1F3
100
AcDbEntity
  8
0
390
0
  6
Continuous
 62
     7
100
AcDbLine
 10
79.926357
 20
18.318803
 30
0.0
 11
79.945973
 21
18.222366
 31
0.0
  0
LINE
  5
1F4
100
AcDbEntity
  8
0
390
0
  6
Continuous
 62
     7
100
AcDbLine
 10
79.913782
 20
18.411576
 30
0.0
 11
79.926357
 21
18.318803
 31
0.0
  0
LINE
  5
1F5
100
AcDbEntity
  8
0
390
0
  6
Continuous
 62
     7
100
AcDbLine
 10
79.908124
 20
18.500708
 30
0.0
 11
79.913782
 21
18.411576
 31
0.0
  0
LINE
  5
1F6
100
AcDbEntity
  8
0
390
0
  6
Continuous
 62
     7
100
AcDbLine
 10
79.90925
 20
18.586262
 30
0.0
 11
79.908124
 21
18.500708
 31
0.0
  0
LINE
  5
1F7
100
AcDbEntity
  8
0
390
0
  6
Continuous
 62
     7
100
AcDbLine
 10
79.917039
 20
18.668356
 30
0.0
 11
79.90925
 21
18.586262
 31
0.0
  0
LINE
  5
1F8
100
AcDbEntity
  8
0
390
0
  6
Continuous
 62
     7
100
AcDbLine
 10
79.931391
 20
18.747157
 30
0.0
 11
79.917039
 21
18.668356
 31
0.0
  0
LINE
  5
1F9
100
AcDbEntity
  8
0
390
0
  6
Continuous
 62
     7
100
AcDbLine
 10
79.952255
 20
18.822875
 30
0.0
 11
79.931391
 21
18.747157
 31
0.0
  0
LINE
  5
1FA
100
AcDbEntity
  8
0
390
0
  6
Continuous
 62
     7
100
AcDbLine
 10
79.979641
 20
18.895747
 30
0.0
 11
79.952255
 21
18.822875
 31
0.0
  0
LINE
  5
1FB
100
AcDbEntity
  8
0
390
0
  6
Continuous
 62
     7
100
AcDbLine
 10
80.013646
 20
18.966057
 30
0.0
 11
79.979641
 21
18.895747
 31
0.0
  0
LINE
  5
1FC
100
AcDbEntity
  8
0
390
0
  6
Continuous
 62
     7
100
AcDbLine
 10
80.051501
 20
19.0293
 30
0.0
 11
80.013646
 21
18.966057
 31
0.0
  0
LINE
  5
1FD
100
AcDbEntity
  8
0
390
0
  6
Continuous
 62
     7
100
AcDbLine
 10
80.094527
 20
19.088587
 30
0.0
 11
80.051501
 21
19.0293
 31
0.0
  0
LINE
  5
1FE
100
AcDbEntity
  8
0
390
0
  6
Continuous
 62
     7
100
AcDbLine
 10
80.142793
 20
19.144007
 30
0.0
 11
80.094527
 21
19.088587
 31
0.0
  0
LINE
  5
1FF
100
AcDbEntity
  8
0
390
0
  6
Continuous
 62
     7
100
AcDbLine
 10
80.196466
 20
19.195708
 30
0.0
 11
80.142793
 21
19.144007
 31
0.0
  0
LINE
  5
200
100
AcDbEntity
  8
0
390
0
  6
Continuous
 62
     7
100
AcDbLine
 10
80.255739
 20
19.243779
 30
0.0
 11
80.196466
 21
19.195708
 31
0.0
  0
LINE
  5
201
100
AcDbEntity
  8
0
390
0
  6
Continuous
 62
     7
100
AcDbLine
 10
80.320801
 20
19.288255
 30
0.0
 11
80.255739
 21
19.243779
 31
0.0
  0
LINE
  5
202
100
AcDbEntity
  8
0
390
0
  6
Continuous
 62
     7
100
AcDbLine
 10
81.769392
 20
19.024251
 30
0.0
 11
81.724141
 21
19.095939
 31
0.0
  0
LINE
  5
203
100
AcDbEntity
  8
0
390
0
  6
Continuous
 62
     7
100
AcDbLine
 10
81.81372
 20
18.945196
 30
0.0
 11
81.769392
 21
19.024251
 31
0.0
  0
LINE
  5
204
100
AcDbEntity
  8
0
390
0
  6
Continuous
 62
     7
100
AcDbLine
 10
81.857016
 20
18.858785
 30
0.0
 11
81.81372
 21
18.945196
 31
0.0
  0
LINE
  5
205
100
AcDbEntity
  8
0
390
0
  6
Continuous
 62
     7
100
AcDbLine
 10
81.896059
 20
18.771999
 30
0.0
 11
81.857016
 21
18.858785
 31
0.0
  0
LINE
  5
206
100
AcDbEntity
  8
0
390
0
  6
Continuous
 62
     7
100
AcDbLine
 10
81.900389
 20
18.754816
 30
0.0
 11
81.896059
 21
18.771999
 31
0.0
  0
LINE
  5
207
100
AcDbEntity
  8
0
390
0
  6
Continuous
 62
     7
100
AcDbLine
 10
81.903066
 20
18.736929
 30
0.0
 11
81.900389
 21
18.754816
 31
0.0
  0
LINE
  5
208
100
AcDbEntity
  8
0
390
0
  6
Continuous
 62
     7
100
AcDbLine
 10
81.903479
 20
18.723594
 30
0.0
 11
81.903066
 21
18.736929
 31
0.0
  0
LINE
  5
209
100
AcDbEntity
  8
0
390
0
  6
Continuous
 62
     7
100
AcDbLine
 10
81.902514
 20
18.714681
 30
0.0
 11
81.903479
 21
18.723594
 31
0.0
  0
LINE
  5
20A
100
AcDbEntity
  8
0
390
0
  6
Continuous
 62
     7
100
AcDbLine
 10
81.901075
 20
18.70943
 30
0.0
 11
81.902514
 21
18.714681
 31
0.0
  0
LINE
  5
20B
100
AcDbEntity
  8
0
390
0
  6
Continuous
 62
     7
100
AcDbLine
 10
81.899627
 20
18.706379
 30
0.0
 11
81.901075
 21
18.70943
 31
0.0
  0
LINE
  5
20C
100
AcDbEntity
  8
0
390
0
  6
Continuous
 62
     7
100
AcDbLine
 10
81.897741
 20
18.703767
 30
0.0
 11
81.899627
 21
18.706379
 31
0.0
  0
LINE
  5
20D
100
AcDbEntity
  8
0
390
0
  6
Continuous
 62
     7
100
AcDbLine
 10
81.894135
 20
18.700284
 30
0.0
 11
81.897741
 21
18.703767
 31
0.0
  0
LINE
  5
20E
100
AcDbEntity
  8
0
390
0
  6
Continuous
 62
     7
100
AcDbLine
 10
81.88727
 20
18.695531
 30
0.0
 11
81.894135
 21
18.700284
 31
0.0
  0
LINE
  5
20F
100
AcDbEntity
  8
0
390
0
  6
Continuous
 62
     7
100
AcDbLine
 10
81.881185
 20
18.692491
 30
0.0
 11
81.88727
 21
18.695531
 31
0.0
  0
LINE
  5
210
100
AcDbEntity
  8
0
390
0
  6
Continuous
 62
     7
100
AcDbLine
 10
81.87067
 20
18.689946
 30
0.0
 11
81.881185
 21
18.692491
 31
0.0
  0
LINE
  5
211
100
AcDbEntity
  8
0
390
0
  6
Continuous
 62
     7
100
AcDbLine
 10
81.857642
 20
18.688402
 30
0.0
 11
81.87067
 21
18.689946
 31
0.0
  0
LINE
  5
212
100
AcDbEntity
  8
0
390
0
  6
Continuous
 62
     7
100
AcDbLine
 10
81.848775
 20
18.688599
 30
0.0
 11
81.857642
 21
18.688402
 31
0.0
  0
LINE
  5
213
100
AcDbEntity
  8
0
390
0
  6
Continuous
 62
     7
100
AcDbLine
 10
81.843332
 20
18.689605
 30
0.0
 11
81.848775
 21
18.688599
 31
0.0
  0
LINE
  5
214
100
AcDbEntity
  8
0
390
0
  6
Continuous
 62
     7
100
AcDbLine
 10
81.839875
 20
18.690897
 30
0.0
 11
81.843332
 21
18.689605
 31
0.0
  0
LINE
  5
215
100
AcDbEntity
  8
0
390
0
  6
Continuous
 62
     7
100
AcDbLine
 10
81.836659
 20
18.692818
 30
0.0
 11
81.839875
 21
18.690897
 31
0.0
  0
LINE
  5
216
100
AcDbEntity
  8
0
390
0
  6
Continuous
 62
     7
100
AcDbLine
 10
81.832359
 20
18.696536
 30
0.0
 11
81.836659
 21
18.692818
 31
0.0
  0
LINE
  5
217
100
AcDbEntity
  8
0
390
0
  6
Continuous
 62
     7
100
AcDbLine
 10
81.826515
 20
18.703493
 30
0.0
 11
81.832359
 21
18.696536
 31
0.0
  0
LINE
  5
218
100
AcDbEntity
  8
0
390
0
  6
Continuous
 62
     7
100
AcDbLine
 10
81.819419
 20
18.714825
 30
0.0
 11
81.826515
 21
18.703493
 31
0.0
  0
LINE
  5
219
100
AcDbEntity
  8
0
390
0
  6
Continuous
 62
     7
100
AcDbLine
 10
81.810167
 20
18.734418
 30
0.0
 11
81.819419
 21
18.714825
 31
0.0
  0
LINE
  5
21A
100
AcDbEntity
  8
0
390
0
  6
Continuous
 62
     7
100
AcDbLine
 10
81.773727
 20
18.818783
 30
0.0
 11
81.810167
 21
18.734418
 31
0.0
  0
LINE
  5
21B
100
AcDbEntity
  8
0
390
0
  6
Continuous
 62
     7
100
AcDbLine
 10
71.764634
 20
9.256821
 30
0.0
 11
71.77511
 21
9.268899
 31
0.0
  0
LINE
  5
21C
100
AcDbEntity
  8
0
390
0
  6
Continuous
 62
     7
100
AcDbLine
 10
71.754687
 20
9.247649
 30
0.0
 11
71.764634
 21
9.256821
 31
0.0
  0
LINE
  5
21D
100
AcDbEntity
  8
0
390
0
  6
Continuous
 62
     7
100
AcDbLine
 10
71.7452
 20
9.240817
 30
0.0
 11
71.754687
 21
9.247649
 31
0.0
  0
LINE
  5
21E
100
AcDbEntity
  8
0
390
0
  6
Continuous
 62
     7
100
AcDbLine
 10
71.735838
 20
9.235738
 30
0.0
 11
71.7452
 21
9.240817
 31
0.0
  0
LINE
  5
21F
100
AcDbEntity
  8
0
390
0
  6
Continuous
 62
     7
100
AcDbLine
 10
71.726011
 20
9.231957
 30
0.0
 11
71.735838
 21
9.235738
 31
0.0
  0
LINE
  5
220
100
AcDbEntity
  8
0
390
0
  6
Continuous
 62
     7
100
AcDbLine
 10
71.714992
 20
9.229271
 30
0.0
 11
71.726011
 21
9.231957
 31
0.0
  0
LINE
  5
221
100
AcDbEntity
  8
0
390
0
  6
Continuous
 62
     7
100
AcDbLine
 10
71.702089
 20
9.227761
 30
0.0
 11
71.714992
 21
9.229271
 31
0.0
  0
LINE
  5
222
100
AcDbEntity
  8
0
390
0
  6
Continuous
 62
     7
100
AcDbLine
 10
71.686779
 20
9.227723
 30
0.0
 11
71.702089
 21
9.227761
 31
0.0
  0
LINE
  5
223
100
AcDbEntity
  8
0
390
0
  6
Continuous
 62
     7
100
AcDbLine
 10
71.664564
 20
9.229979
 30
0.0
 11
71.686779
 21
9.227723
 31
0.0
  0
LINE
  5
224
100
AcDbEntity
  8
0
390
0
  6
Continuous
 62
     7
100
AcDbLine
 10
71.795182
 20
9.397879
 30
0.0
 11
71.783747
 21
9.417061
 31
0.0
  0
LINE
  5
225
100
AcDbEntity
  8
0
390
0
  6
Continuous
 62
     7
100
AcDbLine
 10
71.801618
 20
9.383989
 30
0.0
 11
71.795182
 21
9.397879
 31
0.0
  0
LINE
  5
226
100
AcDbEntity
  8
0
390
0
  6
Continuous
 62
     7
100
AcDbLine
 10
71.805703
 20
9.371658
 30
0.0
 11
71.801618
 21
9.383989
 31
0.0
  0
LINE
  5
227
100
AcDbEntity
  8
0
390
0
  6
Continuous
 62
     7
100
AcDbLine
 10
71.807926
 20
9.360537
 30
0.0
 11
71.805703
 21
9.371658
 31
0.0
  0
LINE
  5
228
100
AcDbEntity
  8
0
390
0
  6
Continuous
 62
     7
100
AcDbLine
 10
71.808652
 20
9.350034
 30
0.0
 11
71.807926
 21
9.360537
 31
0.0
  0
LINE
  5
229
100
AcDbEntity
  8
0
390
0
  6
Continuous
 62
     7
100
AcDbLine
 10
71.808006
 20
9.339404
 30
0.0
 11
71.808652
 21
9.350034
 31
0.0
  0
LINE
  5
22A
100
AcDbEntity
  8
0
390
0
  6
Continuous
 62
     7
100
AcDbLine
 10
71.805824
 20
9.327921
 30
0.0
 11
71.808006
 21
9.339404
 31
0.0
  0
LINE
  5
22B
100
AcDbEntity
  8
0
390
0
  6
Continuous
 62
     7
100
AcDbLine
 10
71.801717
 20
9.31503
 30
0.0
 11
71.805824
 21
9.327921
 31
0.0
  0
LINE
  5
22C
100
AcDbEntity
  8
0
390
0
  6
Continuous
 62
     7
100
AcDbLine
 10
71.795199
 20
9.300433
 30
0.0
 11
71.801717
 21
9.31503
 31
0.0
  0
LINE
  5
22D
100
AcDbEntity
  8
0
390
0
  6
Continuous
 62
     7
100
AcDbLine
 10
71.785886
 20
9.2842
 30
0.0
 11
71.795199
 21
9.300433
 31
0.0
  0
LINE
  5
22E
100
AcDbEntity
  8
0
390
0
  6
Continuous
 62
     7
100
AcDbLine
 10
71.77511
 20
9.268899
 30
0.0
 11
71.785886
 21
9.2842
 31
0.0
  0
LINE
  5
22F
100
AcDbEntity
  8
0
390
0
  6
Continuous
 62
     7
100
AcDbLine
 10
77.474588
 20
17.237062
 30
0.0
 11
76.612117
 21
16.735097
 31
0.0
  0
LINE
  5
230
100
AcDbEntity
  8
0
390
0
  6
Continuous
 62
     7
100
AcDbLine
 10
76.612117
 20
16.735097
 30
0.0
 11
75.74965
 21
16.233135
 31
0.0
  0
LINE
  5
231
100
AcDbEntity
  8
0
390
0
  6
Continuous
 62
     7
100
AcDbLine
 10
77.393969
 20
18.148389
 30
0.0
 11
77.474588
 21
17.237062
 31
0.0
  0
LINE
  5
232
100
AcDbEntity
  8
0
390
0
  6
Continuous
 62
     7
100
AcDbLine
 10
77.394447
 20
18.165898
 30
0.0
 11
77.393969
 21
18.148389
 31
0.0
  0
LINE
  5
233
100
AcDbEntity
  8
0
390
0
  6
Continuous
 62
     7
100
AcDbLine
 10
77.3964
 20
18.180384
 30
0.0
 11
77.394447
 21
18.165898
 31
0.0
  0
LINE
  5
234
100
AcDbEntity
  8
0
390
0
  6
Continuous
 62
     7
100
AcDbLine
 10
77.399086
 20
18.190548
 30
0.0
 11
77.3964
 21
18.180384
 31
0.0
  0
LINE
  5
235
100
AcDbEntity
  8
0
390
0
  6
Continuous
 62
     7
100
AcDbLine
 10
77.401834
 20
18.197043
 30
0.0
 11
77.399086
 21
18.190548
 31
0.0
  0
LINE
  5
236
100
AcDbEntity
  8
0
390
0
  6
Continuous
 62
     7
100
AcDbLine
 10
77.404315
 20
18.201028
 30
0.0
 11
77.401834
 21
18.197043
 31
0.0
  0
LINE
  5
237
100
AcDbEntity
  8
0
390
0
  6
Continuous
 62
     7
100
AcDbLine
 10
77.40686
 20
18.203919
 30
0.0
 11
77.404315
 21
18.201028
 31
0.0
  0
LINE
  5
238
100
AcDbEntity
  8
0
390
0
  6
Continuous
 62
     7
100
AcDbLine
 10
77.410499
 20
18.206884
 30
0.0
 11
77.40686
 21
18.203919
 31
0.0
  0
LINE
  5
239
100
AcDbEntity
  8
0
390
0
  6
Continuous
 62
     7
100
AcDbLine
 10
77.416594
 20
18.210432
 30
0.0
 11
77.410499
 21
18.206884
 31
0.0
  0
LINE
  5
23A
100
AcDbEntity
  8
0
390
0
  6
Continuous
 62
     7
100
AcDbLine
 10
77.426336
 20
18.214382
 30
0.0
 11
77.416594
 21
18.210432
 31
0.0
  0
LINE
  5
23B
100
AcDbEntity
  8
0
390
0
  6
Continuous
 62
     7
100
AcDbLine
 10
77.431486
 20
18.215756
 30
0.0
 11
77.426336
 21
18.214382
 31
0.0
  0
LINE
  5
23C
100
AcDbEntity
  8
0
390
0
  6
Continuous
 62
     7
100
AcDbLine
 10
77.433968
 20
18.215758
 30
0.0
 11
77.431486
 21
18.215756
 31
0.0
  0
LINE
  5
23D
100
AcDbEntity
  8
0
390
0
  6
Continuous
 62
     7
100
AcDbLine
 10
77.440161
 20
18.214875
 30
0.0
 11
77.433968
 21
18.215758
 31
0.0
  0
LINE
  5
23E
100
AcDbEntity
  8
0
390
0
  6
Continuous
 62
     7
100
AcDbLine
 10
77.442525
 20
18.214128
 30
0.0
 11
77.440161
 21
18.214875
 31
0.0
  0
LINE
  5
23F
100
AcDbEntity
  8
0
390
0
  6
Continuous
 62
     7
100
AcDbLine
 10
77.442818
 20
18.213973
 30
0.0
 11
77.442525
 21
18.214128
 31
0.0
  0
LINE
  5
240
100
AcDbEntity
  8
0
390
0
  6
Continuous
 62
     7
100
AcDbLine
 10
77.443078
 20
18.213766
 30
0.0
 11
77.442818
 21
18.213973
 31
0.0
  0
LINE
  5
241
100
AcDbEntity
  8
0
390
0
  6
Continuous
 62
     7
100
AcDbLine
 10
77.444707
 20
18.211895
 30
0.0
 11
77.443078
 21
18.213766
 31
0.0
  0
LINE
  5
242
100
AcDbEntity
  8
0
390
0
  6
Continuous
 62
     7
100
AcDbLine
 10
77.447992
 20
18.206567
 30
0.0
 11
77.444707
 21
18.211895
 31
0.0
  0
LINE
  5
243
100
AcDbEntity
  8
0
390
0
  6
Continuous
 62
     7
100
AcDbLine
 10
77.452363
 20
18.196509
 30
0.0
 11
77.447992
 21
18.206567
 31
0.0
  0
LINE
  5
244
100
AcDbEntity
  8
0
390
0
  6
Continuous
 62
     7
100
AcDbLine
 10
77.456948
 20
18.181141
 30
0.0
 11
77.452363
 21
18.196509
 31
0.0
  0
LINE
  5
245
100
AcDbEntity
  8
0
390
0
  6
Continuous
 62
     7
100
AcDbLine
 10
77.460672
 20
18.161775
 30
0.0
 11
77.456948
 21
18.181141
 31
0.0
  0
LINE
  5
246
100
AcDbEntity
  8
0
390
0
  6
Continuous
 62
     7
100
AcDbLine
 10
77.722551
 20
15.027672
 30
0.0
 11
77.721187
 21
15.049962
 31
0.0
  0
LINE
  5
247
100
AcDbEntity
  8
0
390
0
  6
Continuous
 62
     7
100
AcDbLine
 10
77.7219
 20
15.012377
 30
0.0
 11
77.722551
 21
15.027672
 31
0.0
  0
LINE
  5
248
100
AcDbEntity
  8
0
390
0
  6
Continuous
 62
     7
100
AcDbLine
 10
77.719874
 20
14.999545
 30
0.0
 11
77.7219
 21
15.012377
 31
0.0
  0
LINE
  5
249
100
AcDbEntity
  8
0
390
0
  6
Continuous
 62
     7
100
AcDbLine
 10
77.716749
 20
14.988644
 30
0.0
 11
77.719874
 21
14.999545
 31
0.0
  0
LINE
  5
24A
100
AcDbEntity
  8
0
390
0
  6
Continuous
 62
     7
100
AcDbLine
 10
77.712578
 20
14.978979
 30
0.0
 11
77.716749
 21
14.988644
 31
0.0
  0
LINE
  5
24B
100
AcDbEntity
  8
0
390
0
  6
Continuous
 62
     7
100
AcDbLine
 10
77.70713
 20
14.96983
 30
0.0
 11
77.712578
 21
14.978979
 31
0.0
  0
LINE
  5
24C
100
AcDbEntity
  8
0
390
0
  6
Continuous
 62
     7
100
AcDbLine
 10
77.699925
 20
14.960628
 30
0.0
 11
77.70713
 21
14.96983
 31
0.0
  0
LINE
  5
24D
100
AcDbEntity
  8
0
390
0
  6
Continuous
 62
     7
100
AcDbLine
 10
77.690365
 20
14.951059
 30
0.0
 11
77.699925
 21
14.960628
 31
0.0
  0
LINE
  5
24E
100
AcDbEntity
  8
0
390
0
  6
Continuous
 62
     7
100
AcDbLine
 10
77.67788
 20
14.941078
 30
0.0
 11
77.690365
 21
14.951059
 31
0.0
  0
LINE
  5
24F
100
AcDbEntity
  8
0
390
0
  6
Continuous
 62
     7
100
AcDbLine
 10
77.662164
 20
14.930928
 30
0.0
 11
77.67788
 21
14.941078
 31
0.0
  0
LINE
  5
250
100
AcDbEntity
  8
0
390
0
  6
Continuous
 62
     7
100
AcDbLine
 10
77.645575
 20
14.922276
 30
0.0
 11
77.662164
 21
14.930928
 31
0.0
  0
LINE
  5
251
100
AcDbEntity
  8
0
390
0
  6
Continuous
 62
     7
100
AcDbLine
 10
77.630729
 20
14.91635
 30
0.0
 11
77.645575
 21
14.922276
 31
0.0
  0
LINE
  5
252
100
AcDbEntity
  8
0
390
0
  6
Continuous
 62
     7
100
AcDbLine
 10
77.617685
 20
14.912764
 30
0.0
 11
77.630729
 21
14.91635
 31
0.0
  0
LINE
  5
253
100
AcDbEntity
  8
0
390
0
  6
Continuous
 62
     7
100
AcDbLine
 10
77.606124
 20
14.911044
 30
0.0
 11
77.617685
 21
14.912764
 31
0.0
  0
LINE
  5
254
100
AcDbEntity
  8
0
390
0
  6
Continuous
 62
     7
100
AcDbLine
 10
77.595478
 20
14.910826
 30
0.0
 11
77.606124
 21
14.911044
 31
0.0
  0
LINE
  5
255
100
AcDbEntity
  8
0
390
0
  6
Continuous
 62
     7
100
AcDbLine
 10
77.585013
 20
14.911973
 30
0.0
 11
77.595478
 21
14.910826
 31
0.0
  0
LINE
  5
256
100
AcDbEntity
  8
0
390
0
  6
Continuous
 62
     7
100
AcDbLine
 10
77.573991
 20
14.914641
 30
0.0
 11
77.585013
 21
14.911973
 31
0.0
  0
LINE
  5
257
100
AcDbEntity
  8
0
390
0
  6
Continuous
 62
     7
100
AcDbLine
 10
77.561833
 20
14.919217
 30
0.0
 11
77.573991
 21
14.914641
 31
0.0
  0
LINE
  5
258
100
AcDbEntity
  8
0
390
0
  6
Continuous
 62
     7
100
AcDbLine
 10
77.548213
 20
14.926206
 30
0.0
 11
77.561833
 21
14.919217
 31
0.0
  0
LINE
  5
259
100
AcDbEntity
  8
0
390
0
  6
Continuous
 62
     7
100
AcDbLine
 10
77.529506
 20
14.938402
 30
0.0
 11
77.548213
 21
14.926206
 31
0.0
  0
LINE
  5
25A
100
AcDbEntity
  8
0
390
0
  6
Continuous
 62
     7
100
AcDbLine
 10
74.937495
 20
16.714797
 30
0.0
 11
74.952497
 21
16.701992
 31
0.0
  0
LINE
  5
25B
100
AcDbEntity
  8
0
390
0
  6
Continuous
 62
     7
100
AcDbLine
 10
74.926398
 20
16.726373
 30
0.0
 11
74.937495
 21
16.714797
 31
0.0
  0
LINE
  5
25C
100
AcDbEntity
  8
0
390
0
  6
Continuous
 62
     7
100
AcDbLine
 10
74.919812
 20
16.735141
 30
0.0
 11
74.926398
 21
16.726373
 31
0.0
  0
LINE
  5
25D
100
AcDbEntity
  8
0
390
0
  6
Continuous
 62
     7
100
AcDbLine
 10
74.916802
 20
16.740628
 30
0.0
 11
74.919812
 21
16.735141
 31
0.0
  0
LINE
  5
25E
100
AcDbEntity
  8
0
390
0
  6
Continuous
 62
     7
100
AcDbLine
 10
74.915981
 20
16.742968
 30
0.0
 11
74.916802
 21
16.740628
 31
0.0
  0
LINE
  5
25F
100
AcDbEntity
  8
0
390
0
  6
Continuous
 62
     7
100
AcDbLine
 10
74.915929
 20
16.743296
 30
0.0
 11
74.915981
 21
16.742968
 31
0.0
  0
LINE
  5
260
100
AcDbEntity
  8
0
390
0
  6
Continuous
 62
     7
100
AcDbLine
 10
74.915939
 20
16.743629
 30
0.0
 11
74.915929
 21
16.743296
 31
0.0
  0
LINE
  5
261
100
AcDbEntity
  8
0
390
0
  6
Continuous
 62
     7
100
AcDbLine
 10
74.916457
 20
16.746055
 30
0.0
 11
74.915939
 21
16.743629
 31
0.0
  0
LINE
  5
262
100
AcDbEntity
  8
0
390
0
  6
Continuous
 62
     7
100
AcDbLine
 10
74.918749
 20
16.751879
 30
0.0
 11
74.916457
 21
16.746055
 31
0.0
  0
LINE
  5
263
100
AcDbEntity
  8
0
390
0
  6
Continuous
 62
     7
100
AcDbLine
 10
74.919976
 20
16.754035
 30
0.0
 11
74.918749
 21
16.751879
 31
0.0
  0
LINE
  5
264
100
AcDbEntity
  8
0
390
0
  6
Continuous
 62
     7
100
AcDbLine
 10
74.923712
 20
16.757831
 30
0.0
 11
74.919976
 21
16.754035
 31
0.0
  0
LINE
  5
265
100
AcDbEntity
  8
0
390
0
  6
Continuous
 62
     7
100
AcDbLine
 10
74.931958
 20
16.764349
 30
0.0
 11
74.923712
 21
16.757831
 31
0.0
  0
LINE
  5
266
100
AcDbEntity
  8
0
390
0
  6
Continuous
 62
     7
100
AcDbLine
 10
74.938053
 20
16.767896
 30
0.0
 11
74.931958
 21
16.764349
 31
0.0
  0
LINE
  5
267
100
AcDbEntity
  8
0
390
0
  6
Continuous
 62
     7
100
AcDbLine
 10
74.942427
 20
16.769595
 30
0.0
 11
74.938053
 21
16.767896
 31
0.0
  0
LINE
  5
268
100
AcDbEntity
  8
0
390
0
  6
Continuous
 62
     7
100
AcDbLine
 10
74.946196
 20
16.77038
 30
0.0
 11
74.942427
 21
16.769595
 31
0.0
  0
LINE
  5
269
100
AcDbEntity
  8
0
390
0
  6
Continuous
 62
     7
100
AcDbLine
 10
74.950884
 20
16.770568
 30
0.0
 11
74.946196
 21
16.77038
 31
0.0
  0
LINE
  5
26A
100
AcDbEntity
  8
0
390
0
  6
Continuous
 62
     7
100
AcDbLine
 10
74.957888
 20
16.769749
 30
0.0
 11
74.950884
 21
16.770568
 31
0.0
  0
LINE
  5
26B
100
AcDbEntity
  8
0
390
0
  6
Continuous
 62
     7
100
AcDbLine
 10
74.96805
 20
16.767064
 30
0.0
 11
74.957888
 21
16.769749
 31
0.0
  0
LINE
  5
26C
100
AcDbEntity
  8
0
390
0
  6
Continuous
 62
     7
100
AcDbLine
 10
74.981609
 20
16.761606
 30
0.0
 11
74.96805
 21
16.767064
 31
0.0
  0
LINE
  5
26D
100
AcDbEntity
  8
0
390
0
  6
Continuous
 62
     7
100
AcDbLine
 10
74.997072
 20
16.753371
 30
0.0
 11
74.981609
 21
16.761606
 31
0.0
  0
LINE
  5
26E
100
AcDbEntity
  8
0
390
0
  6
Continuous
 62
     7
100
AcDbLine
 10
75.74965
 20
16.233135
 30
0.0
 11
74.997072
 21
16.753371
 31
0.0
  0
LINE
  5
26F
100
AcDbEntity
  8
0
390
0
  6
Continuous
 62
     7
100
AcDbLine
 10
75.91505
 20
16.317891
 30
0.0
 11
77.319189
 21
17.135115
 31
0.0
  0
LINE
  5
270
100
AcDbEntity
  8
0
390
0
  6
Continuous
 62
     7
100
AcDbLine
 10
77.481404
 20
15.025477
 30
0.0
 11
75.907101
 21
16.115519
 31
0.0
  0
LINE
  5
271
100
AcDbEntity
  8
0
390
0
  6
Continuous
 62
     7
100
AcDbLine
 10
77.499077
 20
17.042066
 30
0.0
 11
77.669241
 21
15.1348
 31
0.0
  0
LINE
  5
272
100
AcDbEntity
  8
0
390
0
  6
Continuous
 62
     7
100
AcDbLine
 10
91.534272
 20
16.491581
 30
0.0
 11
91.548646
 21
16.48459
 31
0.0
  0
LINE
  5
273
100
AcDbEntity
  8
0
390
0
  6
Continuous
 62
     7
100
AcDbLine
 10
91.522843
 20
16.498814
 30
0.0
 11
91.534272
 21
16.491581
 31
0.0
  0
LINE
  5
274
100
AcDbEntity
  8
0
390
0
  6
Continuous
 62
     7
100
AcDbLine
 10
91.513792
 20
16.506206
 30
0.0
 11
91.522843
 21
16.498814
 31
0.0
  0
LINE
  5
275
100
AcDbEntity
  8
0
390
0
  6
Continuous
 62
     7
100
AcDbLine
 10
91.506466
 20
16.513931
 30
0.0
 11
91.513792
 21
16.506206
 31
0.0
  0
LINE
  5
276
100
AcDbEntity
  8
0
390
0
  6
Continuous
 62
     7
100
AcDbLine
 10
91.500273
 20
16.522442
 30
0.0
 11
91.506466
 21
16.513931
 31
0.0
  0
LINE
  5
277
100
AcDbEntity
  8
0
390
0
  6
Continuous
 62
     7
100
AcDbLine
 10
91.494828
 20
16.532387
 30
0.0
 11
91.500273
 21
16.522442
 31
0.0
  0
LINE
  5
278
100
AcDbEntity
  8
0
390
0
  6
Continuous
 62
     7
100
AcDbLine
 10
91.490032
 20
16.544457
 30
0.0
 11
91.494828
 21
16.532387
 31
0.0
  0
LINE
  5
279
100
AcDbEntity
  8
0
390
0
  6
Continuous
 62
     7
100
AcDbLine
 10
91.486034
 20
16.559232
 30
0.0
 11
91.490032
 21
16.544457
 31
0.0
  0
LINE
  5
27A
100
AcDbEntity
  8
0
390
0
  6
Continuous
 62
     7
100
AcDbLine
 10
91.482465
 20
16.581272
 30
0.0
 11
91.486034
 21
16.559232
 31
0.0
  0
LINE
  5
27B
100
AcDbEntity
  8
0
390
0
  6
Continuous
 62
     7
100
AcDbLine
 10
93.145567
 20
18.168825
 30
0.0
 11
92.193897
 21
18.468888
 31
0.0
  0
LINE
  5
27C
100
AcDbEntity
  8
0
390
0
  6
Continuous
 62
     7
100
AcDbLine
 10
92.193897
 20
18.468888
 30
0.0
 11
91.242223
 21
18.768951
 31
0.0
  0
LINE
  5
27D
100
AcDbEntity
  8
0
390
0
  6
Continuous
 62
     7
100
AcDbLine
 10
93.765326
 20
18.841745
 30
0.0
 11
93.145567
 21
18.168825
 31
0.0
  0
LINE
  5
27E
100
AcDbEntity
  8
0
390
0
  6
Continuous
 62
     7
100
AcDbLine
 10
93.7786
 20
18.853178
 30
0.0
 11
93.765326
 21
18.841745
 31
0.0
  0
LINE
  5
27F
100
AcDbEntity
  8
0
390
0
  6
Continuous
 62
     7
100
AcDbLine
 10
93.790628
 20
18.861484
 30
0.0
 11
93.7786
 21
18.853178
 31
0.0
  0
LINE
  5
280
100
AcDbEntity
  8
0
390
0
  6
Continuous
 62
     7
100
AcDbLine
 10
93.799952
 20
18.866337
 30
0.0
 11
93.790628
 21
18.861484
 31
0.0
  0
LINE
  5
281
100
AcDbEntity
  8
0
390
0
  6
Continuous
 62
     7
100
AcDbLine
 10
93.806605
 20
18.868676
 30
0.0
 11
93.799952
 21
18.866337
 31
0.0
  0
LINE
  5
282
100
AcDbEntity
  8
0
390
0
  6
Continuous
 62
     7
100
AcDbLine
 10
93.81122
 20
18.869523
 30
0.0
 11
93.806605
 21
18.868676
 31
0.0
  0
LINE
  5
283
100
AcDbEntity
  8
0
390
0
  6
Continuous
 62
     7
100
AcDbLine
 10
93.815068
 20
18.869586
 30
0.0
 11
93.81122
 21
18.869523
 31
0.0
  0
LINE
  5
284
100
AcDbEntity
  8
0
390
0
  6
Continuous
 62
     7
100
AcDbLine
 10
93.819708
 20
18.86889
 30
0.0
 11
93.815068
 21
18.869586
 31
0.0
  0
LINE
  5
285
100
AcDbEntity
  8
0
390
0
  6
Continuous
 62
     7
100
AcDbLine
 10
93.826432
 20
18.86677
 30
0.0
 11
93.819708
 21
18.86889
 31
0.0
  0
LINE
  5
286
100
AcDbEntity
  8
0
390
0
  6
Continuous
 62
     7
100
AcDbLine
 10
93.835908
 20
18.862225
 30
0.0
 11
93.826432
 21
18.86677
 31
0.0
  0
LINE
  5
287
100
AcDbEntity
  8
0
390
0
  6
Continuous
 62
     7
100
AcDbLine
 10
93.840386
 20
18.859344
 30
0.0
 11
93.835908
 21
18.862225
 31
0.0
  0
LINE
  5
288
100
AcDbEntity
  8
0
390
0
  6
Continuous
 62
     7
100
AcDbLine
 10
93.842056
 20
18.857512
 30
0.0
 11
93.840386
 21
18.859344
 31
0.0
  0
LINE
  5
289
100
AcDbEntity
  8
0
390
0
  6
Continuous
 62
     7
100
AcDbLine
 10
93.84557
 20
18.852336
 30
0.0
 11
93.842056
 21
18.857512
 31
0.0
  0
LINE
  5
28A
100
AcDbEntity
  8
0
390
0
  6
Continuous
 62
     7
100
AcDbLine
 10
93.846609
 20
18.850085
 30
0.0
 11
93.84557
 21
18.852336
 31
0.0
  0
LINE
  5
28B
100
AcDbEntity
  8
0
390
0
  6
Continuous
 62
     7
100
AcDbLine
 10
93.846692
 20
18.849764
 30
0.0
 11
93.846609
 21
18.850085
 31
0.0
  0
LINE
  5
28C
100
AcDbEntity
  8
0
390
0
  6
Continuous
 62
     7
100
AcDbLine
 10
93.846713
 20
18.849432
 30
0.0
 11
93.846692
 21
18.849764
 31
0.0
  0
LINE
  5
28D
100
AcDbEntity
  8
0
390
0
  6
Continuous
 62
     7
100
AcDbLine
 10
93.846426
 20
18.84697
 30
0.0
 11
93.846713
 21
18.849432
 31
0.0
  0
LINE
  5
28E
100
AcDbEntity
  8
0
390
0
  6
Continuous
 62
     7
100
AcDbLine
 10
93.844696
 20
18.840956
 30
0.0
 11
93.846426
 21
18.84697
 31
0.0
  0
LINE
  5
28F
100
AcDbEntity
  8
0
390
0
  6
Continuous
 62
     7
100
AcDbLine
 10
93.8402
 20
18.830956
 30
0.0
 11
93.844696
 21
18.840956
 31
0.0
  0
LINE
  5
290
100
AcDbEntity
  8
0
390
0
  6
Continuous
 62
     7
100
AcDbLine
 10
93.831919
 20
18.817225
 30
0.0
 11
93.8402
 21
18.830956
 31
0.0
  0
LINE
  5
291
100
AcDbEntity
  8
0
390
0
  6
Continuous
 62
     7
100
AcDbLine
 10
93.820102
 20
18.801438
 30
0.0
 11
93.831919
 21
18.817225
 31
0.0
  0
LINE
  5
292
100
AcDbEntity
  8
0
390
0
  6
Continuous
 62
     7
100
AcDbLine
 10
91.678393
 20
16.498578
 30
0.0
 11
91.693959
 21
16.514586
 31
0.0
  0
LINE
  5
293
100
AcDbEntity
  8
0
390
0
  6
Continuous
 62
     7
100
AcDbLine
 10
91.666645
 20
16.488768
 30
0.0
 11
91.678393
 21
16.498578
 31
0.0
  0
LINE
  5
294
100
AcDbEntity
  8
0
390
0
  6
Continuous
 62
     7
100
AcDbLine
 10
91.655793
 20
16.481633
 30
0.0
 11
91.666645
 21
16.488768
 31
0.0
  0
LINE
  5
295
100
AcDbEntity
  8
0
390
0
  6
Continuous
 62
     7
100
AcDbLine
 10
91.64563
 20
16.47661
 30
0.0
 11
91.655793
 21
16.481633
 31
0.0
  0
LINE
  5
296
100
AcDbEntity
  8
0
390
0
  6
Continuous
 62
     7
100
AcDbLine
 10
91.635676
 20
16.47319
 30
0.0
 11
91.64563
 21
16.47661
 31
0.0
  0
LINE
  5
297
100
AcDbEntity
  8
0
390
0
  6
Continuous
 62
     7
100
AcDbLine
 10
91.625245
 20
16.471064
 30
0.0
 11
91.635676
 21
16.47319
 31
0.0
  0
LINE
  5
298
100
AcDbEntity
  8
0
390
0
  6
Continuous
 62
     7
100
AcDbLine
 10
91.613592
 20
16.4702
 30
0.0
 11
91.625245
 21
16.471064
 31
0.0
  0
LINE
  5
299
100
AcDbEntity
  8
0
390
0
  6
Continuous
 62
     7
100
AcDbLine
 10
91.600082
 20
16.470831
 30
0.0
 11
91.613592
 21
16.4702
 31
0.0
  0
LINE
  5
29A
100
AcDbEntity
  8
0
390
0
  6
Continuous
 62
     7
100
AcDbLine
 10
91.584299
 20
16.473349
 30
0.0
 11
91.600082
 21
16.470831
 31
0.0
  0
LINE
  5
29B
100
AcDbEntity
  8
0
390
0
  6
Continuous
 62
     7
100
AcDbLine
 10
91.566212
 20
16.478143
 30
0.0
 11
91.584299
 21
16.473349
 31
0.0
  0
LINE
  5
29C
100
AcDbEntity
  8
0
390
0
  6
Continuous
 62
     7
100
AcDbLine
 10
91.548646
 20
16.48459
 30
0.0
 11
91.566212
 21
16.478143
 31
0.0
  0
LINE
  5
29D
100
AcDbEntity
  8
0
390
0
  6
Continuous
 62
     7
100
AcDbLine
 10
91.416232
 20
18.703676
 30
0.0
 11
92.965591
 21
18.215158
 31
0.0
  0
LINE
  5
29E
100
AcDbEntity
  8
0
390
0
  6
Continuous
 62
     7
100
AcDbLine
 10
91.514483
 20
16.675452
 30
0.0
 11
91.261201
 21
18.573356
 31
0.0
  0
LINE
  5
29F
100
AcDbEntity
  8
0
390
0
  6
Continuous
 62
     7
100
AcDbLine
 10
93.017835
 20
18.019484
 30
0.0
 11
91.721758
 21
16.610098
 31
0.0
  0
LINE
  5
2A0
100
AcDbEntity
  8
0
390
0
  6
Continuous
 62
     7
100
AcDbLine
 10
102.871827
 20
5.109456
 30
0.0
 11
102.874233
 21
5.093658
 31
0.0
  0
LINE
  5
2A1
100
AcDbEntity
  8
0
390
0
  6
Continuous
 62
     7
100
AcDbLine
 10
102.871291
 20
5.122968
 30
0.0
 11
102.871827
 21
5.109456
 31
0.0
  0
LINE
  5
2A2
100
AcDbEntity
  8
0
390
0
  6
Continuous
 62
     7
100
AcDbLine
 10
102.872236
 20
5.134614
 30
0.0
 11
102.871291
 21
5.122968
 31
0.0
  0
LINE
  5
2A3
100
AcDbEntity
  8
0
390
0
  6
Continuous
 62
     7
100
AcDbLine
 10
102.874435
 20
5.145028
 30
0.0
 11
102.872236
 21
5.134614
 31
0.0
  0
LINE
  5
2A4
100
AcDbEntity
  8
0
390
0
  6
Continuous
 62
     7
100
AcDbLine
 10
102.877923
 20
5.154955
 30
0.0
 11
102.874435
 21
5.145028
 31
0.0
  0
LINE
  5
2A5
100
AcDbEntity
  8
0
390
0
  6
Continuous
 62
     7
100
AcDbLine
 10
102.883016
 20
5.165081
 30
0.0
 11
102.877923
 21
5.154955
 31
0.0
  0
LINE
  5
2A6
100
AcDbEntity
  8
0
390
0
  6
Continuous
 62
     7
100
AcDbLine
 10
102.890227
 20
5.175881
 30
0.0
 11
102.883016
 21
5.165081
 31
0.0
  0
LINE
  5
2A7
100
AcDbEntity
  8
0
390
0
  6
Continuous
 62
     7
100
AcDbLine
 10
102.900117
 20
5.187559
 30
0.0
 11
102.890227
 21
5.175881
 31
0.0
  0
LINE
  5
2A8
100
AcDbEntity
  8
0
390
0
  6
Continuous
 62
     7
100
AcDbLine
 10
102.916231
 20
5.20301
 30
0.0
 11
102.900117
 21
5.187559
 31
0.0
  0
LINE
  5
2A9
100
AcDbEntity
  8
0
390
0
  6
Continuous
 62
     7
100
AcDbLine
 10
105.167103
 20
4.735556
 30
0.0
 11
104.873736
 21
5.689205
 31
0.0
  0
LINE
  5
2AA
100
AcDbEntity
  8
0
390
0
  6
Continuous
 62
     7
100
AcDbLine
 10
104.873736
 20
5.689205
 30
0.0
 11
104.649274
 21
6.418865
 31
0.0
  0
LINE
  5
2AB
100
AcDbEntity
  8
0
390
0
  6
Continuous
 62
     7
100
AcDbLine
 10
102.959407
 20
4.994825
 30
0.0
 11
102.981418
 21
4.991102
 31
0.0
  0
LINE
  5
2AC
100
AcDbEntity
  8
0
390
0
  6
Continuous
 62
     7
100
AcDbLine
 10
102.944663
 20
4.998924
 30
0.0
 11
102.959407
 21
4.994825
 31
0.0
  0
LINE
  5
2AD
100
AcDbEntity
  8
0
390
0
  6
Continuous
 62
     7
100
AcDbLine
 10
102.93263
 20
5.003804
 30
0.0
 11
102.944663
 21
4.998924
 31
0.0
  0
LINE
  5
2AE
100
AcDbEntity
  8
0
390
0
  6
Continuous
 62
     7
100
AcDbLine
 10
102.922726
 20
5.009316
 30
0.0
 11
102.93263
 21
5.003804
 31
0.0
  0
LINE
  5
2AF
100
AcDbEntity
  8
0
390
0
  6
Continuous
 62
     7
100
AcDbLine
 10
102.914261
 20
5.015567
 30
0.0
 11
102.922726
 21
5.009316
 31
0.0
  0
LINE
  5
2B0
100
AcDbEntity
  8
0
390
0
  6
Continuous
 62
     7
100
AcDbLine
 10
102.906589
 20
5.022944
 30
0.0
 11
102.914261
 21
5.015567
 31
0.0
  0
LINE
  5
2B1
100
AcDbEntity
  8
0
390
0
  6
Continuous
 62
     7
100
AcDbLine
 10
102.899262
 20
5.032044
 30
0.0
 11
102.906589
 21
5.022944
 31
0.0
  0
LINE
  5
2B2
100
AcDbEntity
  8
0
390
0
  6
Continuous
 62
     7
100
AcDbLine
 10
102.892111
 20
5.043521
 30
0.0
 11
102.899262
 21
5.032044
 31
0.0
  0
LINE
  5
2B3
100
AcDbEntity
  8
0
390
0
  6
Continuous
 62
     7
100
AcDbLine
 10
102.885221
 20
5.05794
 30
0.0
 11
102.892111
 21
5.043521
 31
0.0
  0
LINE
  5
2B4
100
AcDbEntity
  8
0
390
0
  6
Continuous
 62
     7
100
AcDbLine
 10
102.878899
 20
5.075543
 30
0.0
 11
102.885221
 21
5.05794
 31
0.0
  0
LINE
  5
2B5
100
AcDbEntity
  8
0
390
0
  6
Continuous
 62
     7
100
AcDbLine
 10
102.874233
 20
5.093658
 30
0.0
 11
102.878899
 21
5.075543
 31
0.0
  0
LINE
  5
2B6
100
AcDbEntity
  8
0
390
0
  6
Continuous
 62
     7
100
AcDbLine
 10
103.011903
 20
5.230146
 30
0.0
 11
104.430166
 21
6.516189
 31
0.0
  0
LINE
  5
2B7
100
AcDbEntity
  8
0
390
0
  6
Continuous
 62
     7
100
AcDbLine
 10
103.075805
 20
5.022419
 30
0.0
 11
103.01586
 21
5.048921
 31
0.0
  0
LINE
  5
2B8
100
AcDbEntity
  8
0
390
0
  6
Continuous
 62
     7
100
AcDbLine
 10
103.01586
 20
5.048921
 30
0.0
 11
102.978843
 21
5.179718
 31
0.0
  0
LINE
  5
2B9
100
AcDbEntity
  8
0
390
0
  6
Continuous
 62
     7
100
AcDbLine
 10
104.971674
 20
4.755897
 30
0.0
 11
103.075805
 21
5.022419
 31
0.0
  0
LINE
  5
2BA
100
AcDbEntity
  8
0
390
0
  6
Continuous
 62
     7
100
AcDbLine
 10
104.625469
 20
6.462576
 30
0.0
 11
105.103075
 21
4.910011
 31
0.0
  0
LINE
  5
2BB
100
AcDbEntity
  8
0
390
0
  6
Continuous
 62
     7
100
AcDbLine
 10
95.901943
 20
17.835897
 30
0.0
 11
95.882667
 21
17.822402
 31
0.0
  0
LINE
  5
2BC
100
AcDbEntity
  8
0
390
0
  6
Continuous
 62
     7
100
AcDbLine
 10
95.920024
 20
17.845258
 30
0.0
 11
95.901943
 21
17.835897
 31
0.0
  0
LINE
  5
2BD
100
AcDbEntity
  8
0
390
0
  6
Continuous
 62
     7
100
AcDbLine
 10
95.9372
 20
17.85117
 30
0.0
 11
95.920024
 21
17.845258
 31
0.0
  0
LINE
  5
2BE
100
AcDbEntity
  8
0
390
0
  6
Continuous
 62
     7
100
AcDbLine
 10
95.954156
 20
17.854206
 30
0.0
 11
95.9372
 21
17.85117
 31
0.0
  0
LINE
  5
2BF
100
AcDbEntity
  8
0
390
0
  6
Continuous
 62
     7
100
AcDbLine
 10
95.971841
 20
17.854585
 30
0.0
 11
95.954156
 21
17.854206
 31
0.0
  0
LINE
  5
2C0
100
AcDbEntity
  8
0
390
0
  6
Continuous
 62
     7
100
AcDbLine
 10
95.99116
 20
17.852093
 30
0.0
 11
95.971841
 21
17.854585
 31
0.0
  0
LINE
  5
2C1
100
AcDbEntity
  8
0
390
0
  6
Continuous
 62
     7
100
AcDbLine
 10
96.012724
 20
17.846212
 30
0.0
 11
95.99116
 21
17.852093
 31
0.0
  0
LINE
  5
2C2
100
AcDbEntity
  8
0
390
0
  6
Continuous
 62
     7
100
AcDbLine
 10
96.036765
 20
17.836351
 30
0.0
 11
96.012724
 21
17.846212
 31
0.0
  0
LINE
  5
2C3
100
AcDbEntity
  8
0
390
0
  6
Continuous
 62
     7
100
AcDbLine
 10
96.062934
 20
17.822171
 30
0.0
 11
96.036765
 21
17.836351
 31
0.0
  0
LINE
  5
2C4
100
AcDbEntity
  8
0
390
0
  6
Continuous
 62
     7
100
AcDbLine
 10
96.084799
 20
17.807327
 30
0.0
 11
96.062934
 21
17.822171
 31
0.0
  0
LINE
  5
2C5
100
AcDbEntity
  8
0
390
0
  6
Continuous
 62
     7
100
AcDbLine
 10
96.101932
 20
17.792543
 30
0.0
 11
96.084799
 21
17.807327
 31
0.0
  0
LINE
  5
2C6
100
AcDbEntity
  8
0
390
0
  6
Continuous
 62
     7
100
AcDbLine
 10
96.114865
 20
17.778027
 30
0.0
 11
96.101932
 21
17.792543
 31
0.0
  0
LINE
  5
2C7
100
AcDbEntity
  8
0
390
0
  6
Continuous
 62
     7
100
AcDbLine
 10
96.124314
 20
17.763704
 30
0.0
 11
96.114865
 21
17.778027
 31
0.0
  0
LINE
  5
2C8
100
AcDbEntity
  8
0
390
0
  6
Continuous
 62
     7
100
AcDbLine
 10
96.131009
 20
17.749092
 30
0.0
 11
96.124314
 21
17.763704
 31
0.0
  0
LINE
  5
2C9
100
AcDbEntity
  8
0
390
0
  6
Continuous
 62
     7
100
AcDbLine
 10
96.13543
 20
17.733351
 30
0.0
 11
96.131009
 21
17.749092
 31
0.0
  0
LINE
  5
2CA
100
AcDbEntity
  8
0
390
0
  6
Continuous
 62
     7
100
AcDbLine
 10
96.137634
 20
17.715544
 30
0.0
 11
96.13543
 21
17.733351
 31
0.0
  0
LINE
  5
2CB
100
AcDbEntity
  8
0
390
0
  6
Continuous
 62
     7
100
AcDbLine
 10
96.137295
 20
17.69492
 30
0.0
 11
96.137634
 21
17.715544
 31
0.0
  0
LINE
  5
2CC
100
AcDbEntity
  8
0
390
0
  6
Continuous
 62
     7
100
AcDbLine
 10
96.1339
 20
17.671072
 30
0.0
 11
96.137295
 21
17.69492
 31
0.0
  0
LINE
  5
2CD
100
AcDbEntity
  8
0
390
0
  6
Continuous
 62
     7
100
AcDbLine
 10
96.126408
 20
17.641809
 30
0.0
 11
96.1339
 21
17.671072
 31
0.0
  0
LINE
  5
2CE
100
AcDbEntity
  8
0
390
0
  6
Continuous
 62
     7
100
AcDbLine
 10
95.307016
 20
14.963093
 30
0.0
 11
96.126408
 21
17.641809
 31
0.0
  0
POLYLINE
  5
2CF
100
AcDbEntity
  8
0
390
0
  6
Continuous
 62
     7
100
AcDb2dPolyline
 66
     1
 10
0.0
 20
0.0
 30
0.0
 40
0.1
 41
0.1
  0
VERTEX
  5
2D0
100
AcDbEntity
  8
0
390
0
 62
     7
100
AcDbVertex
100
AcDb2dVertex
 10
95.456629
 20
14.873038
 30
0.0
  0
VERTEX
  5
2D1
100
AcDbEntity
  8
0
390
0
 62
     7
100
AcDbVertex
100
AcDb2dVertex
 10
95.356225
 20
14.854659
 30
0.0
  0
VERTEX
  5
2D2
100
AcDbEntity
  8
0
390
0
 62
     7
100
AcDbVertex
100
AcDb2dVertex
 10
95.303406
 20
14.944369
 30
0.0
  0
VERTEX
  5
2D3
100
AcDbEntity
  8
0
390
0
 62
     7
100
AcDbVertex
100
AcDb2dVertex
 10
95.307016
 20
14.963093
 30
0.0
  0
SEQEND
  5
2D4
100
AcDbEntity
  8
0
390
0
  0
LINE
  5
2D5
100
AcDbEntity
  8
0
390
0
  6
Continuous
 62
     7
100
AcDbLine
 10
97.437333
 20
16.848176
 30
0.0
 11
95.456629
 21
14.873038
 31
0.0
  0
LINE
  5
2D6
100
AcDbEntity
  8
0
390
0
  6
Continuous
 62
     7
100
AcDbLine
 10
97.459613
 20
16.868212
 30
0.0
 11
97.437333
 21
16.848176
 31
0.0
  0
LINE
  5
2D7
100
AcDbEntity
  8
0
390
0
  6
Continuous
 62
     7
100
AcDbLine
 10
97.479173
 20
16.88227
 30
0.0
 11
97.459613
 21
16.868212
 31
0.0
  0
LINE
  5
2D8
100
AcDbEntity
  8
0
390
0
  6
Continuous
 62
     7
100
AcDbLine
 10
97.497291
 20
16.892126
 30
0.0
 11
97.479173
 21
16.88227
 31
0.0
  0
LINE
  5
2D9
100
AcDbEntity
  8
0
390
0
  6
Continuous
 62
     7
100
AcDbLine
 10
97.514092
 20
16.898424
 30
0.0
 11
97.497291
 21
16.892126
 31
0.0
  0
LINE
  5
2DA
100
AcDbEntity
  8
0
390
0
  6
Continuous
 62
     7
100
AcDbLine
 10
97.530089
 20
16.901799
 30
0.0
 11
97.514092
 21
16.898424
 31
0.0
  0
LINE
  5
2DB
100
AcDbEntity
  8
0
390
0
  6
Continuous
 62
     7
100
AcDbLine
 10
97.546141
 20
16.902637
 30
0.0
 11
97.530089
 21
16.901799
 31
0.0
  0
LINE
  5
2DC
100
AcDbEntity
  8
0
390
0
  6
Continuous
 62
     7
100
AcDbLine
 10
97.563212
 20
16.900899
 30
0.0
 11
97.546141
 21
16.902637
 31
0.0
  0
LINE
  5
2DD
100
AcDbEntity
  8
0
390
0
  6
Continuous
 62
     7
100
AcDbLine
 10
97.582068
 20
16.896165
 30
0.0
 11
97.563212
 21
16.900899
 31
0.0
  0
LINE
  5
2DE
100
AcDbEntity
  8
0
390
0
  6
Continuous
 62
     7
100
AcDbLine
 10
97.603108
 20
16.887832
 30
0.0
 11
97.582068
 21
16.896165
 31
0.0
  0
LINE
  5
2DF
100
AcDbEntity
  8
0
390
0
  6
Continuous
 62
     7
100
AcDbLine
 10
97.626392
 20
16.875335
 30
0.0
 11
97.603108
 21
16.887832
 31
0.0
  0
LINE
  5
2E0
100
AcDbEntity
  8
0
390
0
  6
Continuous
 62
     7
100
AcDbLine
 10
97.651081
 20
16.858715
 30
0.0
 11
97.626392
 21
16.875335
 31
0.0
  0
LINE
  5
2E1
100
AcDbEntity
  8
0
390
0
  6
Continuous
 62
     7
100
AcDbLine
 10
97.67096
 20
16.841978
 30
0.0
 11
97.651081
 21
16.858715
 31
0.0
  0
LINE
  5
2E2
100
AcDbEntity
  8
0
390
0
  6
Continuous
 62
     7
100
AcDbLine
 10
97.686162
 20
16.825593
 30
0.0
 11
97.67096
 21
16.841978
 31
0.0
  0
LINE
  5
2E3
100
AcDbEntity
  8
0
390
0
  6
Continuous
 62
     7
100
AcDbLine
 10
97.697322
 20
16.809626
 30
0.0
 11
97.686162
 21
16.825593
 31
0.0
  0
LINE
  5
2E4
100
AcDbEntity
  8
0
390
0
  6
Continuous
 62
     7
100
AcDbLine
 10
97.70518
 20
16.793778
 30
0.0
 11
97.697322
 21
16.809626
 31
0.0
  0
LINE
  5
2E5
100
AcDbEntity
  8
0
390
0
  6
Continuous
 62
     7
100
AcDbLine
 10
97.710347
 20
16.777344
 30
0.0
 11
97.70518
 21
16.793778
 31
0.0
  0
LINE
  5
2E6
100
AcDbEntity
  8
0
390
0
  6
Continuous
 62
     7
100
AcDbLine
 10
97.713066
 20
16.759382
 30
0.0
 11
97.710347
 21
16.777344
 31
0.0
  0
LINE
  5
2E7
100
AcDbEntity
  8
0
390
0
  6
Continuous
 62
     7
100
AcDbLine
 10
97.713148
 20
16.73902
 30
0.0
 11
97.713066
 21
16.759382
 31
0.0
  0
LINE
  5
2E8
100
AcDbEntity
  8
0
390
0
  6
Continuous
 62
     7
100
AcDbLine
 10
97.71012
 20
16.715684
 30
0.0
 11
97.713148
 21
16.73902
 31
0.0
  0
LINE
  5
2E9
100
AcDbEntity
  8
0
390
0
  6
Continuous
 62
     7
100
AcDbLine
 10
97.7028
 20
16.68661
 30
0.0
 11
97.71012
 21
16.715684
 31
0.0
  0
LINE
  5
2EA
100
AcDbEntity
  8
0
390
0
  6
Continuous
 62
     7
100
AcDbLine
 10
96.867888
 20
13.89359
 30
0.0
 11
97.7028
 21
16.68661
 31
0.0
  0
LINE
  5
2EB
100
AcDbEntity
  8
0
390
0
  6
Continuous
 62
     7
100
AcDbLine
 10
96.860983
 20
13.875984
 30
0.0
 11
96.867888
 21
13.89359
 31
0.0
  0
LINE
  5
2EC
100
AcDbEntity
  8
0
390
0
  6
Continuous
 62
     7
100
AcDbLine
 10
96.854176
 20
13.863002
 30
0.0
 11
96.860983
 21
13.875984
 31
0.0
  0
LINE
  5
2ED
100
AcDbEntity
  8
0
390
0
  6
Continuous
 62
     7
100
AcDbLine
 10
96.847834
 20
13.85395
 30
0.0
 11
96.854176
 21
13.863002
 31
0.0
  0
LINE
  5
2EE
100
AcDbEntity
  8
0
390
0
  6
Continuous
 62
     7
100
AcDbLine
 10
96.842313
 20
13.848125
 30
0.0
 11
96.847834
 21
13.85395
 31
0.0
  0
LINE
  5
2EF
100
AcDbEntity
  8
0
390
0
  6
Continuous
 62
     7
100
AcDbLine
 10
96.837539
 20
13.844507
 30
0.0
 11
96.842313
 21
13.848125
 31
0.0
  0
LINE
  5
2F0
100
AcDbEntity
  8
0
390
0
  6
Continuous
 62
     7
100
AcDbLine
 10
96.832806
 20
13.84207
 30
0.0
 11
96.837539
 21
13.844507
 31
0.0
  0
LINE
  5
2F1
100
AcDbEntity
  8
0
390
0
  6
Continuous
 62
     7
100
AcDbLine
 10
96.826921
 20
13.840228
 30
0.0
 11
96.832806
 21
13.84207
 31
0.0
  0
LINE
  5
2F2
100
AcDbEntity
  8
0
390
0
  6
Continuous
 62
     7
100
AcDbLine
 10
96.818663
 20
13.839054
 30
0.0
 11
96.826921
 21
13.840228
 31
0.0
  0
LINE
  5
2F3
100
AcDbEntity
  8
0
390
0
  6
Continuous
 62
     7
100
AcDbLine
 10
96.807204
 20
13.839101
 30
0.0
 11
96.818663
 21
13.839054
 31
0.0
  0
LINE
  5
2F4
100
AcDbEntity
  8
0
390
0
  6
Continuous
 62
     7
100
AcDbLine
 10
96.800356
 20
13.839996
 30
0.0
 11
96.807204
 21
13.839101
 31
0.0
  0
LINE
  5
2F5
100
AcDbEntity
  8
0
390
0
  6
Continuous
 62
     7
100
AcDbLine
 10
96.786913
 20
13.845955
 30
0.0
 11
96.800356
 21
13.839996
 31
0.0
  0
LINE
  5
2F6
100
AcDbEntity
  8
0
390
0
  6
Continuous
 62
     7
100
AcDbLine
 10
96.771456
 20
13.855207
 30
0.0
 11
96.786913
 21
13.845955
 31
0.0
  0
LINE
  5
2F7
100
AcDbEntity
  8
0
390
0
  6
Continuous
 62
     7
100
AcDbLine
 10
96.761236
 20
13.863581
 30
0.0
 11
96.771456
 21
13.855207
 31
0.0
  0
LINE
  5
2F8
100
AcDbEntity
  8
0
390
0
  6
Continuous
 62
     7
100
AcDbLine
 10
96.75512
 20
13.870666
 30
0.0
 11
96.761236
 21
13.863581
 31
0.0
  0
LINE
  5
2F9
100
AcDbEntity
  8
0
390
0
  6
Continuous
 62
     7
100
AcDbLine
 10
96.751558
 20
13.876881
 30
0.0
 11
96.75512
 21
13.870666
 31
0.0
  0
LINE
  5
2FA
100
AcDbEntity
  8
0
390
0
  6
Continuous
 62
     7
100
AcDbLine
 10
96.749298
 20
13.883678
 30
0.0
 11
96.751558
 21
13.876881
 31
0.0
  0
LINE
  5
2FB
100
AcDbEntity
  8
0
390
0
  6
Continuous
 62
     7
100
AcDbLine
 10
96.748091
 20
13.89296
 30
0.0
 11
96.749298
 21
13.883678
 31
0.0
  0
LINE
  5
2FC
100
AcDbEntity
  8
0
390
0
  6
Continuous
 62
     7
100
AcDbLine
 10
96.748658
 20
13.906162
 30
0.0
 11
96.748091
 21
13.89296
 31
0.0
  0
LINE
  5
2FD
100
AcDbEntity
  8
0
390
0
  6
Continuous
 62
     7
100
AcDbLine
 10
96.75206
 20
13.923853
 30
0.0
 11
96.748658
 21
13.906162
 31
0.0
  0
LINE
  5
2FE
100
AcDbEntity
  8
0
390
0
  6
Continuous
 62
     7
100
AcDbLine
 10
96.760671
 20
13.950545
 30
0.0
 11
96.75206
 21
13.923853
 31
0.0
  0
LINE
  5
2FF
100
AcDbEntity
  8
0
390
0
  6
Continuous
 62
     7
100
AcDbLine
 10
97.610308
 20
16.650186
 30
0.0
 11
96.760671
 21
13.950545
 31
0.0
  0
POLYLINE
  5
300
100
AcDbEntity
  8
0
390
0
  6
Continuous
 62
     7
100
AcDb2dPolyline
 66
     1
 10
0.0
 20
0.0
 30
0.0
 40
0.1
 41
0.1
  0
VERTEX
  5
301
100
AcDbEntity
  8
0
390
0
 62
     7
100
AcDbVertex
100
AcDb2dVertex
 10
97.461432
 20
16.74145
 30
0.0
  0
VERTEX
  5
302
100
AcDbEntity
  8
0
390
0
 62
     7
100
AcDbVertex
100
AcDb2dVertex
 10
97.562893
 20
16.758585
 30
0.0
  0
VERTEX
  5
303
100
AcDbEntity
  8
0
390
0
 62
     7
100
AcDbVertex
100
AcDb2dVertex
 10
97.613993
 20
16.668062
 30
0.0
  0
VERTEX
  5
304
100
AcDbEntity
  8
0
390
0
 62
     7
100
AcDbVertex
100
AcDb2dVertex
 10
97.610308
 20
16.650186
 30
0.0
  0
SEQEND
  5
305
100
AcDbEntity
  8
0
390
0
  0
LINE
  5
306
100
AcDbEntity
  8
0
390
0
  6
Continuous
 62
     7
100
AcDbLine
 10
95.482734
 20
14.800296
 30
0.0
 11
97.461432
 21
16.74145
 31
0.0
  0
LINE
  5
307
100
AcDbEntity
  8
0
390
0
  6
Continuous
 62
     7
100
AcDbLine
 10
95.457887
 20
14.777144
 30
0.0
 11
95.482734
 21
14.800296
 31
0.0
  0
LINE
  5
308
100
AcDbEntity
  8
0
390
0
  6
Continuous
 62
     7
100
AcDbLine
 10
95.436566
 20
14.761284
 30
0.0
 11
95.457887
 21
14.777144
 31
0.0
  0
LINE
  5
309
100
AcDbEntity
  8
0
390
0
  6
Continuous
 62
     7
100
AcDbLine
 10
95.416655
 20
14.750077
 30
0.0
 11
95.436566
 21
14.761284
 31
0.0
  0
LINE
  5
30A
100
AcDbEntity
  8
0
390
0
  6
Continuous
 62
     7
100
AcDbLine
 10
95.398038
 20
14.742844
 30
0.0
 11
95.416655
 21
14.750077
 31
0.0
  0
LINE
  5
30B
100
AcDbEntity
  8
0
390
0
  6
Continuous
 62
     7
100
AcDbLine
 10
95.38018
 20
14.738907
 30
0.0
 11
95.398038
 21
14.742844
 31
0.0
  0
LINE
  5
30C
100
AcDbEntity
  8
0
390
0
  6
Continuous
 62
     7
100
AcDbLine
 10
95.362174
 20
14.737857
 30
0.0
 11
95.38018
 21
14.738907
 31
0.0
  0
LINE
  5
30D
100
AcDbEntity
  8
0
390
0
  6
Continuous
 62
     7
100
AcDbLine
 10
95.343005
 20
14.739739
 30
0.0
 11
95.362174
 21
14.737857
 31
0.0
  0
LINE
  5
30E
100
AcDbEntity
  8
0
390
0
  6
Continuous
 62
     7
100
AcDbLine
 10
95.321878
 20
14.745007
 30
0.0
 11
95.343005
 21
14.739739
 31
0.0
  0
LINE
  5
30F
100
AcDbEntity
  8
0
390
0
  6
Continuous
 62
     7
100
AcDbLine
 10
95.298394
 20
14.754293
 30
0.0
 11
95.321878
 21
14.745007
 31
0.0
  0
LINE
  5
310
100
AcDbEntity
  8
0
390
0
  6
Continuous
 62
     7
100
AcDbLine
 10
95.272839
 20
14.768009
 30
0.0
 11
95.298394
 21
14.754293
 31
0.0
  0
LINE
  5
311
100
AcDbEntity
  8
0
390
0
  6
Continuous
 62
     7
100
AcDbLine
 10
95.251689
 20
14.782501
 30
0.0
 11
95.272839
 21
14.768009
 31
0.0
  0
LINE
  5
312
100
AcDbEntity
  8
0
390
0
  6
Continuous
 62
     7
100
AcDbLine
 10
95.235339
 20
14.797003
 30
0.0
 11
95.251689
 21
14.782501
 31
0.0
  0
LINE
  5
313
100
AcDbEntity
  8
0
390
0
  6
Continuous
 62
     7
100
AcDbLine
 10
95.223124
 20
14.811373
 30
0.0
 11
95.235339
 21
14.797003
 31
0.0
  0
LINE
  5
314
100
AcDbEntity
  8
0
390
0
  6
Continuous
 62
     7
100
AcDbLine
 10
95.214225
 20
14.825844
 30
0.0
 11
95.223124
 21
14.811373
 31
0.0
  0
LINE
  5
315
100
AcDbEntity
  8
0
390
0
  6
Continuous
 62
     7
100
AcDbLine
 10
95.207918
 20
14.841105
 30
0.0
 11
95.214225
 21
14.825844
 31
0.0
  0
LINE
  5
316
100
AcDbEntity
  8
0
390
0
  6
Continuous
 62
     7
100
AcDbLine
 10
95.203861
 20
14.858141
 30
0.0
 11
95.207918
 21
14.841105
 31
0.0
  0
LINE
  5
317
100
AcDbEntity
  8
0
390
0
  6
Continuous
 62
     7
100
AcDbLine
 10
95.202185
 20
14.877897
 30
0.0
 11
95.203861
 21
14.858141
 31
0.0
  0
LINE
  5
318
100
AcDbEntity
  8
0
390
0
  6
Continuous
 62
     7
100
AcDbLine
 10
95.203355
 20
14.901009
 30
0.0
 11
95.202185
 21
14.877897
 31
0.0
  0
LINE
  5
319
100
AcDbEntity
  8
0
390
0
  6
Continuous
 62
     7
100
AcDbLine
 10
95.20793
 20
14.927739
 30
0.0
 11
95.203355
 21
14.901009
 31
0.0
  0
LINE
  5
31A
100
AcDbEntity
  8
0
390
0
  6
Continuous
 62
     7
100
AcDbLine
 10
95.217106
 20
14.960622
 30
0.0
 11
95.20793
 21
14.927739
 31
0.0
  0
LINE
  5
31B
100
AcDbEntity
  8
0
390
0
  6
Continuous
 62
     7
100
AcDbLine
 10
96.041995
 20
17.618638
 30
0.0
 11
95.217106
 21
14.960622
 31
0.0
  0
POLYLINE
  5
31C
100
AcDbEntity
  8
0
390
0
  6
Continuous
 62
     7
100
AcDb2dPolyline
 66
     1
 10
0.0
 20
0.0
 30
0.0
 40
0.1
 41
0.1
  0
VERTEX
  5
31D
100
AcDbEntity
  8
0
390
0
 62
     7
100
AcDbVertex
100
AcDb2dVertex
 10
95.892238
 20
17.708791
 30
0.0
  0
VERTEX
  5
31E
100
AcDbEntity
  8
0
390
0
 62
     7
100
AcDbVertex
100
AcDb2dVertex
 10
95.993165
 20
17.7273
 30
0.0
  0
VERTEX
  5
31F
100
AcDbEntity
  8
0
390
0
 62
     7
100
AcDbVertex
100
AcDb2dVertex
 10
96.04577
 20
17.638355
 30
0.0
  0
VERTEX
  5
320
100
AcDbEntity
  8
0
390
0
 62
     7
100
AcDbVertex
100
AcDb2dVertex
 10
96.041995
 20
17.618638
 30
0.0
  0
SEQEND
  5
321
100
AcDbEntity
  8
0
390
0
  0
LINE
  5
322
100
AcDbEntity
  8
0
390
0
  6
Continuous
 62
     7
100
AcDbLine
 10
93.885423
 20
15.691746
 30
0.0
 11
95.892238
 21
17.708791
 31
0.0
  0
LINE
  5
323
100
AcDbEntity
  8
0
390
0
  6
Continuous
 62
     7
100
AcDbLine
 10
93.865799
 20
15.671787
 30
0.0
 11
93.885423
 21
15.691746
 31
0.0
  0
LINE
  5
324
100
AcDbEntity
  8
0
390
0
  6
Continuous
 62
     7
100
AcDbLine
 10
93.851699
 20
15.660575
 30
0.0
 11
93.865799
 21
15.671787
 31
0.0
  0
LINE
  5
325
100
AcDbEntity
  8
0
390
0
  6
Continuous
 62
     7
100
AcDbLine
 10
93.840264
 20
15.653956
 30
0.0
 11
93.851699
 21
15.660575
 31
0.0
  0
LINE
  5
326
100
AcDbEntity
  8
0
390
0
  6
Continuous
 62
     7
100
AcDbLine
 10
93.83148
 20
15.650725
 30
0.0
 11
93.840264
 21
15.653956
 31
0.0
  0
LINE
  5
327
100
AcDbEntity
  8
0
390
0
  6
Continuous
 62
     7
100
AcDbLine
 10
93.82441
 20
15.649579
 30
0.0
 11
93.83148
 21
15.650725
 31
0.0
  0
LINE
  5
328
100
AcDbEntity
  8
0
390
0
  6
Continuous
 62
     7
100
AcDbLine
 10
93.817253
 20
15.649855
 30
0.0
 11
93.82441
 21
15.649579
 31
0.0
  0
LINE
  5
329
100
AcDbEntity
  8
0
390
0
  6
Continuous
 62
     7
100
AcDbLine
 10
93.808142
 20
15.651993
 30
0.0
 11
93.817253
 21
15.649855
 31
0.0
  0
LINE
  5
32A
100
AcDbEntity
  8
0
390
0
  6
Continuous
 62
     7
100
AcDbLine
 10
93.795986
 20
15.65717
 30
0.0
 11
93.808142
 21
15.651993
 31
0.0
  0
LINE
  5
32B
100
AcDbEntity
  8
0
390
0
  6
Continuous
 62
     7
100
AcDbLine
 10
93.780625
 20
15.666581
 30
0.0
 11
93.795986
 21
15.65717
 31
0.0
  0
LINE
  5
32C
100
AcDbEntity
  8
0
390
0
  6
Continuous
 62
     7
100
AcDbLine
 10
93.764256
 20
15.679596
 30
0.0
 11
93.780625
 21
15.666581
 31
0.0
  0
LINE
  5
32D
100
AcDbEntity
  8
0
390
0
  6
Continuous
 62
     7
100
AcDbLine
 10
93.754617
 20
15.689986
 30
0.0
 11
93.764256
 21
15.679596
 31
0.0
  0
LINE
  5
32E
100
AcDbEntity
  8
0
390
0
  6
Continuous
 62
     7
100
AcDbLine
 10
93.748534
 20
15.698726
 30
0.0
 11
93.754617
 21
15.689986
 31
0.0
  0
LINE
  5
32F
100
AcDbEntity
  8
0
390
0
  6
Continuous
 62
     7
100
AcDbLine
 10
93.746006
 20
15.704121
 30
0.0
 11
93.748534
 21
15.698726
 31
0.0
  0
LINE
  5
330
100
AcDbEntity
  8
0
390
0
  6
Continuous
 62
     7
100
AcDbLine
 10
93.74538
 20
15.706671
 30
0.0
 11
93.746006
 21
15.704121
 31
0.0
  0
LINE
  5
331
100
AcDbEntity
  8
0
390
0
  6
Continuous
 62
     7
100
AcDbLine
 10
93.745339
 20
15.708197
 30
0.0
 11
93.74538
 21
15.706671
 31
0.0
  0
LINE
  5
332
100
AcDbEntity
  8
0
390
0
  6
Continuous
 62
     7
100
AcDbLine
 10
93.745895
 20
15.711157
 30
0.0
 11
93.745339
 21
15.708197
 31
0.0
  0
LINE
  5
333
100
AcDbEntity
  8
0
390
0
  6
Continuous
 62
     7
100
AcDbLine
 10
93.748345
 20
15.717301
 30
0.0
 11
93.745895
 21
15.711157
 31
0.0
  0
LINE
  5
334
100
AcDbEntity
  8
0
390
0
  6
Continuous
 62
     7
100
AcDbLine
 10
93.754268
 20
15.727082
 30
0.0
 11
93.748345
 21
15.717301
 31
0.0
  0
LINE
  5
335
100
AcDbEntity
  8
0
390
0
  6
Continuous
 62
     7
100
AcDbLine
 10
93.764773
 20
15.740072
 30
0.0
 11
93.754268
 21
15.727082
 31
0.0
  0
LINE
  5
336
100
AcDbEntity
  8
0
390
0
  6
Continuous
 62
     7
100
AcDbLine
 10
93.783095
 20
15.758245
 30
0.0
 11
93.764773
 21
15.740072
 31
0.0
  0
LINE
  5
337
100
AcDbEntity
  8
0
390
0
  6
Continuous
 62
     7
100
AcDbLine
 10
95.882667
 20
17.822402
 30
0.0
 11
95.860467
 21
17.802599
 31
0.0
  0
LINE
  5
338
100
AcDbEntity
  8
0
390
0
  6
Continuous
 62
     7
100
AcDbLine
 10
76.765478
 20
-16.084413
 30
0.0
 11
78.850488
 21
-17.155935
 31
0.0
  0
LINE
  5
339
100
AcDbEntity
  8
0
390
0
  6
Continuous
 62
     7
100
AcDbLine
 10
76.080994
 20
-17.416317
 30
0.0
 11
76.765478
 21
-16.084413
 31
0.0
  0
LINE
  5
33A
100
AcDbEntity
  8
0
390
0
  6
Continuous
 62
     7
100
AcDbLine
 10
76.069054
 20
-17.437051
 30
0.0
 11
76.080994
 21
-17.416317
 31
0.0
  0
LINE
  5
33B
100
AcDbEntity
  8
0
390
0
  6
Continuous
 62
     7
100
AcDbLine
 10
76.059572
 20
-17.449952
 30
0.0
 11
76.069054
 21
-17.437051
 31
0.0
  0
LINE
  5
33C
100
AcDbEntity
  8
0
390
0
  6
Continuous
 62
     7
100
AcDbLine
 10
76.052194
 20
-17.457577
 30
0.0
 11
76.059572
 21
-17.449952
 31
0.0
  0
LINE
  5
33D
100
AcDbEntity
  8
0
390
0
  6
Continuous
 62
     7
100
AcDbLine
 10
76.047521
 20
-17.461063
 30
0.0
 11
76.052194
 21
-17.457577
 31
0.0
  0
LINE
  5
33E
100
AcDbEntity
  8
0
390
0
  6
Continuous
 62
     7
100
AcDbLine
 10
76.045333
 20
-17.462138
 30
0.0
 11
76.047521
 21
-17.461063
 31
0.0
  0
LINE
  5
33F
100
AcDbEntity
  8
0
390
0
  6
Continuous
 62
     7
100
AcDbLine
 10
76.04414
 20
-17.462453
 30
0.0
 11
76.045333
 21
-17.462138
 31
0.0
  0
LINE
  5
340
100
AcDbEntity
  8
0
390
0
  6
Continuous
 62
     7
100
AcDbLine
 10
76.041584
 20
-17.462606
 30
0.0
 11
76.04414
 21
-17.462453
 31
0.0
  0
LINE
  5
341
100
AcDbEntity
  8
0
390
0
  6
Continuous
 62
     7
100
AcDbLine
 10
76.035589
 20
-17.461864
 30
0.0
 11
76.041584
 21
-17.462606
 31
0.0
  0
LINE
  5
342
100
AcDbEntity
  8
0
390
0
  6
Continuous
 62
     7
100
AcDbLine
 10
76.025152
 20
-17.458829
 30
0.0
 11
76.035589
 21
-17.461864
 31
0.0
  0
LINE
  5
343
100
AcDbEntity
  8
0
390
0
  6
Continuous
 62
     7
100
AcDbLine
 10
76.010542
 20
-17.45236
 30
0.0
 11
76.025152
 21
-17.458829
 31
0.0
  0
LINE
  5
344
100
AcDbEntity
  8
0
390
0
  6
Continuous
 62
     7
100
AcDbLine
 10
75.996775
 20
-17.444246
 30
0.0
 11
76.010542
 21
-17.45236
 31
0.0
  0
LINE
  5
345
100
AcDbEntity
  8
0
390
0
  6
Continuous
 62
     7
100
AcDbLine
 10
75.988229
 20
-17.437524
 30
0.0
 11
75.996775
 21
-17.444246
 31
0.0
  0
LINE
  5
346
100
AcDbEntity
  8
0
390
0
  6
Continuous
 62
     7
100
AcDbLine
 10
75.984133
 20
-17.43308
 30
0.0
 11
75.988229
 21
-17.437524
 31
0.0
  0
LINE
  5
347
100
AcDbEntity
  8
0
390
0
  6
Continuous
 62
     7
100
AcDbLine
 10
75.982769
 20
-17.430911
 30
0.0
 11
75.984133
 21
-17.43308
 31
0.0
  0
LINE
  5
348
100
AcDbEntity
  8
0
390
0
  6
Continuous
 62
     7
100
AcDbLine
 10
75.98233
 20
-17.429756
 30
0.0
 11
75.982769
 21
-17.430911
 31
0.0
  0
LINE
  5
349
100
AcDbEntity
  8
0
390
0
  6
Continuous
 62
     7
100
AcDbLine
 10
75.98193
 20
-17.427351
 30
0.0
 11
75.98233
 21
-17.429756
 31
0.0
  0
LINE
  5
34A
100
AcDbEntity
  8
0
390
0
  6
Continuous
 62
     7
100
AcDbLine
 10
75.982044
 20
-17.421522
 30
0.0
 11
75.98193
 21
-17.427351
 31
0.0
  0
LINE
  5
34B
100
AcDbEntity
  8
0
390
0
  6
Continuous
 62
     7
100
AcDbLine
 10
75.983948
 20
-17.411085
 30
0.0
 11
75.982044
 21
-17.421522
 31
0.0
  0
LINE
  5
34C
100
AcDbEntity
  8
0
390
0
  6
Continuous
 62
     7
100
AcDbLine
 10
75.988918
 20
-17.395865
 30
0.0
 11
75.983948
 21
-17.411085
 31
0.0
  0
LINE
  5
34D
100
AcDbEntity
  8
0
390
0
  6
Continuous
 62
     7
100
AcDbLine
 10
75.998824
 20
-17.374088
 30
0.0
 11
75.988918
 21
-17.395865
 31
0.0
  0
LINE
  5
34E
100
AcDbEntity
  8
0
390
0
  6
Continuous
 62
     7
100
AcDbLine
 10
77.302932
 20
-14.836498
 30
0.0
 11
75.998824
 21
-17.374088
 31
0.0
  0
LINE
  5
34F
100
AcDbEntity
  8
0
390
0
  6
Continuous
 62
     7
100
AcDbLine
 10
77.314873
 20
-14.815765
 30
0.0
 11
77.302932
 21
-14.836498
 31
0.0
  0
LINE
  5
350
100
AcDbEntity
  8
0
390
0
  6
Continuous
 62
     7
100
AcDbLine
 10
77.324355
 20
-14.802863
 30
0.0
 11
77.314873
 21
-14.815765
 31
0.0
  0
LINE
  5
351
100
AcDbEntity
  8
0
390
0
  6
Continuous
 62
     7
100
AcDbLine
 10
77.331734
 20
-14.795237
 30
0.0
 11
77.324355
 21
-14.802863
 31
0.0
  0
LINE
  5
352
100
AcDbEntity
  8
0
390
0
  6
Continuous
 62
     7
100
AcDbLine
 10
77.336407
 20
-14.791752
 30
0.0
 11
77.331734
 21
-14.795237
 31
0.0
  0
LINE
  5
353
100
AcDbEntity
  8
0
390
0
  6
Continuous
 62
     7
100
AcDbLine
 10
77.338595
 20
-14.790677
 30
0.0
 11
77.336407
 21
-14.791752
 31
0.0
  0
LINE
  5
354
100
AcDbEntity
  8
0
390
0
  6
Continuous
 62
     7
100
AcDbLine
 10
77.339789
 20
-14.790362
 30
0.0
 11
77.338595
 21
-14.790677
 31
0.0
  0
LINE
  5
355
100
AcDbEntity
  8
0
390
0
  6
Continuous
 62
     7
100
AcDbLine
 10
77.342345
 20
-14.790208
 30
0.0
 11
77.339789
 21
-14.790362
 31
0.0
  0
LINE
  5
356
100
AcDbEntity
  8
0
390
0
  6
Continuous
 62
     7
100
AcDbLine
 10
77.348341
 20
-14.790952
 30
0.0
 11
77.342345
 21
-14.790208
 31
0.0
  0
LINE
  5
357
100
AcDbEntity
  8
0
390
0
  6
Continuous
 62
     7
100
AcDbLine
 10
77.35878
 20
-14.793987
 30
0.0
 11
77.348341
 21
-14.790952
 31
0.0
  0
LINE
  5
358
100
AcDbEntity
  8
0
390
0
  6
Continuous
 62
     7
100
AcDbLine
 10
77.373396
 20
-14.800461
 30
0.0
 11
77.35878
 21
-14.793987
 31
0.0
  0
LINE
  5
359
100
AcDbEntity
  8
0
390
0
  6
Continuous
 62
     7
100
AcDbLine
 10
77.387166
 20
-14.808575
 30
0.0
 11
77.373396
 21
-14.800461
 31
0.0
  0
LINE
  5
35A
100
AcDbEntity
  8
0
390
0
  6
Continuous
 62
     7
100
AcDbLine
 10
77.395709
 20
-14.815294
 30
0.0
 11
77.387166
 21
-14.808575
 31
0.0
  0
LINE
  5
35B
100
AcDbEntity
  8
0
390
0
  6
Continuous
 62
     7
100
AcDbLine
 10
77.399801
 20
-14.819734
 30
0.0
 11
77.395709
 21
-14.815294
 31
0.0
  0
LINE
  5
35C
100
AcDbEntity
  8
0
390
0
  6
Continuous
 62
     7
100
AcDbLine
 10
77.401163
 20
-14.8219
 30
0.0
 11
77.399801
 21
-14.819734
 31
0.0
  0
LINE
  5
35D
100
AcDbEntity
  8
0
390
0
  6
Continuous
 62
     7
100
AcDbLine
 10
77.401601
 20
-14.823052
 30
0.0
 11
77.401163
 21
-14.8219
 31
0.0
  0
LINE
  5
35E
100
AcDbEntity
  8
0
390
0
  6
Continuous
 62
     7
100
AcDbLine
 10
77.402001
 20
-14.825456
 30
0.0
 11
77.401601
 21
-14.823052
 31
0.0
  0
LINE
  5
35F
100
AcDbEntity
  8
0
390
0
  6
Continuous
 62
     7
100
AcDbLine
 10
77.401887
 20
-14.831285
 30
0.0
 11
77.402001
 21
-14.825456
 31
0.0
  0
LINE
  5
360
100
AcDbEntity
  8
0
390
0
  6
Continuous
 62
     7
100
AcDbLine
 10
77.399982
 20
-14.841724
 30
0.0
 11
77.401887
 21
-14.831285
 31
0.0
  0
LINE
  5
361
100
AcDbEntity
  8
0
390
0
  6
Continuous
 62
     7
100
AcDbLine
 10
77.395011
 20
-14.856945
 30
0.0
 11
77.399982
 21
-14.841724
 31
0.0
  0
LINE
  5
362
100
AcDbEntity
  8
0
390
0
  6
Continuous
 62
     7
100
AcDbLine
 10
77.385103
 20
-14.878726
 30
0.0
 11
77.395011
 21
-14.856945
 31
0.0
  0
LINE
  5
363
100
AcDbEntity
  8
0
390
0
  6
Continuous
 62
     7
100
AcDbLine
 10
76.77915
 20
-16.057811
 30
0.0
 11
77.385103
 21
-14.878726
 31
0.0
  0
LINE
  5
364
100
AcDbEntity
  8
0
390
0
  6
Continuous
 62
     7
100
AcDbLine
 10
78.86416
 20
-17.129333
 30
0.0
 11
76.77915
 21
-16.057811
 31
0.0
  0
LINE
  5
365
100
AcDbEntity
  8
0
390
0
  6
Continuous
 62
     7
100
AcDbLine
 10
79.470113
 20
-15.950249
 30
0.0
 11
78.86416
 21
-17.129333
 31
0.0
  0
LINE
  5
366
100
AcDbEntity
  8
0
390
0
  6
Continuous
 62
     7
100
AcDbLine
 10
79.482054
 20
-15.929514
 30
0.0
 11
79.470113
 21
-15.950249
 31
0.0
  0
LINE
  5
367
100
AcDbEntity
  8
0
390
0
  6
Continuous
 62
     7
100
AcDbLine
 10
79.491537
 20
-15.916612
 30
0.0
 11
79.482054
 21
-15.929514
 31
0.0
  0
LINE
  5
368
100
AcDbEntity
  8
0
390
0
  6
Continuous
 62
     7
100
AcDbLine
 10
79.498916
 20
-15.908986
 30
0.0
 11
79.491537
 21
-15.916612
 31
0.0
  0
LINE
  5
369
100
AcDbEntity
  8
0
390
0
  6
Continuous
 62
     7
100
AcDbLine
 10
79.50359
 20
-15.9055
 30
0.0
 11
79.498916
 21
-15.908986
 31
0.0
  0
LINE
  5
36A
100
AcDbEntity
  8
0
390
0
  6
Continuous
 62
     7
100
AcDbLine
 10
79.505779
 20
-15.904424
 30
0.0
 11
79.50359
 21
-15.9055
 31
0.0
  0
LINE
  5
36B
100
AcDbEntity
  8
0
390
0
  6
Continuous
 62
     7
100
AcDbLine
 10
79.506974
 20
-15.904109
 30
0.0
 11
79.505779
 21
-15.904424
 31
0.0
  0
LINE
  5
36C
100
AcDbEntity
  8
0
390
0
  6
Continuous
 62
     7
100
AcDbLine
 10
79.50953
 20
-15.903955
 30
0.0
 11
79.506974
 21
-15.904109
 31
0.0
  0
LINE
  5
36D
100
AcDbEntity
  8
0
390
0
  6
Continuous
 62
     7
100
AcDbLine
 10
79.515527
 20
-15.904698
 30
0.0
 11
79.50953
 21
-15.903955
 31
0.0
  0
LINE
  5
36E
100
AcDbEntity
  8
0
390
0
  6
Continuous
 62
     7
100
AcDbLine
 10
79.525965
 20
-15.907733
 30
0.0
 11
79.515527
 21
-15.904698
 31
0.0
  0
LINE
  5
36F
100
AcDbEntity
  8
0
390
0
  6
Continuous
 62
     7
100
AcDbLine
 10
79.540578
 20
-15.914205
 30
0.0
 11
79.525965
 21
-15.907733
 31
0.0
  0
LINE
  5
370
100
AcDbEntity
  8
0
390
0
  6
Continuous
 62
     7
100
AcDbLine
 10
79.554345
 20
-15.922318
 30
0.0
 11
79.540578
 21
-15.914205
 31
0.0
  0
LINE
  5
371
100
AcDbEntity
  8
0
390
0
  6
Continuous
 62
     7
100
AcDbLine
 10
79.562888
 20
-15.929037
 30
0.0
 11
79.554345
 21
-15.922318
 31
0.0
  0
LINE
  5
372
100
AcDbEntity
  8
0
390
0
  6
Continuous
 62
     7
100
AcDbLine
 10
79.566981
 20
-15.933479
 30
0.0
 11
79.562888
 21
-15.929037
 31
0.0
  0
LINE
  5
373
100
AcDbEntity
  8
0
390
0
  6
Continuous
 62
     7
100
AcDbLine
 10
79.568344
 20
-15.935646
 30
0.0
 11
79.566981
 21
-15.933479
 31
0.0
  0
LINE
  5
374
100
AcDbEntity
  8
0
390
0
  6
Continuous
 62
     7
100
AcDbLine
 10
79.568782
 20
-15.9368
 30
0.0
 11
79.568344
 21
-15.935646
 31
0.0
  0
LINE
  5
375
100
AcDbEntity
  8
0
390
0
  6
Continuous
 62
     7
100
AcDbLine
 10
79.569182
 20
-15.939205
 30
0.0
 11
79.568782
 21
-15.9368
 31
0.0
  0
LINE
  5
376
100
AcDbEntity
  8
0
390
0
  6
Continuous
 62
     7
100
AcDbLine
 10
79.569068
 20
-15.945035
 30
0.0
 11
79.569182
 21
-15.939205
 31
0.0
  0
LINE
  5
377
100
AcDbEntity
  8
0
390
0
  6
Continuous
 62
     7
100
AcDbLine
 10
79.567163
 20
-15.955474
 30
0.0
 11
79.569068
 21
-15.945035
 31
0.0
  0
LINE
  5
378
100
AcDbEntity
  8
0
390
0
  6
Continuous
 62
     7
100
AcDbLine
 10
79.562192
 20
-15.970695
 30
0.0
 11
79.567163
 21
-15.955474
 31
0.0
  0
LINE
  5
379
100
AcDbEntity
  8
0
390
0
  6
Continuous
 62
     7
100
AcDbLine
 10
79.552284
 20
-15.992476
 30
0.0
 11
79.562192
 21
-15.970695
 31
0.0
  0
LINE
  5
37A
100
AcDbEntity
  8
0
390
0
  6
Continuous
 62
     7
100
AcDbLine
 10
78.248176
 20
-18.530067
 30
0.0
 11
79.552284
 21
-15.992476
 31
0.0
  0
LINE
  5
37B
100
AcDbEntity
  8
0
390
0
  6
Continuous
 62
     7
100
AcDbLine
 10
78.236235
 20
-18.5508
 30
0.0
 11
78.248176
 21
-18.530067
 31
0.0
  0
LINE
  5
37C
100
AcDbEntity
  8
0
390
0
  6
Continuous
 62
     7
100
AcDbLine
 10
78.226754
 20
-18.563701
 30
0.0
 11
78.236235
 21
-18.5508
 31
0.0
  0
LINE
  5
37D
100
AcDbEntity
  8
0
390
0
  6
Continuous
 62
     7
100
AcDbLine
 10
78.219376
 20
-18.571326
 30
0.0
 11
78.226754
 21
-18.563701
 31
0.0
  0
LINE
  5
37E
100
AcDbEntity
  8
0
390
0
  6
Continuous
 62
     7
100
AcDbLine
 10
78.214704
 20
-18.574811
 30
0.0
 11
78.219376
 21
-18.571326
 31
0.0
  0
LINE
  5
37F
100
AcDbEntity
  8
0
390
0
  6
Continuous
 62
     7
100
AcDbLine
 10
78.212517
 20
-18.575885
 30
0.0
 11
78.214704
 21
-18.574811
 31
0.0
  0
LINE
  5
380
100
AcDbEntity
  8
0
390
0
  6
Continuous
 62
     7
100
AcDbLine
 10
78.211324
 20
-18.5762
 30
0.0
 11
78.212517
 21
-18.575885
 31
0.0
  0
LINE
  5
381
100
AcDbEntity
  8
0
390
0
  6
Continuous
 62
     7
100
AcDbLine
 10
78.208769
 20
-18.576353
 30
0.0
 11
78.211324
 21
-18.5762
 31
0.0
  0
LINE
  5
382
100
AcDbEntity
  8
0
390
0
  6
Continuous
 62
     7
100
AcDbLine
 10
78.202774
 20
-18.575611
 30
0.0
 11
78.208769
 21
-18.576353
 31
0.0
  0
LINE
  5
383
100
AcDbEntity
  8
0
390
0
  6
Continuous
 62
     7
100
AcDbLine
 10
78.192338
 20
-18.572576
 30
0.0
 11
78.202774
 21
-18.575611
 31
0.0
  0
LINE
  5
384
100
AcDbEntity
  8
0
390
0
  6
Continuous
 62
     7
100
AcDbLine
 10
78.177724
 20
-18.566104
 30
0.0
 11
78.192338
 21
-18.572576
 31
0.0
  0
LINE
  5
385
100
AcDbEntity
  8
0
390
0
  6
Continuous
 62
     7
100
AcDbLine
 10
78.163953
 20
-18.557988
 30
0.0
 11
78.177724
 21
-18.566104
 31
0.0
  0
LINE
  5
386
100
AcDbEntity
  8
0
390
0
  6
Continuous
 62
     7
100
AcDbLine
 10
78.155408
 20
-18.551268
 30
0.0
 11
78.163953
 21
-18.557988
 31
0.0
  0
LINE
  5
387
100
AcDbEntity
  8
0
390
0
  6
Continuous
 62
     7
100
AcDbLine
 10
78.151313
 20
-18.546825
 30
0.0
 11
78.155408
 21
-18.551268
 31
0.0
  0
LINE
  5
388
100
AcDbEntity
  8
0
390
0
  6
Continuous
 62
     7
100
AcDbLine
 10
78.14995
 20
-18.544657
 30
0.0
 11
78.151313
 21
-18.546825
 31
0.0
  0
LINE
  5
389
100
AcDbEntity
  8
0
390
0
  6
Continuous
 62
     7
100
AcDbLine
 10
78.149511
 20
-18.543504
 30
0.0
 11
78.14995
 21
-18.544657
 31
0.0
  0
LINE
  5
38A
100
AcDbEntity
  8
0
390
0
  6
Continuous
 62
     7
100
AcDbLine
 10
78.149112
 20
-18.5411
 30
0.0
 11
78.149511
 21
-18.543504
 31
0.0
  0
LINE
  5
38B
100
AcDbEntity
  8
0
390
0
  6
Continuous
 62
     7
100
AcDbLine
 10
78.149225
 20
-18.535272
 30
0.0
 11
78.149112
 21
-18.5411
 31
0.0
  0
LINE
  5
38C
100
AcDbEntity
  8
0
390
0
  6
Continuous
 62
     7
100
AcDbLine
 10
78.151129
 20
-18.524835
 30
0.0
 11
78.149225
 21
-18.535272
 31
0.0
  0
LINE
  5
38D
100
AcDbEntity
  8
0
390
0
  6
Continuous
 62
     7
100
AcDbLine
 10
78.156099
 20
-18.509616
 30
0.0
 11
78.151129
 21
-18.524835
 31
0.0
  0
LINE
  5
38E
100
AcDbEntity
  8
0
390
0
  6
Continuous
 62
     7
100
AcDbLine
 10
78.166005
 20
-18.487838
 30
0.0
 11
78.156099
 21
-18.509616
 31
0.0
  0
LINE
  5
38F
100
AcDbEntity
  8
0
390
0
  6
Continuous
 62
     7
100
AcDbLine
 10
78.850488
 20
-17.155935
 30
0.0
 11
78.166005
 21
-18.487838
 31
0.0
  0
LINE
  5
390
100
AcDbEntity
  8
0
390
0
  6
Continuous
 62
     7
100
AcDbLine
 10
72.764273
 20
12.941718
 30
0.0
 11
72.749695
 21
12.867296
 31
0.0
  0
LINE
  5
391
100
AcDbEntity
  8
0
390
0
  6
Continuous
 62
     7
100
AcDbLine
 10
72.788107
 20
13.019
 30
0.0
 11
72.764273
 21
12.941718
 31
0.0
  0
LINE
  5
392
100
AcDbEntity
  8
0
390
0
  6
Continuous
 62
     7
100
AcDbLine
 10
72.821559
 20
13.099226
 30
0.0
 11
72.788107
 21
13.019
 31
0.0
  0
LINE
  5
393
100
AcDbEntity
  8
0
390
0
  6
Continuous
 62
     7
100
AcDbLine
 10
72.86493
 20
13.182348
 30
0.0
 11
72.821559
 21
13.099226
 31
0.0
  0
LINE
  5
394
100
AcDbEntity
  8
0
390
0
  6
Continuous
 62
     7
100
AcDbLine
 10
72.918446
 20
13.268241
 30
0.0
 11
72.86493
 21
13.182348
 31
0.0
  0
LINE
  5
395
100
AcDbEntity
  8
0
390
0
  6
Continuous
 62
     7
100
AcDbLine
 10
72.982254
 20
13.35675
 30
0.0
 11
72.918446
 21
13.268241
 31
0.0
  0
LINE
  5
396
100
AcDbEntity
  8
0
390
0
  6
Continuous
 62
     7
100
AcDbLine
 10
73.056446
 20
13.447719
 30
0.0
 11
72.982254
 21
13.35675
 31
0.0
  0
LINE
  5
397
100
AcDbEntity
  8
0
390
0
  6
Continuous
 62
     7
100
AcDbLine
 10
73.141069
 20
13.541
 30
0.0
 11
73.056446
 21
13.447719
 31
0.0
  0
LINE
  5
398
100
AcDbEntity
  8
0
390
0
  6
Continuous
 62
     7
100
AcDbLine
 10
73.236922
 20
13.637249
 30
0.0
 11
73.141069
 21
13.541
 31
0.0
  0
LINE
  5
399
100
AcDbEntity
  8
0
390
0
  6
Continuous
 62
     7
100
AcDbLine
 10
73.957109
 20
14.330293
 30
0.0
 11
73.236922
 21
13.637249
 31
0.0
  0
LINE
  5
39A
100
AcDbEntity
  8
0
390
0
  6
Continuous
 62
     7
100
AcDbLine
 10
73.080888
 20
15.240829
 30
0.0
 11
73.957109
 21
14.330293
 31
0.0
  0
LINE
  5
39B
100
AcDbEntity
  8
0
390
0
  6
Continuous
 62
     7
100
AcDbLine
 10
73.065132
 20
15.258852
 30
0.0
 11
73.080888
 21
15.240829
 31
0.0
  0
LINE
  5
39C
100
AcDbEntity
  8
0
390
0
  6
Continuous
 62
     7
100
AcDbLine
 10
73.055991
 20
15.272012
 30
0.0
 11
73.065132
 21
15.258852
 31
0.0
  0
LINE
  5
39D
100
AcDbEntity
  8
0
390
0
  6
Continuous
 62
     7
100
AcDbLine
 10
73.051161
 20
15.281473
 30
0.0
 11
73.055991
 21
15.272012
 31
0.0
  0
LINE
  5
39E
100
AcDbEntity
  8
0
390
0
  6
Continuous
 62
     7
100
AcDbLine
 10
73.049374
 20
15.287033
 30
0.0
 11
73.051161
 21
15.281473
 31
0.0
  0
LINE
  5
39F
100
AcDbEntity
  8
0
390
0
  6
Continuous
 62
     7
100
AcDbLine
 10
73.049065
 20
15.289461
 30
0.0
 11
73.049374
 21
15.287033
 31
0.0
  0
LINE
  5
3A0
100
AcDbEntity
  8
0
390
0
  6
Continuous
 62
     7
100
AcDbLine
 10
73.049154
 20
15.290702
 30
0.0
 11
73.049065
 21
15.289461
 31
0.0
  0
LINE
  5
3A1
100
AcDbEntity
  8
0
390
0
  6
Continuous
 62
     7
100
AcDbLine
 10
73.049839
 20
15.293179
 30
0.0
 11
73.049154
 21
15.290702
 31
0.0
  0
LINE
  5
3A2
100
AcDbEntity
  8
0
390
0
  6
Continuous
 62
     7
100
AcDbLine
 10
73.052489
 20
15.29862
 30
0.0
 11
73.049839
 21
15.293179
 31
0.0
  0
LINE
  5
3A3
100
AcDbEntity
  8
0
390
0
  6
Continuous
 62
     7
100
AcDbLine
 10
73.058747
 20
15.307521
 30
0.0
 11
73.052489
 21
15.29862
 31
0.0
  0
LINE
  5
3A4
100
AcDbEntity
  8
0
390
0
  6
Continuous
 62
     7
100
AcDbLine
 10
73.06961
 20
15.319257
 30
0.0
 11
73.058747
 21
15.307521
 31
0.0
  0
LINE
  5
3A5
100
AcDbEntity
  8
0
390
0
  6
Continuous
 62
     7
100
AcDbLine
 10
73.081756
 20
15.329662
 30
0.0
 11
73.06961
 21
15.319257
 31
0.0
  0
LINE
  5
3A6
100
AcDbEntity
  8
0
390
0
  6
Continuous
 62
     7
100
AcDbLine
 10
73.090891
 20
15.335574
 30
0.0
 11
73.081756
 21
15.329662
 31
0.0
  0
LINE
  5
3A7
100
AcDbEntity
  8
0
390
0
  6
Continuous
 62
     7
100
AcDbLine
 10
73.09643
 20
15.338013
 30
0.0
 11
73.090891
 21
15.335574
 31
0.0
  0
LINE
  5
3A8
100
AcDbEntity
  8
0
390
0
  6
Continuous
 62
     7
100
AcDbLine
 10
73.098932
 20
15.338603
 30
0.0
 11
73.09643
 21
15.338013
 31
0.0
  0
LINE
  5
3A9
100
AcDbEntity
  8
0
390
0
  6
Continuous
 62
     7
100
AcDbLine
 10
73.100175
 20
15.338644
 30
0.0
 11
73.098932
 21
15.338603
 31
0.0
  0
LINE
  5
3AA
100
AcDbEntity
  8
0
390
0
  6
Continuous
 62
     7
100
AcDbLine
 10
73.102589
 20
15.338242
 30
0.0
 11
73.100175
 21
15.338644
 31
0.0
  0
LINE
  5
3AB
100
AcDbEntity
  8
0
390
0
  6
Continuous
 62
     7
100
AcDbLine
 10
73.108076
 20
15.336243
 30
0.0
 11
73.102589
 21
15.338242
 31
0.0
  0
LINE
  5
3AC
100
AcDbEntity
  8
0
390
0
  6
Continuous
 62
     7
100
AcDbLine
 10
73.117344
 20
15.331054
 30
0.0
 11
73.108076
 21
15.336243
 31
0.0
  0
LINE
  5
3AD
100
AcDbEntity
  8
0
390
0
  6
Continuous
 62
     7
100
AcDbLine
 10
73.130143
 20
15.321414
 30
0.0
 11
73.117344
 21
15.331054
 31
0.0
  0
LINE
  5
3AE
100
AcDbEntity
  8
0
390
0
  6
Continuous
 62
     7
100
AcDbLine
 10
73.147548
 20
15.304977
 30
0.0
 11
73.130143
 21
15.321414
 31
0.0
  0
LINE
  5
3AF
100
AcDbEntity
  8
0
390
0
  6
Continuous
 62
     7
100
AcDbLine
 10
75.050634
 20
13.327353
 30
0.0
 11
73.147548
 21
15.304977
 31
0.0
  0
LINE
  5
3B0
100
AcDbEntity
  8
0
390
0
  6
Continuous
 62
     7
100
AcDbLine
 10
75.079369
 20
13.294166
 30
0.0
 11
75.050634
 21
13.327353
 31
0.0
  0
LINE
  5
3B1
100
AcDbEntity
  8
0
390
0
  6
Continuous
 62
     7
100
AcDbLine
 10
75.098175
 20
13.266171
 30
0.0
 11
75.079369
 21
13.294166
 31
0.0
  0
LINE
  5
3B2
100
AcDbEntity
  8
0
390
0
  6
Continuous
 62
     7
100
AcDbLine
 10
75.109729
 20
13.24191
 30
0.0
 11
75.098175
 21
13.266171
 31
0.0
  0
LINE
  5
3B3
100
AcDbEntity
  8
0
390
0
  6
Continuous
 62
     7
100
AcDbLine
 10
75.115497
 20
13.221248
 30
0.0
 11
75.109729
 21
13.24191
 31
0.0
  0
LINE
  5
3B4
100
AcDbEntity
  8
0
390
0
  6
Continuous
 62
     7
100
AcDbLine
 10
75.116975
 20
13.202914
 30
0.0
 11
75.115497
 21
13.221248
 31
0.0
  0
LINE
  5
3B5
100
AcDbEntity
  8
0
390
0
  6
Continuous
 62
     7
100
AcDbLine
 10
75.114794
 20
13.184651
 30
0.0
 11
75.116975
 21
13.202914
 31
0.0
  0
LINE
  5
3B6
100
AcDbEntity
  8
0
390
0
  6
Continuous
 62
     7
100
AcDbLine
 10
75.108236
 20
13.164225
 30
0.0
 11
75.114794
 21
13.184651
 31
0.0
  0
LINE
  5
3B7
100
AcDbEntity
  8
0
390
0
  6
Continuous
 62
     7
100
AcDbLine
 10
75.095758
 20
13.140424
 30
0.0
 11
75.108236
 21
13.164225
 31
0.0
  0
LINE
  5
3B8
100
AcDbEntity
  8
0
390
0
  6
Continuous
 62
     7
100
AcDbLine
 10
75.07589
 20
13.113171
 30
0.0
 11
75.095758
 21
13.140424
 31
0.0
  0
LINE
  5
3B9
100
AcDbEntity
  8
0
390
0
  6
Continuous
 62
     7
100
AcDbLine
 10
75.045902
 20
13.081112
 30
0.0
 11
75.07589
 21
13.113171
 31
0.0
  0
LINE
  5
3BA
100
AcDbEntity
  8
0
390
0
  6
Continuous
 62
     7
100
AcDbLine
 10
74.339702
 20
12.401529
 30
0.0
 11
74.981361
 21
13.019004
 31
0.0
  0
LINE
  5
3BB
100
AcDbEntity
  8
0
390
0
  6
Continuous
 62
     7
100
AcDbLine
 10
74.981361
 20
13.019004
 30
0.0
 11
75.045902
 21
13.081112
 31
0.0
  0
LINE
  5
3BC
100
AcDbEntity
  8
0
390
0
  6
Continuous
 62
     7
100
AcDbLine
 10
74.250715
 20
12.320283
 30
0.0
 11
74.339702
 21
12.401529
 31
0.0
  0
LINE
  5
3BD
100
AcDbEntity
  8
0
390
0
  6
Continuous
 62
     7
100
AcDbLine
 10
74.163378
 20
12.249152
 30
0.0
 11
74.250715
 21
12.320283
 31
0.0
  0
LINE
  5
3BE
100
AcDbEntity
  8
0
390
0
  6
Continuous
 62
     7
100
AcDbLine
 10
74.076761
 20
12.187134
 30
0.0
 11
74.163378
 21
12.249152
 31
0.0
  0
LINE
  5
3BF
100
AcDbEntity
  8
0
390
0
  6
Continuous
 62
     7
100
AcDbLine
 10
73.990937
 20
12.134124
 30
0.0
 11
74.076761
 21
12.187134
 31
0.0
  0
LINE
  5
3C0
100
AcDbEntity
  8
0
390
0
  6
Continuous
 62
     7
100
AcDbLine
 10
73.905951
 20
12.089983
 30
0.0
 11
73.990937
 21
12.134124
 31
0.0
  0
LINE
  5
3C1
100
AcDbEntity
  8
0
390
0
  6
Continuous
 62
     7
100
AcDbLine
 10
73.82181
 20
12.054539
 30
0.0
 11
73.905951
 21
12.089983
 31
0.0
  0
LINE
  5
3C2
100
AcDbEntity
  8
0
390
0
  6
Continuous
 62
     7
100
AcDbLine
 10
73.738458
 20
12.0276
 30
0.0
 11
73.82181
 21
12.054539
 31
0.0
  0
LINE
  5
3C3
100
AcDbEntity
  8
0
390
0
  6
Continuous
 62
     7
100
AcDbLine
 10
73.655762
 20
12.008974
 30
0.0
 11
73.738458
 21
12.0276
 31
0.0
  0
LINE
  5
3C4
100
AcDbEntity
  8
0
390
0
  6
Continuous
 62
     7
100
AcDbLine
 10
73.573518
 20
11.998497
 30
0.0
 11
73.655762
 21
12.008974
 31
0.0
  0
LINE
  5
3C5
100
AcDbEntity
  8
0
390
0
  6
Continuous
 62
     7
100
AcDbLine
 10
73.490778
 20
11.996045
 30
0.0
 11
73.573518
 21
11.998497
 31
0.0
  0
LINE
  5
3C6
100
AcDbEntity
  8
0
390
0
  6
Continuous
 62
     7
100
AcDbLine
 10
73.429961
 20
11.999432
 30
0.0
 11
73.490778
 21
11.996045
 31
0.0
  0
LINE
  5
3C7
100
AcDbEntity
  8
0
390
0
  6
Continuous
 62
     7
100
AcDbLine
 10
73.370817
 20
12.007242
 30
0.0
 11
73.429961
 21
11.999432
 31
0.0
  0
LINE
  5
3C8
100
AcDbEntity
  8
0
390
0
  6
Continuous
 62
     7
100
AcDbLine
 10
73.313943
 20
12.019371
 30
0.0
 11
73.370817
 21
12.007242
 31
0.0
  0
LINE
  5
3C9
100
AcDbEntity
  8
0
390
0
  6
Continuous
 62
     7
100
AcDbLine
 10
73.259174
 20
12.035793
 30
0.0
 11
73.313943
 21
12.019371
 31
0.0
  0
LINE
  5
3CA
100
AcDbEntity
  8
0
390
0
  6
Continuous
 62
     7
100
AcDbLine
 10
73.20633
 20
12.056523
 30
0.0
 11
73.259174
 21
12.035793
 31
0.0
  0
LINE
  5
3CB
100
AcDbEntity
  8
0
390
0
  6
Continuous
 62
     7
100
AcDbLine
 10
73.155238
 20
12.081623
 30
0.0
 11
73.20633
 21
12.056523
 31
0.0
  0
LINE
  5
3CC
100
AcDbEntity
  8
0
390
0
  6
Continuous
 62
     7
100
AcDbLine
 10
73.105745
 20
12.111193
 30
0.0
 11
73.155238
 21
12.081623
 31
0.0
  0
LINE
  5
3CD
100
AcDbEntity
  8
0
390
0
  6
Continuous
 62
     7
100
AcDbLine
 10
73.057735
 20
12.145362
 30
0.0
 11
73.105745
 21
12.111193
 31
0.0
  0
LINE
  5
3CE
100
AcDbEntity
  8
0
390
0
  6
Continuous
 62
     7
100
AcDbLine
 10
73.011133
 20
12.184272
 30
0.0
 11
73.057735
 21
12.145362
 31
0.0
  0
LINE
  5
3CF
100
AcDbEntity
  8
0
390
0
  6
Continuous
 62
     7
100
AcDbLine
 10
72.965976
 20
12.227998
 30
0.0
 11
73.011133
 21
12.184272
 31
0.0
  0
LINE
  5
3D0
100
AcDbEntity
  8
0
390
0
  6
Continuous
 62
     7
100
AcDbLine
 10
72.922
 20
12.277112
 30
0.0
 11
72.965976
 21
12.227998
 31
0.0
  0
LINE
  5
3D1
100
AcDbEntity
  8
0
390
0
  6
Continuous
 62
     7
100
AcDbLine
 10
72.883136
 20
12.327652
 30
0.0
 11
72.922
 21
12.277112
 31
0.0
  0
LINE
  5
3D2
100
AcDbEntity
  8
0
390
0
  6
Continuous
 62
     7
100
AcDbLine
 10
72.84926
 20
12.379646
 30
0.0
 11
72.883136
 21
12.327652
 31
0.0
  0
LINE
  5
3D3
100
AcDbEntity
  8
0
390
0
  6
Continuous
 62
     7
100
AcDbLine
 10
72.820234
 20
12.433185
 30
0.0
 11
72.84926
 21
12.379646
 31
0.0
  0
LINE
  5
3D4
100
AcDbEntity
  8
0
390
0
  6
Continuous
 62
     7
100
AcDbLine
 10
72.795939
 20
12.488399
 30
0.0
 11
72.820234
 21
12.433185
 31
0.0
  0
LINE
  5
3D5
100
AcDbEntity
  8
0
390
0
  6
Continuous
 62
     7
100
AcDbLine
 10
72.776287
 20
12.545449
 30
0.0
 11
72.795939
 21
12.488399
 31
0.0
  0
LINE
  5
3D6
100
AcDbEntity
  8
0
390
0
  6
Continuous
 62
     7
100
AcDbLine
 10
72.761234
 20
12.604514
 30
0.0
 11
72.776287
 21
12.545449
 31
0.0
  0
LINE
  5
3D7
100
AcDbEntity
  8
0
390
0
  6
Continuous
 62
     7
100
AcDbLine
 10
72.750782
 20
12.66577
 30
0.0
 11
72.761234
 21
12.604514
 31
0.0
  0
LINE
  5
3D8
100
AcDbEntity
  8
0
390
0
  6
Continuous
 62
     7
100
AcDbLine
 10
72.744971
 20
12.729375
 30
0.0
 11
72.750782
 21
12.66577
 31
0.0
  0
LINE
  5
3D9
100
AcDbEntity
  8
0
390
0
  6
Continuous
 62
     7
100
AcDbLine
 10
72.743897
 20
12.794079
 30
0.0
 11
72.744971
 21
12.729375
 31
0.0
  0
LINE
  5
3DA
100
AcDbEntity
  8
0
390
0
  6
Continuous
 62
     7
100
AcDbLine
 10
72.749695
 20
12.867296
 30
0.0
 11
72.743897
 21
12.794079
 31
0.0
  0
LINE
  5
3DB
100
AcDbEntity
  8
0
390
0
  6
Continuous
 62
     7
100
AcDbLine
 10
73.754065
 20
12.073474
 30
0.0
 11
73.684221
 21
12.064027
 31
0.0
  0
LINE
  5
3DC
100
AcDbEntity
  8
0
390
0
  6
Continuous
 62
     7
100
AcDbLine
 10
73.823491
 20
12.089911
 30
0.0
 11
73.754065
 21
12.073474
 31
0.0
  0
LINE
  5
3DD
100
AcDbEntity
  8
0
390
0
  6
Continuous
 62
     7
100
AcDbLine
 10
73.892289
 20
12.113103
 30
0.0
 11
73.823491
 21
12.089911
 31
0.0
  0
LINE
  5
3DE
100
AcDbEntity
  8
0
390
0
  6
Continuous
 62
     7
100
AcDbLine
 10
73.960356
 20
12.142801
 30
0.0
 11
73.892289
 21
12.113103
 31
0.0
  0
LINE
  5
3DF
100
AcDbEntity
  8
0
390
0
  6
Continuous
 62
     7
100
AcDbLine
 10
74.02768
 20
12.178777
 30
0.0
 11
73.960356
 21
12.142801
 31
0.0
  0
LINE
  5
3E0
100
AcDbEntity
  8
0
390
0
  6
Continuous
 62
     7
100
AcDbLine
 10
74.094309
 20
12.220842
 30
0.0
 11
74.02768
 21
12.178777
 31
0.0
  0
LINE
  5
3E1
100
AcDbEntity
  8
0
390
0
  6
Continuous
 62
     7
100
AcDbLine
 10
74.160332
 20
12.268856
 30
0.0
 11
74.094309
 21
12.220842
 31
0.0
  0
LINE
  5
3E2
100
AcDbEntity
  8
0
390
0
  6
Continuous
 62
     7
100
AcDbLine
 10
74.225854
 20
12.322718
 30
0.0
 11
74.160332
 21
12.268856
 31
0.0
  0
LINE
  5
3E3
100
AcDbEntity
  8
0
390
0
  6
Continuous
 62
     7
100
AcDbLine
 10
74.289945
 20
12.381412
 30
0.0
 11
74.225854
 21
12.322718
 31
0.0
  0
LINE
  5
3E4
100
AcDbEntity
  8
0
390
0
  6
Continuous
 62
     7
100
AcDbLine
 10
74.957571
 20
13.023878
 30
0.0
 11
74.289945
 21
12.381412
 31
0.0
  0
LINE
  5
3E5
100
AcDbEntity
  8
0
390
0
  6
Continuous
 62
     7
100
AcDbLine
 10
74.974891
 20
13.042394
 30
0.0
 11
74.957571
 21
13.023878
 31
0.0
  0
LINE
  5
3E6
100
AcDbEntity
  8
0
390
0
  6
Continuous
 62
     7
100
AcDbLine
 10
74.992365
 20
13.066363
 30
0.0
 11
74.974891
 21
13.042394
 31
0.0
  0
LINE
  5
3E7
100
AcDbEntity
  8
0
390
0
  6
Continuous
 62
     7
100
AcDbLine
 10
75.007015
 20
13.094307
 30
0.0
 11
74.992365
 21
13.066363
 31
0.0
  0
LINE
  5
3E8
100
AcDbEntity
  8
0
390
0
  6
Continuous
 62
     7
100
AcDbLine
 10
75.017237
 20
13.126142
 30
0.0
 11
75.007015
 21
13.094307
 31
0.0
  0
LINE
  5
3E9
100
AcDbEntity
  8
0
390
0
  6
Continuous
 62
     7
100
AcDbLine
 10
75.021346
 20
13.160544
 30
0.0
 11
75.017237
 21
13.126142
 31
0.0
  0
LINE
  5
3EA
100
AcDbEntity
  8
0
390
0
  6
Continuous
 62
     7
100
AcDbLine
 10
75.018562
 20
13.195079
 30
0.0
 11
75.021346
 21
13.160544
 31
0.0
  0
LINE
  5
3EB
100
AcDbEntity
  8
0
390
0
  6
Continuous
 62
     7
100
AcDbLine
 10
75.009572
 20
13.227283
 30
0.0
 11
75.018562
 21
13.195079
 31
0.0
  0
LINE
  5
3EC
100
AcDbEntity
  8
0
390
0
  6
Continuous
 62
     7
100
AcDbLine
 10
74.996007
 20
13.255769
 30
0.0
 11
75.009572
 21
13.227283
 31
0.0
  0
LINE
  5
3ED
100
AcDbEntity
  8
0
390
0
  6
Continuous
 62
     7
100
AcDbLine
 10
74.979467
 20
13.280392
 30
0.0
 11
74.996007
 21
13.255769
 31
0.0
  0
LINE
  5
3EE
100
AcDbEntity
  8
0
390
0
  6
Continuous
 62
     7
100
AcDbLine
 10
74.962869
 20
13.299562
 30
0.0
 11
74.979467
 21
13.280392
 31
0.0
  0
LINE
  5
3EF
100
AcDbEntity
  8
0
390
0
  6
Continuous
 62
     7
100
AcDbLine
 10
73.978188
 20
14.322804
 30
0.0
 11
74.962869
 21
13.299562
 31
0.0
  0
LINE
  5
3F0
100
AcDbEntity
  8
0
390
0
  6
Continuous
 62
     7
100
AcDbLine
 10
73.147432
 20
13.523356
 30
0.0
 11
73.201872
 21
13.575744
 31
0.0
  0
LINE
  5
3F1
100
AcDbEntity
  8
0
390
0
  6
Continuous
 62
     7
100
AcDbLine
 10
73.201872
 20
13.575744
 30
0.0
 11
73.610893
 21
13.96935
 31
0.0
  0
LINE
  5
3F2
100
AcDbEntity
  8
0
390
0
  6
Continuous
 62
     7
100
AcDbLine
 10
73.610893
 20
13.96935
 30
0.0
 11
73.978188
 21
14.322804
 31
0.0
  0
LINE
  5
3F3
100
AcDbEntity
  8
0
390
0
  6
Continuous
 62
     7
100
AcDbLine
 10
73.08811
 20
13.463036
 30
0.0
 11
73.147432
 21
13.523356
 31
0.0
  0
LINE
  5
3F4
100
AcDbEntity
  8
0
390
0
  6
Continuous
 62
     7
100
AcDbLine
 10
73.033291
 20
13.400287
 30
0.0
 11
73.08811
 21
13.463036
 31
0.0
  0
LINE
  5
3F5
100
AcDbEntity
  8
0
390
0
  6
Continuous
 62
     7
100
AcDbLine
 10
72.984173
 20
13.336154
 30
0.0
 11
73.033291
 21
13.400287
 31
0.0
  0
LINE
  5
3F6
100
AcDbEntity
  8
0
390
0
  6
Continuous
 62
     7
100
AcDbLine
 10
72.94088
 20
13.270578
 30
0.0
 11
72.984173
 21
13.336154
 31
0.0
  0
LINE
  5
3F7
100
AcDbEntity
  8
0
390
0
  6
Continuous
 62
     7
100
AcDbLine
 10
72.903568
 20
13.203531
 30
0.0
 11
72.94088
 21
13.270578
 31
0.0
  0
LINE
  5
3F8
100
AcDbEntity
  8
0
390
0
  6
Continuous
 62
     7
100
AcDbLine
 10
72.872422
 20
13.135034
 30
0.0
 11
72.903568
 21
13.203531
 31
0.0
  0
LINE
  5
3F9
100
AcDbEntity
  8
0
390
0
  6
Continuous
 62
     7
100
AcDbLine
 10
72.847635
 20
13.065176
 30
0.0
 11
72.872422
 21
13.135034
 31
0.0
  0
LINE
  5
3FA
100
AcDbEntity
  8
0
390
0
  6
Continuous
 62
     7
100
AcDbLine
 10
72.829392
 20
12.994117
 30
0.0
 11
72.847635
 21
13.065176
 31
0.0
  0
LINE
  5
3FB
100
AcDbEntity
  8
0
390
0
  6
Continuous
 62
     7
100
AcDbLine
 10
72.817835
 20
12.922082
 30
0.0
 11
72.829392
 21
12.994117
 31
0.0
  0
LINE
  5
3FC
100
AcDbEntity
  8
0
390
0
  6
Continuous
 62
     7
100
AcDbLine
 10
72.813055
 20
12.849513
 30
0.0
 11
72.817835
 21
12.922082
 31
0.0
  0
LINE
  5
3FD
100
AcDbEntity
  8
0
390
0
  6
Continuous
 62
     7
100
AcDbLine
 10
72.814485
 20
12.790512
 30
0.0
 11
72.813055
 21
12.849513
 31
0.0
  0
LINE
  5
3FE
100
AcDbEntity
  8
0
390
0
  6
Continuous
 62
     7
100
AcDbLine
 10
72.821054
 20
12.732251
 30
0.0
 11
72.814485
 21
12.790512
 31
0.0
  0
LINE
  5
3FF
100
AcDbEntity
  8
0
390
0
  6
Continuous
 62
     7
100
AcDbLine
 10
72.832752
 20
12.674753
 30
0.0
 11
72.821054
 21
12.732251
 31
0.0
  0
LINE
  5
400
100
AcDbEntity
  8
0
390
0
  6
Continuous
 62
     7
100
AcDbLine
 10
72.8495
 20
12.618247
 30
0.0
 11
72.832752
 21
12.674753
 31
0.0
  0
LINE
  5
401
100
AcDbEntity
  8
0
390
0
  6
Continuous
 62
     7
100
AcDbLine
 10
72.871172
 20
12.562923
 30
0.0
 11
72.8495
 21
12.618247
 31
0.0
  0
LINE
  5
402
100
AcDbEntity
  8
0
390
0
  6
Continuous
 62
     7
100
AcDbLine
 10
72.897606
 20
12.508917
 30
0.0
 11
72.871172
 21
12.562923
 31
0.0
  0
LINE
  5
403
100
AcDbEntity
  8
0
390
0
  6
Continuous
 62
     7
100
AcDbLine
 10
72.928634
 20
12.456307
 30
0.0
 11
72.897606
 21
12.508917
 31
0.0
  0
LINE
  5
404
100
AcDbEntity
  8
0
390
0
  6
Continuous
 62
     7
100
AcDbLine
 10
72.964095
 20
12.405115
 30
0.0
 11
72.928634
 21
12.456307
 31
0.0
  0
LINE
  5
405
100
AcDbEntity
  8
0
390
0
  6
Continuous
 62
     7
100
AcDbLine
 10
73.00385
 20
12.355321
 30
0.0
 11
72.964095
 21
12.405115
 31
0.0
  0
LINE
  5
406
100
AcDbEntity
  8
0
390
0
  6
Continuous
 62
     7
100
AcDbLine
 10
73.04812
 20
12.306507
 30
0.0
 11
73.00385
 21
12.355321
 31
0.0
  0
LINE
  5
407
100
AcDbEntity
  8
0
390
0
  6
Continuous
 62
     7
100
AcDbLine
 10
73.094185
 20
12.26202
 30
0.0
 11
73.04812
 21
12.306507
 31
0.0
  0
LINE
  5
408
100
AcDbEntity
  8
0
390
0
  6
Continuous
 62
     7
100
AcDbLine
 10
73.143122
 20
12.221463
 30
0.0
 11
73.094185
 21
12.26202
 31
0.0
  0
LINE
  5
409
100
AcDbEntity
  8
0
390
0
  6
Continuous
 62
     7
100
AcDbLine
 10
73.194615
 20
12.185247
 30
0.0
 11
73.143122
 21
12.221463
 31
0.0
  0
LINE
  5
40A
100
AcDbEntity
  8
0
390
0
  6
Continuous
 62
     7
100
AcDbLine
 10
73.24856
 20
12.153525
 30
0.0
 11
73.194615
 21
12.185247
 31
0.0
  0
LINE
  5
40B
100
AcDbEntity
  8
0
390
0
  6
Continuous
 62
     7
100
AcDbLine
 10
73.304809
 20
12.126425
 30
0.0
 11
73.24856
 21
12.153525
 31
0.0
  0
LINE
  5
40C
100
AcDbEntity
  8
0
390
0
  6
Continuous
 62
     7
100
AcDbLine
 10
73.363182
 20
12.104041
 30
0.0
 11
73.304809
 21
12.126425
 31
0.0
  0
LINE
  5
40D
100
AcDbEntity
  8
0
390
0
  6
Continuous
 62
     7
100
AcDbLine
 10
73.423486
 20
12.086415
 30
0.0
 11
73.363182
 21
12.104041
 31
0.0
  0
LINE
  5
40E
100
AcDbEntity
  8
0
390
0
  6
Continuous
 62
     7
100
AcDbLine
 10
73.485531
 20
12.073544
 30
0.0
 11
73.423486
 21
12.086415
 31
0.0
  0
LINE
  5
40F
100
AcDbEntity
  8
0
390
0
  6
Continuous
 62
     7
100
AcDbLine
 10
73.549153
 20
12.065378
 30
0.0
 11
73.485531
 21
12.073544
 31
0.0
  0
LINE
  5
410
100
AcDbEntity
  8
0
390
0
  6
Continuous
 62
     7
100
AcDbLine
 10
73.615279
 20
12.061781
 30
0.0
 11
73.549153
 21
12.065378
 31
0.0
  0
LINE
  5
411
100
AcDbEntity
  8
0
390
0
  6
Continuous
 62
     7
100
AcDbLine
 10
73.684221
 20
12.064027
 30
0.0
 11
73.615279
 21
12.061781
 31
0.0
  0
LINE
  5
412
100
AcDbEntity
  8
0
390
0
  6
Continuous
 62
     7
100
AcDbLine
 10
88.815028
 20
17.203383
 30
0.0
 11
87.688946
 21
18.886906
 31
0.0
  0
LINE
  5
413
100
AcDbEntity
  8
0
390
0
  6
Continuous
 62
     7
100
AcDbLine
 10
88.824401
 20
17.185186
 30
0.0
 11
88.815028
 21
17.203383
 31
0.0
  0
LINE
  5
414
100
AcDbEntity
  8
0
390
0
  6
Continuous
 62
     7
100
AcDbLine
 10
88.830743
 20
17.169042
 30
0.0
 11
88.824401
 21
17.185186
 31
0.0
  0
LINE
  5
415
100
AcDbEntity
  8
0
390
0
  6
Continuous
 62
     7
100
AcDbLine
 10
88.833942
 20
17.1567
 30
0.0
 11
88.830743
 21
17.169042
 31
0.0
  0
LINE
  5
416
100
AcDbEntity
  8
0
390
0
  6
Continuous
 62
     7
100
AcDbLine
 10
88.834907
 20
17.148148
 30
0.0
 11
88.833942
 21
17.1567
 31
0.0
  0
LINE
  5
417
100
AcDbEntity
  8
0
390
0
  6
Continuous
 62
     7
100
AcDbLine
 10
88.834645
 20
17.142743
 30
0.0
 11
88.834907
 21
17.148148
 31
0.0
  0
LINE
  5
418
100
AcDbEntity
  8
0
390
0
  6
Continuous
 62
     7
100
AcDbLine
 10
88.83382
 20
17.139109
 30
0.0
 11
88.834645
 21
17.142743
 31
0.0
  0
LINE
  5
419
100
AcDbEntity
  8
0
390
0
  6
Continuous
 62
     7
100
AcDbLine
 10
88.832283
 20
17.1355
 30
0.0
 11
88.83382
 21
17.139109
 31
0.0
  0
LINE
  5
41A
100
AcDbEntity
  8
0
390
0
  6
Continuous
 62
     7
100
AcDbLine
 10
88.829045
 20
17.130505
 30
0.0
 11
88.832283
 21
17.1355
 31
0.0
  0
LINE
  5
41B
100
AcDbEntity
  8
0
390
0
  6
Continuous
 62
     7
100
AcDbLine
 10
88.82277
 20
17.123525
 30
0.0
 11
88.829045
 21
17.130505
 31
0.0
  0
LINE
  5
41C
100
AcDbEntity
  8
0
390
0
  6
Continuous
 62
     7
100
AcDbLine
 10
88.816218
 20
17.117991
 30
0.0
 11
88.82277
 21
17.123525
 31
0.0
  0
LINE
  5
41D
100
AcDbEntity
  8
0
390
0
  6
Continuous
 62
     7
100
AcDbLine
 10
88.810005
 20
17.114653
 30
0.0
 11
88.816218
 21
17.117991
 31
0.0
  0
LINE
  5
41E
100
AcDbEntity
  8
0
390
0
  6
Continuous
 62
     7
100
AcDbLine
 10
88.802077
 20
17.111663
 30
0.0
 11
88.810005
 21
17.114653
 31
0.0
  0
LINE
  5
41F
100
AcDbEntity
  8
0
390
0
  6
Continuous
 62
     7
100
AcDbLine
 10
88.796803
 20
17.110537
 30
0.0
 11
88.802077
 21
17.111663
 31
0.0
  0
LINE
  5
420
100
AcDbEntity
  8
0
390
0
  6
Continuous
 62
     7
100
AcDbLine
 10
88.793275
 20
17.110376
 30
0.0
 11
88.796803
 21
17.110537
 31
0.0
  0
LINE
  5
421
100
AcDbEntity
  8
0
390
0
  6
Continuous
 62
     7
100
AcDbLine
 10
88.79005
 20
17.110782
 30
0.0
 11
88.793275
 21
17.110376
 31
0.0
  0
LINE
  5
422
100
AcDbEntity
  8
0
390
0
  6
Continuous
 62
     7
100
AcDbLine
 10
88.785632
 20
17.112114
 30
0.0
 11
88.79005
 21
17.110782
 31
0.0
  0
LINE
  5
423
100
AcDbEntity
  8
0
390
0
  6
Continuous
 62
     7
100
AcDbLine
 10
88.779019
 20
17.115296
 30
0.0
 11
88.785632
 21
17.112114
 31
0.0
  0
LINE
  5
424
100
AcDbEntity
  8
0
390
0
  6
Continuous
 62
     7
100
AcDbLine
 10
88.769891
 20
17.121372
 30
0.0
 11
88.779019
 21
17.115296
 31
0.0
  0
LINE
  5
425
100
AcDbEntity
  8
0
390
0
  6
Continuous
 62
     7
100
AcDbLine
 10
88.758443
 20
17.131152
 30
0.0
 11
88.769891
 21
17.121372
 31
0.0
  0
LINE
  5
426
100
AcDbEntity
  8
0
390
0
  6
Continuous
 62
     7
100
AcDbLine
 10
88.748888
 20
17.141165
 30
0.0
 11
88.758443
 21
17.131152
 31
0.0
  0
LINE
  5
427
100
AcDbEntity
  8
0
390
0
  6
Continuous
 62
     7
100
AcDbLine
 10
87.719461
 20
18.722472
 30
0.0
 11
88.748888
 21
17.141165
 31
0.0
  0
LINE
  5
428
100
AcDbEntity
  8
0
390
0
  6
Continuous
 62
     7
100
AcDbLine
 10
87.544086
 20
18.734429
 30
0.0
 11
87.719461
 21
18.722472
 31
0.0
  0
LINE
  5
429
100
AcDbEntity
  8
0
390
0
  6
Continuous
 62
     7
100
AcDbLine
 10
86.309561
 20
17.307476
 30
0.0
 11
87.544086
 21
18.734429
 31
0.0
  0
LINE
  5
42A
100
AcDbEntity
  8
0
390
0
  6
Continuous
 62
     7
100
AcDbLine
 10
86.298735
 20
17.298854
 30
0.0
 11
86.309561
 21
17.307476
 31
0.0
  0
LINE
  5
42B
100
AcDbEntity
  8
0
390
0
  6
Continuous
 62
     7
100
AcDbLine
 10
86.286063
 20
17.290716
 30
0.0
 11
86.298735
 21
17.298854
 31
0.0
  0
LINE
  5
42C
100
AcDbEntity
  8
0
390
0
  6
Continuous
 62
     7
100
AcDbLine
 10
86.276194
 20
17.285936
 30
0.0
 11
86.286063
 21
17.290716
 31
0.0
  0
LINE
  5
42D
100
AcDbEntity
  8
0
390
0
  6
Continuous
 62
     7
100
AcDbLine
 10
86.26921
 20
17.28368
 30
0.0
 11
86.276194
 21
17.285936
 31
0.0
  0
LINE
  5
42E
100
AcDbEntity
  8
0
390
0
  6
Continuous
 62
     7
100
AcDbLine
 10
86.264652
 20
17.28296
 30
0.0
 11
86.26921
 21
17.28368
 31
0.0
  0
LINE
  5
42F
100
AcDbEntity
  8
0
390
0
  6
Continuous
 62
     7
100
AcDbLine
 10
86.261402
 20
17.282996
 30
0.0
 11
86.264652
 21
17.28296
 31
0.0
  0
LINE
  5
430
100
AcDbEntity
  8
0
390
0
  6
Continuous
 62
     7
100
AcDbLine
 10
86.257931
 20
17.283634
 30
0.0
 11
86.261402
 21
17.282996
 31
0.0
  0
LINE
  5
431
100
AcDbEntity
  8
0
390
0
  6
Continuous
 62
     7
100
AcDbLine
 10
86.25286
 20
17.285464
 30
0.0
 11
86.257931
 21
17.283634
 31
0.0
  0
LINE
  5
432
100
AcDbEntity
  8
0
390
0
  6
Continuous
 62
     7
100
AcDbLine
 10
86.245415
 20
17.289501
 30
0.0
 11
86.25286
 21
17.285464
 31
0.0
  0
LINE
  5
433
100
AcDbEntity
  8
0
390
0
  6
Continuous
 62
     7
100
AcDbLine
 10
86.239712
 20
17.293653
 30
0.0
 11
86.245415
 21
17.289501
 31
0.0
  0
LINE
  5
434
100
AcDbEntity
  8
0
390
0
  6
Continuous
 62
     7
100
AcDbLine
 10
86.233969
 20
17.300027
 30
0.0
 11
86.239712
 21
17.293653
 31
0.0
  0
LINE
  5
435
100
AcDbEntity
  8
0
390
0
  6
Continuous
 62
     7
100
AcDbLine
 10
86.228699
 20
17.307793
 30
0.0
 11
86.233969
 21
17.300027
 31
0.0
  0
LINE
  5
436
100
AcDbEntity
  8
0
390
0
  6
Continuous
 62
     7
100
AcDbLine
 10
86.226169
 20
17.313181
 30
0.0
 11
86.228699
 21
17.307793
 31
0.0
  0
LINE
  5
437
100
AcDbEntity
  8
0
390
0
  6
Continuous
 62
     7
100
AcDbLine
 10
86.225137
 20
17.316964
 30
0.0
 11
86.226169
 21
17.313181
 31
0.0
  0
LINE
  5
438
100
AcDbEntity
  8
0
390
0
  6
Continuous
 62
     7
100
AcDbLine
 10
86.224813
 20
17.320676
 30
0.0
 11
86.225137
 21
17.316964
 31
0.0
  0
LINE
  5
439
100
AcDbEntity
  8
0
390
0
  6
Continuous
 62
     7
100
AcDbLine
 10
86.225287
 20
17.326067
 30
0.0
 11
86.224813
 21
17.320676
 31
0.0
  0
LINE
  5
43A
100
AcDbEntity
  8
0
390
0
  6
Continuous
 62
     7
100
AcDbLine
 10
86.227404
 20
17.334409
 30
0.0
 11
86.225287
 21
17.326067
 31
0.0
  0
LINE
  5
43B
100
AcDbEntity
  8
0
390
0
  6
Continuous
 62
     7
100
AcDbLine
 10
86.232249
 20
17.346203
 30
0.0
 11
86.227404
 21
17.334409
 31
0.0
  0
LINE
  5
43C
100
AcDbEntity
  8
0
390
0
  6
Continuous
 62
     7
100
AcDbLine
 10
86.240724
 20
17.361338
 30
0.0
 11
86.232249
 21
17.346203
 31
0.0
  0
LINE
  5
43D
100
AcDbEntity
  8
0
390
0
  6
Continuous
 62
     7
100
AcDbLine
 10
86.252483
 20
17.378097
 30
0.0
 11
86.240724
 21
17.361338
 31
0.0
  0
LINE
  5
43E
100
AcDbEntity
  8
0
390
0
  6
Continuous
 62
     7
100
AcDbLine
 10
87.596629
 20
18.8932
 30
0.0
 11
86.252483
 21
17.378097
 31
0.0
  0
LINE
  5
43F
100
AcDbEntity
  8
0
390
0
  6
Continuous
 62
     7
100
AcDbLine
 10
87.423482
 20
-18.815026
 30
0.0
 11
87.454556
 21
-18.882338
 31
0.0
  0
LINE
  5
440
100
AcDbEntity
  8
0
390
0
  6
Continuous
 62
     7
100
AcDbLine
 10
87.386844
 20
-18.750292
 30
0.0
 11
87.423482
 21
-18.815026
 31
0.0
  0
LINE
  5
441
100
AcDbEntity
  8
0
390
0
  6
Continuous
 62
     7
100
AcDbLine
 10
87.344748
 20
-18.688258
 30
0.0
 11
87.386844
 21
-18.750292
 31
0.0
  0
LINE
  5
442
100
AcDbEntity
  8
0
390
0
  6
Continuous
 62
     7
100
AcDbLine
 10
87.297321
 20
-18.629012
 30
0.0
 11
87.344748
 21
-18.688258
 31
0.0
  0
LINE
  5
443
100
AcDbEntity
  8
0
390
0
  6
Continuous
 62
     7
100
AcDbLine
 10
87.244251
 20
-18.572125
 30
0.0
 11
87.297321
 21
-18.629012
 31
0.0
  0
LINE
  5
444
100
AcDbEntity
  8
0
390
0
  6
Continuous
 62
     7
100
AcDbLine
 10
87.188384
 20
-18.521595
 30
0.0
 11
87.244251
 21
-18.572125
 31
0.0
  0
LINE
  5
445
100
AcDbEntity
  8
0
390
0
  6
Continuous
 62
     7
100
AcDbLine
 10
87.127213
 20
-18.476151
 30
0.0
 11
87.188384
 21
-18.521595
 31
0.0
  0
LINE
  5
446
100
AcDbEntity
  8
0
390
0
  6
Continuous
 62
     7
100
AcDbLine
 10
87.061412
 20
-18.436294
 30
0.0
 11
87.127213
 21
-18.476151
 31
0.0
  0
LINE
  5
447
100
AcDbEntity
  8
0
390
0
  6
Continuous
 62
     7
100
AcDbLine
 10
86.991214
 20
-18.402052
 30
0.0
 11
87.061412
 21
-18.436294
 31
0.0
  0
LINE
  5
448
100
AcDbEntity
  8
0
390
0
  6
Continuous
 62
     7
100
AcDbLine
 10
86.916825
 20
-18.373389
 30
0.0
 11
86.991214
 21
-18.402052
 31
0.0
  0
LINE
  5
449
100
AcDbEntity
  8
0
390
0
  6
Continuous
 62
     7
100
AcDbLine
 10
86.838406
 20
-18.350219
 30
0.0
 11
86.916825
 21
-18.373389
 31
0.0
  0
LINE
  5
44A
100
AcDbEntity
  8
0
390
0
  6
Continuous
 62
     7
100
AcDbLine
 10
86.756065
 20
-18.332431
 30
0.0
 11
86.838406
 21
-18.350219
 31
0.0
  0
LINE
  5
44B
100
AcDbEntity
  8
0
390
0
  6
Continuous
 62
     7
100
AcDbLine
 10
86.669863
 20
-18.319908
 30
0.0
 11
86.756065
 21
-18.332431
 31
0.0
  0
LINE
  5
44C
100
AcDbEntity
  8
0
390
0
  6
Continuous
 62
     7
100
AcDbLine
 10
86.579822
 20
-18.312534
 30
0.0
 11
86.669863
 21
-18.319908
 31
0.0
  0
LINE
  5
44D
100
AcDbEntity
  8
0
390
0
  6
Continuous
 62
     7
100
AcDbLine
 10
86.486456
 20
-18.310222
 30
0.0
 11
86.579822
 21
-18.312534
 31
0.0
  0
LINE
  5
44E
100
AcDbEntity
  8
0
390
0
  6
Continuous
 62
     7
100
AcDbLine
 10
86.430343
 20
-18.311155
 30
0.0
 11
86.486456
 21
-18.310222
 31
0.0
  0
LINE
  5
44F
100
AcDbEntity
  8
0
390
0
  6
Continuous
 62
     7
100
AcDbLine
 10
86.375941
 20
-18.313738
 30
0.0
 11
86.430343
 21
-18.311155
 31
0.0
  0
LINE
  5
450
100
AcDbEntity
  8
0
390
0
  6
Continuous
 62
     7
100
AcDbLine
 10
86.322652
 20
-18.317994
 30
0.0
 11
86.375941
 21
-18.313738
 31
0.0
  0
LINE
  5
451
100
AcDbEntity
  8
0
390
0
  6
Continuous
 62
     7
100
AcDbLine
 10
86.270479
 20
-18.323939
 30
0.0
 11
86.322652
 21
-18.317994
 31
0.0
  0
LINE
  5
452
100
AcDbEntity
  8
0
390
0
  6
Continuous
 62
     7
100
AcDbLine
 10
86.219426
 20
-18.331587
 30
0.0
 11
86.270479
 21
-18.323939
 31
0.0
  0
LINE
  5
453
100
AcDbEntity
  8
0
390
0
  6
Continuous
 62
     7
100
AcDbLine
 10
86.169499
 20
-18.340954
 30
0.0
 11
86.219426
 21
-18.331587
 31
0.0
  0
LINE
  5
454
100
AcDbEntity
  8
0
390
0
  6
Continuous
 62
     7
100
AcDbLine
 10
86.120708
 20
-18.352055
 30
0.0
 11
86.169499
 21
-18.340954
 31
0.0
  0
LINE
  5
455
100
AcDbEntity
  8
0
390
0
  6
Continuous
 62
     7
100
AcDbLine
 10
86.073068
 20
-18.364905
 30
0.0
 11
86.120708
 21
-18.352055
 31
0.0
  0
LINE
  5
456
100
AcDbEntity
  8
0
390
0
  6
Continuous
 62
     7
100
AcDbLine
 10
86.026593
 20
-18.379518
 30
0.0
 11
86.073068
 21
-18.364905
 31
0.0
  0
LINE
  5
457
100
AcDbEntity
  8
0
390
0
  6
Continuous
 62
     7
100
AcDbLine
 10
85.981167
 20
-18.395953
 30
0.0
 11
86.026593
 21
-18.379518
 31
0.0
  0
LINE
  5
458
100
AcDbEntity
  8
0
390
0
  6
Continuous
 62
     7
100
AcDbLine
 10
85.935383
 20
-18.414981
 30
0.0
 11
85.981167
 21
-18.395953
 31
0.0
  0
LINE
  5
459
100
AcDbEntity
  8
0
390
0
  6
Continuous
 62
     7
100
AcDbLine
 10
85.888119
 20
-18.437183
 30
0.0
 11
85.935383
 21
-18.414981
 31
0.0
  0
LINE
  5
45A
100
AcDbEntity
  8
0
390
0
  6
Continuous
 62
     7
100
AcDbLine
 10
85.839502
 20
-18.462438
 30
0.0
 11
85.888119
 21
-18.437183
 31
0.0
  0
LINE
  5
45B
100
AcDbEntity
  8
0
390
0
  6
Continuous
 62
     7
100
AcDbLine
 10
85.789448
 20
-18.490729
 30
0.0
 11
85.839502
 21
-18.462438
 31
0.0
  0
LINE
  5
45C
100
AcDbEntity
  8
0
390
0
  6
Continuous
 62
     7
100
AcDbLine
 10
85.737887
 20
-18.522052
 30
0.0
 11
85.789448
 21
-18.490729
 31
0.0
  0
LINE
  5
45D
100
AcDbEntity
  8
0
390
0
  6
Continuous
 62
     7
100
AcDbLine
 10
85.684761
 20
-18.556405
 30
0.0
 11
85.737887
 21
-18.522052
 31
0.0
  0
LINE
  5
45E
100
AcDbEntity
  8
0
390
0
  6
Continuous
 62
     7
100
AcDbLine
 10
85.630025
 20
-18.593792
 30
0.0
 11
85.684761
 21
-18.556405
 31
0.0
  0
LINE
  5
45F
100
AcDbEntity
  8
0
390
0
  6
Continuous
 62
     7
100
AcDbLine
 10
85.573638
 20
-18.634217
 30
0.0
 11
85.630025
 21
-18.593792
 31
0.0
  0
LINE
  5
460
100
AcDbEntity
  8
0
390
0
  6
Continuous
 62
     7
100
AcDbLine
 10
85.51557
 20
-18.677686
 30
0.0
 11
85.573638
 21
-18.634217
 31
0.0
  0
LINE
  5
461
100
AcDbEntity
  8
0
390
0
  6
Continuous
 62
     7
100
AcDbLine
 10
85.458328
 20
-18.722231
 30
0.0
 11
85.51557
 21
-18.677686
 31
0.0
  0
LINE
  5
462
100
AcDbEntity
  8
0
390
0
  6
Continuous
 62
     7
100
AcDbLine
 10
85.438423
 20
-18.736265
 30
0.0
 11
85.458328
 21
-18.722231
 31
0.0
  0
LINE
  5
463
100
AcDbEntity
  8
0
390
0
  6
Continuous
 62
     7
100
AcDbLine
 10
85.420748
 20
-18.74698
 30
0.0
 11
85.438423
 21
-18.736265
 31
0.0
  0
LINE
  5
464
100
AcDbEntity
  8
0
390
0
  6
Continuous
 62
     7
100
AcDbLine
 10
85.404977
 20
-18.754899
 30
0.0
 11
85.420748
 21
-18.74698
 31
0.0
  0
LINE
  5
465
100
AcDbEntity
  8
0
390
0
  6
Continuous
 62
     7
100
AcDbLine
 10
85.39129
 20
-18.760269
 30
0.0
 11
85.404977
 21
-18.754899
 31
0.0
  0
LINE
  5
466
100
AcDbEntity
  8
0
390
0
  6
Continuous
 62
     7
100
AcDbLine
 10
85.379782
 20
-18.763451
 30
0.0
 11
85.39129
 21
-18.760269
 31
0.0
  0
LINE
  5
467
100
AcDbEntity
  8
0
390
0
  6
Continuous
 62
     7
100
AcDbLine
 10
85.370378
 20
-18.764898
 30
0.0
 11
85.379782
 21
-18.763451
 31
0.0
  0
LINE
  5
468
100
AcDbEntity
  8
0
390
0
  6
Continuous
 62
     7
100
AcDbLine
 10
85.36275
 20
-18.765082
 30
0.0
 11
85.370378
 21
-18.764898
 31
0.0
  0
LINE
  5
469
100
AcDbEntity
  8
0
390
0
  6
Continuous
 62
     7
100
AcDbLine
 10
85.356292
 20
-18.764348
 30
0.0
 11
85.36275
 21
-18.765082
 31
0.0
  0
LINE
  5
46A
100
AcDbEntity
  8
0
390
0
  6
Continuous
 62
     7
100
AcDbLine
 10
85.350218
 20
-18.762768
 30
0.0
 11
85.356292
 21
-18.764348
 31
0.0
  0
LINE
  5
46B
100
AcDbEntity
  8
0
390
0
  6
Continuous
 62
     7
100
AcDbLine
 10
85.338458
 20
-18.757875
 30
0.0
 11
85.350218
 21
-18.762768
 31
0.0
  0
LINE
  5
46C
100
AcDbEntity
  8
0
390
0
  6
Continuous
 62
     7
100
AcDbLine
 10
85.321621
 20
-18.750503
 30
0.0
 11
85.338458
 21
-18.757875
 31
0.0
  0
LINE
  5
46D
100
AcDbEntity
  8
0
390
0
  6
Continuous
 62
     7
100
AcDbLine
 10
85.312945
 20
-18.745318
 30
0.0
 11
85.321621
 21
-18.750503
 31
0.0
  0
LINE
  5
46E
100
AcDbEntity
  8
0
390
0
  6
Continuous
 62
     7
100
AcDbLine
 10
85.307669
 20
-18.741017
 30
0.0
 11
85.312945
 21
-18.745318
 31
0.0
  0
LINE
  5
46F
100
AcDbEntity
  8
0
390
0
  6
Continuous
 62
     7
100
AcDbLine
 10
85.304687
 20
-18.73765
 30
0.0
 11
85.307669
 21
-18.741017
 31
0.0
  0
LINE
  5
470
100
AcDbEntity
  8
0
390
0
  6
Continuous
 62
     7
100
AcDbLine
 10
85.302798
 20
-18.734585
 30
0.0
 11
85.304687
 21
-18.73765
 31
0.0
  0
LINE
  5
471
100
AcDbEntity
  8
0
390
0
  6
Continuous
 62
     7
100
AcDbLine
 10
85.3012
 20
-18.730579
 30
0.0
 11
85.302798
 21
-18.734585
 31
0.0
  0
LINE
  5
472
100
AcDbEntity
  8
0
390
0
  6
Continuous
 62
     7
100
AcDbLine
 10
85.299813
 20
-18.724252
 30
0.0
 11
85.3012
 21
-18.730579
 31
0.0
  0
LINE
  5
473
100
AcDbEntity
  8
0
390
0
  6
Continuous
 62
     7
100
AcDbLine
 10
85.299152
 20
-18.714589
 30
0.0
 11
85.299813
 21
-18.724252
 31
0.0
  0
LINE
  5
474
100
AcDbEntity
  8
0
390
0
  6
Continuous
 62
     7
100
AcDbLine
 10
85.299959
 20
-18.701128
 30
0.0
 11
85.299152
 21
-18.714589
 31
0.0
  0
LINE
  5
475
100
AcDbEntity
  8
0
390
0
  6
Continuous
 62
     7
100
AcDbLine
 10
85.304002
 20
-18.677429
 30
0.0
 11
85.299959
 21
-18.701128
 31
0.0
  0
LINE
  5
476
100
AcDbEntity
  8
0
390
0
  6
Continuous
 62
     7
100
AcDbLine
 10
85.458063
 20
-17.506471
 30
0.0
 11
85.304002
 21
-18.677429
 31
0.0
  0
LINE
  5
477
100
AcDbEntity
  8
0
390
0
  6
Continuous
 62
     7
100
AcDbLine
 10
85.468162
 20
-17.45538
 30
0.0
 11
85.458063
 21
-17.506471
 31
0.0
  0
LINE
  5
478
100
AcDbEntity
  8
0
390
0
  6
Continuous
 62
     7
100
AcDbLine
 10
85.481455
 20
-17.412903
 30
0.0
 11
85.468162
 21
-17.45538
 31
0.0
  0
LINE
  5
479
100
AcDbEntity
  8
0
390
0
  6
Continuous
 62
     7
100
AcDbLine
 10
85.497688
 20
-17.377375
 30
0.0
 11
85.481455
 21
-17.412903
 31
0.0
  0
LINE
  5
47A
100
AcDbEntity
  8
0
390
0
  6
Continuous
 62
     7
100
AcDbLine
 10
85.516447
 20
-17.348143
 30
0.0
 11
85.497688
 21
-17.377375
 31
0.0
  0
LINE
  5
47B
100
AcDbEntity
  8
0
390
0
  6
Continuous
 62
     7
100
AcDbLine
 10
85.537682
 20
-17.324222
 30
0.0
 11
85.516447
 21
-17.348143
 31
0.0
  0
LINE
  5
47C
100
AcDbEntity
  8
0
390
0
  6
Continuous
 62
     7
100
AcDbLine
 10
85.561893
 20
-17.304556
 30
0.0
 11
85.537682
 21
-17.324222
 31
0.0
  0
LINE
  5
47D
100
AcDbEntity
  8
0
390
0
  6
Continuous
 62
     7
100
AcDbLine
 10
85.590066
 20
-17.288406
 30
0.0
 11
85.561893
 21
-17.304556
 31
0.0
  0
LINE
  5
47E
100
AcDbEntity
  8
0
390
0
  6
Continuous
 62
     7
100
AcDbLine
 10
85.623319
 20
-17.275592
 30
0.0
 11
85.590066
 21
-17.288406
 31
0.0
  0
LINE
  5
47F
100
AcDbEntity
  8
0
390
0
  6
Continuous
 62
     7
100
AcDbLine
 10
85.662533
 20
-17.266424
 30
0.0
 11
85.623319
 21
-17.275592
 31
0.0
  0
LINE
  5
480
100
AcDbEntity
  8
0
390
0
  6
Continuous
 62
     7
100
AcDbLine
 10
85.70806
 20
-17.261465
 30
0.0
 11
85.662533
 21
-17.266424
 31
0.0
  0
LINE
  5
481
100
AcDbEntity
  8
0
390
0
  6
Continuous
 62
     7
100
AcDbLine
 10
87.38802
 20
-17.258547
 30
0.0
 11
85.70806
 21
-17.261465
 31
0.0
  0
LINE
  5
482
100
AcDbEntity
  8
0
390
0
  6
Continuous
 62
     7
100
AcDbLine
 10
87.409841
 20
-17.259542
 30
0.0
 11
87.38802
 21
-17.258547
 31
0.0
  0
LINE
  5
483
100
AcDbEntity
  8
0
390
0
  6
Continuous
 62
     7
100
AcDbLine
 10
87.42434
 20
-17.261819
 30
0.0
 11
87.409841
 21
-17.259542
 31
0.0
  0
LINE
  5
484
100
AcDbEntity
  8
0
390
0
  6
Continuous
 62
     7
100
AcDbLine
 10
87.43369
 20
-17.264606
 30
0.0
 11
87.42434
 21
-17.261819
 31
0.0
  0
LINE
  5
485
100
AcDbEntity
  8
0
390
0
  6
Continuous
 62
     7
100
AcDbLine
 10
87.438525
 20
-17.266938
 30
0.0
 11
87.43369
 21
-17.264606
 31
0.0
  0
LINE
  5
486
100
AcDbEntity
  8
0
390
0
  6
Continuous
 62
     7
100
AcDbLine
 10
87.440301
 20
-17.268241
 30
0.0
 11
87.438525
 21
-17.266938
 31
0.0
  0
LINE
  5
487
100
AcDbEntity
  8
0
390
0
  6
Continuous
 62
     7
100
AcDbLine
 10
87.440972
 20
-17.268977
 30
0.0
 11
87.440301
 21
-17.268241
 31
0.0
  0
LINE
  5
488
100
AcDbEntity
  8
0
390
0
  6
Continuous
 62
     7
100
AcDbLine
 10
87.442049
 20
-17.27077
 30
0.0
 11
87.440972
 21
-17.268977
 31
0.0
  0
LINE
  5
489
100
AcDbEntity
  8
0
390
0
  6
Continuous
 62
     7
100
AcDbLine
 10
87.443855
 20
-17.27562
 30
0.0
 11
87.442049
 21
-17.27077
 31
0.0
  0
LINE
  5
48A
100
AcDbEntity
  8
0
390
0
  6
Continuous
 62
     7
100
AcDbLine
 10
87.445703
 20
-17.284961
 30
0.0
 11
87.443855
 21
-17.27562
 31
0.0
  0
LINE
  5
48B
100
AcDbEntity
  8
0
390
0
  6
Continuous
 62
     7
100
AcDbLine
 10
87.446554
 20
-17.299087
 30
0.0
 11
87.445703
 21
-17.284961
 31
0.0
  0
LINE
  5
48C
100
AcDbEntity
  8
0
390
0
  6
Continuous
 62
     7
100
AcDbLine
 10
87.445753
 20
-17.313215
 30
0.0
 11
87.446554
 21
-17.299087
 31
0.0
  0
LINE
  5
48D
100
AcDbEntity
  8
0
390
0
  6
Continuous
 62
     7
100
AcDbLine
 10
87.443937
 20
-17.322561
 30
0.0
 11
87.445753
 21
-17.313215
 31
0.0
  0
LINE
  5
48E
100
AcDbEntity
  8
0
390
0
  6
Continuous
 62
     7
100
AcDbLine
 10
87.442149
 20
-17.327416
 30
0.0
 11
87.443937
 21
-17.322561
 31
0.0
  0
LINE
  5
48F
100
AcDbEntity
  8
0
390
0
  6
Continuous
 62
     7
100
AcDbLine
 10
87.441079
 20
-17.329212
 30
0.0
 11
87.442149
 21
-17.327416
 31
0.0
  0
LINE
  5
490
100
AcDbEntity
  8
0
390
0
  6
Continuous
 62
     7
100
AcDbLine
 10
87.44041
 20
-17.32995
 30
0.0
 11
87.441079
 21
-17.329212
 31
0.0
  0
LINE
  5
491
100
AcDbEntity
  8
0
390
0
  6
Continuous
 62
     7
100
AcDbLine
 10
87.438639
 20
-17.331259
 30
0.0
 11
87.44041
 21
-17.32995
 31
0.0
  0
LINE
  5
492
100
AcDbEntity
  8
0
390
0
  6
Continuous
 62
     7
100
AcDbLine
 10
87.433812
 20
-17.333609
 30
0.0
 11
87.438639
 21
-17.331259
 31
0.0
  0
LINE
  5
493
100
AcDbEntity
  8
0
390
0
  6
Continuous
 62
     7
100
AcDbLine
 10
87.424471
 20
-17.336429
 30
0.0
 11
87.433812
 21
-17.333609
 31
0.0
  0
LINE
  5
494
100
AcDbEntity
  8
0
390
0
  6
Continuous
 62
     7
100
AcDbLine
 10
87.409979
 20
-17.338756
 30
0.0
 11
87.424471
 21
-17.336429
 31
0.0
  0
LINE
  5
495
100
AcDbEntity
  8
0
390
0
  6
Continuous
 62
     7
100
AcDbLine
 10
87.388164
 20
-17.339828
 30
0.0
 11
87.409979
 21
-17.338756
 31
0.0
  0
LINE
  5
496
100
AcDbEntity
  8
0
390
0
  6
Continuous
 62
     7
100
AcDbLine
 10
85.804961
 20
-17.342581
 30
0.0
 11
87.388164
 21
-17.339828
 31
0.0
  0
LINE
  5
497
100
AcDbEntity
  8
0
390
0
  6
Continuous
 62
     7
100
AcDbLine
 10
85.762788
 20
-17.348837
 30
0.0
 11
85.804961
 21
-17.342581
 31
0.0
  0
LINE
  5
498
100
AcDbEntity
  8
0
390
0
  6
Continuous
 62
     7
100
AcDbLine
 10
85.724915
 20
-17.358538
 30
0.0
 11
85.762788
 21
-17.348837
 31
0.0
  0
LINE
  5
499
100
AcDbEntity
  8
0
390
0
  6
Continuous
 62
     7
100
AcDbLine
 10
85.688698
 20
-17.372629
 30
0.0
 11
85.724915
 21
-17.358538
 31
0.0
  0
LINE
  5
49A
100
AcDbEntity
  8
0
390
0
  6
Continuous
 62
     7
100
AcDbLine
 10
85.654673
 20
-17.391581
 30
0.0
 11
85.688698
 21
-17.372629
 31
0.0
  0
LINE
  5
49B
100
AcDbEntity
  8
0
390
0
  6
Continuous
 62
     7
100
AcDbLine
 10
85.623736
 20
-17.415584
 30
0.0
 11
85.654673
 21
-17.391581
 31
0.0
  0
LINE
  5
49C
100
AcDbEntity
  8
0
390
0
  6
Continuous
 62
     7
100
AcDbLine
 10
85.596954
 20
-17.444321
 30
0.0
 11
85.623736
 21
-17.415584
 31
0.0
  0
LINE
  5
49D
100
AcDbEntity
  8
0
390
0
  6
Continuous
 62
     7
100
AcDbLine
 10
85.575197
 20
-17.476945
 30
0.0
 11
85.596954
 21
-17.444321
 31
0.0
  0
LINE
  5
49E
100
AcDbEntity
  8
0
390
0
  6
Continuous
 62
     7
100
AcDbLine
 10
85.558831
 20
-17.512355
 30
0.0
 11
85.575197
 21
-17.476945
 31
0.0
  0
LINE
  5
49F
100
AcDbEntity
  8
0
390
0
  6
Continuous
 62
     7
100
AcDbLine
 10
85.547684
 20
-17.549584
 30
0.0
 11
85.558831
 21
-17.512355
 31
0.0
  0
LINE
  5
4A0
100
AcDbEntity
  8
0
390
0
  6
Continuous
 62
     7
100
AcDbLine
 10
85.541916
 20
-17.584152
 30
0.0
 11
85.547684
 21
-17.549584
 31
0.0
  0
LINE
  5
4A1
100
AcDbEntity
  8
0
390
0
  6
Continuous
 62
     7
100
AcDbLine
 10
85.418276
 20
-18.492201
 30
0.0
 11
85.541916
 21
-17.584152
 31
0.0
  0
LINE
  5
4A2
100
AcDbEntity
  8
0
390
0
  6
Continuous
 62
     7
100
AcDbLine
 10
85.517562
 20
-18.605693
 30
0.0
 11
85.418276
 21
-18.492201
 31
0.0
  0
LINE
  5
4A3
100
AcDbEntity
  8
0
390
0
  6
Continuous
 62
     7
100
AcDbLine
 10
85.564535
 20
-18.605599
 30
0.0
 11
85.517562
 21
-18.605693
 31
0.0
  0
LINE
  5
4A4
100
AcDbEntity
  8
0
390
0
  6
Continuous
 62
     7
100
AcDbLine
 10
85.681882
 20
-18.52368
 30
0.0
 11
85.564535
 21
-18.605599
 31
0.0
  0
LINE
  5
4A5
100
AcDbEntity
  8
0
390
0
  6
Continuous
 62
     7
100
AcDbLine
 10
85.771408
 20
-18.467937
 30
0.0
 11
85.681882
 21
-18.52368
 31
0.0
  0
LINE
  5
4A6
100
AcDbEntity
  8
0
390
0
  6
Continuous
 62
     7
100
AcDbLine
 10
85.860822
 20
-18.418964
 30
0.0
 11
85.771408
 21
-18.467937
 31
0.0
  0
LINE
  5
4A7
100
AcDbEntity
  8
0
390
0
  6
Continuous
 62
     7
100
AcDbLine
 10
85.950123
 20
-18.376698
 30
0.0
 11
85.860822
 21
-18.418964
 31
0.0
  0
LINE
  5
4A8
100
AcDbEntity
  8
0
390
0
  6
Continuous
 62
     7
100
AcDbLine
 10
86.039327
 20
-18.341071
 30
0.0
 11
85.950123
 21
-18.376698
 31
0.0
  0
LINE
  5
4A9
100
AcDbEntity
  8
0
390
0
  6
Continuous
 62
     7
100
AcDbLine
 10
86.128469
 20
-18.312012
 30
0.0
 11
86.039327
 21
-18.341071
 31
0.0
  0
LINE
  5
4AA
100
AcDbEntity
  8
0
390
0
  6
Continuous
 62
     7
100
AcDbLine
 10
86.217605
 20
-18.289454
 30
0.0
 11
86.128469
 21
-18.312012
 31
0.0
  0
LINE
  5
4AB
100
AcDbEntity
  8
0
390
0
  6
Continuous
 62
     7
100
AcDbLine
 10
86.306809
 20
-18.273339
 30
0.0
 11
86.217605
 21
-18.289454
 31
0.0
  0
LINE
  5
4AC
100
AcDbEntity
  8
0
390
0
  6
Continuous
 62
     7
100
AcDbLine
 10
86.396172
 20
-18.263622
 30
0.0
 11
86.306809
 21
-18.273339
 31
0.0
  0
LINE
  5
4AD
100
AcDbEntity
  8
0
390
0
  6
Continuous
 62
     7
100
AcDbLine
 10
86.486255
 20
-18.260263
 30
0.0
 11
86.396172
 21
-18.263622
 31
0.0
  0
LINE
  5
4AE
100
AcDbEntity
  8
0
390
0
  6
Continuous
 62
     7
100
AcDbLine
 10
86.599263
 20
-18.263036
 30
0.0
 11
86.486255
 21
-18.260263
 31
0.0
  0
LINE
  5
4AF
100
AcDbEntity
  8
0
390
0
  6
Continuous
 62
     7
100
AcDbLine
 10
86.706343
 20
-18.271735
 30
0.0
 11
86.599263
 21
-18.263036
 31
0.0
  0
LINE
  5
4B0
100
AcDbEntity
  8
0
390
0
  6
Continuous
 62
     7
100
AcDbLine
 10
86.806962
 20
-18.286244
 30
0.0
 11
86.706343
 21
-18.271735
 31
0.0
  0
LINE
  5
4B1
100
AcDbEntity
  8
0
390
0
  6
Continuous
 62
     7
100
AcDbLine
 10
86.901138
 20
-18.306451
 30
0.0
 11
86.806962
 21
-18.286244
 31
0.0
  0
LINE
  5
4B2
100
AcDbEntity
  8
0
390
0
  6
Continuous
 62
     7
100
AcDbLine
 10
86.98893
 20
-18.332233
 30
0.0
 11
86.901138
 21
-18.306451
 31
0.0
  0
LINE
  5
4B3
100
AcDbEntity
  8
0
390
0
  6
Continuous
 62
     7
100
AcDbLine
 10
87.070441
 20
-18.363475
 30
0.0
 11
86.98893
 21
-18.332233
 31
0.0
  0
LINE
  5
4B4
100
AcDbEntity
  8
0
390
0
  6
Continuous
 62
     7
100
AcDbLine
 10
87.145831
 20
-18.400088
 30
0.0
 11
87.070441
 21
-18.363475
 31
0.0
  0
LINE
  5
4B5
100
AcDbEntity
  8
0
390
0
  6
Continuous
 62
     7
100
AcDbLine
 10
87.215305
 20
-18.442029
 30
0.0
 11
87.145831
 21
-18.400088
 31
0.0
  0
LINE
  5
4B6
100
AcDbEntity
  8
0
390
0
  6
Continuous
 62
     7
100
AcDbLine
 10
87.279102
 20
-18.489321
 30
0.0
 11
87.215305
 21
-18.442029
 31
0.0
  0
LINE
  5
4B7
100
AcDbEntity
  8
0
390
0
  6
Continuous
 62
     7
100
AcDbLine
 10
87.338025
 20
-18.542573
 30
0.0
 11
87.279102
 21
-18.489321
 31
0.0
  0
LINE
  5
4B8
100
AcDbEntity
  8
0
390
0
  6
Continuous
 62
     7
100
AcDbLine
 10
87.398241
 20
-18.606744
 30
0.0
 11
87.338025
 21
-18.542573
 31
0.0
  0
LINE
  5
4B9
100
AcDbEntity
  8
0
390
0
  6
Continuous
 62
     7
100
AcDbLine
 10
87.452238
 20
-18.673069
 30
0.0
 11
87.398241
 21
-18.606744
 31
0.0
  0
LINE
  5
4BA
100
AcDbEntity
  8
0
390
0
  6
Continuous
 62
     7
100
AcDbLine
 10
87.499575
 20
-18.740955
 30
0.0
 11
87.452238
 21
-18.673069
 31
0.0
  0
LINE
  5
4BB
100
AcDbEntity
  8
0
390
0
  6
Continuous
 62
     7
100
AcDbLine
 10
87.540377
 20
-18.810443
 30
0.0
 11
87.499575
 21
-18.740955
 31
0.0
  0
LINE
  5
4BC
100
AcDbEntity
  8
0
390
0
  6
Continuous
 62
     7
100
AcDbLine
 10
87.574771
 20
-18.881616
 30
0.0
 11
87.540377
 21
-18.810443
 31
0.0
  0
LINE
  5
4BD
100
AcDbEntity
  8
0
390
0
  6
Continuous
 62
     7
100
AcDbLine
 10
80.775475
 20
-19.091389
 30
0.0
 11
80.836516
 21
-19.182907
 31
0.0
  0
LINE
  5
4BE
100
AcDbEntity
  8
0
390
0
  6
Continuous
 62
     7
100
AcDbLine
 10
80.717778
 20
-18.987546
 30
0.0
 11
80.775475
 21
-19.091389
 31
0.0
  0
LINE
  5
4BF
100
AcDbEntity
  8
0
390
0
  6
Continuous
 62
     7
100
AcDbLine
 10
80.669677
 20
-18.880858
 30
0.0
 11
80.717778
 21
-18.987546
 31
0.0
  0
LINE
  5
4C0
100
AcDbEntity
  8
0
390
0
  6
Continuous
 62
     7
100
AcDbLine
 10
80.63107
 20
-18.771187
 30
0.0
 11
80.669677
 21
-18.880858
 31
0.0
  0
LINE
  5
4C1
100
AcDbEntity
  8
0
390
0
  6
Continuous
 62
     7
100
AcDbLine
 10
80.601887
 20
-18.658362
 30
0.0
 11
80.63107
 21
-18.771187
 31
0.0
  0
LINE
  5
4C2
100
AcDbEntity
  8
0
390
0
  6
Continuous
 62
     7
100
AcDbLine
 10
80.582107
 20
-18.542201
 30
0.0
 11
80.601887
 21
-18.658362
 31
0.0
  0
LINE
  5
4C3
100
AcDbEntity
  8
0
390
0
  6
Continuous
 62
     7
100
AcDbLine
 10
80.571752
 20
-18.422535
 30
0.0
 11
80.582107
 21
-18.542201
 31
0.0
  0
LINE
  5
4C4
100
AcDbEntity
  8
0
390
0
  6
Continuous
 62
     7
100
AcDbLine
 10
80.570884
 20
-18.299216
 30
0.0
 11
80.571752
 21
-18.422535
 31
0.0
  0
LINE
  5
4C5
100
AcDbEntity
  8
0
390
0
  6
Continuous
 62
     7
100
AcDbLine
 10
80.57959
 20
-18.172135
 30
0.0
 11
80.570884
 21
-18.299216
 31
0.0
  0
LINE
  5
4C6
100
AcDbEntity
  8
0
390
0
  6
Continuous
 62
     7
100
AcDbLine
 10
80.59797
 20
-18.041218
 30
0.0
 11
80.57959
 21
-18.172135
 31
0.0
  0
LINE
  5
4C7
100
AcDbEntity
  8
0
390
0
  6
Continuous
 62
     7
100
AcDbLine
 10
80.62611
 20
-17.906498
 30
0.0
 11
80.59797
 21
-18.041218
 31
0.0
  0
LINE
  5
4C8
100
AcDbEntity
  8
0
390
0
  6
Continuous
 62
     7
100
AcDbLine
 10
80.66107
 20
-17.779719
 30
0.0
 11
80.62611
 21
-17.906498
 31
0.0
  0
LINE
  5
4C9
100
AcDbEntity
  8
0
390
0
  6
Continuous
 62
     7
100
AcDbLine
 10
80.702731
 20
-17.660426
 30
0.0
 11
80.66107
 21
-17.779719
 31
0.0
  0
LINE
  5
4CA
100
AcDbEntity
  8
0
390
0
  6
Continuous
 62
     7
100
AcDbLine
 10
80.75101
 20
-17.548579
 30
0.0
 11
80.702731
 21
-17.660426
 31
0.0
  0
LINE
  5
4CB
100
AcDbEntity
  8
0
390
0
  6
Continuous
 62
     7
100
AcDbLine
 10
80.805853
 20
-17.444065
 30
0.0
 11
80.75101
 21
-17.548579
 31
0.0
  0
LINE
  5
4CC
100
AcDbEntity
  8
0
390
0
  6
Continuous
 62
     7
100
AcDbLine
 10
80.867239
 20
-17.346744
 30
0.0
 11
80.805853
 21
-17.444065
 31
0.0
  0
LINE
  5
4CD
100
AcDbEntity
  8
0
390
0
  6
Continuous
 62
     7
100
AcDbLine
 10
80.935183
 20
-17.256458
 30
0.0
 11
80.867239
 21
-17.346744
 31
0.0
  0
LINE
  5
4CE
100
AcDbEntity
  8
0
390
0
  6
Continuous
 62
     7
100
AcDbLine
 10
81.009748
 20
-17.173047
 30
0.0
 11
80.935183
 21
-17.256458
 31
0.0
  0
LINE
  5
4CF
100
AcDbEntity
  8
0
390
0
  6
Continuous
 62
     7
100
AcDbLine
 10
81.091039
 20
-17.096363
 30
0.0
 11
81.009748
 21
-17.173047
 31
0.0
  0
LINE
  5
4D0
100
AcDbEntity
  8
0
390
0
  6
Continuous
 62
     7
100
AcDbLine
 10
81.179196
 20
-17.026291
 30
0.0
 11
81.091039
 21
-17.096363
 31
0.0
  0
LINE
  5
4D1
100
AcDbEntity
  8
0
390
0
  6
Continuous
 62
     7
100
AcDbLine
 10
81.274539
 20
-16.962648
 30
0.0
 11
81.179196
 21
-17.026291
 31
0.0
  0
LINE
  5
4D2
100
AcDbEntity
  8
0
390
0
  6
Continuous
 62
     7
100
AcDbLine
 10
81.378086
 20
-16.904433
 30
0.0
 11
81.274539
 21
-16.962648
 31
0.0
  0
LINE
  5
4D3
100
AcDbEntity
  8
0
390
0
  6
Continuous
 62
     7
100
AcDbLine
 10
81.482819
 20
-16.855439
 30
0.0
 11
81.378086
 21
-16.904433
 31
0.0
  0
LINE
  5
4D4
100
AcDbEntity
  8
0
390
0
  6
Continuous
 62
     7
100
AcDbLine
 10
81.588555
 20
-16.81569
 30
0.0
 11
81.482819
 21
-16.855439
 31
0.0
  0
LINE
  5
4D5
100
AcDbEntity
  8
0
390
0
  6
Continuous
 62
     7
100
AcDbLine
 10
81.695399
 20
-16.785081
 30
0.0
 11
81.588555
 21
-16.81569
 31
0.0
  0
LINE
  5
4D6
100
AcDbEntity
  8
0
390
0
  6
Continuous
 62
     7
100
AcDbLine
 10
81.80349
 20
-16.763531
 30
0.0
 11
81.695399
 21
-16.785081
 31
0.0
  0
LINE
  5
4D7
100
AcDbEntity
  8
0
390
0
  6
Continuous
 62
     7
100
AcDbLine
 10
81.912987
 20
-16.750995
 30
0.0
 11
81.80349
 21
-16.763531
 31
0.0
  0
LINE
  5
4D8
100
AcDbEntity
  8
0
390
0
  6
Continuous
 62
     7
100
AcDbLine
 10
82.024059
 20
-16.747467
 30
0.0
 11
81.912987
 21
-16.750995
 31
0.0
  0
LINE
  5
4D9
100
AcDbEntity
  8
0
390
0
  6
Continuous
 62
     7
100
AcDbLine
 10
82.136862
 20
-16.752981
 30
0.0
 11
82.024059
 21
-16.747467
 31
0.0
  0
LINE
  5
4DA
100
AcDbEntity
  8
0
390
0
  6
Continuous
 62
     7
100
AcDbLine
 10
82.251528
 20
-16.767605
 30
0.0
 11
82.136862
 21
-16.752981
 31
0.0
  0
LINE
  5
4DB
100
AcDbEntity
  8
0
390
0
  6
Continuous
 62
     7
100
AcDbLine
 10
82.607649
 20
-16.865223
 30
0.0
 11
82.49188
 21
-16.825328
 31
0.0
  0
LINE
  5
4DC
100
AcDbEntity
  8
0
390
0
  6
Continuous
 62
     7
100
AcDbLine
 10
82.715418
 20
-16.910976
 30
0.0
 11
82.607649
 21
-16.865223
 31
0.0
  0
LINE
  5
4DD
100
AcDbEntity
  8
0
390
0
  6
Continuous
 62
     7
100
AcDbLine
 10
82.815284
 20
-16.962505
 30
0.0
 11
82.715418
 21
-16.910976
 31
0.0
  0
LINE
  5
4DE
100
AcDbEntity
  8
0
390
0
  6
Continuous
 62
     7
100
AcDbLine
 10
82.90738
 20
-17.019752
 30
0.0
 11
82.815284
 21
-16.962505
 31
0.0
  0
LINE
  5
4DF
100
AcDbEntity
  8
0
390
0
  6
Continuous
 62
     7
100
AcDbLine
 10
82.991874
 20
-17.082698
 30
0.0
 11
82.90738
 21
-17.019752
 31
0.0
  0
LINE
  5
4E0
100
AcDbEntity
  8
0
390
0
  6
Continuous
 62
     7
100
AcDbLine
 10
83.068952
 20
-17.151374
 30
0.0
 11
82.991874
 21
-17.082698
 31
0.0
  0
LINE
  5
4E1
100
AcDbEntity
  8
0
390
0
  6
Continuous
 62
     7
100
AcDbLine
 10
83.138801
 20
-17.225869
 30
0.0
 11
83.068952
 21
-17.151374
 31
0.0
  0
LINE
  5
4E2
100
AcDbEntity
  8
0
390
0
  6
Continuous
 62
     7
100
AcDbLine
 10
83.201585
 20
-17.306325
 30
0.0
 11
83.138801
 21
-17.225869
 31
0.0
  0
LINE
  5
4E3
100
AcDbEntity
  8
0
390
0
  6
Continuous
 62
     7
100
AcDbLine
 10
83.258555
 20
-17.394678
 30
0.0
 11
83.201585
 21
-17.306325
 31
0.0
  0
LINE
  5
4E4
100
AcDbEntity
  8
0
390
0
  6
Continuous
 62
     7
100
AcDbLine
 10
83.284629
 20
-17.439536
 30
0.0
 11
83.258555
 21
-17.394678
 31
0.0
  0
LINE
  5
4E5
100
AcDbEntity
  8
0
390
0
  6
Continuous
 62
     7
100
AcDbLine
 10
83.307722
 20
-17.483763
 30
0.0
 11
83.284629
 21
-17.439536
 31
0.0
  0
LINE
  5
4E6
100
AcDbEntity
  8
0
390
0
  6
Continuous
 62
     7
100
AcDbLine
 10
83.327775
 20
-17.527172
 30
0.0
 11
83.307722
 21
-17.483763
 31
0.0
  0
LINE
  5
4E7
100
AcDbEntity
  8
0
390
0
  6
Continuous
 62
     7
100
AcDbLine
 10
83.344836
 20
-17.569748
 30
0.0
 11
83.327775
 21
-17.527172
 31
0.0
  0
LINE
  5
4E8
100
AcDbEntity
  8
0
390
0
  6
Continuous
 62
     7
100
AcDbLine
 10
83.358958
 20
-17.611488
 30
0.0
 11
83.344836
 21
-17.569748
 31
0.0
  0
LINE
  5
4E9
100
AcDbEntity
  8
0
390
0
  6
Continuous
 62
     7
100
AcDbLine
 10
83.3702
 20
-17.6524
 30
0.0
 11
83.358958
 21
-17.611488
 31
0.0
  0
LINE
  5
4EA
100
AcDbEntity
  8
0
390
0
  6
Continuous
 62
     7
100
AcDbLine
 10
83.378626
 20
-17.692508
 30
0.0
 11
83.3702
 21
-17.6524
 31
0.0
  0
LINE
  5
4EB
100
AcDbEntity
  8
0
390
0
  6
Continuous
 62
     7
100
AcDbLine
 10
83.384297
 20
-17.731857
 30
0.0
 11
83.378626
 21
-17.692508
 31
0.0
  0
LINE
  5
4EC
100
AcDbEntity
  8
0
390
0
  6
Continuous
 62
     7
100
AcDbLine
 10
83.387271
 20
-17.770506
 30
0.0
 11
83.384297
 21
-17.731857
 31
0.0
  0
LINE
  5
4ED
100
AcDbEntity
  8
0
390
0
  6
Continuous
 62
     7
100
AcDbLine
 10
83.387581
 20
-17.807186
 30
0.0
 11
83.387271
 21
-17.770506
 31
0.0
  0
LINE
  5
4EE
100
AcDbEntity
  8
0
390
0
  6
Continuous
 62
     7
100
AcDbLine
 10
83.385806
 20
-17.827251
 30
0.0
 11
83.387581
 21
-17.807186
 31
0.0
  0
LINE
  5
4EF
100
AcDbEntity
  8
0
390
0
  6
Continuous
 62
     7
100
AcDbLine
 10
83.382658
 20
-17.842919
 30
0.0
 11
83.385806
 21
-17.827251
 31
0.0
  0
LINE
  5
4F0
100
AcDbEntity
  8
0
390
0
  6
Continuous
 62
     7
100
AcDbLine
 10
83.378827
 20
-17.854177
 30
0.0
 11
83.382658
 21
-17.842919
 31
0.0
  0
LINE
  5
4F1
100
AcDbEntity
  8
0
390
0
  6
Continuous
 62
     7
100
AcDbLine
 10
83.374939
 20
-17.861686
 30
0.0
 11
83.378827
 21
-17.854177
 31
0.0
  0
LINE
  5
4F2
100
AcDbEntity
  8
0
390
0
  6
Continuous
 62
     7
100
AcDbLine
 10
83.371241
 20
-17.866612
 30
0.0
 11
83.374939
 21
-17.861686
 31
0.0
  0
LINE
  5
4F3
100
AcDbEntity
  8
0
390
0
  6
Continuous
 62
     7
100
AcDbLine
 10
83.367263
 20
-17.870326
 30
0.0
 11
83.371241
 21
-17.866612
 31
0.0
  0
LINE
  5
4F4
100
AcDbEntity
  8
0
390
0
  6
Continuous
 62
     7
100
AcDbLine
 10
83.361847
 20
-17.873846
 30
0.0
 11
83.367263
 21
-17.870326
 31
0.0
  0
LINE
  5
4F5
100
AcDbEntity
  8
0
390
0
  6
Continuous
 62
     7
100
AcDbLine
 10
83.353608
 20
-17.877452
 30
0.0
 11
83.361847
 21
-17.873846
 31
0.0
  0
LINE
  5
4F6
100
AcDbEntity
  8
0
390
0
  6
Continuous
 62
     7
100
AcDbLine
 10
83.341473
 20
-17.880761
 30
0.0
 11
83.353608
 21
-17.877452
 31
0.0
  0
LINE
  5
4F7
100
AcDbEntity
  8
0
390
0
  6
Continuous
 62
     7
100
AcDbLine
 10
83.330203
 20
-17.882351
 30
0.0
 11
83.341473
 21
-17.880761
 31
0.0
  0
LINE
  5
4F8
100
AcDbEntity
  8
0
390
0
  6
Continuous
 62
     7
100
AcDbLine
 10
83.319322
 20
-17.881553
 30
0.0
 11
83.330203
 21
-17.882351
 31
0.0
  0
LINE
  5
4F9
100
AcDbEntity
  8
0
390
0
  6
Continuous
 62
     7
100
AcDbLine
 10
83.306817
 20
-17.879084
 30
0.0
 11
83.319322
 21
-17.881553
 31
0.0
  0
LINE
  5
4FA
100
AcDbEntity
  8
0
390
0
  6
Continuous
 62
     7
100
AcDbLine
 10
83.297662
 20
-17.875909
 30
0.0
 11
83.306817
 21
-17.879084
 31
0.0
  0
LINE
  5
4FB
100
AcDbEntity
  8
0
390
0
  6
Continuous
 62
     7
100
AcDbLine
 10
83.290975
 20
-17.872365
 30
0.0
 11
83.297662
 21
-17.875909
 31
0.0
  0
LINE
  5
4FC
100
AcDbEntity
  8
0
390
0
  6
Continuous
 62
     7
100
AcDbLine
 10
83.28562
 20
-17.868299
 30
0.0
 11
83.290975
 21
-17.872365
 31
0.0
  0
LINE
  5
4FD
100
AcDbEntity
  8
0
390
0
  6
Continuous
 62
     7
100
AcDbLine
 10
83.280587
 20
-17.862988
 30
0.0
 11
83.28562
 21
-17.868299
 31
0.0
  0
LINE
  5
4FE
100
AcDbEntity
  8
0
390
0
  6
Continuous
 62
     7
100
AcDbLine
 10
83.275351
 20
-17.855384
 30
0.0
 11
83.280587
 21
-17.862988
 31
0.0
  0
LINE
  5
4FF
100
AcDbEntity
  8
0
390
0
  6
Continuous
 62
     7
100
AcDbLine
 10
83.269943
 20
-17.844502
 30
0.0
 11
83.275351
 21
-17.855384
 31
0.0
  0
LINE
  5
500
100
AcDbEntity
  8
0
390
0
  6
Continuous
 62
     7
100
AcDbLine
 10
83.264761
 20
-17.829684
 30
0.0
 11
83.269943
 21
-17.844502
 31
0.0
  0
LINE
  5
501
100
AcDbEntity
  8
0
390
0
  6
Continuous
 62
     7
100
AcDbLine
 10
83.261147
 20
-17.814153
 30
0.0
 11
83.264761
 21
-17.829684
 31
0.0
  0
LINE
  5
502
100
AcDbEntity
  8
0
390
0
  6
Continuous
 62
     7
100
AcDbLine
 10
83.258602
 20
-17.774863
 30
0.0
 11
83.261147
 21
-17.814153
 31
0.0
  0
LINE
  5
503
100
AcDbEntity
  8
0
390
0
  6
Continuous
 62
     7
100
AcDbLine
 10
83.253012
 20
-17.72569
 30
0.0
 11
83.258602
 21
-17.774863
 31
0.0
  0
LINE
  5
504
100
AcDbEntity
  8
0
390
0
  6
Continuous
 62
     7
100
AcDbLine
 10
83.245048
 20
-17.67722
 30
0.0
 11
83.253012
 21
-17.72569
 31
0.0
  0
LINE
  5
505
100
AcDbEntity
  8
0
390
0
  6
Continuous
 62
     7
100
AcDbLine
 10
83.2347
 20
-17.62949
 30
0.0
 11
83.245048
 21
-17.67722
 31
0.0
  0
LINE
  5
506
100
AcDbEntity
  8
0
390
0
  6
Continuous
 62
     7
100
AcDbLine
 10
83.221967
 20
-17.582538
 30
0.0
 11
83.2347
 21
-17.62949
 31
0.0
  0
LINE
  5
507
100
AcDbEntity
  8
0
390
0
  6
Continuous
 62
     7
100
AcDbLine
 10
83.206851
 20
-17.536407
 30
0.0
 11
83.221967
 21
-17.582538
 31
0.0
  0
LINE
  5
508
100
AcDbEntity
  8
0
390
0
  6
Continuous
 62
     7
100
AcDbLine
 10
83.189364
 20
-17.491137
 30
0.0
 11
83.206851
 21
-17.536407
 31
0.0
  0
LINE
  5
509
100
AcDbEntity
  8
0
390
0
  6
Continuous
 62
     7
100
AcDbLine
 10
83.169522
 20
-17.446765
 30
0.0
 11
83.189364
 21
-17.491137
 31
0.0
  0
LINE
  5
50A
100
AcDbEntity
  8
0
390
0
  6
Continuous
 62
     7
100
AcDbLine
 10
83.147346
 20
-17.403327
 30
0.0
 11
83.169522
 21
-17.446765
 31
0.0
  0
LINE
  5
50B
100
AcDbEntity
  8
0
390
0
  6
Continuous
 62
     7
100
AcDbLine
 10
83.122425
 20
-17.360092
 30
0.0
 11
83.147346
 21
-17.403327
 31
0.0
  0
LINE
  5
50C
100
AcDbEntity
  8
0
390
0
  6
Continuous
 62
     7
100
AcDbLine
 10
83.071727
 20
-17.284448
 30
0.0
 11
83.122425
 21
-17.360092
 31
0.0
  0
LINE
  5
50D
100
AcDbEntity
  8
0
390
0
  6
Continuous
 62
     7
100
AcDbLine
 10
83.014537
 20
-17.213249
 30
0.0
 11
83.071727
 21
-17.284448
 31
0.0
  0
LINE
  5
50E
100
AcDbEntity
  8
0
390
0
  6
Continuous
 62
     7
100
AcDbLine
 10
82.951423
 20
-17.147348
 30
0.0
 11
83.014537
 21
-17.213249
 31
0.0
  0
LINE
  5
50F
100
AcDbEntity
  8
0
390
0
  6
Continuous
 62
     7
100
AcDbLine
 10
82.882527
 20
-17.086879
 30
0.0
 11
82.951423
 21
-17.147348
 31
0.0
  0
LINE
  5
510
100
AcDbEntity
  8
0
390
0
  6
Continuous
 62
     7
100
AcDbLine
 10
82.808014
 20
-17.031928
 30
0.0
 11
82.882527
 21
-17.086879
 31
0.0
  0
LINE
  5
511
100
AcDbEntity
  8
0
390
0
  6
Continuous
 62
     7
100
AcDbLine
 10
82.728054
 20
-16.982534
 30
0.0
 11
82.808014
 21
-17.031928
 31
0.0
  0
LINE
  5
512
100
AcDbEntity
  8
0
390
0
  6
Continuous
 62
     7
100
AcDbLine
 10
82.642804
 20
-16.938688
 30
0.0
 11
82.728054
 21
-16.982534
 31
0.0
  0
LINE
  5
513
100
AcDbEntity
  8
0
390
0
  6
Continuous
 62
     7
100
AcDbLine
 10
82.552392
 20
-16.900345
 30
0.0
 11
82.642804
 21
-16.938688
 31
0.0
  0
LINE
  5
514
100
AcDbEntity
  8
0
390
0
  6
Continuous
 62
     7
100
AcDbLine
 10
82.456918
 20
-16.867437
 30
0.0
 11
82.552392
 21
-16.900345
 31
0.0
  0
LINE
  5
515
100
AcDbEntity
  8
0
390
0
  6
Continuous
 62
     7
100
AcDbLine
 10
82.355823
 20
-16.839714
 30
0.0
 11
82.456918
 21
-16.867437
 31
0.0
  0
LINE
  5
516
100
AcDbEntity
  8
0
390
0
  6
Continuous
 62
     7
100
AcDbLine
 10
82.256814
 20
-16.82012
 30
0.0
 11
82.355823
 21
-16.839714
 31
0.0
  0
LINE
  5
517
100
AcDbEntity
  8
0
390
0
  6
Continuous
 62
     7
100
AcDbLine
 10
82.156673
 20
-16.809074
 30
0.0
 11
82.256814
 21
-16.82012
 31
0.0
  0
LINE
  5
518
100
AcDbEntity
  8
0
390
0
  6
Continuous
 62
     7
100
AcDbLine
 10
82.056126
 20
-16.80673
 30
0.0
 11
82.156673
 21
-16.809074
 31
0.0
  0
LINE
  5
519
100
AcDbEntity
  8
0
390
0
  6
Continuous
 62
     7
100
AcDbLine
 10
81.955362
 20
-16.813086
 30
0.0
 11
82.056126
 21
-16.80673
 31
0.0
  0
LINE
  5
51A
100
AcDbEntity
  8
0
390
0
  6
Continuous
 62
     7
100
AcDbLine
 10
81.854563
 20
-16.828092
 30
0.0
 11
81.955362
 21
-16.813086
 31
0.0
  0
LINE
  5
51B
100
AcDbEntity
  8
0
390
0
  6
Continuous
 62
     7
100
AcDbLine
 10
81.753876
 20
-16.851661
 30
0.0
 11
81.854563
 21
-16.828092
 31
0.0
  0
LINE
  5
51C
100
AcDbEntity
  8
0
390
0
  6
Continuous
 62
     7
100
AcDbLine
 10
81.653412
 20
-16.883679
 30
0.0
 11
81.753876
 21
-16.851661
 31
0.0
  0
LINE
  5
51D
100
AcDbEntity
  8
0
390
0
  6
Continuous
 62
     7
100
AcDbLine
 10
81.553235
 20
-16.924026
 30
0.0
 11
81.653412
 21
-16.883679
 31
0.0
  0
LINE
  5
51E
100
AcDbEntity
  8
0
390
0
  6
Continuous
 62
     7
100
AcDbLine
 10
81.453372
 20
-16.972584
 30
0.0
 11
81.553235
 21
-16.924026
 31
0.0
  0
LINE
  5
51F
100
AcDbEntity
  8
0
390
0
  6
Continuous
 62
     7
100
AcDbLine
 10
81.353018
 20
-17.0297
 30
0.0
 11
81.453372
 21
-16.972584
 31
0.0
  0
LINE
  5
520
100
AcDbEntity
  8
0
390
0
  6
Continuous
 62
     7
100
AcDbLine
 10
81.26912
 20
-17.086574
 30
0.0
 11
81.353018
 21
-17.0297
 31
0.0
  0
LINE
  5
521
100
AcDbEntity
  8
0
390
0
  6
Continuous
 62
     7
100
AcDbLine
 10
81.19011
 20
-17.151908
 30
0.0
 11
81.26912
 21
-17.086574
 31
0.0
  0
LINE
  5
522
100
AcDbEntity
  8
0
390
0
  6
Continuous
 62
     7
100
AcDbLine
 10
81.116847
 20
-17.225038
 30
0.0
 11
81.19011
 21
-17.151908
 31
0.0
  0
LINE
  5
523
100
AcDbEntity
  8
0
390
0
  6
Continuous
 62
     7
100
AcDbLine
 10
81.049422
 20
-17.30575
 30
0.0
 11
81.116847
 21
-17.225038
 31
0.0
  0
LINE
  5
524
100
AcDbEntity
  8
0
390
0
  6
Continuous
 62
     7
100
AcDbLine
 10
80.987858
 20
-17.393839
 30
0.0
 11
81.049422
 21
-17.30575
 31
0.0
  0
LINE
  5
525
100
AcDbEntity
  8
0
390
0
  6
Continuous
 62
     7
100
AcDbLine
 10
80.932121
 20
-17.489128
 30
0.0
 11
80.987858
 21
-17.393839
 31
0.0
  0
LINE
  5
526
100
AcDbEntity
  8
0
390
0
  6
Continuous
 62
     7
100
AcDbLine
 10
80.882135
 20
-17.591483
 30
0.0
 11
80.932121
 21
-17.489128
 31
0.0
  0
LINE
  5
527
100
AcDbEntity
  8
0
390
0
  6
Continuous
 62
     7
100
AcDbLine
 10
80.837805
 20
-17.70081
 30
0.0
 11
80.882135
 21
-17.591483
 31
0.0
  0
LINE
  5
528
100
AcDbEntity
  8
0
390
0
  6
Continuous
 62
     7
100
AcDbLine
 10
80.799029
 20
-17.817055
 30
0.0
 11
80.837805
 21
-17.70081
 31
0.0
  0
LINE
  5
529
100
AcDbEntity
  8
0
390
0
  6
Continuous
 62
     7
100
AcDbLine
 10
80.765702
 20
-17.940224
 30
0.0
 11
80.799029
 21
-17.817055
 31
0.0
  0
LINE
  5
52A
100
AcDbEntity
  8
0
390
0
  6
Continuous
 62
     7
100
AcDbLine
 10
80.738354
 20
-18.067829
 30
0.0
 11
80.765702
 21
-17.940224
 31
0.0
  0
LINE
  5
52B
100
AcDbEntity
  8
0
390
0
  6
Continuous
 62
     7
100
AcDbLine
 10
80.719089
 20
-18.191404
 30
0.0
 11
80.738354
 21
-18.067829
 31
0.0
  0
LINE
  5
52C
100
AcDbEntity
  8
0
390
0
  6
Continuous
 62
     7
100
AcDbLine
 10
80.707982
 20
-18.311073
 30
0.0
 11
80.719089
 21
-18.191404
 31
0.0
  0
LINE
  5
52D
100
AcDbEntity
  8
0
390
0
  6
Continuous
 62
     7
100
AcDbLine
 10
80.705149
 20
-18.426844
 30
0.0
 11
80.707982
 21
-18.311073
 31
0.0
  0
LINE
  5
52E
100
AcDbEntity
  8
0
390
0
  6
Continuous
 62
     7
100
AcDbLine
 10
80.710722
 20
-18.538692
 30
0.0
 11
80.705149
 21
-18.426844
 31
0.0
  0
LINE
  5
52F
100
AcDbEntity
  8
0
390
0
  6
Continuous
 62
     7
100
AcDbLine
 10
80.724838
 20
-18.646541
 30
0.0
 11
80.710722
 21
-18.538692
 31
0.0
  0
LINE
  5
530
100
AcDbEntity
  8
0
390
0
  6
Continuous
 62
     7
100
AcDbLine
 10
80.747622
 20
-18.750259
 30
0.0
 11
80.724838
 21
-18.646541
 31
0.0
  0
LINE
  5
531
100
AcDbEntity
  8
0
390
0
  6
Continuous
 62
     7
100
AcDbLine
 10
80.779165
 20
-18.849655
 30
0.0
 11
80.747622
 21
-18.750259
 31
0.0
  0
LINE
  5
532
100
AcDbEntity
  8
0
390
0
  6
Continuous
 62
     7
100
AcDbLine
 10
80.819499
 20
-18.944492
 30
0.0
 11
80.779165
 21
-18.849655
 31
0.0
  0
LINE
  5
533
100
AcDbEntity
  8
0
390
0
  6
Continuous
 62
     7
100
AcDbLine
 10
80.86815
 20
-19.033714
 30
0.0
 11
80.819499
 21
-18.944492
 31
0.0
  0
LINE
  5
534
100
AcDbEntity
  8
0
390
0
  6
Continuous
 62
     7
100
AcDbLine
 10
80.931328
 20
-19.130433
 30
0.0
 11
80.86815
 21
-19.033714
 31
0.0
  0
LINE
  5
535
100
AcDbEntity
  8
0
390
0
  6
Continuous
 62
     7
100
AcDbLine
 10
80.997952
 20
-19.219269
 30
0.0
 11
80.931328
 21
-19.130433
 31
0.0
  0
LINE
  5
536
100
AcDbEntity
  8
0
390
0
  6
Continuous
 62
     7
100
AcDbLine
 10
82.368387
 20
-16.791475
 30
0.0
 11
82.251528
 21
-16.767605
 31
0.0
  0
LINE
  5
537
100
AcDbEntity
  8
0
390
0
  6
Continuous
 62
     7
100
AcDbLine
 10
82.49188
 20
-16.825328
 30
0.0
 11
82.368387
 21
-16.791475
 31
0.0
  0
LINE
  5
538
100
AcDbEntity
  8
0
390
0
  6
Continuous
 62
     7
100
AcDbLine
 10
98.406325
 20
-12.641368
 30
0.0
 11
98.347748
 21
-12.651862
 31
0.0
  0
LINE
  5
539
100
AcDbEntity
  8
0
390
0
  6
Continuous
 62
     7
100
AcDbLine
 10
98.46284
 20
-12.633511
 30
0.0
 11
98.406325
 21
-12.641368
 31
0.0
  0
LINE
  5
53A
100
AcDbEntity
  8
0
390
0
  6
Continuous
 62
     7
100
AcDbLine
 10
98.51728
 20
-12.628255
 30
0.0
 11
98.46284
 21
-12.633511
 31
0.0
  0
LINE
  5
53B
100
AcDbEntity
  8
0
390
0
  6
Continuous
 62
     7
100
AcDbLine
 10
98.569635
 20
-12.625559
 30
0.0
 11
98.51728
 21
-12.628255
 31
0.0
  0
LINE
  5
53C
100
AcDbEntity
  8
0
390
0
  6
Continuous
 62
     7
100
AcDbLine
 10
98.619904
 20
-12.625378
 30
0.0
 11
98.569635
 21
-12.625559
 31
0.0
  0
LINE
  5
53D
100
AcDbEntity
  8
0
390
0
  6
Continuous
 62
     7
100
AcDbLine
 10
98.668094
 20
-12.62766
 30
0.0
 11
98.619904
 21
-12.625378
 31
0.0
  0
LINE
  5
53E
100
AcDbEntity
  8
0
390
0
  6
Continuous
 62
     7
100
AcDbLine
 10
98.714224
 20
-12.632353
 30
0.0
 11
98.668094
 21
-12.62766
 31
0.0
  0
LINE
  5
53F
100
AcDbEntity
  8
0
390
0
  6
Continuous
 62
     7
100
AcDbLine
 10
98.758331
 20
-12.639404
 30
0.0
 11
98.714224
 21
-12.632353
 31
0.0
  0
LINE
  5
540
100
AcDbEntity
  8
0
390
0
  6
Continuous
 62
     7
100
AcDbLine
 10
98.797925
 20
-12.6482
 30
0.0
 11
98.758331
 21
-12.639404
 31
0.0
  0
LINE
  5
541
100
AcDbEntity
  8
0
390
0
  6
Continuous
 62
     7
100
AcDbLine
 10
98.824131
 20
-12.657134
 30
0.0
 11
98.797925
 21
-12.6482
 31
0.0
  0
LINE
  5
542
100
AcDbEntity
  8
0
390
0
  6
Continuous
 62
     7
100
AcDbLine
 10
98.846042
 20
-12.666952
 30
0.0
 11
98.824131
 21
-12.657134
 31
0.0
  0
LINE
  5
543
100
AcDbEntity
  8
0
390
0
  6
Continuous
 62
     7
100
AcDbLine
 10
98.861973
 20
-12.67636
 30
0.0
 11
98.846042
 21
-12.666952
 31
0.0
  0
LINE
  5
544
100
AcDbEntity
  8
0
390
0
  6
Continuous
 62
     7
100
AcDbLine
 10
98.872374
 20
-12.68457
 30
0.0
 11
98.861973
 21
-12.67636
 31
0.0
  0
LINE
  5
545
100
AcDbEntity
  8
0
390
0
  6
Continuous
 62
     7
100
AcDbLine
 10
98.878297
 20
-12.691003
 30
0.0
 11
98.872374
 21
-12.68457
 31
0.0
  0
LINE
  5
546
100
AcDbEntity
  8
0
390
0
  6
Continuous
 62
     7
100
AcDbLine
 10
98.88134
 20
-12.695801
 30
0.0
 11
98.878297
 21
-12.691003
 31
0.0
  0
LINE
  5
547
100
AcDbEntity
  8
0
390
0
  6
Continuous
 62
     7
100
AcDbLine
 10
98.883072
 20
-12.700206
 30
0.0
 11
98.88134
 21
-12.695801
 31
0.0
  0
LINE
  5
548
100
AcDbEntity
  8
0
390
0
  6
Continuous
 62
     7
100
AcDbLine
 10
98.884204
 20
-12.706243
 30
0.0
 11
98.883072
 21
-12.700206
 31
0.0
  0
LINE
  5
549
100
AcDbEntity
  8
0
390
0
  6
Continuous
 62
     7
100
AcDbLine
 10
98.8843
 20
-12.715798
 30
0.0
 11
98.884204
 21
-12.706243
 31
0.0
  0
LINE
  5
54A
100
AcDbEntity
  8
0
390
0
  6
Continuous
 62
     7
100
AcDbLine
 10
98.884013
 20
-12.717779
 30
0.0
 11
98.8843
 21
-12.715798
 31
0.0
  0
LINE
  5
54B
100
AcDbEntity
  8
0
390
0
  6
Continuous
 62
     7
100
AcDbLine
 10
98.882514
 20
-12.720567
 30
0.0
 11
98.884013
 21
-12.717779
 31
0.0
  0
LINE
  5
54C
100
AcDbEntity
  8
0
390
0
  6
Continuous
 62
     7
100
AcDbLine
 10
98.875238
 20
-12.730762
 30
0.0
 11
98.882514
 21
-12.720567
 31
0.0
  0
LINE
  5
54D
100
AcDbEntity
  8
0
390
0
  6
Continuous
 62
     7
100
AcDbLine
 10
98.868937
 20
-12.737331
 30
0.0
 11
98.875238
 21
-12.730762
 31
0.0
  0
LINE
  5
54E
100
AcDbEntity
  8
0
390
0
  6
Continuous
 62
     7
100
AcDbLine
 10
98.863497
 20
-12.741437
 30
0.0
 11
98.868937
 21
-12.737331
 31
0.0
  0
LINE
  5
54F
100
AcDbEntity
  8
0
390
0
  6
Continuous
 62
     7
100
AcDbLine
 10
98.858107
 20
-12.744231
 30
0.0
 11
98.863497
 21
-12.741437
 31
0.0
  0
LINE
  5
550
100
AcDbEntity
  8
0
390
0
  6
Continuous
 62
     7
100
AcDbLine
 10
98.851422
 20
-12.746377
 30
0.0
 11
98.858107
 21
-12.744231
 31
0.0
  0
LINE
  5
551
100
AcDbEntity
  8
0
390
0
  6
Continuous
 62
     7
100
AcDbLine
 10
98.842058
 20
-12.747817
 30
0.0
 11
98.851422
 21
-12.746377
 31
0.0
  0
LINE
  5
552
100
AcDbEntity
  8
0
390
0
  6
Continuous
 62
     7
100
AcDbLine
 10
98.829055
 20
-12.747947
 30
0.0
 11
98.842058
 21
-12.747817
 31
0.0
  0
LINE
  5
553
100
AcDbEntity
  8
0
390
0
  6
Continuous
 62
     7
100
AcDbLine
 10
98.812004
 20
-12.74599
 30
0.0
 11
98.829055
 21
-12.747947
 31
0.0
  0
LINE
  5
554
100
AcDbEntity
  8
0
390
0
  6
Continuous
 62
     7
100
AcDbLine
 10
98.792289
 20
-12.741573
 30
0.0
 11
98.812004
 21
-12.74599
 31
0.0
  0
LINE
  5
555
100
AcDbEntity
  8
0
390
0
  6
Continuous
 62
     7
100
AcDbLine
 10
98.745512
 20
-12.725253
 30
0.0
 11
98.792289
 21
-12.741573
 31
0.0
  0
LINE
  5
556
100
AcDbEntity
  8
0
390
0
  6
Continuous
 62
     7
100
AcDbLine
 10
98.68933
 20
-12.709415
 30
0.0
 11
98.745512
 21
-12.725253
 31
0.0
  0
LINE
  5
557
100
AcDbEntity
  8
0
390
0
  6
Continuous
 62
     7
100
AcDbLine
 10
98.632826
 20
-12.697271
 30
0.0
 11
98.68933
 21
-12.709415
 31
0.0
  0
LINE
  5
558
100
AcDbEntity
  8
0
390
0
  6
Continuous
 62
     7
100
AcDbLine
 10
98.576069
 20
-12.688872
 30
0.0
 11
98.632826
 21
-12.697271
 31
0.0
  0
LINE
  5
559
100
AcDbEntity
  8
0
390
0
  6
Continuous
 62
     7
100
AcDbLine
 10
98.519141
 20
-12.684258
 30
0.0
 11
98.576069
 21
-12.688872
 31
0.0
  0
LINE
  5
55A
100
AcDbEntity
  8
0
390
0
  6
Continuous
 62
     7
100
AcDbLine
 10
98.462137
 20
-12.683449
 30
0.0
 11
98.519141
 21
-12.684258
 31
0.0
  0
LINE
  5
55B
100
AcDbEntity
  8
0
390
0
  6
Continuous
 62
     7
100
AcDbLine
 10
98.405153
 20
-12.686451
 30
0.0
 11
98.462137
 21
-12.683449
 31
0.0
  0
LINE
  5
55C
100
AcDbEntity
  8
0
390
0
  6
Continuous
 62
     7
100
AcDbLine
 10
98.348284
 20
-12.693247
 30
0.0
 11
98.405153
 21
-12.686451
 31
0.0
  0
LINE
  5
55D
100
AcDbEntity
  8
0
390
0
  6
Continuous
 62
     7
100
AcDbLine
 10
98.29162
 20
-12.703804
 30
0.0
 11
98.348284
 21
-12.693247
 31
0.0
  0
LINE
  5
55E
100
AcDbEntity
  8
0
390
0
  6
Continuous
 62
     7
100
AcDbLine
 10
98.228798
 20
-12.719703
 30
0.0
 11
98.29162
 21
-12.703804
 31
0.0
  0
LINE
  5
55F
100
AcDbEntity
  8
0
390
0
  6
Continuous
 62
     7
100
AcDbLine
 10
98.179656
 20
-12.742225
 30
0.0
 11
98.228798
 21
-12.719703
 31
0.0
  0
LINE
  5
560
100
AcDbEntity
  8
0
390
0
  6
Continuous
 62
     7
100
AcDbLine
 10
98.138575
 20
-12.76231
 30
0.0
 11
98.179656
 21
-12.742225
 31
0.0
  0
LINE
  5
561
100
AcDbEntity
  8
0
390
0
  6
Continuous
 62
     7
100
AcDbLine
 10
98.097709
 20
-12.783551
 30
0.0
 11
98.138575
 21
-12.76231
 31
0.0
  0
LINE
  5
562
100
AcDbEntity
  8
0
390
0
  6
Continuous
 62
     7
100
AcDbLine
 10
98.05706
 20
-12.805942
 30
0.0
 11
98.097709
 21
-12.783551
 31
0.0
  0
LINE
  5
563
100
AcDbEntity
  8
0
390
0
  6
Continuous
 62
     7
100
AcDbLine
 10
98.016628
 20
-12.829479
 30
0.0
 11
98.05706
 21
-12.805942
 31
0.0
  0
LINE
  5
564
100
AcDbEntity
  8
0
390
0
  6
Continuous
 62
     7
100
AcDbLine
 10
97.976414
 20
-12.854158
 30
0.0
 11
98.016628
 21
-12.829479
 31
0.0
  0
LINE
  5
565
100
AcDbEntity
  8
0
390
0
  6
Continuous
 62
     7
100
AcDbLine
 10
97.936419
 20
-12.879974
 30
0.0
 11
97.976414
 21
-12.854158
 31
0.0
  0
LINE
  5
566
100
AcDbEntity
  8
0
390
0
  6
Continuous
 62
     7
100
AcDbLine
 10
97.896642
 20
-12.906923
 30
0.0
 11
97.936419
 21
-12.879974
 31
0.0
  0
LINE
  5
567
100
AcDbEntity
  8
0
390
0
  6
Continuous
 62
     7
100
AcDbLine
 10
97.857082
 20
-12.935001
 30
0.0
 11
97.896642
 21
-12.906923
 31
0.0
  0
LINE
  5
568
100
AcDbEntity
  8
0
390
0
  6
Continuous
 62
     7
100
AcDbLine
 10
97.816668
 20
-12.965
 30
0.0
 11
97.857082
 21
-12.935001
 31
0.0
  0
LINE
  5
569
100
AcDbEntity
  8
0
390
0
  6
Continuous
 62
     7
100
AcDbLine
 10
97.750077
 20
-13.019247
 30
0.0
 11
97.816668
 21
-12.965
 31
0.0
  0
LINE
  5
56A
100
AcDbEntity
  8
0
390
0
  6
Continuous
 62
     7
100
AcDbLine
 10
97.686955
 20
-13.081629
 30
0.0
 11
97.750077
 21
-13.019247
 31
0.0
  0
LINE
  5
56B
100
AcDbEntity
  8
0
390
0
  6
Continuous
 62
     7
100
AcDbLine
 10
97.629622
 20
-13.150176
 30
0.0
 11
97.686955
 21
-13.081629
 31
0.0
  0
LINE
  5
56C
100
AcDbEntity
  8
0
390
0
  6
Continuous
 62
     7
100
AcDbLine
 10
97.578175
 20
-13.22464
 30
0.0
 11
97.629622
 21
-13.150176
 31
0.0
  0
LINE
  5
56D
100
AcDbEntity
  8
0
390
0
  6
Continuous
 62
     7
100
AcDbLine
 10
97.532634
 20
-13.304782
 30
0.0
 11
97.578175
 21
-13.22464
 31
0.0
  0
LINE
  5
56E
100
AcDbEntity
  8
0
390
0
  6
Continuous
 62
     7
100
AcDbLine
 10
97.492953
 20
-13.390397
 30
0.0
 11
97.532634
 21
-13.304782
 31
0.0
  0
LINE
  5
56F
100
AcDbEntity
  8
0
390
0
  6
Continuous
 62
     7
100
AcDbLine
 10
97.459038
 20
-13.48133
 30
0.0
 11
97.492953
 21
-13.390397
 31
0.0
  0
LINE
  5
570
100
AcDbEntity
  8
0
390
0
  6
Continuous
 62
     7
100
AcDbLine
 10
97.430777
 20
-13.577478
 30
0.0
 11
97.459038
 21
-13.48133
 31
0.0
  0
LINE
  5
571
100
AcDbEntity
  8
0
390
0
  6
Continuous
 62
     7
100
AcDbLine
 10
97.408046
 20
-13.678782
 30
0.0
 11
97.430777
 21
-13.577478
 31
0.0
  0
LINE
  5
572
100
AcDbEntity
  8
0
390
0
  6
Continuous
 62
     7
100
AcDbLine
 10
97.390146
 20
-13.788827
 30
0.0
 11
97.408046
 21
-13.678782
 31
0.0
  0
LINE
  5
573
100
AcDbEntity
  8
0
390
0
  6
Continuous
 62
     7
100
AcDbLine
 10
97.38591
 20
-13.892522
 30
0.0
 11
97.390146
 21
-13.788827
 31
0.0
  0
LINE
  5
574
100
AcDbEntity
  8
0
390
0
  6
Continuous
 62
     7
100
AcDbLine
 10
97.392429
 20
-13.997331
 30
0.0
 11
97.38591
 21
-13.892522
 31
0.0
  0
LINE
  5
575
100
AcDbEntity
  8
0
390
0
  6
Continuous
 62
     7
100
AcDbLine
 10
97.409454
 20
-14.103711
 30
0.0
 11
97.392429
 21
-13.997331
 31
0.0
  0
LINE
  5
576
100
AcDbEntity
  8
0
390
0
  6
Continuous
 62
     7
100
AcDbLine
 10
97.436736
 20
-14.211532
 30
0.0
 11
97.409454
 21
-14.103711
 31
0.0
  0
LINE
  5
577
100
AcDbEntity
  8
0
390
0
  6
Continuous
 62
     7
100
AcDbLine
 10
97.474041
 20
-14.320762
 30
0.0
 11
97.436736
 21
-14.211532
 31
0.0
  0
LINE
  5
578
100
AcDbEntity
  8
0
390
0
  6
Continuous
 62
     7
100
AcDbLine
 10
97.521175
 20
-14.431437
 30
0.0
 11
97.474041
 21
-14.320762
 31
0.0
  0
LINE
  5
579
100
AcDbEntity
  8
0
390
0
  6
Continuous
 62
     7
100
AcDbLine
 10
97.577987
 20
-14.54364
 30
0.0
 11
97.521175
 21
-14.431437
 31
0.0
  0
LINE
  5
57A
100
AcDbEntity
  8
0
390
0
  6
Continuous
 62
     7
100
AcDbLine
 10
97.644368
 20
-14.657469
 30
0.0
 11
97.577987
 21
-14.54364
 31
0.0
  0
LINE
  5
57B
100
AcDbEntity
  8
0
390
0
  6
Continuous
 62
     7
100
AcDbLine
 10
97.720245
 20
-14.773027
 30
0.0
 11
97.644368
 21
-14.657469
 31
0.0
  0
LINE
  5
57C
100
AcDbEntity
  8
0
390
0
  6
Continuous
 62
     7
100
AcDbLine
 10
97.807339
 20
-14.89284
 30
0.0
 11
97.720245
 21
-14.773027
 31
0.0
  0
LINE
  5
57D
100
AcDbEntity
  8
0
390
0
  6
Continuous
 62
     7
100
AcDbLine
 10
97.821911
 20
-14.909264
 30
0.0
 11
97.807339
 21
-14.89284
 31
0.0
  0
LINE
  5
57E
100
AcDbEntity
  8
0
390
0
  6
Continuous
 62
     7
100
AcDbLine
 10
97.833791
 20
-14.922106
 30
0.0
 11
97.821911
 21
-14.909264
 31
0.0
  0
LINE
  5
57F
100
AcDbEntity
  8
0
390
0
  6
Continuous
 62
     7
100
AcDbLine
 10
97.845805
 20
-14.93454
 30
0.0
 11
97.833791
 21
-14.922106
 31
0.0
  0
LINE
  5
580
100
AcDbEntity
  8
0
390
0
  6
Continuous
 62
     7
100
AcDbLine
 10
97.857958
 20
-14.946564
 30
0.0
 11
97.845805
 21
-14.93454
 31
0.0
  0
LINE
  5
581
100
AcDbEntity
  8
0
390
0
  6
Continuous
 62
     7
100
AcDbLine
 10
97.870257
 20
-14.958175
 30
0.0
 11
97.857958
 21
-14.946564
 31
0.0
  0
LINE
  5
582
100
AcDbEntity
  8
0
390
0
  6
Continuous
 62
     7
100
AcDbLine
 10
97.882708
 20
-14.969367
 30
0.0
 11
97.870257
 21
-14.958175
 31
0.0
  0
LINE
  5
583
100
AcDbEntity
  8
0
390
0
  6
Continuous
 62
     7
100
AcDbLine
 10
97.895317
 20
-14.980137
 30
0.0
 11
97.882708
 21
-14.969367
 31
0.0
  0
LINE
  5
584
100
AcDbEntity
  8
0
390
0
  6
Continuous
 62
     7
100
AcDbLine
 10
97.90809
 20
-14.990478
 30
0.0
 11
97.895317
 21
-14.980137
 31
0.0
  0
LINE
  5
585
100
AcDbEntity
  8
0
390
0
  6
Continuous
 62
     7
100
AcDbLine
 10
97.921032
 20
-15.000382
 30
0.0
 11
97.90809
 21
-14.990478
 31
0.0
  0
LINE
  5
586
100
AcDbEntity
  8
0
390
0
  6
Continuous
 62
     7
100
AcDbLine
 10
97.932837
 20
-15.008897
 30
0.0
 11
97.921032
 21
-15.000382
 31
0.0
  0
POLYLINE
  5
587
100
AcDbEntity
  8
0
390
0
  6
Continuous
 62
     7
100
AcDb2dPolyline
 66
     1
 10
0.0
 20
0.0
 30
0.0
 40
0.1
 41
0.1
  0
VERTEX
  5
588
100
AcDbEntity
  8
0
390
0
 62
     7
100
AcDbVertex
100
AcDb2dVertex
 10
98.107043
 20
-14.914112
 30
0.0
  0
VERTEX
  5
589
100
AcDbEntity
  8
0
390
0
 62
     7
100
AcDbVertex
100
AcDb2dVertex
 10
98.064108
 20
-15.00698
 30
0.0
  0
VERTEX
  5
58A
100
AcDbEntity
  8
0
390
0
 62
     7
100
AcDbVertex
100
AcDb2dVertex
 10
97.964786
 20
-15.024801
 30
0.0
  0
VERTEX
  5
58B
100
AcDbEntity
  8
0
390
0
 62
     7
100
AcDbVertex
100
AcDb2dVertex
 10
97.932837
 20
-15.008897
 30
0.0
  0
SEQEND
  5
58C
100
AcDbEntity
  8
0
390
0
  0
LINE
  5
58D
100
AcDbEntity
  8
0
390
0
  6
Continuous
 62
     7
100
AcDbLine
 10
98.105297
 20
-14.879682
 30
0.0
 11
98.107043
 21
-14.914112
 31
0.0
  0
LINE
  5
58E
100
AcDbEntity
  8
0
390
0
  6
Continuous
 62
     7
100
AcDbLine
 10
98.103918
 20
-14.847102
 30
0.0
 11
98.105297
 21
-14.879682
 31
0.0
  0
LINE
  5
58F
100
AcDbEntity
  8
0
390
0
  6
Continuous
 62
     7
100
AcDbLine
 10
98.102881
 20
-14.815957
 30
0.0
 11
98.103918
 21
-14.847102
 31
0.0
  0
LINE
  5
590
100
AcDbEntity
  8
0
390
0
  6
Continuous
 62
     7
100
AcDbLine
 10
98.102184
 20
-14.78626
 30
0.0
 11
98.102881
 21
-14.815957
 31
0.0
  0
LINE
  5
591
100
AcDbEntity
  8
0
390
0
  6
Continuous
 62
     7
100
AcDbLine
 10
98.101825
 20
-14.758023
 30
0.0
 11
98.102184
 21
-14.78626
 31
0.0
  0
LINE
  5
592
100
AcDbEntity
  8
0
390
0
  6
Continuous
 62
     7
100
AcDbLine
 10
98.1018
 20
-14.731262
 30
0.0
 11
98.101825
 21
-14.758023
 31
0.0
  0
LINE
  5
593
100
AcDbEntity
  8
0
390
0
  6
Continuous
 62
     7
100
AcDbLine
 10
98.102104
 20
-14.705994
 30
0.0
 11
98.1018
 21
-14.731262
 31
0.0
  0
LINE
  5
594
100
AcDbEntity
  8
0
390
0
  6
Continuous
 62
     7
100
AcDbLine
 10
98.10273
 20
-14.682243
 30
0.0
 11
98.102104
 21
-14.705994
 31
0.0
  0
LINE
  5
595
100
AcDbEntity
  8
0
390
0
  6
Continuous
 62
     7
100
AcDbLine
 10
98.10367
 20
-14.660035
 30
0.0
 11
98.10273
 21
-14.682243
 31
0.0
  0
LINE
  5
596
100
AcDbEntity
  8
0
390
0
  6
Continuous
 62
     7
100
AcDbLine
 10
98.104827
 20
-14.640815
 30
0.0
 11
98.10367
 21
-14.660035
 31
0.0
  0
LINE
  5
597
100
AcDbEntity
  8
0
390
0
  6
Continuous
 62
     7
100
AcDbLine
 10
98.116097
 20
-14.534782
 30
0.0
 11
98.104827
 21
-14.640815
 31
0.0
  0
LINE
  5
598
100
AcDbEntity
  8
0
390
0
  6
Continuous
 62
     7
100
AcDbLine
 10
98.134473
 20
-14.434316
 30
0.0
 11
98.116097
 21
-14.534782
 31
0.0
  0
LINE
  5
599
100
AcDbEntity
  8
0
390
0
  6
Continuous
 62
     7
100
AcDbLine
 10
98.160043
 20
-14.33789
 30
0.0
 11
98.134473
 21
-14.434316
 31
0.0
  0
LINE
  5
59A
100
AcDbEntity
  8
0
390
0
  6
Continuous
 62
     7
100
AcDbLine
 10
98.192786
 20
-14.24534
 30
0.0
 11
98.160043
 21
-14.33789
 31
0.0
  0
LINE
  5
59B
100
AcDbEntity
  8
0
390
0
  6
Continuous
 62
     7
100
AcDbLine
 10
98.232719
 20
-14.156489
 30
0.0
 11
98.192786
 21
-14.24534
 31
0.0
  0
LINE
  5
59C
100
AcDbEntity
  8
0
390
0
  6
Continuous
 62
     7
100
AcDbLine
 10
98.279907
 20
-14.071166
 30
0.0
 11
98.232719
 21
-14.156489
 31
0.0
  0
LINE
  5
59D
100
AcDbEntity
  8
0
390
0
  6
Continuous
 62
     7
100
AcDbLine
 10
98.334454
 20
-13.989219
 30
0.0
 11
98.279907
 21
-14.071166
 31
0.0
  0
LINE
  5
59E
100
AcDbEntity
  8
0
390
0
  6
Continuous
 62
     7
100
AcDbLine
 10
98.396493
 20
-13.910533
 30
0.0
 11
98.334454
 21
-13.989219
 31
0.0
  0
LINE
  5
59F
100
AcDbEntity
  8
0
390
0
  6
Continuous
 62
     7
100
AcDbLine
 10
98.46617
 20
-13.835037
 30
0.0
 11
98.396493
 21
-13.910533
 31
0.0
  0
LINE
  5
5A0
100
AcDbEntity
  8
0
390
0
  6
Continuous
 62
     7
100
AcDbLine
 10
98.54382
 20
-13.762518
 30
0.0
 11
98.46617
 21
-13.835037
 31
0.0
  0
LINE
  5
5A1
100
AcDbEntity
  8
0
390
0
  6
Continuous
 62
     7
100
AcDbLine
 10
98.623593
 20
-13.697239
 30
0.0
 11
98.54382
 21
-13.762518
 31
0.0
  0
LINE
  5
5A2
100
AcDbEntity
  8
0
390
0
  6
Continuous
 62
     7
100
AcDbLine
 10
98.703732
 20
-13.639722
 30
0.0
 11
98.623593
 21
-13.697239
 31
0.0
  0
LINE
  5
5A3
100
AcDbEntity
  8
0
390
0
  6
Continuous
 62
     7
100
AcDbLine
 10
98.783897
 20
-13.590106
 30
0.0
 11
98.703732
 21
-13.639722
 31
0.0
  0
LINE
  5
5A4
100
AcDbEntity
  8
0
390
0
  6
Continuous
 62
     7
100
AcDbLine
 10
98.864081
 20
-13.548264
 30
0.0
 11
98.783897
 21
-13.590106
 31
0.0
  0
LINE
  5
5A5
100
AcDbEntity
  8
0
390
0
  6
Continuous
 62
     7
100
AcDbLine
 10
98.944316
 20
-13.514048
 30
0.0
 11
98.864081
 21
-13.548264
 31
0.0
  0
LINE
  5
5A6
100
AcDbEntity
  8
0
390
0
  6
Continuous
 62
     7
100
AcDbLine
 10
99.024685
 20
-13.48731
 30
0.0
 11
98.944316
 21
-13.514048
 31
0.0
  0
LINE
  5
5A7
100
AcDbEntity
  8
0
390
0
  6
Continuous
 62
     7
100
AcDbLine
 10
99.105322
 20
-13.467912
 30
0.0
 11
99.024685
 21
-13.48731
 31
0.0
  0
LINE
  5
5A8
100
AcDbEntity
  8
0
390
0
  6
Continuous
 62
     7
100
AcDbLine
 10
99.18641
 20
-13.455752
 30
0.0
 11
99.105322
 21
-13.467912
 31
0.0
  0
LINE
  5
5A9
100
AcDbEntity
  8
0
390
0
  6
Continuous
 62
     7
100
AcDbLine
 10
99.26816
 20
-13.450773
 30
0.0
 11
99.18641
 21
-13.455752
 31
0.0
  0
LINE
  5
5AA
100
AcDbEntity
  8
0
390
0
  6
Continuous
 62
     7
100
AcDbLine
 10
99.351195
 20
-13.452989
 30
0.0
 11
99.26816
 21
-13.450773
 31
0.0
  0
LINE
  5
5AB
100
AcDbEntity
  8
0
390
0
  6
Continuous
 62
     7
100
AcDbLine
 10
99.420803
 20
-13.460328
 30
0.0
 11
99.351195
 21
-13.452989
 31
0.0
  0
LINE
  5
5AC
100
AcDbEntity
  8
0
390
0
  6
Continuous
 62
     7
100
AcDbLine
 10
99.48776
 20
-13.472412
 30
0.0
 11
99.420803
 21
-13.460328
 31
0.0
  0
LINE
  5
5AD
100
AcDbEntity
  8
0
390
0
  6
Continuous
 62
     7
100
AcDbLine
 10
99.551704
 20
-13.489122
 30
0.0
 11
99.48776
 21
-13.472412
 31
0.0
  0
LINE
  5
5AE
100
AcDbEntity
  8
0
390
0
  6
Continuous
 62
     7
100
AcDbLine
 10
99.612788
 20
-13.510423
 30
0.0
 11
99.551704
 21
-13.489122
 31
0.0
  0
LINE
  5
5AF
100
AcDbEntity
  8
0
390
0
  6
Continuous
 62
     7
100
AcDbLine
 10
99.671188
 20
-13.536322
 30
0.0
 11
99.612788
 21
-13.510423
 31
0.0
  0
LINE
  5
5B0
100
AcDbEntity
  8
0
390
0
  6
Continuous
 62
     7
100
AcDbLine
 10
99.727077
 20
-13.566869
 30
0.0
 11
99.671188
 21
-13.536322
 31
0.0
  0
LINE
  5
5B1
100
AcDbEntity
  8
0
390
0
  6
Continuous
 62
     7
100
AcDbLine
 10
99.780615
 20
-13.602158
 30
0.0
 11
99.727077
 21
-13.566869
 31
0.0
  0
LINE
  5
5B2
100
AcDbEntity
  8
0
390
0
  6
Continuous
 62
     7
100
AcDbLine
 10
99.83193
 20
-13.642315
 30
0.0
 11
99.780615
 21
-13.602158
 31
0.0
  0
LINE
  5
5B3
100
AcDbEntity
  8
0
390
0
  6
Continuous
 62
     7
100
AcDbLine
 10
99.881108
 20
-13.687486
 30
0.0
 11
99.83193
 21
-13.642315
 31
0.0
  0
LINE
  5
5B4
100
AcDbEntity
  8
0
390
0
  6
Continuous
 62
     7
100
AcDbLine
 10
99.928147
 20
-13.737768
 30
0.0
 11
99.881108
 21
-13.687486
 31
0.0
  0
LINE
  5
5B5
100
AcDbEntity
  8
0
390
0
  6
Continuous
 62
     7
100
AcDbLine
 10
99.979123
 20
-13.80095
 30
0.0
 11
99.928147
 21
-13.737768
 31
0.0
  0
LINE
  5
5B6
100
AcDbEntity
  8
0
390
0
  6
Continuous
 62
     7
100
AcDbLine
 10
100.023823
 20
-13.865902
 30
0.0
 11
99.979123
 21
-13.80095
 31
0.0
  0
LINE
  5
5B7
100
AcDbEntity
  8
0
390
0
  6
Continuous
 62
     7
100
AcDbLine
 10
100.062359
 20
-13.932656
 30
0.0
 11
100.023823
 21
-13.865902
 31
0.0
  0
LINE
  5
5B8
100
AcDbEntity
  8
0
390
0
  6
Continuous
 62
     7
100
AcDbLine
 10
100.09486
 20
-14.001321
 30
0.0
 11
100.062359
 21
-13.932656
 31
0.0
  0
LINE
  5
5B9
100
AcDbEntity
  8
0
390
0
  6
Continuous
 62
     7
100
AcDbLine
 10
100.121433
 20
-14.072045
 30
0.0
 11
100.09486
 21
-14.001321
 31
0.0
  0
LINE
  5
5BA
100
AcDbEntity
  8
0
390
0
  6
Continuous
 62
     7
100
AcDbLine
 10
100.142146
 20
-14.144998
 30
0.0
 11
100.121433
 21
-14.072045
 31
0.0
  0
LINE
  5
5BB
100
AcDbEntity
  8
0
390
0
  6
Continuous
 62
     7
100
AcDbLine
 10
100.157021
 20
-14.220363
 30
0.0
 11
100.142146
 21
-14.144998
 31
0.0
  0
LINE
  5
5BC
100
AcDbEntity
  8
0
390
0
  6
Continuous
 62
     7
100
AcDbLine
 10
100.166037
 20
-14.298309
 30
0.0
 11
100.157021
 21
-14.220363
 31
0.0
  0
LINE
  5
5BD
100
AcDbEntity
  8
0
390
0
  6
Continuous
 62
     7
100
AcDbLine
 10
100.169135
 20
-14.378983
 30
0.0
 11
100.166037
 21
-14.298309
 31
0.0
  0
LINE
  5
5BE
100
AcDbEntity
  8
0
390
0
  6
Continuous
 62
     7
100
AcDbLine
 10
100.166258
 20
-14.461751
 30
0.0
 11
100.169135
 21
-14.378983
 31
0.0
  0
LINE
  5
5BF
100
AcDbEntity
  8
0
390
0
  6
Continuous
 62
     7
100
AcDbLine
 10
100.157069
 20
-14.539664
 30
0.0
 11
100.166258
 21
-14.461751
 31
0.0
  0
LINE
  5
5C0
100
AcDbEntity
  8
0
390
0
  6
Continuous
 62
     7
100
AcDbLine
 10
100.140578
 20
-14.616123
 30
0.0
 11
100.157069
 21
-14.539664
 31
0.0
  0
LINE
  5
5C1
100
AcDbEntity
  8
0
390
0
  6
Continuous
 62
     7
100
AcDbLine
 10
100.116604
 20
-14.692053
 30
0.0
 11
100.140578
 21
-14.616123
 31
0.0
  0
LINE
  5
5C2
100
AcDbEntity
  8
0
390
0
  6
Continuous
 62
     7
100
AcDbLine
 10
100.084986
 20
-14.767649
 30
0.0
 11
100.116604
 21
-14.692053
 31
0.0
  0
LINE
  5
5C3
100
AcDbEntity
  8
0
390
0
  6
Continuous
 62
     7
100
AcDbLine
 10
100.045535
 20
-14.843041
 30
0.0
 11
100.084986
 21
-14.767649
 31
0.0
  0
LINE
  5
5C4
100
AcDbEntity
  8
0
390
0
  6
Continuous
 62
     7
100
AcDbLine
 10
99.998064
 20
-14.918283
 30
0.0
 11
100.045535
 21
-14.843041
 31
0.0
  0
LINE
  5
5C5
100
AcDbEntity
  8
0
390
0
  6
Continuous
 62
     7
100
AcDbLine
 10
99.942402
 20
-14.993375
 30
0.0
 11
99.998064
 21
-14.918283
 31
0.0
  0
LINE
  5
5C6
100
AcDbEntity
  8
0
390
0
  6
Continuous
 62
     7
100
AcDbLine
 10
99.87841
 20
-15.068271
 30
0.0
 11
99.942402
 21
-14.993375
 31
0.0
  0
LINE
  5
5C7
100
AcDbEntity
  8
0
390
0
  6
Continuous
 62
     7
100
AcDbLine
 10
99.805982
 20
-15.1429
 30
0.0
 11
99.87841
 21
-15.068271
 31
0.0
  0
LINE
  5
5C8
100
AcDbEntity
  8
0
390
0
  6
Continuous
 62
     7
100
AcDbLine
 10
99.725255
 20
-15.216988
 30
0.0
 11
99.805982
 21
-15.1429
 31
0.0
  0
LINE
  5
5C9
100
AcDbEntity
  8
0
390
0
  6
Continuous
 62
     7
100
AcDbLine
 10
99.628466
 20
-15.296021
 30
0.0
 11
99.725255
 21
-15.216988
 31
0.0
  0
LINE
  5
5CA
100
AcDbEntity
  8
0
390
0
  6
Continuous
 62
     7
100
AcDbLine
 10
99.531177
 20
-15.3654
 30
0.0
 11
99.628466
 21
-15.296021
 31
0.0
  0
LINE
  5
5CB
100
AcDbEntity
  8
0
390
0
  6
Continuous
 62
     7
100
AcDbLine
 10
99.433294
 20
-15.42533
 30
0.0
 11
99.531177
 21
-15.3654
 31
0.0
  0
LINE
  5
5CC
100
AcDbEntity
  8
0
390
0
  6
Continuous
 62
     7
100
AcDbLine
 10
99.334809
 20
-15.475947
 30
0.0
 11
99.433294
 21
-15.42533
 31
0.0
  0
LINE
  5
5CD
100
AcDbEntity
  8
0
390
0
  6
Continuous
 62
     7
100
AcDbLine
 10
99.235668
 20
-15.517392
 30
0.0
 11
99.334809
 21
-15.475947
 31
0.0
  0
LINE
  5
5CE
100
AcDbEntity
  8
0
390
0
  6
Continuous
 62
     7
100
AcDbLine
 10
99.13577
 20
-15.549806
 30
0.0
 11
99.235668
 21
-15.517392
 31
0.0
  0
LINE
  5
5CF
100
AcDbEntity
  8
0
390
0
  6
Continuous
 62
     7
100
AcDbLine
 10
99.034966
 20
-15.573308
 30
0.0
 11
99.13577
 21
-15.549806
 31
0.0
  0
LINE
  5
5D0
100
AcDbEntity
  8
0
390
0
  6
Continuous
 62
     7
100
AcDbLine
 10
98.93307
 20
-15.58798
 30
0.0
 11
99.034966
 21
-15.573308
 31
0.0
  0
LINE
  5
5D1
100
AcDbEntity
  8
0
390
0
  6
Continuous
 62
     7
100
AcDbLine
 10
98.829875
 20
-15.593853
 30
0.0
 11
98.93307
 21
-15.58798
 31
0.0
  0
LINE
  5
5D2
100
AcDbEntity
  8
0
390
0
  6
Continuous
 62
     7
100
AcDbLine
 10
98.725511
 20
-15.590917
 30
0.0
 11
98.829875
 21
-15.593853
 31
0.0
  0
LINE
  5
5D3
100
AcDbEntity
  8
0
390
0
  6
Continuous
 62
     7
100
AcDbLine
 10
98.63041
 20
-15.579759
 30
0.0
 11
98.725511
 21
-15.590917
 31
0.0
  0
LINE
  5
5D4
100
AcDbEntity
  8
0
390
0
  6
Continuous
 62
     7
100
AcDbLine
 10
98.536728
 20
-15.559712
 30
0.0
 11
98.63041
 21
-15.579759
 31
0.0
  0
LINE
  5
5D5
100
AcDbEntity
  8
0
390
0
  6
Continuous
 62
     7
100
AcDbLine
 10
98.443942
 20
-15.530648
 30
0.0
 11
98.536728
 21
-15.559712
 31
0.0
  0
LINE
  5
5D6
100
AcDbEntity
  8
0
390
0
  6
Continuous
 62
     7
100
AcDbLine
 10
98.351853
 20
-15.49242
 30
0.0
 11
98.443942
 21
-15.530648
 31
0.0
  0
LINE
  5
5D7
100
AcDbEntity
  8
0
390
0
  6
Continuous
 62
     7
100
AcDbLine
 10
98.260328
 20
-15.444847
 30
0.0
 11
98.351853
 21
-15.49242
 31
0.0
  0
LINE
  5
5D8
100
AcDbEntity
  8
0
390
0
  6
Continuous
 62
     7
100
AcDbLine
 10
98.1693
 20
-15.387743
 30
0.0
 11
98.260328
 21
-15.444847
 31
0.0
  0
LINE
  5
5D9
100
AcDbEntity
  8
0
390
0
  6
Continuous
 62
     7
100
AcDbLine
 10
98.078764
 20
-15.320939
 30
0.0
 11
98.1693
 21
-15.387743
 31
0.0
  0
LINE
  5
5DA
100
AcDbEntity
  8
0
390
0
  6
Continuous
 62
     7
100
AcDbLine
 10
97.988758
 20
-15.244294
 30
0.0
 11
98.078764
 21
-15.320939
 31
0.0
  0
LINE
  5
5DB
100
AcDbEntity
  8
0
390
0
  6
Continuous
 62
     7
100
AcDbLine
 10
97.899347
 20
-15.1577
 30
0.0
 11
97.988758
 21
-15.244294
 31
0.0
  0
LINE
  5
5DC
100
AcDbEntity
  8
0
390
0
  6
Continuous
 62
     7
100
AcDbLine
 10
97.810717
 20
-15.061195
 30
0.0
 11
97.899347
 21
-15.1577
 31
0.0
  0
LINE
  5
5DD
100
AcDbEntity
  8
0
390
0
  6
Continuous
 62
     7
100
AcDbLine
 10
97.711993
 20
-14.94077
 30
0.0
 11
97.810717
 21
-15.061195
 31
0.0
  0
LINE
  5
5DE
100
AcDbEntity
  8
0
390
0
  6
Continuous
 62
     7
100
AcDbLine
 10
97.624861
 20
-14.820077
 30
0.0
 11
97.711993
 21
-14.94077
 31
0.0
  0
LINE
  5
5DF
100
AcDbEntity
  8
0
390
0
  6
Continuous
 62
     7
100
AcDbLine
 10
97.549209
 20
-14.699138
 30
0.0
 11
97.624861
 21
-14.820077
 31
0.0
  0
LINE
  5
5E0
100
AcDbEntity
  8
0
390
0
  6
Continuous
 62
     7
100
AcDbLine
 10
97.484916
 20
-14.577967
 30
0.0
 11
97.549209
 21
-14.699138
 31
0.0
  0
LINE
  5
5E1
100
AcDbEntity
  8
0
390
0
  6
Continuous
 62
     7
100
AcDbLine
 10
97.431846
 20
-14.456543
 30
0.0
 11
97.484916
 21
-14.577967
 31
0.0
  0
LINE
  5
5E2
100
AcDbEntity
  8
0
390
0
  6
Continuous
 62
     7
100
AcDbLine
 10
97.389854
 20
-14.334796
 30
0.0
 11
97.431846
 21
-14.456543
 31
0.0
  0
LINE
  5
5E3
100
AcDbEntity
  8
0
390
0
  6
Continuous
 62
     7
100
AcDbLine
 10
97.358805
 20
-14.21261
 30
0.0
 11
97.389854
 21
-14.334796
 31
0.0
  0
LINE
  5
5E4
100
AcDbEntity
  8
0
390
0
  6
Continuous
 62
     7
100
AcDbLine
 10
97.33859
 20
-14.08982
 30
0.0
 11
97.358805
 21
-14.21261
 31
0.0
  0
LINE
  5
5E5
100
AcDbEntity
  8
0
390
0
  6
Continuous
 62
     7
100
AcDbLine
 10
97.329142
 20
-13.966228
 30
0.0
 11
97.33859
 21
-14.08982
 31
0.0
  0
LINE
  5
5E6
100
AcDbEntity
  8
0
390
0
  6
Continuous
 62
     7
100
AcDbLine
 10
97.33044
 20
-13.842327
 30
0.0
 11
97.329142
 21
-13.966228
 31
0.0
  0
LINE
  5
5E7
100
AcDbEntity
  8
0
390
0
  6
Continuous
 62
     7
100
AcDbLine
 10
97.341702
 20
-13.739134
 30
0.0
 11
97.33044
 21
-13.842327
 31
0.0
  0
LINE
  5
5E8
100
AcDbEntity
  8
0
390
0
  6
Continuous
 62
     7
100
AcDbLine
 10
97.36098
 20
-13.638225
 30
0.0
 11
97.341702
 21
-13.739134
 31
0.0
  0
LINE
  5
5E9
100
AcDbEntity
  8
0
390
0
  6
Continuous
 62
     7
100
AcDbLine
 10
97.388119
 20
-13.540597
 30
0.0
 11
97.36098
 21
-13.638225
 31
0.0
  0
LINE
  5
5EA
100
AcDbEntity
  8
0
390
0
  6
Continuous
 62
     7
100
AcDbLine
 10
97.423134
 20
-13.446063
 30
0.0
 11
97.388119
 21
-13.540597
 31
0.0
  0
LINE
  5
5EB
100
AcDbEntity
  8
0
390
0
  6
Continuous
 62
     7
100
AcDbLine
 10
97.46609
 20
-13.354444
 30
0.0
 11
97.423134
 21
-13.446063
 31
0.0
  0
LINE
  5
5EC
100
AcDbEntity
  8
0
390
0
  6
Continuous
 62
     7
100
AcDbLine
 10
97.517093
 20
-13.265583
 30
0.0
 11
97.46609
 21
-13.354444
 31
0.0
  0
LINE
  5
5ED
100
AcDbEntity
  8
0
390
0
  6
Continuous
 62
     7
100
AcDbLine
 10
97.576274
 20
-13.179362
 30
0.0
 11
97.517093
 21
-13.265583
 31
0.0
  0
LINE
  5
5EE
100
AcDbEntity
  8
0
390
0
  6
Continuous
 62
     7
100
AcDbLine
 10
97.64378
 20
-13.095709
 30
0.0
 11
97.576274
 21
-13.179362
 31
0.0
  0
LINE
  5
5EF
100
AcDbEntity
  8
0
390
0
  6
Continuous
 62
     7
100
AcDbLine
 10
97.719751
 20
-13.014594
 30
0.0
 11
97.64378
 21
-13.095709
 31
0.0
  0
LINE
  5
5F0
100
AcDbEntity
  8
0
390
0
  6
Continuous
 62
     7
100
AcDbLine
 10
97.905776
 20
-12.853994
 30
0.0
 11
97.855279
 21
-12.893233
 31
0.0
  0
LINE
  5
5F1
100
AcDbEntity
  8
0
390
0
  6
Continuous
 62
     7
100
AcDbLine
 10
97.955679
 20
-12.818319
 30
0.0
 11
97.905776
 21
-12.853994
 31
0.0
  0
LINE
  5
5F2
100
AcDbEntity
  8
0
390
0
  6
Continuous
 62
     7
100
AcDbLine
 10
98.00496
 20
-12.786183
 30
0.0
 11
97.955679
 21
-12.818319
 31
0.0
  0
LINE
  5
5F3
100
AcDbEntity
  8
0
390
0
  6
Continuous
 62
     7
100
AcDbLine
 10
98.05359
 20
-12.757551
 30
0.0
 11
98.00496
 21
-12.786183
 31
0.0
  0
LINE
  5
5F4
100
AcDbEntity
  8
0
390
0
  6
Continuous
 62
     7
100
AcDbLine
 10
98.101549
 20
-12.732381
 30
0.0
 11
98.05359
 21
-12.757551
 31
0.0
  0
LINE
  5
5F5
100
AcDbEntity
  8
0
390
0
  6
Continuous
 62
     7
100
AcDbLine
 10
98.148822
 20
-12.710622
 30
0.0
 11
98.101549
 21
-12.732381
 31
0.0
  0
LINE
  5
5F6
100
AcDbEntity
  8
0
390
0
  6
Continuous
 62
     7
100
AcDbLine
 10
98.195403
 20
-12.692215
 30
0.0
 11
98.148822
 21
-12.710622
 31
0.0
  0
LINE
  5
5F7
100
AcDbEntity
  8
0
390
0
  6
Continuous
 62
     7
100
AcDbLine
 10
98.241304
 20
-12.677097
 30
0.0
 11
98.195403
 21
-12.692215
 31
0.0
  0
LINE
  5
5F8
100
AcDbEntity
  8
0
390
0
  6
Continuous
 62
     7
100
AcDbLine
 10
98.287628
 20
-12.664914
 30
0.0
 11
98.241304
 21
-12.677097
 31
0.0
  0
LINE
  5
5F9
100
AcDbEntity
  8
0
390
0
  6
Continuous
 62
     7
100
AcDbLine
 10
98.347748
 20
-12.651862
 30
0.0
 11
98.287628
 21
-12.664914
 31
0.0
  0
LINE
  5
5FA
100
AcDbEntity
  8
0
390
0
  6
Continuous
 62
     7
100
AcDbLine
 10
100.076452
 20
-14.359212
 30
0.0
 11
100.078901
 21
-14.42904
 31
0.0
  0
LINE
  5
5FB
100
AcDbEntity
  8
0
390
0
  6
Continuous
 62
     7
100
AcDbLine
 10
100.068913
 20
-14.290984
 30
0.0
 11
100.076452
 21
-14.359212
 31
0.0
  0
LINE
  5
5FC
100
AcDbEntity
  8
0
390
0
  6
Continuous
 62
     7
100
AcDbLine
 10
100.056228
 20
-14.224464
 30
0.0
 11
100.068913
 21
-14.290984
 31
0.0
  0
LINE
  5
5FD
100
AcDbEntity
  8
0
390
0
  6
Continuous
 62
     7
100
AcDbLine
 10
100.038363
 20
-14.159783
 30
0.0
 11
100.056228
 21
-14.224464
 31
0.0
  0
LINE
  5
5FE
100
AcDbEntity
  8
0
390
0
  6
Continuous
 62
     7
100
AcDbLine
 10
100.015321
 20
-14.097089
 30
0.0
 11
100.038363
 21
-14.159783
 31
0.0
  0
LINE
  5
5FF
100
AcDbEntity
  8
0
390
0
  6
Continuous
 62
     7
100
AcDbLine
 10
99.987144
 20
-14.036529
 30
0.0
 11
100.015321
 21
-14.097089
 31
0.0
  0
LINE
  5
600
100
AcDbEntity
  8
0
390
0
  6
Continuous
 62
     7
100
AcDbLine
 10
99.953907
 20
-13.978235
 30
0.0
 11
99.987144
 21
-14.036529
 31
0.0
  0
LINE
  5
601
100
AcDbEntity
  8
0
390
0
  6
Continuous
 62
     7
100
AcDbLine
 10
99.915712
 20
-13.922315
 30
0.0
 11
99.953907
 21
-13.978235
 31
0.0
  0
LINE
  5
602
100
AcDbEntity
  8
0
390
0
  6
Continuous
 62
     7
100
AcDbLine
 10
99.872744
 20
-13.868922
 30
0.0
 11
99.915712
 21
-13.922315
 31
0.0
  0
LINE
  5
603
100
AcDbEntity
  8
0
390
0
  6
Continuous
 62
     7
100
AcDbLine
 10
99.82216
 20
-13.814646
 30
0.0
 11
99.872744
 21
-13.868922
 31
0.0
  0
LINE
  5
604
100
AcDbEntity
  8
0
390
0
  6
Continuous
 62
     7
100
AcDbLine
 10
99.769022
 20
-13.765319
 30
0.0
 11
99.82216
 21
-13.814646
 31
0.0
  0
LINE
  5
605
100
AcDbEntity
  8
0
390
0
  6
Continuous
 62
     7
100
AcDbLine
 10
99.713209
 20
-13.720909
 30
0.0
 11
99.769022
 21
-13.765319
 31
0.0
  0
LINE
  5
606
100
AcDbEntity
  8
0
390
0
  6
Continuous
 62
     7
100
AcDbLine
 10
99.654765
 20
-13.681535
 30
0.0
 11
99.713209
 21
-13.720909
 31
0.0
  0
LINE
  5
607
100
AcDbEntity
  8
0
390
0
  6
Continuous
 62
     7
100
AcDbLine
 10
99.593771
 20
-13.64731
 30
0.0
 11
99.654765
 21
-13.681535
 31
0.0
  0
LINE
  5
608
100
AcDbEntity
  8
0
390
0
  6
Continuous
 62
     7
100
AcDbLine
 10
99.530341
 20
-13.618328
 30
0.0
 11
99.593771
 21
-13.64731
 31
0.0
  0
LINE
  5
609
100
AcDbEntity
  8
0
390
0
  6
Continuous
 62
     7
100
AcDbLine
 10
99.464612
 20
-13.594656
 30
0.0
 11
99.530341
 21
-13.618328
 31
0.0
  0
LINE
  5
60A
100
AcDbEntity
  8
0
390
0
  6
Continuous
 62
     7
100
AcDbLine
 10
99.396731
 20
-13.576324
 30
0.0
 11
99.464612
 21
-13.594656
 31
0.0
  0
LINE
  5
60B
100
AcDbEntity
  8
0
390
0
  6
Continuous
 62
     7
100
AcDbLine
 10
99.326839
 20
-13.563324
 30
0.0
 11
99.396731
 21
-13.576324
 31
0.0
  0
LINE
  5
60C
100
AcDbEntity
  8
0
390
0
  6
Continuous
 62
     7
100
AcDbLine
 10
99.254798
 20
-13.555589
 30
0.0
 11
99.326839
 21
-13.563324
 31
0.0
  0
LINE
  5
60D
100
AcDbEntity
  8
0
390
0
  6
Continuous
 62
     7
100
AcDbLine
 10
99.181642
 20
-13.553555
 30
0.0
 11
99.254798
 21
-13.555589
 31
0.0
  0
LINE
  5
60E
100
AcDbEntity
  8
0
390
0
  6
Continuous
 62
     7
100
AcDbLine
 10
99.10888
 20
-13.557758
 30
0.0
 11
99.181642
 21
-13.553555
 31
0.0
  0
LINE
  5
60F
100
AcDbEntity
  8
0
390
0
  6
Continuous
 62
     7
100
AcDbLine
 10
99.036866
 20
-13.56822
 30
0.0
 11
99.10888
 21
-13.557758
 31
0.0
  0
LINE
  5
610
100
AcDbEntity
  8
0
390
0
  6
Continuous
 62
     7
100
AcDbLine
 10
98.965771
 20
-13.584908
 30
0.0
 11
99.036866
 21
-13.56822
 31
0.0
  0
LINE
  5
611
100
AcDbEntity
  8
0
390
0
  6
Continuous
 62
     7
100
AcDbLine
 10
98.895747
 20
-13.607753
 30
0.0
 11
98.965771
 21
-13.584908
 31
0.0
  0
LINE
  5
612
100
AcDbEntity
  8
0
390
0
  6
Continuous
 62
     7
100
AcDbLine
 10
98.826912
 20
-13.636654
 30
0.0
 11
98.895747
 21
-13.607753
 31
0.0
  0
LINE
  5
613
100
AcDbEntity
  8
0
390
0
  6
Continuous
 62
     7
100
AcDbLine
 10
98.759348
 20
-13.671494
 30
0.0
 11
98.826912
 21
-13.636654
 31
0.0
  0
LINE
  5
614
100
AcDbEntity
  8
0
390
0
  6
Continuous
 62
     7
100
AcDbLine
 10
98.693092
 20
-13.712156
 30
0.0
 11
98.759348
 21
-13.671494
 31
0.0
  0
LINE
  5
615
100
AcDbEntity
  8
0
390
0
  6
Continuous
 62
     7
100
AcDbLine
 10
98.628151
 20
-13.758531
 30
0.0
 11
98.693092
 21
-13.712156
 31
0.0
  0
LINE
  5
616
100
AcDbEntity
  8
0
390
0
  6
Continuous
 62
     7
100
AcDbLine
 10
98.564098
 20
-13.810858
 30
0.0
 11
98.628151
 21
-13.758531
 31
0.0
  0
LINE
  5
617
100
AcDbEntity
  8
0
390
0
  6
Continuous
 62
     7
100
AcDbLine
 10
98.486943
 20
-13.883688
 30
0.0
 11
98.564098
 21
-13.810858
 31
0.0
  0
LINE
  5
618
100
AcDbEntity
  8
0
390
0
  6
Continuous
 62
     7
100
AcDbLine
 10
98.416541
 20
-13.962285
 30
0.0
 11
98.486943
 21
-13.883688
 31
0.0
  0
LINE
  5
619
100
AcDbEntity
  8
0
390
0
  6
Continuous
 62
     7
100
AcDbLine
 10
98.353336
 20
-14.046254
 30
0.0
 11
98.416541
 21
-13.962285
 31
0.0
  0
LINE
  5
61A
100
AcDbEntity
  8
0
390
0
  6
Continuous
 62
     7
100
AcDbLine
 10
98.297433
 20
-14.135467
 30
0.0
 11
98.353336
 21
-14.046254
 31
0.0
  0
LINE
  5
61B
100
AcDbEntity
  8
0
390
0
  6
Continuous
 62
     7
100
AcDbLine
 10
98.248899
 20
-14.229774
 30
0.0
 11
98.297433
 21
-14.135467
 31
0.0
  0
LINE
  5
61C
100
AcDbEntity
  8
0
390
0
  6
Continuous
 62
     7
100
AcDbLine
 10
98.207759
 20
-14.329022
 30
0.0
 11
98.248899
 21
-14.229774
 31
0.0
  0
LINE
  5
61D
100
AcDbEntity
  8
0
390
0
  6
Continuous
 62
     7
100
AcDbLine
 10
98.174001
 20
-14.43307
 30
0.0
 11
98.207759
 21
-14.329022
 31
0.0
  0
LINE
  5
61E
100
AcDbEntity
  8
0
390
0
  6
Continuous
 62
     7
100
AcDbLine
 10
98.147577
 20
-14.541798
 30
0.0
 11
98.174001
 21
-14.43307
 31
0.0
  0
LINE
  5
61F
100
AcDbEntity
  8
0
390
0
  6
Continuous
 62
     7
100
AcDbLine
 10
98.128422
 20
-14.655118
 30
0.0
 11
98.147577
 21
-14.541798
 31
0.0
  0
LINE
  5
620
100
AcDbEntity
  8
0
390
0
  6
Continuous
 62
     7
100
AcDbLine
 10
98.116563
 20
-14.771937
 30
0.0
 11
98.128422
 21
-14.655118
 31
0.0
  0
LINE
  5
621
100
AcDbEntity
  8
0
390
0
  6
Continuous
 62
     7
100
AcDbLine
 10
98.114463
 20
-14.80537
 30
0.0
 11
98.116563
 21
-14.771937
 31
0.0
  0
LINE
  5
622
100
AcDbEntity
  8
0
390
0
  6
Continuous
 62
     7
100
AcDbLine
 10
98.11286
 20
-14.838155
 30
0.0
 11
98.114463
 21
-14.80537
 31
0.0
  0
LINE
  5
623
100
AcDbEntity
  8
0
390
0
  6
Continuous
 62
     7
100
AcDbLine
 10
98.111685
 20
-14.871379
 30
0.0
 11
98.11286
 21
-14.838155
 31
0.0
  0
LINE
  5
624
100
AcDbEntity
  8
0
390
0
  6
Continuous
 62
     7
100
AcDbLine
 10
98.110936
 20
-14.90504
 30
0.0
 11
98.111685
 21
-14.871379
 31
0.0
  0
LINE
  5
625
100
AcDbEntity
  8
0
390
0
  6
Continuous
 62
     7
100
AcDbLine
 10
98.110612
 20
-14.939141
 30
0.0
 11
98.110936
 21
-14.90504
 31
0.0
  0
LINE
  5
626
100
AcDbEntity
  8
0
390
0
  6
Continuous
 62
     7
100
AcDbLine
 10
98.110712
 20
-14.973682
 30
0.0
 11
98.110612
 21
-14.939141
 31
0.0
  0
LINE
  5
627
100
AcDbEntity
  8
0
390
0
  6
Continuous
 62
     7
100
AcDbLine
 10
98.111235
 20
-15.008664
 30
0.0
 11
98.110712
 21
-14.973682
 31
0.0
  0
LINE
  5
628
100
AcDbEntity
  8
0
390
0
  6
Continuous
 62
     7
100
AcDbLine
 10
98.112179
 20
-15.044088
 30
0.0
 11
98.111235
 21
-15.008664
 31
0.0
  0
LINE
  5
629
100
AcDbEntity
  8
0
390
0
  6
Continuous
 62
     7
100
AcDbLine
 10
98.113544
 20
-15.079954
 30
0.0
 11
98.112179
 21
-15.044088
 31
0.0
  0
LINE
  5
62A
100
AcDbEntity
  8
0
390
0
  6
Continuous
 62
     7
100
AcDbLine
 10
98.117019
 20
-15.150663
 30
0.0
 11
98.113544
 21
-15.079954
 31
0.0
  0
LINE
  5
62B
100
AcDbEntity
  8
0
390
0
  6
Continuous
 62
     7
100
AcDbLine
 10
98.196544
 20
-15.229545
 30
0.0
 11
98.117019
 21
-15.150663
 31
0.0
  0
LINE
  5
62C
100
AcDbEntity
  8
0
390
0
  6
Continuous
 62
     7
100
AcDbLine
 10
98.25588
 20
-15.281014
 30
0.0
 11
98.196544
 21
-15.229545
 31
0.0
  0
LINE
  5
62D
100
AcDbEntity
  8
0
390
0
  6
Continuous
 62
     7
100
AcDbLine
 10
98.317771
 20
-15.327566
 30
0.0
 11
98.25588
 21
-15.281014
 31
0.0
  0
LINE
  5
62E
100
AcDbEntity
  8
0
390
0
  6
Continuous
 62
     7
100
AcDbLine
 10
98.382175
 20
-15.369113
 30
0.0
 11
98.317771
 21
-15.327566
 31
0.0
  0
LINE
  5
62F
100
AcDbEntity
  8
0
390
0
  6
Continuous
 62
     7
100
AcDbLine
 10
98.449027
 20
-15.405577
 30
0.0
 11
98.382175
 21
-15.369113
 31
0.0
  0
LINE
  5
630
100
AcDbEntity
  8
0
390
0
  6
Continuous
 62
     7
100
AcDbLine
 10
98.518242
 20
-15.43689
 30
0.0
 11
98.449027
 21
-15.405577
 31
0.0
  0
LINE
  5
631
100
AcDbEntity
  8
0
390
0
  6
Continuous
 62
     7
100
AcDbLine
 10
98.589718
 20
-15.463005
 30
0.0
 11
98.518242
 21
-15.43689
 31
0.0
  0
LINE
  5
632
100
AcDbEntity
  8
0
390
0
  6
Continuous
 62
     7
100
AcDbLine
 10
98.663349
 20
-15.483899
 30
0.0
 11
98.589718
 21
-15.463005
 31
0.0
  0
LINE
  5
633
100
AcDbEntity
  8
0
390
0
  6
Continuous
 62
     7
100
AcDbLine
 10
98.739031
 20
-15.499574
 30
0.0
 11
98.663349
 21
-15.483899
 31
0.0
  0
LINE
  5
634
100
AcDbEntity
  8
0
390
0
  6
Continuous
 62
     7
100
AcDbLine
 10
98.817444
 20
-15.510157
 30
0.0
 11
98.739031
 21
-15.499574
 31
0.0
  0
LINE
  5
635
100
AcDbEntity
  8
0
390
0
  6
Continuous
 62
     7
100
AcDbLine
 10
98.906857
 20
-15.514582
 30
0.0
 11
98.817444
 21
-15.510157
 31
0.0
  0
LINE
  5
636
100
AcDbEntity
  8
0
390
0
  6
Continuous
 62
     7
100
AcDbLine
 10
98.996608
 20
-15.510455
 30
0.0
 11
98.906857
 21
-15.514582
 31
0.0
  0
LINE
  5
637
100
AcDbEntity
  8
0
390
0
  6
Continuous
 62
     7
100
AcDbLine
 10
99.086038
 20
-15.497778
 30
0.0
 11
98.996608
 21
-15.510455
 31
0.0
  0
LINE
  5
638
100
AcDbEntity
  8
0
390
0
  6
Continuous
 62
     7
100
AcDbLine
 10
99.174944
 20
-15.476635
 30
0.0
 11
99.086038
 21
-15.497778
 31
0.0
  0
LINE
  5
639
100
AcDbEntity
  8
0
390
0
  6
Continuous
 62
     7
100
AcDbLine
 10
99.263171
 20
-15.447154
 30
0.0
 11
99.174944
 21
-15.476635
 31
0.0
  0
LINE
  5
63A
100
AcDbEntity
  8
0
390
0
  6
Continuous
 62
     7
100
AcDbLine
 10
99.350618
 20
-15.409482
 30
0.0
 11
99.263171
 21
-15.447154
 31
0.0
  0
LINE
  5
63B
100
AcDbEntity
  8
0
390
0
  6
Continuous
 62
     7
100
AcDbLine
 10
99.437243
 20
-15.363767
 30
0.0
 11
99.350618
 21
-15.409482
 31
0.0
  0
LINE
  5
63C
100
AcDbEntity
  8
0
390
0
  6
Continuous
 62
     7
100
AcDbLine
 10
99.52305
 20
-15.310143
 30
0.0
 11
99.437243
 21
-15.363767
 31
0.0
  0
LINE
  5
63D
100
AcDbEntity
  8
0
390
0
  6
Continuous
 62
     7
100
AcDbLine
 10
99.608074
 20
-15.248716
 30
0.0
 11
99.52305
 21
-15.310143
 31
0.0
  0
LINE
  5
63E
100
AcDbEntity
  8
0
390
0
  6
Continuous
 62
     7
100
AcDbLine
 10
99.692374
 20
-15.179566
 30
0.0
 11
99.608074
 21
-15.248716
 31
0.0
  0
LINE
  5
63F
100
AcDbEntity
  8
0
390
0
  6
Continuous
 62
     7
100
AcDbLine
 10
99.759119
 20
-15.118254
 30
0.0
 11
99.692374
 21
-15.179566
 31
0.0
  0
LINE
  5
640
100
AcDbEntity
  8
0
390
0
  6
Continuous
 62
     7
100
AcDbLine
 10
99.81977
 20
-15.055587
 30
0.0
 11
99.759119
 21
-15.118254
 31
0.0
  0
LINE
  5
641
100
AcDbEntity
  8
0
390
0
  6
Continuous
 62
     7
100
AcDbLine
 10
99.874344
 20
-14.991427
 30
0.0
 11
99.81977
 21
-15.055587
 31
0.0
  0
LINE
  5
642
100
AcDbEntity
  8
0
390
0
  6
Continuous
 62
     7
100
AcDbLine
 10
99.922751
 20
-14.925722
 30
0.0
 11
99.874344
 21
-14.991427
 31
0.0
  0
LINE
  5
643
100
AcDbEntity
  8
0
390
0
  6
Continuous
 62
     7
100
AcDbLine
 10
99.964877
 20
-14.858442
 30
0.0
 11
99.922751
 21
-14.925722
 31
0.0
  0
LINE
  5
644
100
AcDbEntity
  8
0
390
0
  6
Continuous
 62
     7
100
AcDbLine
 10
100.000581
 20
-14.789595
 30
0.0
 11
99.964877
 21
-14.858442
 31
0.0
  0
LINE
  5
645
100
AcDbEntity
  8
0
390
0
  6
Continuous
 62
     7
100
AcDbLine
 10
100.029714
 20
-14.719237
 30
0.0
 11
100.000581
 21
-14.789595
 31
0.0
  0
LINE
  5
646
100
AcDbEntity
  8
0
390
0
  6
Continuous
 62
     7
100
AcDbLine
 10
100.05213
 20
-14.647478
 30
0.0
 11
100.029714
 21
-14.719237
 31
0.0
  0
LINE
  5
647
100
AcDbEntity
  8
0
390
0
  6
Continuous
 62
     7
100
AcDbLine
 10
100.06771
 20
-14.574483
 30
0.0
 11
100.05213
 21
-14.647478
 31
0.0
  0
LINE
  5
648
100
AcDbEntity
  8
0
390
0
  6
Continuous
 62
     7
100
AcDbLine
 10
100.076314
 20
-14.501017
 30
0.0
 11
100.06771
 21
-14.574483
 31
0.0
  0
LINE
  5
649
100
AcDbEntity
  8
0
390
0
  6
Continuous
 62
     7
100
AcDbLine
 10
100.078901
 20
-14.42904
 30
0.0
 11
100.076314
 21
-14.501017
 31
0.0
  0
LINE
  5
64A
100
AcDbEntity
  8
0
390
0
  6
Continuous
 62
     7
100
AcDbLine
 10
97.804891
 20
-12.935493
 30
0.0
 11
97.719751
 21
-13.014594
 31
0.0
  0
LINE
  5
64B
100
AcDbEntity
  8
0
390
0
  6
Continuous
 62
     7
100
AcDbLine
 10
97.855279
 20
-12.893233
 30
0.0
 11
97.804891
 21
-12.935493
 31
0.0
  0
LINE
  5
64C
100
AcDbEntity
  8
0
390
0
  6
Continuous
 62
     7
100
AcDbLine
 10
89.515198
 20
-18.240891
 30
0.0
 11
89.536224
 21
-18.377855
 31
0.0
  0
LINE
  5
64D
100
AcDbEntity
  8
0
390
0
  6
Continuous
 62
     7
100
AcDbLine
 10
89.503652
 20
-18.109628
 30
0.0
 11
89.515198
 21
-18.240891
 31
0.0
  0
LINE
  5
64E
100
AcDbEntity
  8
0
390
0
  6
Continuous
 62
     7
100
AcDbLine
 10
89.501449
 20
-17.984051
 30
0.0
 11
89.503652
 21
-18.109628
 31
0.0
  0
LINE
  5
64F
100
AcDbEntity
  8
0
390
0
  6
Continuous
 62
     7
100
AcDbLine
 10
89.508443
 20
-17.864098
 30
0.0
 11
89.501449
 21
-17.984051
 31
0.0
  0
LINE
  5
650
100
AcDbEntity
  8
0
390
0
  6
Continuous
 62
     7
100
AcDbLine
 10
89.524491
 20
-17.749649
 30
0.0
 11
89.508443
 21
-17.864098
 31
0.0
  0
LINE
  5
651
100
AcDbEntity
  8
0
390
0
  6
Continuous
 62
     7
100
AcDbLine
 10
89.549479
 20
-17.640525
 30
0.0
 11
89.524491
 21
-17.749649
 31
0.0
  0
LINE
  5
652
100
AcDbEntity
  8
0
390
0
  6
Continuous
 62
     7
100
AcDbLine
 10
89.58334
 20
-17.536493
 30
0.0
 11
89.549479
 21
-17.640525
 31
0.0
  0
LINE
  5
653
100
AcDbEntity
  8
0
390
0
  6
Continuous
 62
     7
100
AcDbLine
 10
89.626075
 20
-17.437287
 30
0.0
 11
89.58334
 21
-17.536493
 31
0.0
  0
LINE
  5
654
100
AcDbEntity
  8
0
390
0
  6
Continuous
 62
     7
100
AcDbLine
 10
89.678013
 20
-17.34218
 30
0.0
 11
89.626075
 21
-17.437287
 31
0.0
  0
LINE
  5
655
100
AcDbEntity
  8
0
390
0
  6
Continuous
 62
     7
100
AcDbLine
 10
89.732809
 20
-17.259226
 30
0.0
 11
89.678013
 21
-17.34218
 31
0.0
  0
LINE
  5
656
100
AcDbEntity
  8
0
390
0
  6
Continuous
 62
     7
100
AcDbLine
 10
89.792619
 20
-17.182365
 30
0.0
 11
89.732809
 21
-17.259226
 31
0.0
  0
LINE
  5
657
100
AcDbEntity
  8
0
390
0
  6
Continuous
 62
     7
100
AcDbLine
 10
89.857149
 20
-17.111924
 30
0.0
 11
89.792619
 21
-17.182365
 31
0.0
  0
LINE
  5
658
100
AcDbEntity
  8
0
390
0
  6
Continuous
 62
     7
100
AcDbLine
 10
89.926483
 20
-17.047728
 30
0.0
 11
89.857149
 21
-17.111924
 31
0.0
  0
LINE
  5
659
100
AcDbEntity
  8
0
390
0
  6
Continuous
 62
     7
100
AcDbLine
 10
90.000752
 20
-16.989625
 30
0.0
 11
89.926483
 21
-17.047728
 31
0.0
  0
LINE
  5
65A
100
AcDbEntity
  8
0
390
0
  6
Continuous
 62
     7
100
AcDbLine
 10
90.08012
 20
-16.937497
 30
0.0
 11
90.000752
 21
-16.989625
 31
0.0
  0
LINE
  5
65B
100
AcDbEntity
  8
0
390
0
  6
Continuous
 62
     7
100
AcDbLine
 10
90.164771
 20
-16.891273
 30
0.0
 11
90.08012
 21
-16.937497
 31
0.0
  0
LINE
  5
65C
100
AcDbEntity
  8
0
390
0
  6
Continuous
 62
     7
100
AcDbLine
 10
90.254888
 20
-16.850931
 30
0.0
 11
90.164771
 21
-16.891273
 31
0.0
  0
LINE
  5
65D
100
AcDbEntity
  8
0
390
0
  6
Continuous
 62
     7
100
AcDbLine
 10
90.350637
 20
-16.816496
 30
0.0
 11
90.254888
 21
-16.850931
 31
0.0
  0
LINE
  5
65E
100
AcDbEntity
  8
0
390
0
  6
Continuous
 62
     7
100
AcDbLine
 10
90.555257
 20
-16.766615
 30
0.0
 11
90.45209
 21
-16.788042
 31
0.0
  0
LINE
  5
65F
100
AcDbEntity
  8
0
390
0
  6
Continuous
 62
     7
100
AcDbLine
 10
90.656113
 20
-16.753124
 30
0.0
 11
90.555257
 21
-16.766615
 31
0.0
  0
LINE
  5
660
100
AcDbEntity
  8
0
390
0
  6
Continuous
 62
     7
100
AcDbLine
 10
90.754686
 20
-16.747468
 30
0.0
 11
90.656113
 21
-16.753124
 31
0.0
  0
LINE
  5
661
100
AcDbEntity
  8
0
390
0
  6
Continuous
 62
     7
100
AcDbLine
 10
90.851114
 20
-16.74955
 30
0.0
 11
90.754686
 21
-16.747468
 31
0.0
  0
LINE
  5
662
100
AcDbEntity
  8
0
390
0
  6
Continuous
 62
     7
100
AcDbLine
 10
90.945567
 20
-16.759304
 30
0.0
 11
90.851114
 21
-16.74955
 31
0.0
  0
LINE
  5
663
100
AcDbEntity
  8
0
390
0
  6
Continuous
 62
     7
100
AcDbLine
 10
91.038242
 20
-16.776711
 30
0.0
 11
90.945567
 21
-16.759304
 31
0.0
  0
LINE
  5
664
100
AcDbEntity
  8
0
390
0
  6
Continuous
 62
     7
100
AcDbLine
 10
91.12934
 20
-16.801797
 30
0.0
 11
91.038242
 21
-16.776711
 31
0.0
  0
LINE
  5
665
100
AcDbEntity
  8
0
390
0
  6
Continuous
 62
     7
100
AcDbLine
 10
91.219047
 20
-16.834639
 30
0.0
 11
91.12934
 21
-16.801797
 31
0.0
  0
LINE
  5
666
100
AcDbEntity
  8
0
390
0
  6
Continuous
 62
     7
100
AcDbLine
 10
91.307517
 20
-16.875351
 30
0.0
 11
91.219047
 21
-16.834639
 31
0.0
  0
LINE
  5
667
100
AcDbEntity
  8
0
390
0
  6
Continuous
 62
     7
100
AcDbLine
 10
91.39434
 20
-16.923782
 30
0.0
 11
91.307517
 21
-16.875351
 31
0.0
  0
LINE
  5
668
100
AcDbEntity
  8
0
390
0
  6
Continuous
 62
     7
100
AcDbLine
 10
91.484221
 20
-16.984317
 30
0.0
 11
91.39434
 21
-16.923782
 31
0.0
  0
LINE
  5
669
100
AcDbEntity
  8
0
390
0
  6
Continuous
 62
     7
100
AcDbLine
 10
91.567817
 20
-17.052728
 30
0.0
 11
91.484221
 21
-16.984317
 31
0.0
  0
LINE
  5
66A
100
AcDbEntity
  8
0
390
0
  6
Continuous
 62
     7
100
AcDbLine
 10
91.645754
 20
-17.129506
 30
0.0
 11
91.567817
 21
-17.052728
 31
0.0
  0
LINE
  5
66B
100
AcDbEntity
  8
0
390
0
  6
Continuous
 62
     7
100
AcDbLine
 10
91.718158
 20
-17.214889
 30
0.0
 11
91.645754
 21
-17.129506
 31
0.0
  0
LINE
  5
66C
100
AcDbEntity
  8
0
390
0
  6
Continuous
 62
     7
100
AcDbLine
 10
91.785076
 20
-17.309113
 30
0.0
 11
91.718158
 21
-17.214889
 31
0.0
  0
LINE
  5
66D
100
AcDbEntity
  8
0
390
0
  6
Continuous
 62
     7
100
AcDbLine
 10
91.846487
 20
-17.412391
 30
0.0
 11
91.785076
 21
-17.309113
 31
0.0
  0
LINE
  5
66E
100
AcDbEntity
  8
0
390
0
  6
Continuous
 62
     7
100
AcDbLine
 10
91.902322
 20
-17.524894
 30
0.0
 11
91.846487
 21
-17.412391
 31
0.0
  0
LINE
  5
66F
100
AcDbEntity
  8
0
390
0
  6
Continuous
 62
     7
100
AcDbLine
 10
91.952478
 20
-17.646745
 30
0.0
 11
91.902322
 21
-17.524894
 31
0.0
  0
LINE
  5
670
100
AcDbEntity
  8
0
390
0
  6
Continuous
 62
     7
100
AcDbLine
 10
91.996841
 20
-17.77802
 30
0.0
 11
91.952478
 21
-17.646745
 31
0.0
  0
LINE
  5
671
100
AcDbEntity
  8
0
390
0
  6
Continuous
 62
     7
100
AcDbLine
 10
92.035287
 20
-17.918718
 30
0.0
 11
91.996841
 21
-17.77802
 31
0.0
  0
LINE
  5
672
100
AcDbEntity
  8
0
390
0
  6
Continuous
 62
     7
100
AcDbLine
 10
92.066617
 20
-18.064269
 30
0.0
 11
92.035287
 21
-17.918718
 31
0.0
  0
LINE
  5
673
100
AcDbEntity
  8
0
390
0
  6
Continuous
 62
     7
100
AcDbLine
 10
92.088279
 20
-18.203931
 30
0.0
 11
92.066617
 21
-18.064269
 31
0.0
  0
LINE
  5
674
100
AcDbEntity
  8
0
390
0
  6
Continuous
 62
     7
100
AcDbLine
 10
92.10037
 20
-18.337575
 30
0.0
 11
92.088279
 21
-18.203931
 31
0.0
  0
LINE
  5
675
100
AcDbEntity
  8
0
390
0
  6
Continuous
 62
     7
100
AcDbLine
 10
92.103027
 20
-18.465206
 30
0.0
 11
92.10037
 21
-18.337575
 31
0.0
  0
LINE
  5
676
100
AcDbEntity
  8
0
390
0
  6
Continuous
 62
     7
100
AcDbLine
 10
92.096402
 20
-18.586875
 30
0.0
 11
92.103027
 21
-18.465206
 31
0.0
  0
LINE
  5
677
100
AcDbEntity
  8
0
390
0
  6
Continuous
 62
     7
100
AcDbLine
 10
92.080645
 20
-18.702692
 30
0.0
 11
92.096402
 21
-18.586875
 31
0.0
  0
LINE
  5
678
100
AcDbEntity
  8
0
390
0
  6
Continuous
 62
     7
100
AcDbLine
 10
92.055884
 20
-18.812828
 30
0.0
 11
92.080645
 21
-18.702692
 31
0.0
  0
LINE
  5
679
100
AcDbEntity
  8
0
390
0
  6
Continuous
 62
     7
100
AcDbLine
 10
92.022202
 20
-18.917515
 30
0.0
 11
92.055884
 21
-18.812828
 31
0.0
  0
LINE
  5
67A
100
AcDbEntity
  8
0
390
0
  6
Continuous
 62
     7
100
AcDbLine
 10
91.979613
 20
-19.017027
 30
0.0
 11
92.022202
 21
-18.917515
 31
0.0
  0
LINE
  5
67B
100
AcDbEntity
  8
0
390
0
  6
Continuous
 62
     7
100
AcDbLine
 10
91.92777
 20
-19.112158
 30
0.0
 11
91.979613
 21
-19.017027
 31
0.0
  0
LINE
  5
67C
100
AcDbEntity
  8
0
390
0
  6
Continuous
 62
     7
100
AcDbLine
 10
91.873003
 20
-19.195068
 30
0.0
 11
91.92777
 21
-19.112158
 31
0.0
  0
LINE
  5
67D
100
AcDbEntity
  8
0
390
0
  6
Continuous
 62
     7
100
AcDbLine
 10
89.70182
 20
-18.922278
 30
0.0
 11
89.758198
 21
-19.036814
 31
0.0
  0
LINE
  5
67E
100
AcDbEntity
  8
0
390
0
  6
Continuous
 62
     7
100
AcDbLine
 10
89.651051
 20
-18.798063
 30
0.0
 11
89.70182
 21
-18.922278
 31
0.0
  0
LINE
  5
67F
100
AcDbEntity
  8
0
390
0
  6
Continuous
 62
     7
100
AcDbLine
 10
89.606009
 20
-18.6641
 30
0.0
 11
89.651051
 21
-18.798063
 31
0.0
  0
LINE
  5
680
100
AcDbEntity
  8
0
390
0
  6
Continuous
 62
     7
100
AcDbLine
 10
89.56684
 20
-18.520461
 30
0.0
 11
89.606009
 21
-18.6641
 31
0.0
  0
LINE
  5
681
100
AcDbEntity
  8
0
390
0
  6
Continuous
 62
     7
100
AcDbLine
 10
89.536224
 20
-18.377855
 30
0.0
 11
89.56684
 21
-18.520461
 31
0.0
  0
LINE
  5
682
100
AcDbEntity
  8
0
390
0
  6
Continuous
 62
     7
100
AcDbLine
 10
91.846017
 20
-19.177447
 30
0.0
 11
91.798792
 21
-19.248313
 31
0.0
  0
LINE
  5
683
100
AcDbEntity
  8
0
390
0
  6
Continuous
 62
     7
100
AcDbLine
 10
91.899948
 20
-19.077613
 30
0.0
 11
91.846017
 21
-19.177447
 31
0.0
  0
LINE
  5
684
100
AcDbEntity
  8
0
390
0
  6
Continuous
 62
     7
100
AcDbLine
 10
91.944178
 20
-18.971433
 30
0.0
 11
91.899948
 21
-19.077613
 31
0.0
  0
LINE
  5
685
100
AcDbEntity
  8
0
390
0
  6
Continuous
 62
     7
100
AcDbLine
 10
91.978416
 20
-18.859759
 30
0.0
 11
91.944178
 21
-18.971433
 31
0.0
  0
LINE
  5
686
100
AcDbEntity
  8
0
390
0
  6
Continuous
 62
     7
100
AcDbLine
 10
92.002745
 20
-18.742885
 30
0.0
 11
91.978416
 21
-18.859759
 31
0.0
  0
LINE
  5
687
100
AcDbEntity
  8
0
390
0
  6
Continuous
 62
     7
100
AcDbLine
 10
92.017315
 20
-18.621032
 30
0.0
 11
92.002745
 21
-18.742885
 31
0.0
  0
LINE
  5
688
100
AcDbEntity
  8
0
390
0
  6
Continuous
 62
     7
100
AcDbLine
 10
92.022306
 20
-18.494335
 30
0.0
 11
92.017315
 21
-18.621032
 31
0.0
  0
LINE
  5
689
100
AcDbEntity
  8
0
390
0
  6
Continuous
 62
     7
100
AcDbLine
 10
92.017897
 20
-18.362856
 30
0.0
 11
92.022306
 21
-18.494335
 31
0.0
  0
LINE
  5
68A
100
AcDbEntity
  8
0
390
0
  6
Continuous
 62
     7
100
AcDbLine
 10
92.004256
 20
-18.226599
 30
0.0
 11
92.017897
 21
-18.362856
 31
0.0
  0
LINE
  5
68B
100
AcDbEntity
  8
0
390
0
  6
Continuous
 62
     7
100
AcDbLine
 10
91.981521
 20
-18.085532
 30
0.0
 11
92.004256
 21
-18.226599
 31
0.0
  0
LINE
  5
68C
100
AcDbEntity
  8
0
390
0
  6
Continuous
 62
     7
100
AcDbLine
 10
91.949781
 20
-17.939495
 30
0.0
 11
91.981521
 21
-18.085532
 31
0.0
  0
LINE
  5
68D
100
AcDbEntity
  8
0
390
0
  6
Continuous
 62
     7
100
AcDbLine
 10
91.911437
 20
-17.798058
 30
0.0
 11
91.949781
 21
-17.939495
 31
0.0
  0
LINE
  5
68E
100
AcDbEntity
  8
0
390
0
  6
Continuous
 62
     7
100
AcDbLine
 10
91.867282
 20
-17.664822
 30
0.0
 11
91.911437
 21
-17.798058
 31
0.0
  0
LINE
  5
68F
100
AcDbEntity
  8
0
390
0
  6
Continuous
 62
     7
100
AcDbLine
 10
91.817183
 20
-17.539755
 30
0.0
 11
91.867282
 21
-17.664822
 31
0.0
  0
LINE
  5
690
100
AcDbEntity
  8
0
390
0
  6
Continuous
 62
     7
100
AcDbLine
 10
91.761005
 20
-17.4229
 30
0.0
 11
91.817183
 21
-17.539755
 31
0.0
  0
LINE
  5
691
100
AcDbEntity
  8
0
390
0
  6
Continuous
 62
     7
100
AcDbLine
 10
91.698613
 20
-17.314349
 30
0.0
 11
91.761005
 21
-17.4229
 31
0.0
  0
LINE
  5
692
100
AcDbEntity
  8
0
390
0
  6
Continuous
 62
     7
100
AcDbLine
 10
91.629888
 20
-17.214248
 30
0.0
 11
91.698613
 21
-17.314349
 31
0.0
  0
LINE
  5
693
100
AcDbEntity
  8
0
390
0
  6
Continuous
 62
     7
100
AcDbLine
 10
91.554748
 20
-17.122803
 30
0.0
 11
91.629888
 21
-17.214248
 31
0.0
  0
LINE
  5
694
100
AcDbEntity
  8
0
390
0
  6
Continuous
 62
     7
100
AcDbLine
 10
91.473184
 20
-17.040274
 30
0.0
 11
91.554748
 21
-17.122803
 31
0.0
  0
LINE
  5
695
100
AcDbEntity
  8
0
390
0
  6
Continuous
 62
     7
100
AcDbLine
 10
91.385272
 20
-16.966947
 30
0.0
 11
91.473184
 21
-17.040274
 31
0.0
  0
LINE
  5
696
100
AcDbEntity
  8
0
390
0
  6
Continuous
 62
     7
100
AcDbLine
 10
91.291612
 20
-16.903384
 30
0.0
 11
91.385272
 21
-16.966947
 31
0.0
  0
LINE
  5
697
100
AcDbEntity
  8
0
390
0
  6
Continuous
 62
     7
100
AcDbLine
 10
91.217126
 20
-16.862231
 30
0.0
 11
91.291612
 21
-16.903384
 31
0.0
  0
LINE
  5
698
100
AcDbEntity
  8
0
390
0
  6
Continuous
 62
     7
100
AcDbLine
 10
91.140465
 20
-16.82799
 30
0.0
 11
91.217126
 21
-16.862231
 31
0.0
  0
LINE
  5
699
100
AcDbEntity
  8
0
390
0
  6
Continuous
 62
     7
100
AcDbLine
 10
91.06133
 20
-16.800518
 30
0.0
 11
91.140465
 21
-16.82799
 31
0.0
  0
LINE
  5
69A
100
AcDbEntity
  8
0
390
0
  6
Continuous
 62
     7
100
AcDbLine
 10
90.979933
 20
-16.779888
 30
0.0
 11
91.06133
 21
-16.800518
 31
0.0
  0
LINE
  5
69B
100
AcDbEntity
  8
0
390
0
  6
Continuous
 62
     7
100
AcDbLine
 10
90.896497
 20
-16.766116
 30
0.0
 11
90.979933
 21
-16.779888
 31
0.0
  0
LINE
  5
69C
100
AcDbEntity
  8
0
390
0
  6
Continuous
 62
     7
100
AcDbLine
 10
90.811224
 20
-16.759165
 30
0.0
 11
90.896497
 21
-16.766116
 31
0.0
  0
LINE
  5
69D
100
AcDbEntity
  8
0
390
0
  6
Continuous
 62
     7
100
AcDbLine
 10
90.724284
 20
-16.758952
 30
0.0
 11
90.811224
 21
-16.759165
 31
0.0
  0
LINE
  5
69E
100
AcDbEntity
  8
0
390
0
  6
Continuous
 62
     7
100
AcDbLine
 10
90.635803
 20
-16.765365
 30
0.0
 11
90.724284
 21
-16.758952
 31
0.0
  0
LINE
  5
69F
100
AcDbEntity
  8
0
390
0
  6
Continuous
 62
     7
100
AcDbLine
 10
90.545859
 20
-16.778282
 30
0.0
 11
90.635803
 21
-16.765365
 31
0.0
  0
LINE
  5
6A0
100
AcDbEntity
  8
0
390
0
  6
Continuous
 62
     7
100
AcDbLine
 10
90.454419
 20
-16.797595
 30
0.0
 11
90.545859
 21
-16.778282
 31
0.0
  0
LINE
  5
6A1
100
AcDbEntity
  8
0
390
0
  6
Continuous
 62
     7
100
AcDbLine
 10
90.364349
 20
-16.822529
 30
0.0
 11
90.454419
 21
-16.797595
 31
0.0
  0
LINE
  5
6A2
100
AcDbEntity
  8
0
390
0
  6
Continuous
 62
     7
100
AcDbLine
 10
90.278551
 20
-16.852453
 30
0.0
 11
90.364349
 21
-16.822529
 31
0.0
  0
LINE
  5
6A3
100
AcDbEntity
  8
0
390
0
  6
Continuous
 62
     7
100
AcDbLine
 10
90.197045
 20
-16.887478
 30
0.0
 11
90.278551
 21
-16.852453
 31
0.0
  0
LINE
  5
6A4
100
AcDbEntity
  8
0
390
0
  6
Continuous
 62
     7
100
AcDbLine
 10
90.119957
 20
-16.927677
 30
0.0
 11
90.197045
 21
-16.887478
 31
0.0
  0
LINE
  5
6A5
100
AcDbEntity
  8
0
390
0
  6
Continuous
 62
     7
100
AcDbLine
 10
90.047449
 20
-16.97309
 30
0.0
 11
90.119957
 21
-16.927677
 31
0.0
  0
LINE
  5
6A6
100
AcDbEntity
  8
0
390
0
  6
Continuous
 62
     7
100
AcDbLine
 10
89.979711
 20
-17.023714
 30
0.0
 11
90.047449
 21
-16.97309
 31
0.0
  0
LINE
  5
6A7
100
AcDbEntity
  8
0
390
0
  6
Continuous
 62
     7
100
AcDbLine
 10
89.916941
 20
-17.079488
 30
0.0
 11
89.979711
 21
-17.023714
 31
0.0
  0
LINE
  5
6A8
100
AcDbEntity
  8
0
390
0
  6
Continuous
 62
     7
100
AcDbLine
 10
89.859327
 20
-17.140296
 30
0.0
 11
89.916941
 21
-17.079488
 31
0.0
  0
LINE
  5
6A9
100
AcDbEntity
  8
0
390
0
  6
Continuous
 62
     7
100
AcDbLine
 10
89.807025
 20
-17.205975
 30
0.0
 11
89.859327
 21
-17.140296
 31
0.0
  0
LINE
  5
6AA
100
AcDbEntity
  8
0
390
0
  6
Continuous
 62
     7
100
AcDbLine
 10
89.759835
 20
-17.276788
 30
0.0
 11
89.807025
 21
-17.205975
 31
0.0
  0
LINE
  5
6AB
100
AcDbEntity
  8
0
390
0
  6
Continuous
 62
     7
100
AcDbLine
 10
89.705933
 20
-17.376323
 30
0.0
 11
89.759835
 21
-17.276788
 31
0.0
  0
LINE
  5
6AC
100
AcDbEntity
  8
0
390
0
  6
Continuous
 62
     7
100
AcDbLine
 10
89.661627
 20
-17.481882
 30
0.0
 11
89.705933
 21
-17.376323
 31
0.0
  0
LINE
  5
6AD
100
AcDbEntity
  8
0
390
0
  6
Continuous
 62
     7
100
AcDbLine
 10
89.627191
 20
-17.59269
 30
0.0
 11
89.661627
 21
-17.481882
 31
0.0
  0
LINE
  5
6AE
100
AcDbEntity
  8
0
390
0
  6
Continuous
 62
     7
100
AcDbLine
 10
89.602562
 20
-17.708456
 30
0.0
 11
89.627191
 21
-17.59269
 31
0.0
  0
LINE
  5
6AF
100
AcDbEntity
  8
0
390
0
  6
Continuous
 62
     7
100
AcDbLine
 10
89.587612
 20
-17.828956
 30
0.0
 11
89.602562
 21
-17.708456
 31
0.0
  0
LINE
  5
6B0
100
AcDbEntity
  8
0
390
0
  6
Continuous
 62
     7
100
AcDbLine
 10
89.582174
 20
-17.954043
 30
0.0
 11
89.587612
 21
-17.828956
 31
0.0
  0
LINE
  5
6B1
100
AcDbEntity
  8
0
390
0
  6
Continuous
 62
     7
100
AcDbLine
 10
89.586074
 20
-18.083642
 30
0.0
 11
89.582174
 21
-17.954043
 31
0.0
  0
LINE
  5
6B2
100
AcDbEntity
  8
0
390
0
  6
Continuous
 62
     7
100
AcDbLine
 10
89.59915
 20
-18.217734
 30
0.0
 11
89.586074
 21
-18.083642
 31
0.0
  0
LINE
  5
6B3
100
AcDbEntity
  8
0
390
0
  6
Continuous
 62
     7
100
AcDbLine
 10
89.621263
 20
-18.356344
 30
0.0
 11
89.59915
 21
-18.217734
 31
0.0
  0
LINE
  5
6B4
100
AcDbEntity
  8
0
390
0
  6
Continuous
 62
     7
100
AcDbLine
 10
89.652309
 20
-18.499561
 30
0.0
 11
89.621263
 21
-18.356344
 31
0.0
  0
LINE
  5
6B5
100
AcDbEntity
  8
0
390
0
  6
Continuous
 62
     7
100
AcDbLine
 10
89.691339
 20
-18.643822
 30
0.0
 11
89.652309
 21
-18.499561
 31
0.0
  0
LINE
  5
6B6
100
AcDbEntity
  8
0
390
0
  6
Continuous
 62
     7
100
AcDbLine
 10
89.736075
 20
-18.779526
 30
0.0
 11
89.691339
 21
-18.643822
 31
0.0
  0
LINE
  5
6B7
100
AcDbEntity
  8
0
390
0
  6
Continuous
 62
     7
100
AcDbLine
 10
89.786672
 20
-18.906774
 30
0.0
 11
89.736075
 21
-18.779526
 31
0.0
  0
LINE
  5
6B8
100
AcDbEntity
  8
0
390
0
  6
Continuous
 62
     7
100
AcDbLine
 10
89.843267
 20
-19.025531
 30
0.0
 11
89.786672
 21
-18.906774
 31
0.0
  0
LINE
  5
6B9
100
AcDbEntity
  8
0
390
0
  6
Continuous
 62
     7
100
AcDbLine
 10
90.45209
 20
-16.788042
 30
0.0
 11
90.350637
 21
-16.816496
 31
0.0
  0
LINE
  5
6BA
100
AcDbEntity
  8
0
390
0
  6
Continuous
 62
     7
100
AcDbLine
 10
93.60919
 20
-17.341352
 30
0.0
 11
93.611047
 21
-17.347873
 31
0.0
  0
LINE
  5
6BB
100
AcDbEntity
  8
0
390
0
  6
Continuous
 62
     7
100
AcDbLine
 10
93.608807
 20
-17.337966
 30
0.0
 11
93.60919
 21
-17.341352
 31
0.0
  0
LINE
  5
6BC
100
AcDbEntity
  8
0
390
0
  6
Continuous
 62
     7
100
AcDbLine
 10
93.608892
 20
-17.336844
 30
0.0
 11
93.608807
 21
-17.337966
 31
0.0
  0
LINE
  5
6BD
100
AcDbEntity
  8
0
390
0
  6
Continuous
 62
     7
100
AcDbLine
 10
93.609028
 20
-17.336362
 30
0.0
 11
93.608892
 21
-17.336844
 31
0.0
  0
LINE
  5
6BE
100
AcDbEntity
  8
0
390
0
  6
Continuous
 62
     7
100
AcDbLine
 10
93.609809
 20
-17.334836
 30
0.0
 11
93.609028
 21
-17.336362
 31
0.0
  0
LINE
  5
6BF
100
AcDbEntity
  8
0
390
0
  6
Continuous
 62
     7
100
AcDbLine
 10
93.6125
 20
-17.331325
 30
0.0
 11
93.609809
 21
-17.334836
 31
0.0
  0
LINE
  5
6C0
100
AcDbEntity
  8
0
390
0
  6
Continuous
 62
     7
100
AcDbLine
 10
93.618313
 20
-17.325798
 30
0.0
 11
93.6125
 21
-17.331325
 31
0.0
  0
LINE
  5
6C1
100
AcDbEntity
  8
0
390
0
  6
Continuous
 62
     7
100
AcDbLine
 10
93.627989
 20
-17.318748
 30
0.0
 11
93.618313
 21
-17.325798
 31
0.0
  0
LINE
  5
6C2
100
AcDbEntity
  8
0
390
0
  6
Continuous
 62
     7
100
AcDbLine
 10
93.64327
 20
-17.309947
 30
0.0
 11
93.627989
 21
-17.318748
 31
0.0
  0
LINE
  5
6C3
100
AcDbEntity
  8
0
390
0
  6
Continuous
 62
     7
100
AcDbLine
 10
96.293162
 20
-15.94314
 30
0.0
 11
96.277135
 21
-15.950499
 31
0.0
  0
LINE
  5
6C4
100
AcDbEntity
  8
0
390
0
  6
Continuous
 62
     7
100
AcDbLine
 10
96.304513
 20
-15.939336
 30
0.0
 11
96.293162
 21
-15.94314
 31
0.0
  0
LINE
  5
6C5
100
AcDbEntity
  8
0
390
0
  6
Continuous
 62
     7
100
AcDbLine
 10
96.312385
 20
-15.9378
 30
0.0
 11
96.304513
 21
-15.939336
 31
0.0
  0
LINE
  5
6C6
100
AcDbEntity
  8
0
390
0
  6
Continuous
 62
     7
100
AcDbLine
 10
96.316805
 20
-15.93764
 30
0.0
 11
96.312385
 21
-15.9378
 31
0.0
  0
LINE
  5
6C7
100
AcDbEntity
  8
0
390
0
  6
Continuous
 62
     7
100
AcDbLine
 10
96.318499
 20
-15.937888
 30
0.0
 11
96.316805
 21
-15.93764
 31
0.0
  0
LINE
  5
6C8
100
AcDbEntity
  8
0
390
0
  6
Continuous
 62
     7
100
AcDbLine
 10
96.31897
 20
-15.938055
 30
0.0
 11
96.318499
 21
-15.937888
 31
0.0
  0
LINE
  5
6C9
100
AcDbEntity
  8
0
390
0
  6
Continuous
 62
     7
100
AcDbLine
 10
96.319932
 20
-15.938636
 30
0.0
 11
96.31897
 21
-15.938055
 31
0.0
  0
LINE
  5
6CA
100
AcDbEntity
  8
0
390
0
  6
Continuous
 62
     7
100
AcDbLine
 10
96.32247
 20
-15.940908
 30
0.0
 11
96.319932
 21
-15.938636
 31
0.0
  0
LINE
  5
6CB
100
AcDbEntity
  8
0
390
0
  6
Continuous
 62
     7
100
AcDbLine
 10
96.326709
 20
-15.9462
 30
0.0
 11
96.32247
 21
-15.940908
 31
0.0
  0
LINE
  5
6CC
100
AcDbEntity
  8
0
390
0
  6
Continuous
 62
     7
100
AcDbLine
 10
96.332043
 20
-15.955168
 30
0.0
 11
96.326709
 21
-15.9462
 31
0.0
  0
LINE
  5
6CD
100
AcDbEntity
  8
0
390
0
  6
Continuous
 62
     7
100
AcDbLine
 10
96.336264
 20
-15.964711
 30
0.0
 11
96.332043
 21
-15.955168
 31
0.0
  0
LINE
  5
6CE
100
AcDbEntity
  8
0
390
0
  6
Continuous
 62
     7
100
AcDbLine
 10
96.338121
 20
-15.971232
 30
0.0
 11
96.336264
 21
-15.964711
 31
0.0
  0
LINE
  5
6CF
100
AcDbEntity
  8
0
390
0
  6
Continuous
 62
     7
100
AcDbLine
 10
96.338504
 20
-15.974618
 30
0.0
 11
96.338121
 21
-15.971232
 31
0.0
  0
LINE
  5
6D0
100
AcDbEntity
  8
0
390
0
  6
Continuous
 62
     7
100
AcDbLine
 10
96.338419
 20
-15.97574
 30
0.0
 11
96.338504
 21
-15.974618
 31
0.0
  0
LINE
  5
6D1
100
AcDbEntity
  8
0
390
0
  6
Continuous
 62
     7
100
AcDbLine
 10
96.338283
 20
-15.976221
 30
0.0
 11
96.338419
 21
-15.97574
 31
0.0
  0
LINE
  5
6D2
100
AcDbEntity
  8
0
390
0
  6
Continuous
 62
     7
100
AcDbLine
 10
96.337503
 20
-15.977746
 30
0.0
 11
96.338283
 21
-15.976221
 31
0.0
  0
LINE
  5
6D3
100
AcDbEntity
  8
0
390
0
  6
Continuous
 62
     7
100
AcDbLine
 10
96.334812
 20
-15.981256
 30
0.0
 11
96.337503
 21
-15.977746
 31
0.0
  0
LINE
  5
6D4
100
AcDbEntity
  8
0
390
0
  6
Continuous
 62
     7
100
AcDbLine
 10
96.329001
 20
-15.986783
 30
0.0
 11
96.334812
 21
-15.981256
 31
0.0
  0
LINE
  5
6D5
100
AcDbEntity
  8
0
390
0
  6
Continuous
 62
     7
100
AcDbLine
 10
96.319325
 20
-15.993833
 30
0.0
 11
96.329001
 21
-15.986783
 31
0.0
  0
LINE
  5
6D6
100
AcDbEntity
  8
0
390
0
  6
Continuous
 62
     7
100
AcDbLine
 10
96.304044
 20
-16.002633
 30
0.0
 11
96.319325
 21
-15.993833
 31
0.0
  0
LINE
  5
6D7
100
AcDbEntity
  8
0
390
0
  6
Continuous
 62
     7
100
AcDbLine
 10
93.670179
 20
-17.362082
 30
0.0
 11
96.304044
 21
-16.002633
 31
0.0
  0
LINE
  5
6D8
100
AcDbEntity
  8
0
390
0
  6
Continuous
 62
     7
100
AcDbLine
 10
93.654153
 20
-17.36944
 30
0.0
 11
93.670179
 21
-17.362082
 31
0.0
  0
LINE
  5
6D9
100
AcDbEntity
  8
0
390
0
  6
Continuous
 62
     7
100
AcDbLine
 10
93.642801
 20
-17.373244
 30
0.0
 11
93.654153
 21
-17.36944
 31
0.0
  0
LINE
  5
6DA
100
AcDbEntity
  8
0
390
0
  6
Continuous
 62
     7
100
AcDbLine
 10
93.634929
 20
-17.37478
 30
0.0
 11
93.642801
 21
-17.373244
 31
0.0
  0
LINE
  5
6DB
100
AcDbEntity
  8
0
390
0
  6
Continuous
 62
     7
100
AcDbLine
 10
93.630508
 20
-17.37494
 30
0.0
 11
93.634929
 21
-17.37478
 31
0.0
  0
LINE
  5
6DC
100
AcDbEntity
  8
0
390
0
  6
Continuous
 62
     7
100
AcDbLine
 10
93.628813
 20
-17.374692
 30
0.0
 11
93.630508
 21
-17.37494
 31
0.0
  0
LINE
  5
6DD
100
AcDbEntity
  8
0
390
0
  6
Continuous
 62
     7
100
AcDbLine
 10
93.628341
 20
-17.374524
 30
0.0
 11
93.628813
 21
-17.374692
 31
0.0
  0
LINE
  5
6DE
100
AcDbEntity
  8
0
390
0
  6
Continuous
 62
     7
100
AcDbLine
 10
93.627377
 20
-17.373943
 30
0.0
 11
93.628341
 21
-17.374524
 31
0.0
  0
LINE
  5
6DF
100
AcDbEntity
  8
0
390
0
  6
Continuous
 62
     7
100
AcDbLine
 10
93.624838
 20
-17.37167
 30
0.0
 11
93.627377
 21
-17.373943
 31
0.0
  0
LINE
  5
6E0
100
AcDbEntity
  8
0
390
0
  6
Continuous
 62
     7
100
AcDbLine
 10
93.620598
 20
-17.366378
 30
0.0
 11
93.624838
 21
-17.37167
 31
0.0
  0
LINE
  5
6E1
100
AcDbEntity
  8
0
390
0
  6
Continuous
 62
     7
100
AcDbLine
 10
93.615265
 20
-17.357413
 30
0.0
 11
93.620598
 21
-17.366378
 31
0.0
  0
LINE
  5
6E2
100
AcDbEntity
  8
0
390
0
  6
Continuous
 62
     7
100
AcDbLine
 10
93.611047
 20
-17.347873
 30
0.0
 11
93.615265
 21
-17.357413
 31
0.0
  0
LINE
  5
6E3
100
AcDbEntity
  8
0
390
0
  6
Continuous
 62
     7
100
AcDbLine
 10
96.277135
 20
-15.950499
 30
0.0
 11
93.64327
 21
-17.309947
 31
0.0
  0
LINE
  5
6E4
100
AcDbEntity
  8
0
390
0
  6
Continuous
 62
     7
100
AcDbLine
 10
99.907599
 20
15.020415
 30
0.0
 11
97.868565
 21
13.023634
 31
0.0
  0
LINE
  5
6E5
100
AcDbEntity
  8
0
390
0
  6
Continuous
 62
     7
100
AcDbLine
 10
95.860467
 20
17.802599
 30
0.0
 11
93.783095
 21
15.758245
 31
0.0
  0
POLYLINE
  5
6E6
100
AcDbEntity
  8
0
390
0
  6
Continuous
 62
     7
100
AcDb2dPolyline
 66
     1
 10
0.0
 20
0.0
 30
0.0
 40
0.1
 41
0.1
  0
VERTEX
  5
6E7
100
AcDbEntity
  8
0
390
0
 62
     7
100
AcDbVertex
100
AcDb2dVertex
 10
75.907101
 20
16.115519
 30
0.0
  0
VERTEX
  5
6E8
100
AcDbEntity
  8
0
390
0
 62
     7
100
AcDbVertex
100
AcDb2dVertex
 10
75.856019
 20
16.20212
 30
0.0
  0
VERTEX
  5
6E9
100
AcDbEntity
  8
0
390
0
 62
     7
100
AcDbVertex
100
AcDb2dVertex
 10
75.889102
 20
16.297548
 30
0.0
  0
VERTEX
  5
6EA
100
AcDbEntity
  8
0
390
0
 62
     7
100
AcDbVertex
100
AcDb2dVertex
 10
75.91505
 20
16.317891
 30
0.0
  0
SEQEND
  5
6EB
100
AcDbEntity
  8
0
390
0
  0
LINE
  5
6EC
100
AcDbEntity
  8
0
390
0
  6
Continuous
 62
     7
100
AcDbLine
 10
70.203533
 20
6.545051
 30
0.0
 11
67.570348
 21
5.683223
 31
0.0
  0
LINE
  5
6ED
100
AcDbEntity
  8
0
390
0
  6
Continuous
 62
     7
100
AcDbLine
 10
68.651853
 20
7.285413
 30
0.0
 11
70.204948
 21
6.753663
 31
0.0
  0
LINE
  5
6EE
100
AcDbEntity
  8
0
390
0
  6
Continuous
 62
     7
100
AcDbLine
 10
70.335358
 20
6.806656
 30
0.0
 11
68.70539
 21
7.364725
 31
0.0
  0
LINE
  5
6EF
100
AcDbEntity
  8
0
390
0
  6
Continuous
 62
     7
100
AcDbLine
 10
67.213968
 20
5.202309
 30
0.0
 11
69.546201
 21
4.403798
 31
0.0
  0
LINE
  5
6F0
100
AcDbEntity
  8
0
390
0
  6
Continuous
 62
     7
100
AcDbLine
 10
67.510475
 20
5.595424
 30
0.0
 11
70.204264
 21
6.480999
 31
0.0
  0
LINE
  5
6F1
100
AcDbEntity
  8
0
390
0
  6
Continuous
 62
     7
100
AcDbLine
 10
101.818535
 20
8.055901
 30
0.0
 11
102.537491
 21
9.810932
 31
0.0
  0
LINE
  5
6F2
100
AcDbEntity
  8
0
390
0
  6
Continuous
 62
     7
100
AcDbLine
 10
103.211018
 20
8.652631
 30
0.0
 11
101.976485
 21
7.919618
 31
0.0
  0
LINE
  5
6F3
100
AcDbEntity
  8
0
390
0
  6
Continuous
 62
     7
100
AcDbLine
 10
101.932326
 20
7.78592
 30
0.0
 11
103.259969
 21
8.57422
 31
0.0
  0
LINE
  5
6F4
100
AcDbEntity
  8
0
390
0
  6
Continuous
 62
     7
100
AcDbLine
 10
100.66094
 20
9.865026
 30
0.0
 11
102.050558
 21
10.690123
 31
0.0
  0
LINE
  5
6F5
100
AcDbEntity
  8
0
390
0
  6
Continuous
 62
     7
100
AcDbLine
 10
102.005766
 20
10.771002
 30
0.0
 11
100.613758
 21
9.944488
 31
0.0
  0
LINE
  5
6F6
100
AcDbEntity
  8
0
390
0
  6
Continuous
 62
     7
100
AcDbLine
 10
102.497943
 20
9.88233
 30
0.0
 11
101.769253
 21
8.09687
 31
0.0
  0
LINE
  5
6F7
100
AcDbEntity
  8
0
390
0
  6
Continuous
 62
     7
100
AcDbLine
 10
101.028513
 20
12.706729
 30
0.0
 11
99.672464
 21
11.378776
 31
0.0
  0
LINE
  5
6F8
100
AcDbEntity
  8
0
390
0
  6
Continuous
 62
     7
100
AcDbLine
 10
99.661248
 20
11.238366
 30
0.0
 11
101.07125
 21
12.61915
 31
0.0
  0
LINE
  5
6F9
100
AcDbEntity
  8
0
390
0
  6
Continuous
 62
     7
100
AcDbLine
 10
71.783747
 20
9.417061
 30
0.0
 11
70.812328
 21
10.966482
 31
0.0
  0
LINE
  5
6FA
100
AcDbEntity
  8
0
390
0
  6
Continuous
 62
     7
100
AcDbLine
 10
70.783048
 20
10.911454
 30
0.0
 11
71.698643
 21
9.468624
 31
0.0
  0
LINE
  5
6FB
100
AcDbEntity
  8
0
390
0
  6
Continuous
 62
     7
100
AcDbLine
 10
71.581871
 20
9.285326
 30
0.0
 11
70.005514
 21
9.49001
 31
0.0
  0
LINE
  5
6FC
100
AcDbEntity
  8
0
390
0
  6
Continuous
 62
     7
100
AcDbLine
 10
91.242223
 20
18.768951
 30
0.0
 11
91.190085
 21
19.157402
 31
0.0
  0
LINE
  5
6FD
100
AcDbEntity
  8
0
390
0
  6
Continuous
 62
     7
100
AcDbLine
 10
105.929527
 20
4.627788
 30
0.0
 11
105.167103
 21
4.735556
 31
0.0
  0
LINE
  5
6FE
100
AcDbEntity
  8
0
390
0
  6
Continuous
 62
     7
100
AcDbLine
 10
104.430166
 20
6.516189
 30
0.0
 11
104.570603
 21
6.531314
 31
0.0
  0
LINE
  5
6FF
100
AcDbEntity
  8
0
390
0
  6
Continuous
 62
     7
100
AcDbLine
 10
73.267405
 20
-15.324029
 30
0.0
 11
73.401518
 21
-15.264856
 31
0.0
  0
LINE
  5
700
100
AcDbEntity
  8
0
390
0
  6
Continuous
 62
     7
100
AcDbLine
 10
73.401518
 20
-15.264856
 30
0.0
 11
76.135053
 21
-14.058771
 31
0.0
  0
LINE
  5
701
100
AcDbEntity
  8
0
390
0
  6
Continuous
 62
     7
100
AcDbLine
 10
69.975405
 20
9.439951
 30
0.0
 11
71.522651
 21
9.24762
 31
0.0
  0
LINE
  5
702
100
AcDbEntity
  8
0
390
0
  6
Continuous
 62
     7
100
AcDbLine
 10
71.522651
 20
9.24762
 30
0.0
 11
71.664564
 21
9.229979
 31
0.0
  0
LINE
  5
703
100
AcDbEntity
  8
0
390
0
  6
Continuous
 62
     7
100
AcDbLine
 10
71.698643
 20
9.468624
 30
0.0
 11
71.717313
 21
9.40583
 31
0.0
  0
LINE
  5
704
100
AcDbEntity
  8
0
390
0
  6
Continuous
 62
     7
100
AcDbLine
 10
71.717313
 20
9.40583
 30
0.0
 11
71.581871
 21
9.285326
 31
0.0
  0
LINE
  5
705
100
AcDbEntity
  8
0
390
0
  6
Continuous
 62
     7
100
AcDbLine
 10
77.721187
 20
15.049962
 30
0.0
 11
77.554305
 21
17.043343
 31
0.0
  0
LINE
  5
706
100
AcDbEntity
  8
0
390
0
  6
Continuous
 62
     7
100
AcDbLine
 10
77.554305
 20
17.043343
 30
0.0
 11
77.460672
 21
18.161775
 31
0.0
  0
LINE
  5
707
100
AcDbEntity
  8
0
390
0
  6
Continuous
 62
     7
100
AcDbLine
 10
77.319189
 20
17.135115
 30
0.0
 11
77.328091
 21
17.139808
 31
0.0
  0
POLYLINE
  5
708
100
AcDbEntity
  8
0
390
0
  6
Continuous
 62
     7
100
AcDb2dPolyline
 66
     1
 10
0.0
 20
0.0
 30
0.0
 40
0.1
 41
0.1
  0
VERTEX
  5
709
100
AcDbEntity
  8
0
390
0
 62
     7
100
AcDbVertex
100
AcDb2dVertex
 10
77.328091
 20
17.139808
 30
0.0
  0
VERTEX
  5
70A
100
AcDbEntity
  8
0
390
0
 62
     7
100
AcDbVertex
100
AcDb2dVertex
 10
77.428725
 20
17.140864
 30
0.0
  0
VERTEX
  5
70B
100
AcDbEntity
  8
0
390
0
 62
     7
100
AcDbVertex
100
AcDb2dVertex
 10
77.495177
 20
17.063508
 30
0.0
  0
VERTEX
  5
70C
100
AcDbEntity
  8
0
390
0
 62
     7
100
AcDbVertex
100
AcDb2dVertex
 10
77.499077
 20
17.042066
 30
0.0
  0
SEQEND
  5
70D
100
AcDbEntity
  8
0
390
0
  0
LINE
  5
70E
100
AcDbEntity
  8
0
390
0
  6
Continuous
 62
     7
100
AcDbLine
 10
77.669241
 20
15.1348
 30
0.0
 11
77.657016
 21
15.070408
 31
0.0
  0
LINE
  5
70F
100
AcDbEntity
  8
0
390
0
  6
Continuous
 62
     7
100
AcDbLine
 10
77.657016
 20
15.070408
 30
0.0
 11
77.481404
 21
15.025477
 31
0.0
  0
LINE
  5
710
100
AcDbEntity
  8
0
390
0
  6
Continuous
 62
     7
100
AcDbLine
 10
74.952497
 20
16.701992
 30
0.0
 11
77.374741
 21
15.044316
 31
0.0
  0
LINE
  5
711
100
AcDbEntity
  8
0
390
0
  6
Continuous
 62
     7
100
AcDbLine
 10
77.374741
 20
15.044316
 30
0.0
 11
77.458833
 21
14.986767
 31
0.0
  0
LINE
  5
712
100
AcDbEntity
  8
0
390
0
  6
Continuous
 62
     7
100
AcDbLine
 10
77.458833
 20
14.986767
 30
0.0
 11
77.529506
 21
14.938402
 31
0.0
  0
LINE
  5
713
100
AcDbEntity
  8
0
390
0
  6
Continuous
 62
     7
100
AcDbLine
 10
91.125147
 20
19.151722
 30
0.0
 11
91.181763
 21
18.744445
 31
0.0
  0
LINE
  5
714
100
AcDbEntity
  8
0
390
0
  6
Continuous
 62
     7
100
AcDbLine
 10
91.181763
 20
18.744445
 30
0.0
 11
91.206452
 21
18.566838
 31
0.0
  0
LINE
  5
715
100
AcDbEntity
  8
0
390
0
  6
Continuous
 62
     7
100
AcDbLine
 10
91.206452
 20
18.566838
 30
0.0
 11
91.462798
 21
16.722753
 31
0.0
  0
LINE
  5
716
100
AcDbEntity
  8
0
390
0
  6
Continuous
 62
     7
100
AcDbLine
 10
91.462798
 20
16.722753
 30
0.0
 11
91.482465
 21
16.581272
 31
0.0
  0
LINE
  5
717
100
AcDbEntity
  8
0
390
0
  6
Continuous
 62
     7
100
AcDbLine
 10
91.693959
 20
16.514586
 30
0.0
 11
93.056006
 21
17.979586
 31
0.0
  0
LINE
  5
718
100
AcDbEntity
  8
0
390
0
  6
Continuous
 62
     7
100
AcDbLine
 10
93.056006
 20
17.979586
 30
0.0
 11
93.820102
 21
18.801438
 31
0.0
  0
LINE
  5
719
100
AcDbEntity
  8
0
390
0
  6
Continuous
 62
     7
100
AcDbLine
 10
92.965591
 20
18.215158
 30
0.0
 11
92.972675
 21
18.212678
 31
0.0
  0
POLYLINE
  5
71A
100
AcDbEntity
  8
0
390
0
  6
Continuous
 62
     7
100
AcDb2dPolyline
 66
     1
 10
0.0
 20
0.0
 30
0.0
 40
0.1
 41
0.1
  0
VERTEX
  5
71B
100
AcDbEntity
  8
0
390
0
 62
     7
100
AcDbVertex
100
AcDb2dVertex
 10
92.972675
 20
18.212678
 30
0.0
  0
VERTEX
  5
71C
100
AcDbEntity
  8
0
390
0
 62
     7
100
AcDbVertex
100
AcDb2dVertex
 10
93.043567
 20
18.137994
 30
0.0
  0
VERTEX
  5
71D
100
AcDbEntity
  8
0
390
0
 62
     7
100
AcDbVertex
100
AcDb2dVertex
 10
93.031064
 20
18.036791
 30
0.0
  0
VERTEX
  5
71E
100
AcDbEntity
  8
0
390
0
 62
     7
100
AcDbVertex
100
AcDb2dVertex
 10
93.017835
 20
18.019484
 30
0.0
  0
SEQEND
  5
71F
100
AcDbEntity
  8
0
390
0
  0
POLYLINE
  5
720
100
AcDbEntity
  8
0
390
0
  6
Continuous
 62
     7
100
AcDb2dPolyline
 66
     1
 10
0.0
 20
0.0
 30
0.0
 40
0.1
 41
0.1
  0
VERTEX
  5
721
100
AcDbEntity
  8
0
390
0
 62
     7
100
AcDbVertex
100
AcDb2dVertex
 10
91.261201
 20
18.573356
 30
0.0
  0
VERTEX
  5
722
100
AcDbEntity
  8
0
390
0
 62
     7
100
AcDbVertex
100
AcDb2dVertex
 10
91.290977
 20
18.669534
 30
0.0
  0
VERTEX
  5
723
100
AcDbEntity
  8
0
390
0
 62
     7
100
AcDbVertex
100
AcDb2dVertex
 10
91.387748
 20
18.708988
 30
0.0
  0
VERTEX
  5
724
100
AcDbEntity
  8
0
390
0
 62
     7
100
AcDbVertex
100
AcDb2dVertex
 10
91.416232
 20
18.703676
 30
0.0
  0
SEQEND
  5
725
100
AcDbEntity
  8
0
390
0
  0
LINE
  5
726
100
AcDbEntity
  8
0
390
0
  6
Continuous
 62
     7
100
AcDbLine
 10
91.721758
 20
16.610098
 30
0.0
 11
91.665987
 21
16.575827
 31
0.0
  0
LINE
  5
727
100
AcDbEntity
  8
0
390
0
  6
Continuous
 62
     7
100
AcDbLine
 10
91.665987
 20
16.575827
 30
0.0
 11
91.514483
 21
16.675452
 31
0.0
  0
LINE
  5
728
100
AcDbEntity
  8
0
390
0
  6
Continuous
 62
     7
100
AcDbLine
 10
102.981418
 20
4.991102
 30
0.0
 11
104.982581
 21
4.698627
 31
0.0
  0
LINE
  5
729
100
AcDbEntity
  8
0
390
0
  6
Continuous
 62
     7
100
AcDbLine
 10
104.982581
 20
4.698627
 30
0.0
 11
106.070771
 21
4.539585
 31
0.0
  0
LINE
  5
72A
100
AcDbEntity
  8
0
390
0
  6
Continuous
 62
     7
100
AcDbLine
 10
102.978843
 20
5.179718
 30
0.0
 11
103.011903
 21
5.230146
 31
0.0
  0
LINE
  5
72B
100
AcDbEntity
  8
0
390
0
  6
Continuous
 62
     7
100
AcDbLine
 10
105.103075
 20
4.910011
 30
0.0
 11
105.105057
 21
4.902772
 31
0.0
  0
POLYLINE
  5
72C
100
AcDbEntity
  8
0
390
0
  6
Continuous
 62
     7
100
AcDb2dPolyline
 66
     1
 10
0.0
 20
0.0
 30
0.0
 40
0.1
 41
0.1
  0
VERTEX
  5
72D
100
AcDbEntity
  8
0
390
0
 62
     7
100
AcDbVertex
100
AcDb2dVertex
 10
105.105057
 20
4.902772
 30
0.0
  0
VERTEX
  5
72E
100
AcDbEntity
  8
0
390
0
 62
     7
100
AcDbVertex
100
AcDb2dVertex
 10
105.083836
 20
4.802009
 30
0.0
  0
VERTEX
  5
72F
100
AcDbEntity
  8
0
390
0
 62
     7
100
AcDbVertex
100
AcDb2dVertex
 10
104.993432
 20
4.754835
 30
0.0
  0
VERTEX
  5
730
100
AcDbEntity
  8
0
390
0
 62
     7
100
AcDbVertex
100
AcDb2dVertex
 10
104.971674
 20
4.755897
 30
0.0
  0
SEQEND
  5
731
100
AcDbEntity
  8
0
390
0
  0
LINE
  5
732
100
AcDbEntity
  8
0
390
0
  6
Continuous
 62
     7
100
AcDbLine
 10
104.490326
 20
6.646075
 30
0.0
 11
103.054328
 21
5.329612
 31
0.0
  0
LINE
  5
733
100
AcDbEntity
  8
0
390
0
  6
Continuous
 62
     7
100
AcDbLine
 10
103.054328
 20
5.329612
 30
0.0
 11
102.979349
 21
5.260874
 31
0.0
  0
LINE
  5
734
100
AcDbEntity
  8
0
390
0
  6
Continuous
 62
     7
100
AcDbLine
 10
102.979349
 20
5.260874
 30
0.0
 11
102.916231
 21
5.20301
 31
0.0
  0
POINT
  5
735
100
AcDbEntity
  8
0
390
0
 62
     7
100
AcDbPoint
 10
0.0
 20
0.0
 30
0.0
  0
ENDSEC
  0
SECTION
  2
OBJECTS
  0
DICTIONARY
  5
19
100
AcDbDictionary
280
     0
281
     1
  3
ACAD_GROUP
350
1A
  3
ACAD_MLINESTYLE
350
1B
  3
ACAD_LAYOUT
350
1E
  3
ACAD_PLOTSETTINGS
350
22
  3
ACAD_PLOTSTYLENAME
350
1F
  3
ACAD_WIPEOUT_VARS
350
23
  0
DICTIONARY
  5
1A
102
{ACAD_REACTORS
330
19
102
}
100
AcDbDictionary
280
     0
281
     1
  0
DICTIONARY
  5
1B
102
{ACAD_REACTORS
330
19
102
}
100
AcDbDictionary
280
     0
281
     1
  3
Standard
350
1C
  0
MLINESTYLE
  5
1C
102
{ACAD_REACTORS
330
1B
102
}
100
AcDbMlineStyle
  2
Standard
 70
     0
  3

 62
     0
 51
90.0
 52
90.0
 71
     2
 49
0.5
 62
   256
  6
ByLayer
 49
-0.5
 62
   256
  6
ByLayer
  0
ACDBDICTIONARYWDFLT
  5
1F
102
{ACAD_REACTORS
330
19
102
}
100
AcDbDictionary
281
     1
  3
Normal
350
1D
100
AcDbDictionaryWithDefault
340
1D
  0
ACDBPLACEHOLDER
  5
1D
102
{ACAD_REACTORS
330
1F
102
}
  0
LAYOUT
  5
20
102
{ACAD_REACTORS
330
1E
102
}
100
AcDbPlotSettings
  1

  2

  4

  6

 40
0.0
 41
0.0
 42
0.0
 43
0.0
 44
0.0
 45
0.0
 46
0.0
 47
0.0
 48
0.0
 49
0.0
140
0.0
141
0.0
142
1.0
143
1.0
 70
  1024
 72
     0
 73
     0
 74
     0
  7

 75
     0
147
1.0
148
0.0
149
0.0
100
AcDbLayout
  1
Model
 70
     0
 71
     1
 10
0.0
 20
0.0
 11
0.0
 21
0.0
 12
0.0
 22
0.0
 32
0.0
 14
0.0
 24
0.0
 34
0.0
 15
0.0
 25
0.0
 35
0.0
146
0.0
 13
0.0
 23
0.0
 33
0.0
 16
0.0
 26
0.0
 36
0.0
 17
0.0
 27
0.0
 37
0.0
 76
     0
330
A
331
0
345
0
346
0
  0
LAYOUT
  5
21
102
{ACAD_REACTORS
330
1E
102
}
100
AcDbPlotSettings
  1

  2

  4

  6

 40
0.0
 41
0.0
 42
0.0
 43
0.0
 44
0.0
 45
0.0
 46
0.0
 47
0.0
 48
0.0
 49
0.0
140
0.0
141
0.0
142
1.0
143
1.0
 70
     0
 72
     0
 73
     0
 74
     0
  7

 75
     0
147
1.0
148
0.0
149
0.0
100
AcDbLayout
  1
Layout1
 70
     0
 71
     2
 10
0.0
 20
0.0
 11
0.0
 21
0.0
 12
0.0
 22
0.0
 32
0.0
 14
0.0
 24
0.0
 34
0.0
 15
0.0
 25
0.0
 35
0.0
146
0.0
 13
0.0
 23
0.0
 33
0.0
 16
0.0
 26
0.0
 36
0.0
 17
0.0
 27
0.0
 37
0.0
 76
     0
330
B
331
0
345
0
346
0
  0
DICTIONARY
  5
1E
102
{ACAD_REACTORS
330
19
102
}
100
AcDbDictionary
280
     0
281
     1
  3
Layout1
350
21
  3
Model
350
20
  0
DICTIONARY
  5
22
102
{ACAD_REACTORS
330
19
102
}
100
AcDbDictionary
280
     0
281
     1
  0
WIPEOUTVARIABLES
  5
23
100
AcDbWipeoutVariables
 70
     1
  0
ENDSEC
  0
EOF
