  0
SECTION
  2
HEADER
  9
$ACADVER
  1
AC1015
  9
$ACADMAINTVER
 70
     6
  9
$DWGCODEPAGE
  3
DOS932
  9
$INSBASE
 10
0.0
 20
0.0
 30
0.0
  9
$EXTMIN
 10
-65.5
 20
-95.775607
 30
0.0
  9
$EXTMAX
 10
472.897085
 20
366.168013
 30
9.906
  9
$LIMMIN
 10
-65.5
 20
-95.775607
  9
$LIMMAX
 10
472.897085
 20
366.168013
  9
$ORTHOMODE
 70
     0
  9
$REGENMODE
 70
     1
  9
$FILLMODE
 70
     1
  9
$QTEXTMODE
 70
     0
  9
$MIRRTEXT
 70
     1
  9
$LTSCALE
 40
10.0
  9
$ATTMODE
 70
     1
  9
$TEXTSIZE
 40
0.2
  9
$TRACEWID
 40
0.05
  9
$TEXTSTYLE
  7
Standard
  9
$CLAYER
  8
0
  9
$CELTYPE
  6
Continuous
  9
$CECOLOR
 62
   256
  9
$CELTSCALE
 40
1.0
  9
$DISPSILH
 70
     0
  9
$DIMSCALE
 40
1.0
  9
$DIMASZ
 40
1.40208
  9
$DIMEXO
 40
1.40208
  9
$DIMDLI
 40
0.38
  9
$DIMRND
 40
0.0
  9
$DIMDLE
 40
0.0
  9
$DIMEXE
 40
1.05156
  9
$DIMTP
 40
0.0
  9
$DIMTM
 40
0.0
  9
$DIMTXT
 40
3.5052
  9
$DIMCEN
 40
0.09
  9
$DIMTSZ
 40
0.0
  9
$DIMTOL
 70
     0
  9
$DIMLIM
 70
     0
  9
$DIMTIH
 70
     0
  9
$DIMTOH
 70
     0
  9
$DIMSE1
 70
     0
  9
$DIMSE2
 70
     0
  9
$DIMTAD
 70
     1
  9
$DIMZIN
 70
     0
  9
$DIMBLK
  1

  9
$DIMASO
 70
     1
  9
$DIMSHO
 70
     1
  9
$DIMPOST
  1

  9
$DIMAPOST
  1

  9
$DIMALT
 70
     0
  9
$DIMALTD
 70
     2
  9
$DIMALTF
 40
25.4
  9
$DIMLFAC
 40
1.0
  9
$DIMTOFL
 70
     0
  9
$DIMTVP
 40
0.0
  9
$DIMTIX
 70
     0
  9
$DIMSOXD
 70
     0
  9
$DIMSAH
 70
     0
  9
$DIMBLK1
  1

  9
$DIMBLK2
  1

  9
$DIMSTYLE
  2
Standard
  9
$DIMCLRD
 70
     7
  9
$DIMCLRE
 70
     7
  9
$DIMCLRT
 70
     7
  9
$DIMTFAC
 40
0.5
  9
$DIMGAP
 40
1.7526
  9
$DIMJUST
 70
     0
  9
$DIMSD1
 70
     0
  9
$DIMSD2
 70
     0
  9
$DIMTOLJ
 70
     1
  9
$DIMTZIN
 70
     0
  9
$DIMALTZ
 70
     0
  9
$DIMALTTZ
 70
     0
  9
$DIMUPT
 70
     0
  9
$DIMDEC
 70
     2
  9
$DIMTDEC
 70
     4
  9
$DIMALTU
 70
     2
  9
$DIMALTTD
 70
     2
  9
$DIMTXSTY
  7
Standard
  9
$DIMAUNIT
 70
     0
  9
$DIMADEC
 70
     0
  9
$DIMALTRND
 40
0.0
  9
$DIMAZIN
 70
     0
  9
$DIMDSEP
 70
     0
  9
$DIMATFIT
 70
     3
  9
$DIMFRAC
 70
     0
  9
$DIMLDRBLK
  1

  9
$DIMLUNIT
 70
     2
  9
$DIMLWD
 70
     0
  9
$DIMLWE
 70
     0
  9
$DIMTMOVE
 70
     0
  9
$LUNITS
 70
     2
  9
$LUPREC
 70
     4
  9
$SKETCHINC
 40
0.1
  9
$FILLETRAD
 40
0.0
  9
$AUNITS
 70
     0
  9
$AUPREC
 70
     0
  9
$MENU
  1
acad
  9
$ELEVATION
 40
0.0
  9
$PELEVATION
 40
0.0
  9
$THICKNESS
 40
0.0
  9
$LIMCHECK
 70
     0
  9
$CHAMFERA
 40
0.0
  9
$CHAMFERB
 40
0.0
  9
$CHAMFERC
 40
0.0
  9
$CHAMFERD
 40
0.0
  9
$SKPOLY
 70
     0
  9
$TDCREATE
 40
2459780.672337963
  9
$TDUCREATE
 40
0.000000000
  9
$TDUPDATE
 40
2459780.297303241
  9
$TDUUPDATE
 40
0.000000000
  9
$TDINDWG
 40
0.0000000000
  9
$TDUSRTIMER
 40
0.0000000000
  9
$USRTIMER
 70
     1
  9
$ANGBASE
 50
0.0
  9
$ANGDIR
 70
     0
  9
$PDMODE
 70
     0
  9
$PDSIZE
 40
0.0
  9
$PLINEWID
 40
0.0
  9
$SPLFRAME
 70
     0
  9
$SPLINETYPE
 70
     6
  9
$SPLINESEGS
 70
     8
  9
$HANDSEED
  5
458
  9
$SURFTAB1
 70
     6
  9
$SURFTAB2
 70
     6
  9
$SURFTYPE
 70
     6
  9
$SURFU
 70
     6
  9
$SURFV
 70
     6
  9
$UCSBASE
  2

  9
$UCSNAME
  2

  9
$UCSORG
 10
0.0
 20
0.0
 30
0.0
  9
$UCSXDIR
 10
1.0
 20
0.0
 30
0.0
  9
$UCSYDIR
 10
0.0
 20
1.0
 30
0.0
  9
$UCSORTHOREF
  2

  9
$UCSORTHOVIEW
 70
     0
  9
$UCSORGTOP
 10
0.0
 20
0.0
 30
0.0
  9
$UCSORGBOTTOM
 10
0.0
 20
0.0
 30
0.0
  9
$UCSORGLEFT
 10
0.0
 20
0.0
 30
0.0
  9
$UCSORGRIGHT
 10
0.0
 20
0.0
 30
0.0
  9
$UCSORGFRONT
 10
0.0
 20
0.0
 30
0.0
  9
$UCSORGBACK
 10
0.0
 20
0.0
 30
0.0
  9
$PUCSBASE
  2

  9
$PUCSNAME
  2

  9
$PUCSORG
 10
0.0
 20
0.0
 30
0.0
  9
$PUCSXDIR
 10
1.0
 20
0.0
 30
0.0
  9
$PUCSYDIR
 10
0.0
 20
1.0
 30
0.0
  9
$PUCSORTHOREF
  2

  9
$PUCSORTHOVIEW
 70
     0
  9
$PUCSORGTOP
 10
0.0
 20
0.0
 30
0.0
  9
$PUCSORGBOTTOM
 10
0.0
 20
0.0
 30
0.0
  9
$PUCSORGLEFT
 10
0.0
 20
0.0
 30
0.0
  9
$PUCSORGRIGHT
 10
0.0
 20
0.0
 30
0.0
  9
$PUCSORGFRONT
 10
0.0
 20
0.0
 30
0.0
  9
$PUCSORGBACK
 10
0.0
 20
0.0
 30
0.0
  9
$USERI1
 70
     0
  9
$USERI2
 70
     0
  9
$USERI3
 70
     0
  9
$USERI4
 70
     0
  9
$USERI5
 70
     0
  9
$USERR1
 40
0.0
  9
$USERR2
 40
0.0
  9
$USERR3
 40
0.0
  9
$USERR4
 40
0.0
  9
$USERR5
 40
0.0
  9
$WORLDVIEW
 70
     1
  9
$SHADEDGE
 70
     3
  9
$SHADEDIF
 70
    70
  9
$TILEMODE
 70
     1
  9
$MAXACTVP
 70
    16
  9
$PINSBASE
 10
0.0
 20
0.0
 30
0.0
  9
$PLIMCHECK
 70
     0
  9
$PEXTMIN
 10
1.000000E+20
 20
1.000000E+20
 30
1.000000E+20
  9
$PEXTMAX
 10
-1.000000E+20
 20
-1.000000E+20
 30
-1.000000E+20
  9
$PLIMMIN
 10
0.0
 20
0.0
  9
$PLIMMAX
 10
12.0
 20
9.0
  9
$UNITMODE
 70
     0
  9
$VISRETAIN
 70
     0
  9
$PLINEGEN
 70
     1
  9
$PSLTSCALE
 70
     0
  9
$TREEDEPTH
 70
  3020
  9
$CMLSTYLE
  2
Standard
  9
$CMLJUST
 70
     0
  9
$CMLSCALE
 40
1.0
  9
$PROXYGRAPHICS
 70
     0
  9
$MEASUREMENT
 70
     0
  9
$CELWEIGHT
370
     0
  9
$ENDCAPS
280
     0
  9
$JOINSTYLE
280
     0
  9
$LWDISPLAY
290
     0
  9
$INSUNITS
 70
     0
  9
$HYPERLINKBASE
  1

  9
$STYLESHEET
  1

  9
$XEDIT
290
     1
  9
$CEPSNTYPE
380
     0
  9
$PSTYLEMODE
290
     1
  9
$FINGERPRINTGUID
  2

  9
$VERSIONGUID
  2

  9
$EXTNAMES
290
     1
  9
$PSVPSCALE
 40
0.0
  0
ENDSEC
  0
SECTION
  2
CLASSES
  0
CLASS
  1
LWPOLYLINE
  2
AcDbPolyline
  3
AutoCAD 2000
 90
        0
280
     0
281
     1
  0
CLASS
  1
IMAGE
  2
AcDbRasterImage
  3
ISM
 90
      127
280
     0
281
     1
  0
CLASS
  1
OLE2FRAME
  2
AcDbOle2Frame
  3
AutoCAD 2000
 90
        0
280
     0
281
     1
  0
CLASS
  1
HATCH
  2
AcDbHatch
  3
AutoCAD 2000
 90
        0
280
     0
281
     1
  0
CLASS
  1
DICTIONARYVAR
  2
AcDbDictionaryVar
  3
AutoCAD 2000
 90
        0
280
     0
281
     0
  0
CLASS
  1
RASTERVARIABLES
  2
AcDbRasterVariables
  3
ISM
 90
        0
280
     0
281
     0
  0
CLASS
  1
IMAGEDEF
  2
AcDbRasterImageDef
  3
ISM
 90
        0
280
     0
281
     0
  0
CLASS
  1
IMAGEDEF_REACTOR
  2
AcDbRasterImageDefReactor
  3
ISM
 90
        1
280
     0
281
     0
  0
CLASS
  1
IDBUFFER
  2
AcDbIdBuffer
  3
AutoCAD 2000
 90
        0
280
     0
281
     0
  0
CLASS
  1
SPATIAL_FILTER
  2
AcDbSpatialFilter
  3
AutoCAD 2000
 90
        0
280
     0
281
     0
  0
CLASS
  1
XRECORD
  2
AcDbXrecord
  3
AutoCAD 2000
 90
        0
280
     0
281
     0
  0
CLASS
  1
SORTENTSTABLE
  2
AcDbSortentsTable
  3
AutoCAD 2000
 90
        0
280
     0
281
     0
  0
CLASS
  1
LAYER_INDEX
  2
AcDbLayerIndex
  3
AutoCAD 2000
 90
        0
280
     0
281
     0
  0
CLASS
  1
SPATIAL_INDEX
  2
AcDbSpatialIndex
  3
AutoCAD 2000
 90
        0
280
     0
281
     0
  0
CLASS
  1
OBJECT_PTR
  2
CAseDLPNTableRecord
  3
"ASE-LPNTableRecord"
 90
        1
280
     0
281
     0
  0
CLASS
  1
LAYOUT
  2
AcDbLayout
  3
AutoCAD 2000
 90
        0
280
     0
281
     0
  0
CLASS
  1
PLOTSETTINGS
  2
AcDbPlotSettings
  3
AutoCAD 2000
 90
        0
280
     0
281
     0
  0
CLASS
  1
ACDBDICTIONARYWDFLT
  2
AcDbDictionaryWithDefault
  3
AutoCAD 2000
 90
        0
280
     0
281
     0
  0
CLASS
  1
ACDBPLACEHOLDER
  2
AcDbPlaceHolder
  3
AutoCAD 2000
 90
        0
280
     0
281
     0
  0
CLASS
  1
VBA_PROJECT
  2
AcDbVbaProject
  3
acadvba
 90
        0
280
     0
281
     0
  0
CLASS
  1
WIPEOUT
  2
AcDbWipeout
  3
WipeOut|AutoCAD Express Tool|expresstools@autodesk.com
 90
      127
280
     0
281
     1
  0
CLASS
  1
WIPEOUTVARIABLES
  2
AcDbWipeoutVariables
  3
WipeOut|AutoCAD Express Tool|expresstools@autodesk.com
 90
        0
280
     0
281
     0
  0
CLASS
  1
RTEXT
  2
RText
  3
RText|AutoCAD Express Tool|expresstools@autodesk.com
 90
        0
280
     0
281
     1
  0
CLASS
  1
ARCALIGNEDTEXT
  2
AcDbArcAlignedText
  3
ATEXT|AutoCAD Express Tool|expresstools@autodesk.com
 90
        0
280
     0
281
     1
  0
ENDSEC
  0
SECTION
  2
TABLES
  0
TABLE
  2
VPORT
  5
7
100
AcDbSymbolTable
 70
     1
  0
VPORT
  5
15
100
AcDbSymbolTableRecord
100
AcDbViewportTableRecord
  2
*ACTIVE
 70
     0
 10
0.0
 20
0.0
 11
1.0
 21
1.0
 12
6.591288
 22
4.579184
 13
0.0
 23
0.0
 14
1.0
 24
1.0
 15
0.0
 25
0.0
 16
0.0
 26
0.0
 36
1.0
 17
0.0
 27
0.0
 37
0.0
 40
9.158369
 41
0.688564
 42
50.0
 43
0.0
 44
0.0
 50
0.0
 51
0.0
 71
     0
 72
   100
 73
     1
 74
     1
 75
     0
 76
     0
 77
     0
 78
     0
281
     0
 65
     0
110
0.0
120
0.0
130
0.0
111
1.0
121
0.0
131
0.0
112
0.0
122
1.0
132
0.0
345
0
346
0
 79
     0
146
0.0
  0
ENDTAB
  0
TABLE
  2
LTYPE
  5
4
100
AcDbSymbolTable
 70
     3
  0
LTYPE
  5
11
100
AcDbSymbolTableRecord
100
AcDbLinetypeTableRecord
  2
ByBlock
 70
    64
  3

 72
    65
 73
     0
 40
0.0
  0
LTYPE
  5
12
100
AcDbSymbolTableRecord
100
AcDbLinetypeTableRecord
  2
ByLayer
 70
    64
  3

 72
    65
 73
     0
 40
0.0
  0
LTYPE
  5
13
100
AcDbSymbolTableRecord
100
AcDbLinetypeTableRecord
  2
Continuous
 70
    64
  3
Solid line
 72
    65
 73
     0
 40
0.0
  0
ENDTAB
  0
TABLE
  2
LAYER
  5
2
100
AcDbSymbolTable
 70
     1
  0
LAYER
  5
14
100
AcDbSymbolTableRecord
100
AcDbLayerTableRecord
  2
0
 70
     0
 62
     7
  6
Continuous
290
     1
370
    -3
390
1D
  0
ENDTAB
  0
TABLE
  2
STYLE
  5
3
100
AcDbSymbolTable
 70
     1
  0
STYLE
  5
17
100
AcDbSymbolTableRecord
100
AcDbTextStyleTableRecord
  2
Standard
 70
     0
 40
0.0
 41
1.0
 50
0.0
 71
     0
 42
0.0
  3
FG教科書体NT-M
  4

1001
ACAD
1000
FG教科書体NT-M
1071
        0
  0
ENDTAB
  0
TABLE
  2
VIEW
  5
5
100
AcDbSymbolTable
 70
     0
  0
ENDTAB
  0
TABLE
  2
UCS
  5
6
100
AcDbSymbolTable
 70
     0
  0
ENDTAB
  0
TABLE
  2
APPID
  5
8
100
AcDbSymbolTable
 70
     2
  0
APPID
  5
16
100
AcDbSymbolTableRecord
100
AcDbRegAppTableRecord
  2
ACAD
 70
     0
  0
APPID
  5
26
100
AcDbSymbolTableRecord
100
AcDbRegAppTableRecord
  2
TOPsolid_Design
 70
     0
  0
ENDTAB
  0
TABLE
  2
DIMSTYLE
  5
9
100
AcDbSymbolTable
 70
     1
100
AcDbDimStyleTable
 71
     0
  0
DIMSTYLE
105
18
100
AcDbSymbolTableRecord
100
AcDbDimStyleTableRecord
  2
Standard
 70
     0
  3

  4

 40
1.0
 41
1.40208
 42
1.40208
 43
0.38
 44
1.05156
 45
0.0
 46
0.0
 47
0.0
 48
0.0
 71
     0
 72
     0
 73
     0
 74
     0
 75
     0
 76
     0
 77
     1
 78
     0
 79
     0
140
3.5052
141
0.09
142
0.0
143
25.4
144
1.0
145
0.0
146
0.5
147
1.7526
148
0.0
170
     0
171
     2
172
     0
173
     0
174
     0
175
     0
176
     7
177
     7
178
     7
179
     0
271
     2
272
     4
273
     2
274
     2
275
     0
276
     0
277
     2
278
    46
279
     0
280
     0
281
     0
282
     0
283
     1
284
     0
285
     0
286
     0
288
     0
289
     3
340
17
341
0
342
0
343
0
344
0
371
    -2
372
    -2
  0
ENDTAB
  0
TABLE
  2
BLOCK_RECORD
  5
1
100
AcDbSymbolTable
 70
     0
  0
BLOCK_RECORD
  5
A
100
AcDbSymbolTableRecord
100
AcDbBlockTableRecord
  2
*MODEL_SPACE
340
20
  0
BLOCK_RECORD
  5
B
100
AcDbSymbolTableRecord
100
AcDbBlockTableRecord
  2
*PAPER_SPACE
340
21
  0
ENDTAB
  0
ENDSEC
  0
SECTION
  2
BLOCKS
  0
BLOCK
  5
D
100
AcDbEntity
  8
0
390
0
100
AcDbBlockBegin
  2
*MODEL_SPACE
 70
     0
 10
0.0
 20
0.0
 30
0.0
  3
*MODEL_SPACE
  1

  0
ENDBLK
  5
E
100
AcDbEntity
  8
0
390
0
100
AcDbBlockEnd
  0
BLOCK
  5
F
100
AcDbEntity
 67
     1
  8
0
390
0
100
AcDbBlockBegin
  2
*PAPER_SPACE
 70
     0
 10
0.0
 20
0.0
 30
0.0
  3
*PAPER_SPACE
  1

  0
ENDBLK
  5
10
100
AcDbEntity
 67
     1
  8
0
390
0
100
AcDbBlockEnd
  0
ENDSEC
  0
SECTION
  2
ENTITIES
  0
LINE
  5
27
100
AcDbEntity
  8
0
390
0
  6
Continuous
 62
     7
100
AcDbLine
 10
3.059599
 20
12.246708
 30
0.0
 11
1.790601
 21
9.106197
 31
0.0
  0
LINE
  5
28
100
AcDbEntity
  8
0
390
0
  6
Continuous
 62
     7
100
AcDbLine
 10
4.221594
 20
12.246708
 30
0.0
 11
3.059599
 21
12.246708
 31
0.0
  0
LINE
  5
29
100
AcDbEntity
  8
0
390
0
  6
Continuous
 62
     7
100
AcDbLine
 10
2.404897
 20
7.75
 30
0.0
 11
4.221594
 21
12.246708
 31
0.0
  0
LINE
  5
2A
100
AcDbEntity
  8
0
390
0
  6
Continuous
 62
     7
100
AcDbLine
 10
1.176561
 20
7.75
 30
0.0
 11
2.404897
 21
7.75
 31
0.0
  0
LINE
  5
2B
100
AcDbEntity
  8
0
390
0
  6
Continuous
 62
     7
100
AcDbLine
 10
0.250796
 20
10.040947
 30
0.0
 11
1.176561
 21
7.75
 31
0.0
  0
LINE
  5
2C
100
AcDbEntity
  8
0
390
0
  6
Continuous
 62
     7
100
AcDbLine
 10
0.831794
 20
11.479218
 30
0.0
 11
0.250796
 21
10.040947
 31
0.0
  0
LINE
  5
2D
100
AcDbEntity
  8
0
390
0
  6
Continuous
 62
     7
100
AcDbLine
 10
1.790601
 20
9.106197
 30
0.0
 11
0.831794
 21
11.479218
 31
0.0
  0
LINE
  5
2E
100
AcDbEntity
  8
0
390
0
  6
Continuous
 62
     7
100
AcDbLine
 10
-6.35364
 20
7.75
 30
0.0
 11
-5.191999
 21
7.75
 31
0.0
  0
LINE
  5
2F
100
AcDbEntity
  8
0
390
0
  6
Continuous
 62
     7
100
AcDbLine
 10
-4.991636
 20
11.121513
 30
0.0
 11
-6.35364
 21
7.75
 31
0.0
  0
LINE
  5
30
100
AcDbEntity
  8
0
390
0
  6
Continuous
 62
     7
100
AcDbLine
 10
-4.049501
 20
8.788568
 30
0.0
 11
-4.991636
 21
11.121513
 31
0.0
  0
LINE
  5
31
100
AcDbEntity
  8
0
390
0
  6
Continuous
 62
     7
100
AcDbLine
 10
-4.772085
 20
8.788568
 30
0.0
 11
-4.049501
 21
8.788568
 31
0.0
  0
LINE
  5
32
100
AcDbEntity
  8
0
390
0
  6
Continuous
 62
     7
100
AcDbLine
 10
-5.191999
 20
7.75
 30
0.0
 11
-4.772085
 21
8.788568
 31
0.0
  0
LINE
  5
33
100
AcDbEntity
  8
0
390
0
  6
Continuous
 62
     7
100
AcDbLine
 10
-2.819519
 20
7.75
 30
0.0
 11
-1.657622
 21
7.75
 31
0.0
  0
LINE
  5
34
100
AcDbEntity
  8
0
390
0
  6
Continuous
 62
     7
100
AcDbLine
 10
-4.636246
 20
12.246708
 30
0.0
 11
-2.819519
 21
7.75
 31
0.0
  0
LINE
  5
35
100
AcDbEntity
  8
0
390
0
  6
Continuous
 62
     7
100
AcDbLine
 10
-3.474604
 20
12.246708
 30
0.0
 11
-4.636246
 21
12.246708
 31
0.0
  0
LINE
  5
36
100
AcDbEntity
  8
0
390
0
  6
Continuous
 62
     7
100
AcDbLine
 10
-1.657622
 20
7.75
 30
0.0
 11
-3.474604
 21
12.246708
 31
0.0
  0
LINE
  5
37
100
AcDbEntity
  8
0
390
0
  6
Continuous
 62
     7
100
AcDbLine
 10
-0.821505
 20
7.75
 30
0.0
 11
0.340474
 21
7.75
 31
0.0
  0
LINE
  5
38
100
AcDbEntity
  8
0
390
0
  6
Continuous
 62
     7
100
AcDbLine
 10
-2.638488
 20
12.246708
 30
0.0
 11
-0.821505
 21
7.75
 31
0.0
  0
LINE
  5
39
100
AcDbEntity
  8
0
390
0
  6
Continuous
 62
     7
100
AcDbLine
 10
-1.476508
 20
12.246708
 30
0.0
 11
-2.638488
 21
12.246708
 31
0.0
  0
LINE
  5
3A
100
AcDbEntity
  8
0
390
0
  6
Continuous
 62
     7
100
AcDbLine
 10
0.340474
 20
7.75
 30
0.0
 11
-1.476508
 21
12.246708
 31
0.0
  0
LINE
  5
3B
100
AcDbEntity
  8
0
390
0
  6
Continuous
 62
     7
100
AcDbLine
 10
3.240983
 20
7.75
 30
0.0
 11
4.819075
 21
7.75
 31
0.0
  0
LINE
  5
3C
100
AcDbEntity
  8
0
390
0
  6
Continuous
 62
     7
100
AcDbLine
 10
3.505178
 20
8.403907
 30
0.0
 11
3.240983
 21
7.75
 31
0.0
  0
LINE
  5
3D
100
AcDbEntity
  8
0
390
0
  6
Continuous
 62
     7
100
AcDbLine
 10
4.143902
 20
8.403907
 30
0.0
 11
3.505178
 21
8.403907
 31
0.0
  0
ARC
  5
3E
100
AcDbEntity
  8
0
390
0
  6
Continuous
 62
     7
100
AcDbCircle
 10
4.143902
 20
9.403907
 30
0.0
 40
1.0
210
0.0
220
0.0
230
1.0
100
AcDbArc
 50
270.0
 51
360.0
  0
LINE
  5
3F
100
AcDbEntity
  8
0
390
0
  6
Continuous
 62
     7
100
AcDbLine
 10
5.143902
 20
12.246708
 30
0.0
 11
5.143902
 21
9.403907
 31
0.0
  0
LINE
  5
40
100
AcDbEntity
  8
0
390
0
  6
Continuous
 62
     7
100
AcDbLine
 10
6.319075
 20
12.246708
 30
0.0
 11
5.143902
 21
12.246708
 31
0.0
  0
LINE
  5
41
100
AcDbEntity
  8
0
390
0
  6
Continuous
 62
     7
100
AcDbLine
 10
6.319075
 20
9.25
 30
0.0
 11
6.319075
 21
12.246708
 31
0.0
  0
ARC
  5
42
100
AcDbEntity
  8
0
390
0
  6
Continuous
 62
     7
100
AcDbCircle
 10
4.819075
 20
9.25
 30
0.0
 40
1.5
210
0.0
220
0.0
230
1.0
100
AcDbArc
 50
270.0
 51
360.0
  0
LINE
  5
43
100
AcDbEntity
  8
0
390
0
  6
Continuous
 62
     7
100
AcDbLine
 10
35.5
 20
27.5
 30
0.0
 11
27.511816
 21
27.5
 31
0.0
  0
LINE
  5
44
100
AcDbEntity
  8
0
390
0
  6
Continuous
 62
     7
100
AcDbLine
 10
27.511816
 20
27.5
 30
0.0
 11
27.511816
 21
29.0
 31
0.0
  0
LINE
  5
45
100
AcDbEntity
  8
0
390
0
  6
Continuous
 62
     7
100
AcDbLine
 10
27.511816
 20
29.0
 30
0.0
 11
35.5
 21
29.0
 31
0.0
  0
LINE
  5
46
100
AcDbEntity
  8
0
390
0
  6
Continuous
 62
     7
100
AcDbLine
 10
35.5
 20
27.5
 30
0.0
 11
35.5
 21
29.0
 31
0.0
  0
LINE
  5
47
100
AcDbEntity
  8
0
390
0
  6
Continuous
 62
     7
100
AcDbLine
 10
35.5
 20
2.0
 30
0.0
 11
35.5
 21
27.5
 31
0.0
  0
LINE
  5
48
100
AcDbEntity
  8
0
390
0
  6
Continuous
 62
     7
100
AcDbLine
 10
53.0
 20
2.0
 30
0.0
 11
35.5
 21
2.0
 31
0.0
  0
LINE
  5
49
100
AcDbEntity
  8
0
390
0
  6
Continuous
 62
     7
100
AcDbLine
 10
53.0
 20
0.0
 30
0.0
 11
53.0
 21
2.0
 31
0.0
  0
LINE
  5
4A
100
AcDbEntity
  8
0
390
0
  6
Continuous
 62
     7
100
AcDbLine
 10
-53.0
 20
2.0
 30
0.0
 11
-53.0
 21
0.0
 31
0.0
  0
LINE
  5
4B
100
AcDbEntity
  8
0
390
0
  6
Continuous
 62
     7
100
AcDbLine
 10
-35.5
 20
2.0
 30
0.0
 11
-53.0
 21
2.0
 31
0.0
  0
LINE
  5
4C
100
AcDbEntity
  8
0
390
0
  6
Continuous
 62
     7
100
AcDbLine
 10
-35.5
 20
27.5
 30
0.0
 11
-35.5
 21
2.0
 31
0.0
  0
LINE
  5
4D
100
AcDbEntity
  8
0
390
0
  6
Continuous
 62
     7
100
AcDbLine
 10
-27.511816
 20
27.5
 30
0.0
 11
-35.5
 21
27.5
 31
0.0
  0
ARC
  5
4E
100
AcDbEntity
  8
0
390
0
  6
Continuous
 62
     7
100
AcDbCircle
 10
0.0
 20
65.05
 30
0.0
 40
46.55
210
0.0
220
0.0
230
1.0
100
AcDbArc
 50
233.770828
 51
306.229172
  0
LINE
  5
4F
100
AcDbEntity
  8
0
390
0
  6
Continuous
 62
     7
100
AcDbLine
 10
-53.0
 20
0.0
 30
0.0
 11
53.0
 21
0.0
 31
0.0
  0
LINE
  5
50
100
AcDbEntity
  8
0
390
0
  6
Continuous
 62
     7
100
AcDbLine
 10
-27.511816
 20
27.5
 30
0.0
 11
-26.625291
 21
28.70999
 31
0.0
  0
ARC
  5
51
100
AcDbEntity
  8
0
390
0
  6
Continuous
 62
     7
100
AcDbCircle
 10
0.0
 20
65.05
 30
0.0
 40
45.05
210
0.0
220
0.0
230
1.0
100
AcDbArc
 50
233.770828
 51
306.229172
  0
LINE
  5
52
100
AcDbEntity
  8
0
390
0
  6
Continuous
 62
     7
100
AcDbLine
 10
27.511816
 20
27.5
 30
0.0
 11
26.625291
 21
28.70999
 31
0.0
  0
LINE
  5
53
100
AcDbEntity
  8
0
390
0
  6
Continuous
 62
     7
100
AcDbLine
 10
-65.5
 20
2.0
 30
0.0
 11
-65.5
 21
0.0
 31
0.0
  0
LINE
  5
54
100
AcDbEntity
  8
0
390
0
  6
Continuous
 62
     7
100
AcDbLine
 10
-65.5
 20
2.0
 30
0.0
 11
-53.0
 21
2.0
 31
0.0
  0
LINE
  5
55
100
AcDbEntity
  8
0
390
0
  6
Continuous
 62
     7
100
AcDbLine
 10
-53.0
 20
0.0
 30
0.0
 11
-65.5
 21
0.0
 31
0.0
  0
ARC
  5
56
100
AcDbEntity
  8
0
390
0
  6
Continuous
 62
     7
100
AcDbCircle
 10
-27.511816
 20
27.5
 30
0.0
 40
1.5
210
0.0
220
0.0
230
1.0
100
AcDbArc
 50
53.770828
 51
90.0
  0
LINE
  5
57
100
AcDbEntity
  8
0
390
0
  6
Continuous
 62
     7
100
AcDbLine
 10
-27.511816
 20
27.5
 30
0.0
 11
-27.511816
 21
29.0
 31
0.0
  0
LINE
  5
58
100
AcDbEntity
  8
0
390
0
  6
Continuous
 62
     7
100
AcDbLine
 10
53.0
 20
2.0
 30
0.0
 11
65.5
 21
2.0
 31
0.0
  0
LINE
  5
59
100
AcDbEntity
  8
0
390
0
  6
Continuous
 62
     7
100
AcDbLine
 10
65.5
 20
0.0
 30
0.0
 11
65.5
 21
2.0
 31
0.0
  0
LINE
  5
5A
100
AcDbEntity
  8
0
390
0
  6
Continuous
 62
     7
100
AcDbLine
 10
65.5
 20
0.0
 30
0.0
 11
53.0
 21
0.0
 31
0.0
  0
ARC
  5
5B
100
AcDbEntity
  8
0
390
0
  6
Continuous
 62
     7
100
AcDbCircle
 10
27.511816
 20
27.5
 30
0.0
 40
1.5
210
0.0
220
0.0
230
1.0
100
AcDbArc
 50
90.0
 51
126.229172
  0
LINE
  5
5C
100
AcDbEntity
  8
0
390
0
  6
Continuous
 62
     7
100
AcDbLine
 10
-40.5
 20
2.0
 30
0.0
 11
-40.5
 21
27.5
 31
0.0
  0
LINE
  5
5D
100
AcDbEntity
  8
0
390
0
  6
Continuous
 62
     7
100
AcDbLine
 10
-35.5
 20
27.5
 30
0.0
 11
-40.5
 21
27.5
 31
0.0
  0
LINE
  5
5E
100
AcDbEntity
  8
0
390
0
  6
Continuous
 62
     7
100
AcDbLine
 10
-35.5
 20
27.5
 30
0.0
 11
-35.5
 21
29.0
 31
0.0
  0
LINE
  5
5F
100
AcDbEntity
  8
0
390
0
  6
Continuous
 62
     7
100
AcDbLine
 10
-35.5
 20
29.0
 30
0.0
 11
-27.511816
 21
29.0
 31
0.0
  0
LINE
  5
60
100
AcDbEntity
  8
0
390
0
  6
Continuous
 62
     7
100
AcDbLine
 10
35.5
 20
29.0
 30
0.0
 11
39.0
 21
29.0
 31
0.0
  0
ARC
  5
61
100
AcDbEntity
  8
0
390
0
  6
Continuous
 62
     7
100
AcDbCircle
 10
39.0
 20
27.5
 30
0.0
 40
1.5
210
0.0
220
0.0
230
1.0
100
AcDbArc
 50
0.0
 51
90.0
  0
LINE
  5
62
100
AcDbEntity
  8
0
390
0
  6
Continuous
 62
     7
100
AcDbLine
 10
40.5
 20
27.5
 30
0.0
 11
35.5
 21
27.5
 31
0.0
  0
LINE
  5
63
100
AcDbEntity
  8
0
390
0
  6
Continuous
 62
     7
100
AcDbLine
 10
40.5
 20
27.5
 30
0.0
 11
40.5
 21
2.0
 31
0.0
  0
ARC
  5
64
100
AcDbEntity
  8
0
390
0
  6
Continuous
 62
     7
100
AcDbCircle
 10
-39.0
 20
27.5
 30
0.0
 40
1.5
210
0.0
220
0.0
230
1.0
100
AcDbArc
 50
90.0
 51
180.0
  0
LINE
  5
65
100
AcDbEntity
  8
0
390
0
  6
Continuous
 62
     7
100
AcDbLine
 10
-39.0
 20
29.0
 30
0.0
 11
-35.5
 21
29.0
 31
0.0
  0
LINE
  5
66
100
AcDbEntity
  8
0
390
0
  6
Continuous
 62
     7
100
AcDbLine
 10
151.385309
 20
0.0
 30
0.0
 11
151.385309
 21
2.0
 31
0.0
  0
LINE
  5
67
100
AcDbEntity
  8
0
390
0
  6
Continuous
 62
     7
100
AcDbLine
 10
151.385309
 20
2.0
 30
0.0
 11
163.885309
 21
2.0
 31
0.0
  0
LINE
  5
68
100
AcDbEntity
  8
0
390
0
  6
Continuous
 62
     7
100
AcDbLine
 10
163.885309
 20
0.0
 30
0.0
 11
163.885309
 21
2.0
 31
0.0
  0
LINE
  5
69
100
AcDbEntity
  8
0
390
0
  6
Continuous
 62
     7
100
AcDbLine
 10
163.885309
 20
0.0
 30
0.0
 11
151.385309
 21
0.0
 31
0.0
  0
LINE
  5
6A
100
AcDbEntity
  8
0
390
0
  6
Continuous
 62
     7
100
AcDbLine
 10
163.885309
 20
2.0
 30
0.0
 11
176.385309
 21
2.0
 31
0.0
  0
LINE
  5
6B
100
AcDbEntity
  8
0
390
0
  6
Continuous
 62
     7
100
AcDbLine
 10
176.385309
 20
2.0
 30
0.0
 11
176.385309
 21
0.0
 31
0.0
  0
LINE
  5
6C
100
AcDbEntity
  8
0
390
0
  6
Continuous
 62
     7
100
AcDbLine
 10
176.385309
 20
0.0
 30
0.0
 11
163.885309
 21
0.0
 31
0.0
  0
LINE
  5
6D
100
AcDbEntity
  8
0
390
0
  6
Continuous
 62
     7
100
AcDbLine
 10
152.885309
 20
29.0
 30
0.0
 11
156.385309
 21
29.0
 31
0.0
  0
LINE
  5
6E
100
AcDbEntity
  8
0
390
0
  6
Continuous
 62
     7
100
AcDbLine
 10
156.385309
 20
29.0
 30
0.0
 11
156.385309
 21
27.5
 31
0.0
  0
LINE
  5
6F
100
AcDbEntity
  8
0
390
0
  6
Continuous
 62
     7
100
AcDbLine
 10
156.385309
 20
27.5
 30
0.0
 11
151.385309
 21
27.5
 31
0.0
  0
ARC
  5
70
100
AcDbEntity
  8
0
390
0
  6
Continuous
 62
     7
100
AcDbCircle
 10
152.885309
 20
27.5
 30
0.0
 40
1.5
210
0.0
220
0.0
230
1.0
100
AcDbArc
 50
90.0
 51
180.0
  0
LINE
  5
71
100
AcDbEntity
  8
0
390
0
  6
Continuous
 62
     7
100
AcDbLine
 10
156.385309
 20
29.0
 30
0.0
 11
171.385309
 21
29.0
 31
0.0
  0
LINE
  5
72
100
AcDbEntity
  8
0
390
0
  6
Continuous
 62
     7
100
AcDbLine
 10
171.385309
 20
29.0
 30
0.0
 11
171.385309
 21
27.5
 31
0.0
  0
LINE
  5
73
100
AcDbEntity
  8
0
390
0
  6
Continuous
 62
     7
100
AcDbLine
 10
171.385309
 20
27.5
 30
0.0
 11
156.385309
 21
27.5
 31
0.0
  0
LINE
  5
74
100
AcDbEntity
  8
0
390
0
  6
Continuous
 62
     7
100
AcDbLine
 10
156.385309
 20
27.5
 30
0.0
 11
156.385309
 21
2.0
 31
0.0
  0
LINE
  5
75
100
AcDbEntity
  8
0
390
0
  6
Continuous
 62
     7
100
AcDbLine
 10
151.385309
 20
2.0
 30
0.0
 11
151.385309
 21
27.5
 31
0.0
  0
LINE
  5
76
100
AcDbEntity
  8
0
390
0
  6
Continuous
 62
     7
100
AcDbLine
 10
171.385309
 20
29.0
 30
0.0
 11
174.885309
 21
29.0
 31
0.0
  0
ARC
  5
77
100
AcDbEntity
  8
0
390
0
  6
Continuous
 62
     7
100
AcDbCircle
 10
174.885309
 20
27.5
 30
0.0
 40
1.5
210
0.0
220
0.0
230
1.0
100
AcDbArc
 50
0.0
 51
90.0
  0
LINE
  5
78
100
AcDbEntity
  8
0
390
0
  6
Continuous
 62
     7
100
AcDbLine
 10
176.385309
 20
27.5
 30
0.0
 11
171.385309
 21
27.5
 31
0.0
  0
LINE
  5
79
100
AcDbEntity
  8
0
390
0
  6
Continuous
 62
     7
100
AcDbLine
 10
171.385309
 20
2.0
 30
0.0
 11
171.385309
 21
27.5
 31
0.0
  0
LINE
  5
7A
100
AcDbEntity
  8
0
390
0
  6
Continuous
 62
     7
100
AcDbLine
 10
176.385309
 20
27.5
 30
0.0
 11
176.385309
 21
2.0
 31
0.0
  0
LINE
  5
7B
100
AcDbEntity
  8
0
390
0
  6
Continuous
 62
     7
100
AcDbLine
 10
176.385309
 20
18.5
 30
0.0
 11
176.385309
 21
27.5
 31
0.0
  0
LINE
  5
7C
100
AcDbEntity
  8
0
390
0
  6
Continuous
 62
     7
100
AcDbLine
 10
151.385309
 20
27.5
 30
0.0
 11
151.385309
 21
18.5
 31
0.0
  0
LINE
  5
7D
100
AcDbEntity
  8
0
390
0
  6
Continuous
 62
     7
100
AcDbLine
 10
151.185309
 20
7.75
 30
0.0
 11
151.385309
 21
7.75
 31
0.0
  0
LINE
  5
7E
100
AcDbEntity
  8
0
390
0
  6
Continuous
 62
     7
100
AcDbLine
 10
151.185309
 20
7.75
 30
0.0
 11
151.185309
 21
9.25
 31
0.0
  0
LINE
  5
7F
100
AcDbEntity
  8
0
390
0
  6
Continuous
 62
     7
100
AcDbLine
 10
151.185309
 20
9.25
 30
0.0
 11
151.385309
 21
9.25
 31
0.0
  0
LINE
  5
80
100
AcDbEntity
  8
0
390
0
  6
Continuous
 62
     7
100
AcDbLine
 10
151.185309
 20
12.246708
 30
0.0
 11
151.385309
 21
12.246708
 31
0.0
  0
LINE
  5
81
100
AcDbEntity
  8
0
390
0
  6
Continuous
 62
     7
100
AcDbLine
 10
151.185309
 20
9.25
 30
0.0
 11
151.185309
 21
12.246708
 31
0.0
  0
LINE
  5
82
100
AcDbEntity
  8
0
390
0
  6
Continuous
 62
     7
100
AcDbLine
 10
38.25
 20
-90.348148
 30
0.0
 11
38.25
 21
-87.461397
 31
0.0
  0
LINE
  5
83
100
AcDbEntity
  8
0
390
0
  6
Continuous
 62
     7
100
AcDbLine
 10
38.25
 20
-87.461397
 30
0.0
 11
35.75
 21
-86.018021
 31
0.0
  0
LINE
  5
84
100
AcDbEntity
  8
0
390
0
  6
Continuous
 62
     7
100
AcDbLine
 10
35.75
 20
-86.018021
 30
0.0
 11
33.25
 21
-87.461397
 31
0.0
  0
LINE
  5
85
100
AcDbEntity
  8
0
390
0
  6
Continuous
 62
     7
100
AcDbLine
 10
33.25
 20
-87.461397
 30
0.0
 11
33.25
 21
-90.348148
 31
0.0
  0
LINE
  5
86
100
AcDbEntity
  8
0
390
0
  6
Continuous
 62
     7
100
AcDbLine
 10
33.25
 20
-90.348148
 30
0.0
 11
35.75
 21
-91.791524
 31
0.0
  0
LINE
  5
87
100
AcDbEntity
  8
0
390
0
  6
Continuous
 62
     7
100
AcDbLine
 10
35.75
 20
-91.791524
 30
0.0
 11
38.25
 21
-90.348148
 31
0.0
  0
LINE
  5
88
100
AcDbEntity
  8
0
390
0
  6
Continuous
 62
     7
100
AcDbLine
 10
-36.5
 20
-84.718983
 30
0.0
 11
-36.5
 21
-81.832232
 31
0.0
  0
LINE
  5
89
100
AcDbEntity
  8
0
390
0
  6
Continuous
 62
     7
100
AcDbLine
 10
-36.5
 20
-81.832232
 30
0.0
 11
-38.5
 21
-80.677531
 31
0.0
  0
LINE
  5
8A
100
AcDbEntity
  8
0
390
0
  6
Continuous
 62
     7
100
AcDbLine
 10
-38.5
 20
-85.873683
 30
0.0
 11
-38.5
 21
-80.677531
 31
0.0
  0
LINE
  5
8B
100
AcDbEntity
  8
0
390
0
  6
Continuous
 62
     7
100
AcDbLine
 10
-38.5
 20
-85.873683
 30
0.0
 11
-36.5
 21
-84.718983
 31
0.0
  0
LINE
  5
8C
100
AcDbEntity
  8
0
390
0
  6
Continuous
 62
     7
100
AcDbLine
 10
-33.25
 20
-79.089818
 30
0.0
 11
-33.25
 21
-76.203066
 31
0.0
  0
LINE
  5
8D
100
AcDbEntity
  8
0
390
0
  6
Continuous
 62
     7
100
AcDbLine
 10
-33.25
 20
-76.203066
 30
0.0
 11
-35.75
 21
-74.759691
 31
0.0
  0
LINE
  5
8E
100
AcDbEntity
  8
0
390
0
  6
Continuous
 62
     7
100
AcDbLine
 10
-35.75
 20
-74.759691
 30
0.0
 11
-38.25
 21
-76.203066
 31
0.0
  0
LINE
  5
8F
100
AcDbEntity
  8
0
390
0
  6
Continuous
 62
     7
100
AcDbLine
 10
-38.25
 20
-76.203066
 30
0.0
 11
-38.25
 21
-79.089818
 31
0.0
  0
LINE
  5
90
100
AcDbEntity
  8
0
390
0
  6
Continuous
 62
     7
100
AcDbLine
 10
-38.25
 20
-79.089818
 30
0.0
 11
-35.75
 21
-80.533194
 31
0.0
  0
LINE
  5
91
100
AcDbEntity
  8
0
390
0
  6
Continuous
 62
     7
100
AcDbLine
 10
-35.75
 20
-80.533194
 30
0.0
 11
-33.25
 21
-79.089818
 31
0.0
  0
LINE
  5
92
100
AcDbEntity
  8
0
390
0
  6
Continuous
 62
     7
100
AcDbLine
 10
30.0
 20
-73.460983
 30
0.0
 11
32.5
 21
-74.904359
 31
0.0
  0
LINE
  5
93
100
AcDbEntity
  8
0
390
0
  6
Continuous
 62
     7
100
AcDbLine
 10
32.5
 20
-74.904359
 30
0.0
 11
35.0
 21
-73.460983
 31
0.0
  0
LINE
  5
94
100
AcDbEntity
  8
0
390
0
  6
Continuous
 62
     7
100
AcDbLine
 10
35.0
 20
-73.460983
 30
0.0
 11
35.0
 21
-72.775607
 31
0.0
  0
LINE
  5
95
100
AcDbEntity
  8
0
390
0
  6
Continuous
 62
     7
100
AcDbLine
 10
30.0
 20
-72.775607
 30
0.0
 11
35.0
 21
-72.775607
 31
0.0
  0
LINE
  5
96
100
AcDbEntity
  8
0
390
0
  6
Continuous
 62
     7
100
AcDbLine
 10
30.0
 20
-72.775607
 30
0.0
 11
30.0
 21
-73.460983
 31
0.0
  0
LINE
  5
97
100
AcDbEntity
  8
0
390
0
  6
Continuous
 62
     7
100
AcDbLine
 10
31.75
 20
-79.089818
 30
0.0
 11
31.75
 21
-76.203066
 31
0.0
  0
LINE
  5
98
100
AcDbEntity
  8
0
390
0
  6
Continuous
 62
     7
100
AcDbLine
 10
31.75
 20
-76.203066
 30
0.0
 11
29.25
 21
-74.759691
 31
0.0
  0
LINE
  5
99
100
AcDbEntity
  8
0
390
0
  6
Continuous
 62
     7
100
AcDbLine
 10
29.25
 20
-74.759691
 30
0.0
 11
26.75
 21
-76.203066
 31
0.0
  0
LINE
  5
9A
100
AcDbEntity
  8
0
390
0
  6
Continuous
 62
     7
100
AcDbLine
 10
26.75
 20
-76.203066
 30
0.0
 11
26.75
 21
-79.089818
 31
0.0
  0
LINE
  5
9B
100
AcDbEntity
  8
0
390
0
  6
Continuous
 62
     7
100
AcDbLine
 10
26.75
 20
-79.089818
 30
0.0
 11
29.25
 21
-80.533194
 31
0.0
  0
LINE
  5
9C
100
AcDbEntity
  8
0
390
0
  6
Continuous
 62
     7
100
AcDbLine
 10
29.25
 20
-80.533194
 30
0.0
 11
31.75
 21
-79.089818
 31
0.0
  0
LINE
  5
9D
100
AcDbEntity
  8
0
390
0
  6
Continuous
 62
     7
100
AcDbLine
 10
35.0
 20
-84.718983
 30
0.0
 11
35.0
 21
-81.832232
 31
0.0
  0
LINE
  5
9E
100
AcDbEntity
  8
0
390
0
  6
Continuous
 62
     7
100
AcDbLine
 10
35.0
 20
-81.832232
 30
0.0
 11
32.5
 21
-80.388856
 31
0.0
  0
LINE
  5
9F
100
AcDbEntity
  8
0
390
0
  6
Continuous
 62
     7
100
AcDbLine
 10
32.5
 20
-80.388856
 30
0.0
 11
30.0
 21
-81.832232
 31
0.0
  0
LINE
  5
A0
100
AcDbEntity
  8
0
390
0
  6
Continuous
 62
     7
100
AcDbLine
 10
30.0
 20
-81.832232
 30
0.0
 11
30.0
 21
-84.718983
 31
0.0
  0
LINE
  5
A1
100
AcDbEntity
  8
0
390
0
  6
Continuous
 62
     7
100
AcDbLine
 10
30.0
 20
-84.718983
 30
0.0
 11
32.5
 21
-86.162359
 31
0.0
  0
LINE
  5
A2
100
AcDbEntity
  8
0
390
0
  6
Continuous
 62
     7
100
AcDbLine
 10
32.5
 20
-86.162359
 30
0.0
 11
35.0
 21
-84.718983
 31
0.0
  0
LINE
  5
A3
100
AcDbEntity
  8
0
390
0
  6
Continuous
 62
     7
100
AcDbLine
 10
31.75
 20
-90.348148
 30
0.0
 11
31.75
 21
-87.461397
 31
0.0
  0
LINE
  5
A4
100
AcDbEntity
  8
0
390
0
  6
Continuous
 62
     7
100
AcDbLine
 10
31.75
 20
-87.461397
 30
0.0
 11
29.25
 21
-86.018021
 31
0.0
  0
LINE
  5
A5
100
AcDbEntity
  8
0
390
0
  6
Continuous
 62
     7
100
AcDbLine
 10
29.25
 20
-86.018021
 30
0.0
 11
26.75
 21
-87.461397
 31
0.0
  0
LINE
  5
A6
100
AcDbEntity
  8
0
390
0
  6
Continuous
 62
     7
100
AcDbLine
 10
26.75
 20
-87.461397
 30
0.0
 11
26.75
 21
-90.348148
 31
0.0
  0
LINE
  5
A7
100
AcDbEntity
  8
0
390
0
  6
Continuous
 62
     7
100
AcDbLine
 10
26.75
 20
-90.348148
 30
0.0
 11
29.25
 21
-91.791524
 31
0.0
  0
LINE
  5
A8
100
AcDbEntity
  8
0
390
0
  6
Continuous
 62
     7
100
AcDbLine
 10
29.25
 20
-91.791524
 30
0.0
 11
31.75
 21
-90.348148
 31
0.0
  0
LINE
  5
A9
100
AcDbEntity
  8
0
390
0
  6
Continuous
 62
     7
100
AcDbLine
 10
35.0
 20
-93.090232
 30
0.0
 11
32.5
 21
-91.646856
 31
0.0
  0
LINE
  5
AA
100
AcDbEntity
  8
0
390
0
  6
Continuous
 62
     7
100
AcDbLine
 10
32.5
 20
-91.646856
 30
0.0
 11
30.0
 21
-93.090232
 31
0.0
  0
LINE
  5
AB
100
AcDbEntity
  8
0
390
0
  6
Continuous
 62
     7
100
AcDbLine
 10
30.0
 20
-93.090232
 30
0.0
 11
30.0
 21
-93.775607
 31
0.0
  0
LINE
  5
AC
100
AcDbEntity
  8
0
390
0
  6
Continuous
 62
     7
100
AcDbLine
 10
35.0
 20
-93.775607
 30
0.0
 11
30.0
 21
-93.775607
 31
0.0
  0
LINE
  5
AD
100
AcDbEntity
  8
0
390
0
  6
Continuous
 62
     7
100
AcDbLine
 10
35.0
 20
-93.775607
 30
0.0
 11
35.0
 21
-93.090232
 31
0.0
  0
LINE
  5
AE
100
AcDbEntity
  8
0
390
0
  6
Continuous
 62
     7
100
AcDbLine
 10
-30.0
 20
-93.090232
 30
0.0
 11
-32.5
 21
-91.646856
 31
0.0
  0
LINE
  5
AF
100
AcDbEntity
  8
0
390
0
  6
Continuous
 62
     7
100
AcDbLine
 10
-32.5
 20
-91.646856
 30
0.0
 11
-35.0
 21
-93.090232
 31
0.0
  0
LINE
  5
B0
100
AcDbEntity
  8
0
390
0
  6
Continuous
 62
     7
100
AcDbLine
 10
-35.0
 20
-93.090232
 30
0.0
 11
-35.0
 21
-93.775607
 31
0.0
  0
LINE
  5
B1
100
AcDbEntity
  8
0
390
0
  6
Continuous
 62
     7
100
AcDbLine
 10
-30.0
 20
-93.775607
 30
0.0
 11
-35.0
 21
-93.775607
 31
0.0
  0
LINE
  5
B2
100
AcDbEntity
  8
0
390
0
  6
Continuous
 62
     7
100
AcDbLine
 10
-30.0
 20
-93.775607
 30
0.0
 11
-30.0
 21
-93.090232
 31
0.0
  0
LINE
  5
B3
100
AcDbEntity
  8
0
390
0
  6
Continuous
 62
     7
100
AcDbLine
 10
-26.75
 20
-90.348148
 30
0.0
 11
-26.75
 21
-87.461397
 31
0.0
  0
LINE
  5
B4
100
AcDbEntity
  8
0
390
0
  6
Continuous
 62
     7
100
AcDbLine
 10
-26.75
 20
-87.461397
 30
0.0
 11
-29.25
 21
-86.018021
 31
0.0
  0
LINE
  5
B5
100
AcDbEntity
  8
0
390
0
  6
Continuous
 62
     7
100
AcDbLine
 10
-29.25
 20
-86.018021
 30
0.0
 11
-31.75
 21
-87.461397
 31
0.0
  0
LINE
  5
B6
100
AcDbEntity
  8
0
390
0
  6
Continuous
 62
     7
100
AcDbLine
 10
-31.75
 20
-87.461397
 30
0.0
 11
-31.75
 21
-90.348148
 31
0.0
  0
LINE
  5
B7
100
AcDbEntity
  8
0
390
0
  6
Continuous
 62
     7
100
AcDbLine
 10
-31.75
 20
-90.348148
 30
0.0
 11
-29.25
 21
-91.791524
 31
0.0
  0
LINE
  5
B8
100
AcDbEntity
  8
0
390
0
  6
Continuous
 62
     7
100
AcDbLine
 10
-29.25
 20
-91.791524
 30
0.0
 11
-26.75
 21
-90.348148
 31
0.0
  0
LINE
  5
B9
100
AcDbEntity
  8
0
390
0
  6
Continuous
 62
     7
100
AcDbLine
 10
-30.0
 20
-84.718983
 30
0.0
 11
-30.0
 21
-81.832232
 31
0.0
  0
LINE
  5
BA
100
AcDbEntity
  8
0
390
0
  6
Continuous
 62
     7
100
AcDbLine
 10
-30.0
 20
-81.832232
 30
0.0
 11
-32.5
 21
-80.388856
 31
0.0
  0
LINE
  5
BB
100
AcDbEntity
  8
0
390
0
  6
Continuous
 62
     7
100
AcDbLine
 10
-32.5
 20
-80.388856
 30
0.0
 11
-35.0
 21
-81.832232
 31
0.0
  0
LINE
  5
BC
100
AcDbEntity
  8
0
390
0
  6
Continuous
 62
     7
100
AcDbLine
 10
-35.0
 20
-81.832232
 30
0.0
 11
-35.0
 21
-84.718983
 31
0.0
  0
LINE
  5
BD
100
AcDbEntity
  8
0
390
0
  6
Continuous
 62
     7
100
AcDbLine
 10
-35.0
 20
-84.718983
 30
0.0
 11
-32.5
 21
-86.162359
 31
0.0
  0
LINE
  5
BE
100
AcDbEntity
  8
0
390
0
  6
Continuous
 62
     7
100
AcDbLine
 10
-32.5
 20
-86.162359
 30
0.0
 11
-30.0
 21
-84.718983
 31
0.0
  0
LINE
  5
BF
100
AcDbEntity
  8
0
390
0
  6
Continuous
 62
     7
100
AcDbLine
 10
-26.75
 20
-79.089818
 30
0.0
 11
-26.75
 21
-76.203066
 31
0.0
  0
LINE
  5
C0
100
AcDbEntity
  8
0
390
0
  6
Continuous
 62
     7
100
AcDbLine
 10
-26.75
 20
-76.203066
 30
0.0
 11
-29.25
 21
-74.759691
 31
0.0
  0
LINE
  5
C1
100
AcDbEntity
  8
0
390
0
  6
Continuous
 62
     7
100
AcDbLine
 10
-29.25
 20
-74.759691
 30
0.0
 11
-31.75
 21
-76.203066
 31
0.0
  0
LINE
  5
C2
100
AcDbEntity
  8
0
390
0
  6
Continuous
 62
     7
100
AcDbLine
 10
-31.75
 20
-76.203066
 30
0.0
 11
-31.75
 21
-79.089818
 31
0.0
  0
LINE
  5
C3
100
AcDbEntity
  8
0
390
0
  6
Continuous
 62
     7
100
AcDbLine
 10
-31.75
 20
-79.089818
 30
0.0
 11
-29.25
 21
-80.533194
 31
0.0
  0
LINE
  5
C4
100
AcDbEntity
  8
0
390
0
  6
Continuous
 62
     7
100
AcDbLine
 10
-29.25
 20
-80.533194
 30
0.0
 11
-26.75
 21
-79.089818
 31
0.0
  0
LINE
  5
C5
100
AcDbEntity
  8
0
390
0
  6
Continuous
 62
     7
100
AcDbLine
 10
-35.0
 20
-73.460983
 30
0.0
 11
-32.5
 21
-74.904359
 31
0.0
  0
LINE
  5
C6
100
AcDbEntity
  8
0
390
0
  6
Continuous
 62
     7
100
AcDbLine
 10
-32.5
 20
-74.904359
 30
0.0
 11
-30.0
 21
-73.460983
 31
0.0
  0
LINE
  5
C7
100
AcDbEntity
  8
0
390
0
  6
Continuous
 62
     7
100
AcDbLine
 10
-30.0
 20
-73.460983
 30
0.0
 11
-30.0
 21
-72.775607
 31
0.0
  0
LINE
  5
C8
100
AcDbEntity
  8
0
390
0
  6
Continuous
 62
     7
100
AcDbLine
 10
-35.0
 20
-72.775607
 30
0.0
 11
-30.0
 21
-72.775607
 31
0.0
  0
LINE
  5
C9
100
AcDbEntity
  8
0
390
0
  6
Continuous
 62
     7
100
AcDbLine
 10
-35.0
 20
-72.775607
 30
0.0
 11
-35.0
 21
-73.460983
 31
0.0
  0
LINE
  5
CA
100
AcDbEntity
  8
0
390
0
  6
Continuous
 62
     7
100
AcDbLine
 10
28.5
 20
-93.775607
 30
0.0
 11
28.5
 21
-93.090232
 31
0.0
  0
LINE
  5
CB
100
AcDbEntity
  8
0
390
0
  6
Continuous
 62
     7
100
AcDbLine
 10
28.5
 20
-93.090232
 30
0.0
 11
26.0
 21
-91.646856
 31
0.0
  0
LINE
  5
CC
100
AcDbEntity
  8
0
390
0
  6
Continuous
 62
     7
100
AcDbLine
 10
26.0
 20
-91.646856
 30
0.0
 11
23.5
 21
-93.090232
 31
0.0
  0
LINE
  5
CD
100
AcDbEntity
  8
0
390
0
  6
Continuous
 62
     7
100
AcDbLine
 10
23.5
 20
-93.090232
 30
0.0
 11
23.5
 21
-93.775607
 31
0.0
  0
LINE
  5
CE
100
AcDbEntity
  8
0
390
0
  6
Continuous
 62
     7
100
AcDbLine
 10
23.5
 20
-93.775607
 30
0.0
 11
28.5
 21
-93.775607
 31
0.0
  0
LINE
  5
CF
100
AcDbEntity
  8
0
390
0
  6
Continuous
 62
     7
100
AcDbLine
 10
22.0
 20
-93.775607
 30
0.0
 11
22.0
 21
-93.090232
 31
0.0
  0
LINE
  5
D0
100
AcDbEntity
  8
0
390
0
  6
Continuous
 62
     7
100
AcDbLine
 10
22.0
 20
-93.090232
 30
0.0
 11
19.5
 21
-91.646856
 31
0.0
  0
LINE
  5
D1
100
AcDbEntity
  8
0
390
0
  6
Continuous
 62
     7
100
AcDbLine
 10
19.5
 20
-91.646856
 30
0.0
 11
17.0
 21
-93.090232
 31
0.0
  0
LINE
  5
D2
100
AcDbEntity
  8
0
390
0
  6
Continuous
 62
     7
100
AcDbLine
 10
17.0
 20
-93.090232
 30
0.0
 11
17.0
 21
-93.775607
 31
0.0
  0
LINE
  5
D3
100
AcDbEntity
  8
0
390
0
  6
Continuous
 62
     7
100
AcDbLine
 10
17.0
 20
-93.775607
 30
0.0
 11
22.0
 21
-93.775607
 31
0.0
  0
LINE
  5
D4
100
AcDbEntity
  8
0
390
0
  6
Continuous
 62
     7
100
AcDbLine
 10
15.5
 20
-93.775607
 30
0.0
 11
15.5
 21
-93.090232
 31
0.0
  0
LINE
  5
D5
100
AcDbEntity
  8
0
390
0
  6
Continuous
 62
     7
100
AcDbLine
 10
15.5
 20
-93.090232
 30
0.0
 11
13.0
 21
-91.646856
 31
0.0
  0
LINE
  5
D6
100
AcDbEntity
  8
0
390
0
  6
Continuous
 62
     7
100
AcDbLine
 10
13.0
 20
-91.646856
 30
0.0
 11
10.5
 21
-93.090232
 31
0.0
  0
LINE
  5
D7
100
AcDbEntity
  8
0
390
0
  6
Continuous
 62
     7
100
AcDbLine
 10
10.5
 20
-93.090232
 30
0.0
 11
10.5
 21
-93.775607
 31
0.0
  0
LINE
  5
D8
100
AcDbEntity
  8
0
390
0
  6
Continuous
 62
     7
100
AcDbLine
 10
10.5
 20
-93.775607
 30
0.0
 11
15.5
 21
-93.775607
 31
0.0
  0
LINE
  5
D9
100
AcDbEntity
  8
0
390
0
  6
Continuous
 62
     7
100
AcDbLine
 10
9.0
 20
-93.775607
 30
0.0
 11
9.0
 21
-93.090232
 31
0.0
  0
LINE
  5
DA
100
AcDbEntity
  8
0
390
0
  6
Continuous
 62
     7
100
AcDbLine
 10
9.0
 20
-93.090232
 30
0.0
 11
6.5
 21
-91.646856
 31
0.0
  0
LINE
  5
DB
100
AcDbEntity
  8
0
390
0
  6
Continuous
 62
     7
100
AcDbLine
 10
6.5
 20
-91.646856
 30
0.0
 11
4.0
 21
-93.090232
 31
0.0
  0
LINE
  5
DC
100
AcDbEntity
  8
0
390
0
  6
Continuous
 62
     7
100
AcDbLine
 10
4.0
 20
-93.090232
 30
0.0
 11
4.0
 21
-93.775607
 31
0.0
  0
LINE
  5
DD
100
AcDbEntity
  8
0
390
0
  6
Continuous
 62
     7
100
AcDbLine
 10
4.0
 20
-93.775607
 30
0.0
 11
9.0
 21
-93.775607
 31
0.0
  0
LINE
  5
DE
100
AcDbEntity
  8
0
390
0
  6
Continuous
 62
     7
100
AcDbLine
 10
2.5
 20
-93.775607
 30
0.0
 11
2.5
 21
-93.090232
 31
0.0
  0
LINE
  5
DF
100
AcDbEntity
  8
0
390
0
  6
Continuous
 62
     7
100
AcDbLine
 10
2.5
 20
-93.090232
 30
0.0
 11
0.0
 21
-91.646856
 31
0.0
  0
LINE
  5
E0
100
AcDbEntity
  8
0
390
0
  6
Continuous
 62
     7
100
AcDbLine
 10
0.0
 20
-91.646856
 30
0.0
 11
-2.5
 21
-93.090232
 31
0.0
  0
LINE
  5
E1
100
AcDbEntity
  8
0
390
0
  6
Continuous
 62
     7
100
AcDbLine
 10
-2.5
 20
-93.090232
 30
0.0
 11
-2.5
 21
-93.775607
 31
0.0
  0
LINE
  5
E2
100
AcDbEntity
  8
0
390
0
  6
Continuous
 62
     7
100
AcDbLine
 10
-2.5
 20
-93.775607
 30
0.0
 11
2.5
 21
-93.775607
 31
0.0
  0
LINE
  5
E3
100
AcDbEntity
  8
0
390
0
  6
Continuous
 62
     7
100
AcDbLine
 10
-4.0
 20
-93.775607
 30
0.0
 11
-4.0
 21
-93.090232
 31
0.0
  0
LINE
  5
E4
100
AcDbEntity
  8
0
390
0
  6
Continuous
 62
     7
100
AcDbLine
 10
-4.0
 20
-93.090232
 30
0.0
 11
-6.5
 21
-91.646856
 31
0.0
  0
LINE
  5
E5
100
AcDbEntity
  8
0
390
0
  6
Continuous
 62
     7
100
AcDbLine
 10
-6.5
 20
-91.646856
 30
0.0
 11
-9.0
 21
-93.090232
 31
0.0
  0
LINE
  5
E6
100
AcDbEntity
  8
0
390
0
  6
Continuous
 62
     7
100
AcDbLine
 10
-9.0
 20
-93.090232
 30
0.0
 11
-9.0
 21
-93.775607
 31
0.0
  0
LINE
  5
E7
100
AcDbEntity
  8
0
390
0
  6
Continuous
 62
     7
100
AcDbLine
 10
-9.0
 20
-93.775607
 30
0.0
 11
-4.0
 21
-93.775607
 31
0.0
  0
LINE
  5
E8
100
AcDbEntity
  8
0
390
0
  6
Continuous
 62
     7
100
AcDbLine
 10
-10.5
 20
-93.775607
 30
0.0
 11
-10.5
 21
-93.090232
 31
0.0
  0
LINE
  5
E9
100
AcDbEntity
  8
0
390
0
  6
Continuous
 62
     7
100
AcDbLine
 10
-10.5
 20
-93.090232
 30
0.0
 11
-13.0
 21
-91.646856
 31
0.0
  0
LINE
  5
EA
100
AcDbEntity
  8
0
390
0
  6
Continuous
 62
     7
100
AcDbLine
 10
-13.0
 20
-91.646856
 30
0.0
 11
-15.5
 21
-93.090232
 31
0.0
  0
LINE
  5
EB
100
AcDbEntity
  8
0
390
0
  6
Continuous
 62
     7
100
AcDbLine
 10
-15.5
 20
-93.090232
 30
0.0
 11
-15.5
 21
-93.775607
 31
0.0
  0
LINE
  5
EC
100
AcDbEntity
  8
0
390
0
  6
Continuous
 62
     7
100
AcDbLine
 10
-15.5
 20
-93.775607
 30
0.0
 11
-10.5
 21
-93.775607
 31
0.0
  0
LINE
  5
ED
100
AcDbEntity
  8
0
390
0
  6
Continuous
 62
     7
100
AcDbLine
 10
-17.0
 20
-93.775607
 30
0.0
 11
-17.0
 21
-93.090232
 31
0.0
  0
LINE
  5
EE
100
AcDbEntity
  8
0
390
0
  6
Continuous
 62
     7
100
AcDbLine
 10
-17.0
 20
-93.090232
 30
0.0
 11
-19.5
 21
-91.646856
 31
0.0
  0
LINE
  5
EF
100
AcDbEntity
  8
0
390
0
  6
Continuous
 62
     7
100
AcDbLine
 10
-19.5
 20
-91.646856
 30
0.0
 11
-22.0
 21
-93.090232
 31
0.0
  0
LINE
  5
F0
100
AcDbEntity
  8
0
390
0
  6
Continuous
 62
     7
100
AcDbLine
 10
-22.0
 20
-93.090232
 30
0.0
 11
-22.0
 21
-93.775607
 31
0.0
  0
LINE
  5
F1
100
AcDbEntity
  8
0
390
0
  6
Continuous
 62
     7
100
AcDbLine
 10
-22.0
 20
-93.775607
 30
0.0
 11
-17.0
 21
-93.775607
 31
0.0
  0
LINE
  5
F2
100
AcDbEntity
  8
0
390
0
  6
Continuous
 62
     7
100
AcDbLine
 10
-23.5
 20
-93.775607
 30
0.0
 11
-23.5
 21
-93.090232
 31
0.0
  0
LINE
  5
F3
100
AcDbEntity
  8
0
390
0
  6
Continuous
 62
     7
100
AcDbLine
 10
-23.5
 20
-93.090232
 30
0.0
 11
-26.0
 21
-91.646856
 31
0.0
  0
LINE
  5
F4
100
AcDbEntity
  8
0
390
0
  6
Continuous
 62
     7
100
AcDbLine
 10
-26.0
 20
-91.646856
 30
0.0
 11
-28.5
 21
-93.090232
 31
0.0
  0
LINE
  5
F5
100
AcDbEntity
  8
0
390
0
  6
Continuous
 62
     7
100
AcDbLine
 10
-28.5
 20
-93.090232
 30
0.0
 11
-28.5
 21
-93.775607
 31
0.0
  0
LINE
  5
F6
100
AcDbEntity
  8
0
390
0
  6
Continuous
 62
     7
100
AcDbLine
 10
-28.5
 20
-93.775607
 30
0.0
 11
-23.5
 21
-93.775607
 31
0.0
  0
LINE
  5
F7
100
AcDbEntity
  8
0
390
0
  6
Continuous
 62
     7
100
AcDbLine
 10
23.5
 20
-73.460983
 30
0.0
 11
26.0
 21
-74.904359
 31
0.0
  0
LINE
  5
F8
100
AcDbEntity
  8
0
390
0
  6
Continuous
 62
     7
100
AcDbLine
 10
26.0
 20
-74.904359
 30
0.0
 11
28.5
 21
-73.460983
 31
0.0
  0
LINE
  5
F9
100
AcDbEntity
  8
0
390
0
  6
Continuous
 62
     7
100
AcDbLine
 10
28.5
 20
-73.460983
 30
0.0
 11
28.5
 21
-72.775607
 31
0.0
  0
LINE
  5
FA
100
AcDbEntity
  8
0
390
0
  6
Continuous
 62
     7
100
AcDbLine
 10
23.5
 20
-72.775607
 30
0.0
 11
28.5
 21
-72.775607
 31
0.0
  0
LINE
  5
FB
100
AcDbEntity
  8
0
390
0
  6
Continuous
 62
     7
100
AcDbLine
 10
23.5
 20
-72.775607
 30
0.0
 11
23.5
 21
-73.460983
 31
0.0
  0
LINE
  5
FC
100
AcDbEntity
  8
0
390
0
  6
Continuous
 62
     7
100
AcDbLine
 10
17.0
 20
-73.460983
 30
0.0
 11
19.5
 21
-74.904359
 31
0.0
  0
LINE
  5
FD
100
AcDbEntity
  8
0
390
0
  6
Continuous
 62
     7
100
AcDbLine
 10
19.5
 20
-74.904359
 30
0.0
 11
22.0
 21
-73.460983
 31
0.0
  0
LINE
  5
FE
100
AcDbEntity
  8
0
390
0
  6
Continuous
 62
     7
100
AcDbLine
 10
22.0
 20
-73.460983
 30
0.0
 11
22.0
 21
-72.775607
 31
0.0
  0
LINE
  5
FF
100
AcDbEntity
  8
0
390
0
  6
Continuous
 62
     7
100
AcDbLine
 10
17.0
 20
-72.775607
 30
0.0
 11
22.0
 21
-72.775607
 31
0.0
  0
LINE
  5
100
100
AcDbEntity
  8
0
390
0
  6
Continuous
 62
     7
100
AcDbLine
 10
17.0
 20
-72.775607
 30
0.0
 11
17.0
 21
-73.460983
 31
0.0
  0
LINE
  5
101
100
AcDbEntity
  8
0
390
0
  6
Continuous
 62
     7
100
AcDbLine
 10
10.5
 20
-73.460983
 30
0.0
 11
13.0
 21
-74.904359
 31
0.0
  0
LINE
  5
102
100
AcDbEntity
  8
0
390
0
  6
Continuous
 62
     7
100
AcDbLine
 10
13.0
 20
-74.904359
 30
0.0
 11
15.5
 21
-73.460983
 31
0.0
  0
LINE
  5
103
100
AcDbEntity
  8
0
390
0
  6
Continuous
 62
     7
100
AcDbLine
 10
15.5
 20
-73.460983
 30
0.0
 11
15.5
 21
-72.775607
 31
0.0
  0
LINE
  5
104
100
AcDbEntity
  8
0
390
0
  6
Continuous
 62
     7
100
AcDbLine
 10
10.5
 20
-72.775607
 30
0.0
 11
15.5
 21
-72.775607
 31
0.0
  0
LINE
  5
105
100
AcDbEntity
  8
0
390
0
  6
Continuous
 62
     7
100
AcDbLine
 10
10.5
 20
-72.775607
 30
0.0
 11
10.5
 21
-73.460983
 31
0.0
  0
LINE
  5
106
100
AcDbEntity
  8
0
390
0
  6
Continuous
 62
     7
100
AcDbLine
 10
4.0
 20
-73.460983
 30
0.0
 11
6.5
 21
-74.904359
 31
0.0
  0
LINE
  5
107
100
AcDbEntity
  8
0
390
0
  6
Continuous
 62
     7
100
AcDbLine
 10
6.5
 20
-74.904359
 30
0.0
 11
9.0
 21
-73.460983
 31
0.0
  0
LINE
  5
108
100
AcDbEntity
  8
0
390
0
  6
Continuous
 62
     7
100
AcDbLine
 10
9.0
 20
-73.460983
 30
0.0
 11
9.0
 21
-72.775607
 31
0.0
  0
LINE
  5
109
100
AcDbEntity
  8
0
390
0
  6
Continuous
 62
     7
100
AcDbLine
 10
4.0
 20
-72.775607
 30
0.0
 11
9.0
 21
-72.775607
 31
0.0
  0
LINE
  5
10A
100
AcDbEntity
  8
0
390
0
  6
Continuous
 62
     7
100
AcDbLine
 10
4.0
 20
-72.775607
 30
0.0
 11
4.0
 21
-73.460983
 31
0.0
  0
LINE
  5
10B
100
AcDbEntity
  8
0
390
0
  6
Continuous
 62
     7
100
AcDbLine
 10
-2.5
 20
-73.460983
 30
0.0
 11
0.0
 21
-74.904359
 31
0.0
  0
LINE
  5
10C
100
AcDbEntity
  8
0
390
0
  6
Continuous
 62
     7
100
AcDbLine
 10
0.0
 20
-74.904359
 30
0.0
 11
2.5
 21
-73.460983
 31
0.0
  0
LINE
  5
10D
100
AcDbEntity
  8
0
390
0
  6
Continuous
 62
     7
100
AcDbLine
 10
2.5
 20
-73.460983
 30
0.0
 11
2.5
 21
-72.775607
 31
0.0
  0
LINE
  5
10E
100
AcDbEntity
  8
0
390
0
  6
Continuous
 62
     7
100
AcDbLine
 10
-2.5
 20
-72.775607
 30
0.0
 11
2.5
 21
-72.775607
 31
0.0
  0
LINE
  5
10F
100
AcDbEntity
  8
0
390
0
  6
Continuous
 62
     7
100
AcDbLine
 10
-2.5
 20
-72.775607
 30
0.0
 11
-2.5
 21
-73.460983
 31
0.0
  0
LINE
  5
110
100
AcDbEntity
  8
0
390
0
  6
Continuous
 62
     7
100
AcDbLine
 10
-9.0
 20
-73.460983
 30
0.0
 11
-6.5
 21
-74.904359
 31
0.0
  0
LINE
  5
111
100
AcDbEntity
  8
0
390
0
  6
Continuous
 62
     7
100
AcDbLine
 10
-6.5
 20
-74.904359
 30
0.0
 11
-4.0
 21
-73.460983
 31
0.0
  0
LINE
  5
112
100
AcDbEntity
  8
0
390
0
  6
Continuous
 62
     7
100
AcDbLine
 10
-4.0
 20
-73.460983
 30
0.0
 11
-4.0
 21
-72.775607
 31
0.0
  0
LINE
  5
113
100
AcDbEntity
  8
0
390
0
  6
Continuous
 62
     7
100
AcDbLine
 10
-9.0
 20
-72.775607
 30
0.0
 11
-4.0
 21
-72.775607
 31
0.0
  0
LINE
  5
114
100
AcDbEntity
  8
0
390
0
  6
Continuous
 62
     7
100
AcDbLine
 10
-9.0
 20
-72.775607
 30
0.0
 11
-9.0
 21
-73.460983
 31
0.0
  0
LINE
  5
115
100
AcDbEntity
  8
0
390
0
  6
Continuous
 62
     7
100
AcDbLine
 10
-15.5
 20
-73.460983
 30
0.0
 11
-13.0
 21
-74.904359
 31
0.0
  0
LINE
  5
116
100
AcDbEntity
  8
0
390
0
  6
Continuous
 62
     7
100
AcDbLine
 10
-13.0
 20
-74.904359
 30
0.0
 11
-10.5
 21
-73.460983
 31
0.0
  0
LINE
  5
117
100
AcDbEntity
  8
0
390
0
  6
Continuous
 62
     7
100
AcDbLine
 10
-10.5
 20
-73.460983
 30
0.0
 11
-10.5
 21
-72.775607
 31
0.0
  0
LINE
  5
118
100
AcDbEntity
  8
0
390
0
  6
Continuous
 62
     7
100
AcDbLine
 10
-15.5
 20
-72.775607
 30
0.0
 11
-10.5
 21
-72.775607
 31
0.0
  0
LINE
  5
119
100
AcDbEntity
  8
0
390
0
  6
Continuous
 62
     7
100
AcDbLine
 10
-15.5
 20
-72.775607
 30
0.0
 11
-15.5
 21
-73.460983
 31
0.0
  0
LINE
  5
11A
100
AcDbEntity
  8
0
390
0
  6
Continuous
 62
     7
100
AcDbLine
 10
-22.0
 20
-73.460983
 30
0.0
 11
-19.5
 21
-74.904359
 31
0.0
  0
LINE
  5
11B
100
AcDbEntity
  8
0
390
0
  6
Continuous
 62
     7
100
AcDbLine
 10
-19.5
 20
-74.904359
 30
0.0
 11
-17.0
 21
-73.460983
 31
0.0
  0
LINE
  5
11C
100
AcDbEntity
  8
0
390
0
  6
Continuous
 62
     7
100
AcDbLine
 10
-17.0
 20
-73.460983
 30
0.0
 11
-17.0
 21
-72.775607
 31
0.0
  0
LINE
  5
11D
100
AcDbEntity
  8
0
390
0
  6
Continuous
 62
     7
100
AcDbLine
 10
-22.0
 20
-72.775607
 30
0.0
 11
-17.0
 21
-72.775607
 31
0.0
  0
LINE
  5
11E
100
AcDbEntity
  8
0
390
0
  6
Continuous
 62
     7
100
AcDbLine
 10
-22.0
 20
-72.775607
 30
0.0
 11
-22.0
 21
-73.460983
 31
0.0
  0
LINE
  5
11F
100
AcDbEntity
  8
0
390
0
  6
Continuous
 62
     7
100
AcDbLine
 10
48.5
 20
-88.775607
 30
0.0
 11
52.5
 21
-88.775607
 31
0.0
  0
ARC
  5
120
100
AcDbEntity
  8
0
390
0
  6
Continuous
 62
     7
100
AcDbCircle
 10
52.5
 20
-83.275607
 30
0.0
 40
5.5
210
0.0
220
0.0
230
1.0
100
AcDbArc
 50
270.0
 51
360.0
  0
ARC
  5
121
100
AcDbEntity
  8
0
390
0
  6
Continuous
 62
     7
100
AcDbCircle
 10
52.5
 20
-83.275607
 30
0.0
 40
5.5
210
0.0
220
0.0
230
1.0
100
AcDbArc
 50
0.0
 51
90.0
  0
LINE
  5
122
100
AcDbEntity
  8
0
390
0
  6
Continuous
 62
     7
100
AcDbLine
 10
52.5
 20
-77.775607
 30
0.0
 11
48.5
 21
-77.775607
 31
0.0
  0
ARC
  5
123
100
AcDbEntity
  8
0
390
0
  6
Continuous
 62
     7
100
AcDbCircle
 10
48.5
 20
-83.275607
 30
0.0
 40
5.5
210
0.0
220
0.0
230
1.0
100
AcDbArc
 50
90.0
 51
180.0
  0
ARC
  5
124
100
AcDbEntity
  8
0
390
0
  6
Continuous
 62
     7
100
AcDbCircle
 10
48.5
 20
-83.275607
 30
0.0
 40
5.5
210
0.0
220
0.0
230
1.0
100
AcDbArc
 50
180.0
 51
270.0
  0
LINE
  5
125
100
AcDbEntity
  8
0
390
0
  6
Continuous
 62
     7
100
AcDbLine
 10
-52.5
 20
-88.775607
 30
0.0
 11
-48.5
 21
-88.775607
 31
0.0
  0
ARC
  5
126
100
AcDbEntity
  8
0
390
0
  6
Continuous
 62
     7
100
AcDbCircle
 10
-48.5
 20
-83.275607
 30
0.0
 40
5.5
210
0.0
220
0.0
230
1.0
100
AcDbArc
 50
270.0
 51
360.0
  0
ARC
  5
127
100
AcDbEntity
  8
0
390
0
  6
Continuous
 62
     7
100
AcDbCircle
 10
-48.5
 20
-83.275607
 30
0.0
 40
5.5
210
0.0
220
0.0
230
1.0
100
AcDbArc
 50
0.0
 51
90.0
  0
LINE
  5
128
100
AcDbEntity
  8
0
390
0
  6
Continuous
 62
     7
100
AcDbLine
 10
-48.5
 20
-77.775607
 30
0.0
 11
-52.5
 21
-77.775607
 31
0.0
  0
ARC
  5
129
100
AcDbEntity
  8
0
390
0
  6
Continuous
 62
     7
100
AcDbCircle
 10
-52.5
 20
-83.275607
 30
0.0
 40
5.5
210
0.0
220
0.0
230
1.0
100
AcDbArc
 50
90.0
 51
180.0
  0
ARC
  5
12A
100
AcDbEntity
  8
0
390
0
  6
Continuous
 62
     7
100
AcDbCircle
 10
-52.5
 20
-83.275607
 30
0.0
 40
5.5
210
0.0
220
0.0
230
1.0
100
AcDbArc
 50
180.0
 51
270.0
  0
LINE
  5
12B
100
AcDbEntity
  8
0
390
0
  6
Continuous
 62
     7
100
AcDbLine
 10
-28.5
 20
-72.775607
 30
0.0
 11
-28.5
 21
-73.460983
 31
0.0
  0
LINE
  5
12C
100
AcDbEntity
  8
0
390
0
  6
Continuous
 62
     7
100
AcDbLine
 10
-28.5
 20
-73.460983
 30
0.0
 11
-26.0
 21
-74.904359
 31
0.0
  0
LINE
  5
12D
100
AcDbEntity
  8
0
390
0
  6
Continuous
 62
     7
100
AcDbLine
 10
-26.0
 20
-74.904359
 30
0.0
 11
-23.5
 21
-73.460983
 31
0.0
  0
LINE
  5
12E
100
AcDbEntity
  8
0
390
0
  6
Continuous
 62
     7
100
AcDbLine
 10
-23.5
 20
-73.460983
 30
0.0
 11
-23.5
 21
-72.775607
 31
0.0
  0
LINE
  5
12F
100
AcDbEntity
  8
0
390
0
  6
Continuous
 62
     7
100
AcDbLine
 10
-28.5
 20
-72.775607
 30
0.0
 11
-23.5
 21
-72.775607
 31
0.0
  0
ARC
  5
130
100
AcDbEntity
  8
0
390
0
  6
Continuous
 62
     7
100
AcDbCircle
 10
53.0
 20
-83.275607
 30
0.0
 40
12.5
210
0.0
220
0.0
230
1.0
100
AcDbArc
 50
0.0
 51
90.0
  0
ARC
  5
131
100
AcDbEntity
  8
0
390
0
  6
Continuous
 62
     7
100
AcDbCircle
 10
53.0
 20
-83.275607
 30
0.0
 40
12.5
210
0.0
220
0.0
230
1.0
100
AcDbArc
 50
270.0
 51
360.0
  0
LINE
  5
132
100
AcDbEntity
  8
0
390
0
  6
Continuous
 62
     7
100
AcDbLine
 10
-53.0
 20
-95.775607
 30
0.0
 11
53.0
 21
-95.775607
 31
0.0
  0
ARC
  5
133
100
AcDbEntity
  8
0
390
0
  6
Continuous
 62
     7
100
AcDbCircle
 10
-53.0
 20
-83.275607
 30
0.0
 40
12.5
210
0.0
220
0.0
230
1.0
100
AcDbArc
 50
180.0
 51
270.0
  0
ARC
  5
134
100
AcDbEntity
  8
0
390
0
  6
Continuous
 62
     7
100
AcDbCircle
 10
-53.0
 20
-83.275607
 30
0.0
 40
12.5
210
0.0
220
0.0
230
1.0
100
AcDbArc
 50
90.0
 51
180.0
  0
LINE
  5
135
100
AcDbEntity
  8
0
390
0
  6
Continuous
 62
     7
100
AcDbLine
 10
-53.0
 20
-70.775607
 30
0.0
 11
53.0
 21
-70.775607
 31
0.0
  0
LINE
  5
136
100
AcDbEntity
  8
0
390
0
  6
Continuous
 62
     7
100
AcDbLine
 10
13.75
 20
-87.461397
 30
0.0
 11
16.25
 21
-86.018021
 31
0.0
  0
LINE
  5
137
100
AcDbEntity
  8
0
390
0
  6
Continuous
 62
     7
100
AcDbLine
 10
13.75
 20
-90.348148
 30
0.0
 11
13.75
 21
-87.461397
 31
0.0
  0
LINE
  5
138
100
AcDbEntity
  8
0
390
0
  6
Continuous
 62
     7
100
AcDbLine
 10
16.25
 20
-91.791524
 30
0.0
 11
13.75
 21
-90.348148
 31
0.0
  0
LINE
  5
139
100
AcDbEntity
  8
0
390
0
  6
Continuous
 62
     7
100
AcDbLine
 10
18.75
 20
-90.348148
 30
0.0
 11
16.25
 21
-91.791524
 31
0.0
  0
LINE
  5
13A
100
AcDbEntity
  8
0
390
0
  6
Continuous
 62
     7
100
AcDbLine
 10
18.75
 20
-87.461397
 30
0.0
 11
18.75
 21
-90.348148
 31
0.0
  0
LINE
  5
13B
100
AcDbEntity
  8
0
390
0
  6
Continuous
 62
     7
100
AcDbLine
 10
16.25
 20
-86.018021
 30
0.0
 11
18.75
 21
-87.461397
 31
0.0
  0
LINE
  5
13C
100
AcDbEntity
  8
0
390
0
  6
Continuous
 62
     7
100
AcDbLine
 10
0.75
 20
-87.461397
 30
0.0
 11
3.25
 21
-86.018021
 31
0.0
  0
LINE
  5
13D
100
AcDbEntity
  8
0
390
0
  6
Continuous
 62
     7
100
AcDbLine
 10
0.75
 20
-90.348148
 30
0.0
 11
0.75
 21
-87.461397
 31
0.0
  0
LINE
  5
13E
100
AcDbEntity
  8
0
390
0
  6
Continuous
 62
     7
100
AcDbLine
 10
3.25
 20
-91.791524
 30
0.0
 11
0.75
 21
-90.348148
 31
0.0
  0
LINE
  5
13F
100
AcDbEntity
  8
0
390
0
  6
Continuous
 62
     7
100
AcDbLine
 10
5.75
 20
-90.348148
 30
0.0
 11
3.25
 21
-91.791524
 31
0.0
  0
LINE
  5
140
100
AcDbEntity
  8
0
390
0
  6
Continuous
 62
     7
100
AcDbLine
 10
5.75
 20
-87.461397
 30
0.0
 11
5.75
 21
-90.348148
 31
0.0
  0
LINE
  5
141
100
AcDbEntity
  8
0
390
0
  6
Continuous
 62
     7
100
AcDbLine
 10
3.25
 20
-86.018021
 30
0.0
 11
5.75
 21
-87.461397
 31
0.0
  0
LINE
  5
142
100
AcDbEntity
  8
0
390
0
  6
Continuous
 62
     7
100
AcDbLine
 10
-12.25
 20
-87.461397
 30
0.0
 11
-9.75
 21
-86.018021
 31
0.0
  0
LINE
  5
143
100
AcDbEntity
  8
0
390
0
  6
Continuous
 62
     7
100
AcDbLine
 10
-12.25
 20
-90.348148
 30
0.0
 11
-12.25
 21
-87.461397
 31
0.0
  0
LINE
  5
144
100
AcDbEntity
  8
0
390
0
  6
Continuous
 62
     7
100
AcDbLine
 10
-9.75
 20
-91.791524
 30
0.0
 11
-12.25
 21
-90.348148
 31
0.0
  0
LINE
  5
145
100
AcDbEntity
  8
0
390
0
  6
Continuous
 62
     7
100
AcDbLine
 10
-7.25
 20
-90.348148
 30
0.0
 11
-9.75
 21
-91.791524
 31
0.0
  0
LINE
  5
146
100
AcDbEntity
  8
0
390
0
  6
Continuous
 62
     7
100
AcDbLine
 10
-7.25
 20
-87.461397
 30
0.0
 11
-7.25
 21
-90.348148
 31
0.0
  0
LINE
  5
147
100
AcDbEntity
  8
0
390
0
  6
Continuous
 62
     7
100
AcDbLine
 10
-9.75
 20
-86.018021
 30
0.0
 11
-7.25
 21
-87.461397
 31
0.0
  0
LINE
  5
148
100
AcDbEntity
  8
0
390
0
  6
Continuous
 62
     7
100
AcDbLine
 10
-25.25
 20
-87.461397
 30
0.0
 11
-22.75
 21
-86.018021
 31
0.0
  0
LINE
  5
149
100
AcDbEntity
  8
0
390
0
  6
Continuous
 62
     7
100
AcDbLine
 10
-25.25
 20
-90.348148
 30
0.0
 11
-25.25
 21
-87.461397
 31
0.0
  0
LINE
  5
14A
100
AcDbEntity
  8
0
390
0
  6
Continuous
 62
     7
100
AcDbLine
 10
-22.75
 20
-91.791524
 30
0.0
 11
-25.25
 21
-90.348148
 31
0.0
  0
LINE
  5
14B
100
AcDbEntity
  8
0
390
0
  6
Continuous
 62
     7
100
AcDbLine
 10
-20.25
 20
-90.348148
 30
0.0
 11
-22.75
 21
-91.791524
 31
0.0
  0
LINE
  5
14C
100
AcDbEntity
  8
0
390
0
  6
Continuous
 62
     7
100
AcDbLine
 10
-20.25
 20
-87.461397
 30
0.0
 11
-20.25
 21
-90.348148
 31
0.0
  0
LINE
  5
14D
100
AcDbEntity
  8
0
390
0
  6
Continuous
 62
     7
100
AcDbLine
 10
-22.75
 20
-86.018021
 30
0.0
 11
-20.25
 21
-87.461397
 31
0.0
  0
LINE
  5
14E
100
AcDbEntity
  8
0
390
0
  6
Continuous
 62
     7
100
AcDbLine
 10
-20.25
 20
-76.203066
 30
0.0
 11
-22.75
 21
-74.759691
 31
0.0
  0
LINE
  5
14F
100
AcDbEntity
  8
0
390
0
  6
Continuous
 62
     7
100
AcDbLine
 10
-22.75
 20
-74.759691
 30
0.0
 11
-25.25
 21
-76.203066
 31
0.0
  0
LINE
  5
150
100
AcDbEntity
  8
0
390
0
  6
Continuous
 62
     7
100
AcDbLine
 10
-25.25
 20
-76.203066
 30
0.0
 11
-25.25
 21
-79.089818
 31
0.0
  0
LINE
  5
151
100
AcDbEntity
  8
0
390
0
  6
Continuous
 62
     7
100
AcDbLine
 10
-25.25
 20
-79.089818
 30
0.0
 11
-22.75
 21
-80.533194
 31
0.0
  0
LINE
  5
152
100
AcDbEntity
  8
0
390
0
  6
Continuous
 62
     7
100
AcDbLine
 10
-22.75
 20
-80.533194
 30
0.0
 11
-20.25
 21
-79.089818
 31
0.0
  0
LINE
  5
153
100
AcDbEntity
  8
0
390
0
  6
Continuous
 62
     7
100
AcDbLine
 10
-20.25
 20
-79.089818
 30
0.0
 11
-20.25
 21
-76.203066
 31
0.0
  0
LINE
  5
154
100
AcDbEntity
  8
0
390
0
  6
Continuous
 62
     7
100
AcDbLine
 10
-13.75
 20
-76.203066
 30
0.0
 11
-16.25
 21
-74.759691
 31
0.0
  0
LINE
  5
155
100
AcDbEntity
  8
0
390
0
  6
Continuous
 62
     7
100
AcDbLine
 10
-16.25
 20
-74.759691
 30
0.0
 11
-18.75
 21
-76.203066
 31
0.0
  0
LINE
  5
156
100
AcDbEntity
  8
0
390
0
  6
Continuous
 62
     7
100
AcDbLine
 10
-18.75
 20
-76.203066
 30
0.0
 11
-18.75
 21
-79.089818
 31
0.0
  0
LINE
  5
157
100
AcDbEntity
  8
0
390
0
  6
Continuous
 62
     7
100
AcDbLine
 10
-18.75
 20
-79.089818
 30
0.0
 11
-16.25
 21
-80.533194
 31
0.0
  0
LINE
  5
158
100
AcDbEntity
  8
0
390
0
  6
Continuous
 62
     7
100
AcDbLine
 10
-16.25
 20
-80.533194
 30
0.0
 11
-13.75
 21
-79.089818
 31
0.0
  0
LINE
  5
159
100
AcDbEntity
  8
0
390
0
  6
Continuous
 62
     7
100
AcDbLine
 10
-13.75
 20
-79.089818
 30
0.0
 11
-13.75
 21
-76.203066
 31
0.0
  0
LINE
  5
15A
100
AcDbEntity
  8
0
390
0
  6
Continuous
 62
     7
100
AcDbLine
 10
-7.25
 20
-76.203066
 30
0.0
 11
-9.75
 21
-74.759691
 31
0.0
  0
LINE
  5
15B
100
AcDbEntity
  8
0
390
0
  6
Continuous
 62
     7
100
AcDbLine
 10
-9.75
 20
-74.759691
 30
0.0
 11
-12.25
 21
-76.203066
 31
0.0
  0
LINE
  5
15C
100
AcDbEntity
  8
0
390
0
  6
Continuous
 62
     7
100
AcDbLine
 10
-12.25
 20
-76.203066
 30
0.0
 11
-12.25
 21
-79.089818
 31
0.0
  0
LINE
  5
15D
100
AcDbEntity
  8
0
390
0
  6
Continuous
 62
     7
100
AcDbLine
 10
-12.25
 20
-79.089818
 30
0.0
 11
-9.75
 21
-80.533194
 31
0.0
  0
LINE
  5
15E
100
AcDbEntity
  8
0
390
0
  6
Continuous
 62
     7
100
AcDbLine
 10
-9.75
 20
-80.533194
 30
0.0
 11
-7.25
 21
-79.089818
 31
0.0
  0
LINE
  5
15F
100
AcDbEntity
  8
0
390
0
  6
Continuous
 62
     7
100
AcDbLine
 10
-7.25
 20
-79.089818
 30
0.0
 11
-7.25
 21
-76.203066
 31
0.0
  0
LINE
  5
160
100
AcDbEntity
  8
0
390
0
  6
Continuous
 62
     7
100
AcDbLine
 10
-0.75
 20
-76.203066
 30
0.0
 11
-3.25
 21
-74.759691
 31
0.0
  0
LINE
  5
161
100
AcDbEntity
  8
0
390
0
  6
Continuous
 62
     7
100
AcDbLine
 10
-3.25
 20
-74.759691
 30
0.0
 11
-5.75
 21
-76.203066
 31
0.0
  0
LINE
  5
162
100
AcDbEntity
  8
0
390
0
  6
Continuous
 62
     7
100
AcDbLine
 10
-5.75
 20
-76.203066
 30
0.0
 11
-5.75
 21
-79.089818
 31
0.0
  0
LINE
  5
163
100
AcDbEntity
  8
0
390
0
  6
Continuous
 62
     7
100
AcDbLine
 10
-5.75
 20
-79.089818
 30
0.0
 11
-3.25
 21
-80.533194
 31
0.0
  0
LINE
  5
164
100
AcDbEntity
  8
0
390
0
  6
Continuous
 62
     7
100
AcDbLine
 10
-3.25
 20
-80.533194
 30
0.0
 11
-0.75
 21
-79.089818
 31
0.0
  0
LINE
  5
165
100
AcDbEntity
  8
0
390
0
  6
Continuous
 62
     7
100
AcDbLine
 10
-0.75
 20
-79.089818
 30
0.0
 11
-0.75
 21
-76.203066
 31
0.0
  0
LINE
  5
166
100
AcDbEntity
  8
0
390
0
  6
Continuous
 62
     7
100
AcDbLine
 10
25.25
 20
-76.203066
 30
0.0
 11
22.75
 21
-74.759691
 31
0.0
  0
LINE
  5
167
100
AcDbEntity
  8
0
390
0
  6
Continuous
 62
     7
100
AcDbLine
 10
22.75
 20
-74.759691
 30
0.0
 11
20.25
 21
-76.203066
 31
0.0
  0
LINE
  5
168
100
AcDbEntity
  8
0
390
0
  6
Continuous
 62
     7
100
AcDbLine
 10
20.25
 20
-76.203066
 30
0.0
 11
20.25
 21
-79.089818
 31
0.0
  0
LINE
  5
169
100
AcDbEntity
  8
0
390
0
  6
Continuous
 62
     7
100
AcDbLine
 10
20.25
 20
-79.089818
 30
0.0
 11
22.75
 21
-80.533194
 31
0.0
  0
LINE
  5
16A
100
AcDbEntity
  8
0
390
0
  6
Continuous
 62
     7
100
AcDbLine
 10
22.75
 20
-80.533194
 30
0.0
 11
25.25
 21
-79.089818
 31
0.0
  0
LINE
  5
16B
100
AcDbEntity
  8
0
390
0
  6
Continuous
 62
     7
100
AcDbLine
 10
25.25
 20
-79.089818
 30
0.0
 11
25.25
 21
-76.203066
 31
0.0
  0
LINE
  5
16C
100
AcDbEntity
  8
0
390
0
  6
Continuous
 62
     7
100
AcDbLine
 10
18.75
 20
-76.203066
 30
0.0
 11
16.25
 21
-74.759691
 31
0.0
  0
LINE
  5
16D
100
AcDbEntity
  8
0
390
0
  6
Continuous
 62
     7
100
AcDbLine
 10
16.25
 20
-74.759691
 30
0.0
 11
13.75
 21
-76.203066
 31
0.0
  0
LINE
  5
16E
100
AcDbEntity
  8
0
390
0
  6
Continuous
 62
     7
100
AcDbLine
 10
13.75
 20
-76.203066
 30
0.0
 11
13.75
 21
-79.089818
 31
0.0
  0
LINE
  5
16F
100
AcDbEntity
  8
0
390
0
  6
Continuous
 62
     7
100
AcDbLine
 10
13.75
 20
-79.089818
 30
0.0
 11
16.25
 21
-80.533194
 31
0.0
  0
LINE
  5
170
100
AcDbEntity
  8
0
390
0
  6
Continuous
 62
     7
100
AcDbLine
 10
16.25
 20
-80.533194
 30
0.0
 11
18.75
 21
-79.089818
 31
0.0
  0
LINE
  5
171
100
AcDbEntity
  8
0
390
0
  6
Continuous
 62
     7
100
AcDbLine
 10
18.75
 20
-79.089818
 30
0.0
 11
18.75
 21
-76.203066
 31
0.0
  0
LINE
  5
172
100
AcDbEntity
  8
0
390
0
  6
Continuous
 62
     7
100
AcDbLine
 10
12.25
 20
-76.203066
 30
0.0
 11
9.75
 21
-74.759691
 31
0.0
  0
LINE
  5
173
100
AcDbEntity
  8
0
390
0
  6
Continuous
 62
     7
100
AcDbLine
 10
9.75
 20
-74.759691
 30
0.0
 11
7.25
 21
-76.203066
 31
0.0
  0
LINE
  5
174
100
AcDbEntity
  8
0
390
0
  6
Continuous
 62
     7
100
AcDbLine
 10
7.25
 20
-76.203066
 30
0.0
 11
7.25
 21
-79.089818
 31
0.0
  0
LINE
  5
175
100
AcDbEntity
  8
0
390
0
  6
Continuous
 62
     7
100
AcDbLine
 10
7.25
 20
-79.089818
 30
0.0
 11
9.75
 21
-80.533194
 31
0.0
  0
LINE
  5
176
100
AcDbEntity
  8
0
390
0
  6
Continuous
 62
     7
100
AcDbLine
 10
9.75
 20
-80.533194
 30
0.0
 11
12.25
 21
-79.089818
 31
0.0
  0
LINE
  5
177
100
AcDbEntity
  8
0
390
0
  6
Continuous
 62
     7
100
AcDbLine
 10
12.25
 20
-79.089818
 30
0.0
 11
12.25
 21
-76.203066
 31
0.0
  0
LINE
  5
178
100
AcDbEntity
  8
0
390
0
  6
Continuous
 62
     7
100
AcDbLine
 10
5.75
 20
-76.203066
 30
0.0
 11
3.25
 21
-74.759691
 31
0.0
  0
LINE
  5
179
100
AcDbEntity
  8
0
390
0
  6
Continuous
 62
     7
100
AcDbLine
 10
3.25
 20
-74.759691
 30
0.0
 11
0.75
 21
-76.203066
 31
0.0
  0
LINE
  5
17A
100
AcDbEntity
  8
0
390
0
  6
Continuous
 62
     7
100
AcDbLine
 10
0.75
 20
-76.203066
 30
0.0
 11
0.75
 21
-79.089818
 31
0.0
  0
LINE
  5
17B
100
AcDbEntity
  8
0
390
0
  6
Continuous
 62
     7
100
AcDbLine
 10
0.75
 20
-79.089818
 30
0.0
 11
3.25
 21
-80.533194
 31
0.0
  0
LINE
  5
17C
100
AcDbEntity
  8
0
390
0
  6
Continuous
 62
     7
100
AcDbLine
 10
3.25
 20
-80.533194
 30
0.0
 11
5.75
 21
-79.089818
 31
0.0
  0
LINE
  5
17D
100
AcDbEntity
  8
0
390
0
  6
Continuous
 62
     7
100
AcDbLine
 10
5.75
 20
-79.089818
 30
0.0
 11
5.75
 21
-76.203066
 31
0.0
  0
LINE
  5
17E
100
AcDbEntity
  8
0
390
0
  6
Continuous
 62
     7
100
AcDbLine
 10
-23.5
 20
-81.832232
 30
0.0
 11
-26.0
 21
-80.388856
 31
0.0
  0
LINE
  5
17F
100
AcDbEntity
  8
0
390
0
  6
Continuous
 62
     7
100
AcDbLine
 10
-26.0
 20
-80.388856
 30
0.0
 11
-28.5
 21
-81.832232
 31
0.0
  0
LINE
  5
180
100
AcDbEntity
  8
0
390
0
  6
Continuous
 62
     7
100
AcDbLine
 10
-28.5
 20
-81.832232
 30
0.0
 11
-28.5
 21
-84.718983
 31
0.0
  0
LINE
  5
181
100
AcDbEntity
  8
0
390
0
  6
Continuous
 62
     7
100
AcDbLine
 10
-28.5
 20
-84.718983
 30
0.0
 11
-26.0
 21
-86.162359
 31
0.0
  0
LINE
  5
182
100
AcDbEntity
  8
0
390
0
  6
Continuous
 62
     7
100
AcDbLine
 10
-26.0
 20
-86.162359
 30
0.0
 11
-23.5
 21
-84.718983
 31
0.0
  0
LINE
  5
183
100
AcDbEntity
  8
0
390
0
  6
Continuous
 62
     7
100
AcDbLine
 10
-23.5
 20
-84.718983
 30
0.0
 11
-23.5
 21
-81.832232
 31
0.0
  0
LINE
  5
184
100
AcDbEntity
  8
0
390
0
  6
Continuous
 62
     7
100
AcDbLine
 10
-17.0
 20
-81.832232
 30
0.0
 11
-19.5
 21
-80.388856
 31
0.0
  0
LINE
  5
185
100
AcDbEntity
  8
0
390
0
  6
Continuous
 62
     7
100
AcDbLine
 10
-19.5
 20
-80.388856
 30
0.0
 11
-22.0
 21
-81.832232
 31
0.0
  0
LINE
  5
186
100
AcDbEntity
  8
0
390
0
  6
Continuous
 62
     7
100
AcDbLine
 10
-22.0
 20
-81.832232
 30
0.0
 11
-22.0
 21
-84.718983
 31
0.0
  0
LINE
  5
187
100
AcDbEntity
  8
0
390
0
  6
Continuous
 62
     7
100
AcDbLine
 10
-22.0
 20
-84.718983
 30
0.0
 11
-19.5
 21
-86.162359
 31
0.0
  0
LINE
  5
188
100
AcDbEntity
  8
0
390
0
  6
Continuous
 62
     7
100
AcDbLine
 10
-19.5
 20
-86.162359
 30
0.0
 11
-17.0
 21
-84.718983
 31
0.0
  0
LINE
  5
189
100
AcDbEntity
  8
0
390
0
  6
Continuous
 62
     7
100
AcDbLine
 10
-17.0
 20
-84.718983
 30
0.0
 11
-17.0
 21
-81.832232
 31
0.0
  0
LINE
  5
18A
100
AcDbEntity
  8
0
390
0
  6
Continuous
 62
     7
100
AcDbLine
 10
-10.5
 20
-81.832232
 30
0.0
 11
-13.0
 21
-80.388856
 31
0.0
  0
LINE
  5
18B
100
AcDbEntity
  8
0
390
0
  6
Continuous
 62
     7
100
AcDbLine
 10
-13.0
 20
-80.388856
 30
0.0
 11
-15.5
 21
-81.832232
 31
0.0
  0
LINE
  5
18C
100
AcDbEntity
  8
0
390
0
  6
Continuous
 62
     7
100
AcDbLine
 10
-15.5
 20
-81.832232
 30
0.0
 11
-15.5
 21
-84.718983
 31
0.0
  0
LINE
  5
18D
100
AcDbEntity
  8
0
390
0
  6
Continuous
 62
     7
100
AcDbLine
 10
-15.5
 20
-84.718983
 30
0.0
 11
-13.0
 21
-86.162359
 31
0.0
  0
LINE
  5
18E
100
AcDbEntity
  8
0
390
0
  6
Continuous
 62
     7
100
AcDbLine
 10
-13.0
 20
-86.162359
 30
0.0
 11
-10.5
 21
-84.718983
 31
0.0
  0
LINE
  5
18F
100
AcDbEntity
  8
0
390
0
  6
Continuous
 62
     7
100
AcDbLine
 10
-10.5
 20
-84.718983
 30
0.0
 11
-10.5
 21
-81.832232
 31
0.0
  0
LINE
  5
190
100
AcDbEntity
  8
0
390
0
  6
Continuous
 62
     7
100
AcDbLine
 10
-4.0
 20
-81.832232
 30
0.0
 11
-6.5
 21
-80.388856
 31
0.0
  0
LINE
  5
191
100
AcDbEntity
  8
0
390
0
  6
Continuous
 62
     7
100
AcDbLine
 10
-6.5
 20
-80.388856
 30
0.0
 11
-9.0
 21
-81.832232
 31
0.0
  0
LINE
  5
192
100
AcDbEntity
  8
0
390
0
  6
Continuous
 62
     7
100
AcDbLine
 10
-9.0
 20
-81.832232
 30
0.0
 11
-9.0
 21
-84.718983
 31
0.0
  0
LINE
  5
193
100
AcDbEntity
  8
0
390
0
  6
Continuous
 62
     7
100
AcDbLine
 10
-9.0
 20
-84.718983
 30
0.0
 11
-6.5
 21
-86.162359
 31
0.0
  0
LINE
  5
194
100
AcDbEntity
  8
0
390
0
  6
Continuous
 62
     7
100
AcDbLine
 10
-6.5
 20
-86.162359
 30
0.0
 11
-4.0
 21
-84.718983
 31
0.0
  0
LINE
  5
195
100
AcDbEntity
  8
0
390
0
  6
Continuous
 62
     7
100
AcDbLine
 10
-4.0
 20
-84.718983
 30
0.0
 11
-4.0
 21
-81.832232
 31
0.0
  0
LINE
  5
196
100
AcDbEntity
  8
0
390
0
  6
Continuous
 62
     7
100
AcDbLine
 10
28.5
 20
-81.832232
 30
0.0
 11
26.0
 21
-80.388856
 31
0.0
  0
LINE
  5
197
100
AcDbEntity
  8
0
390
0
  6
Continuous
 62
     7
100
AcDbLine
 10
26.0
 20
-80.388856
 30
0.0
 11
23.5
 21
-81.832232
 31
0.0
  0
LINE
  5
198
100
AcDbEntity
  8
0
390
0
  6
Continuous
 62
     7
100
AcDbLine
 10
23.5
 20
-81.832232
 30
0.0
 11
23.5
 21
-84.718983
 31
0.0
  0
LINE
  5
199
100
AcDbEntity
  8
0
390
0
  6
Continuous
 62
     7
100
AcDbLine
 10
23.5
 20
-84.718983
 30
0.0
 11
26.0
 21
-86.162359
 31
0.0
  0
LINE
  5
19A
100
AcDbEntity
  8
0
390
0
  6
Continuous
 62
     7
100
AcDbLine
 10
26.0
 20
-86.162359
 30
0.0
 11
28.5
 21
-84.718983
 31
0.0
  0
LINE
  5
19B
100
AcDbEntity
  8
0
390
0
  6
Continuous
 62
     7
100
AcDbLine
 10
28.5
 20
-84.718983
 30
0.0
 11
28.5
 21
-81.832232
 31
0.0
  0
LINE
  5
19C
100
AcDbEntity
  8
0
390
0
  6
Continuous
 62
     7
100
AcDbLine
 10
22.0
 20
-81.832232
 30
0.0
 11
19.5
 21
-80.388856
 31
0.0
  0
LINE
  5
19D
100
AcDbEntity
  8
0
390
0
  6
Continuous
 62
     7
100
AcDbLine
 10
19.5
 20
-80.388856
 30
0.0
 11
17.0
 21
-81.832232
 31
0.0
  0
LINE
  5
19E
100
AcDbEntity
  8
0
390
0
  6
Continuous
 62
     7
100
AcDbLine
 10
17.0
 20
-81.832232
 30
0.0
 11
17.0
 21
-84.718983
 31
0.0
  0
LINE
  5
19F
100
AcDbEntity
  8
0
390
0
  6
Continuous
 62
     7
100
AcDbLine
 10
17.0
 20
-84.718983
 30
0.0
 11
19.5
 21
-86.162359
 31
0.0
  0
LINE
  5
1A0
100
AcDbEntity
  8
0
390
0
  6
Continuous
 62
     7
100
AcDbLine
 10
19.5
 20
-86.162359
 30
0.0
 11
22.0
 21
-84.718983
 31
0.0
  0
LINE
  5
1A1
100
AcDbEntity
  8
0
390
0
  6
Continuous
 62
     7
100
AcDbLine
 10
22.0
 20
-84.718983
 30
0.0
 11
22.0
 21
-81.832232
 31
0.0
  0
LINE
  5
1A2
100
AcDbEntity
  8
0
390
0
  6
Continuous
 62
     7
100
AcDbLine
 10
15.5
 20
-81.832232
 30
0.0
 11
13.0
 21
-80.388856
 31
0.0
  0
LINE
  5
1A3
100
AcDbEntity
  8
0
390
0
  6
Continuous
 62
     7
100
AcDbLine
 10
13.0
 20
-80.388856
 30
0.0
 11
10.5
 21
-81.832232
 31
0.0
  0
LINE
  5
1A4
100
AcDbEntity
  8
0
390
0
  6
Continuous
 62
     7
100
AcDbLine
 10
10.5
 20
-81.832232
 30
0.0
 11
10.5
 21
-84.718983
 31
0.0
  0
LINE
  5
1A5
100
AcDbEntity
  8
0
390
0
  6
Continuous
 62
     7
100
AcDbLine
 10
10.5
 20
-84.718983
 30
0.0
 11
13.0
 21
-86.162359
 31
0.0
  0
LINE
  5
1A6
100
AcDbEntity
  8
0
390
0
  6
Continuous
 62
     7
100
AcDbLine
 10
13.0
 20
-86.162359
 30
0.0
 11
15.5
 21
-84.718983
 31
0.0
  0
LINE
  5
1A7
100
AcDbEntity
  8
0
390
0
  6
Continuous
 62
     7
100
AcDbLine
 10
15.5
 20
-84.718983
 30
0.0
 11
15.5
 21
-81.832232
 31
0.0
  0
LINE
  5
1A8
100
AcDbEntity
  8
0
390
0
  6
Continuous
 62
     7
100
AcDbLine
 10
9.0
 20
-81.832232
 30
0.0
 11
6.5
 21
-80.388856
 31
0.0
  0
LINE
  5
1A9
100
AcDbEntity
  8
0
390
0
  6
Continuous
 62
     7
100
AcDbLine
 10
6.5
 20
-80.388856
 30
0.0
 11
4.0
 21
-81.832232
 31
0.0
  0
LINE
  5
1AA
100
AcDbEntity
  8
0
390
0
  6
Continuous
 62
     7
100
AcDbLine
 10
4.0
 20
-81.832232
 30
0.0
 11
4.0
 21
-84.718983
 31
0.0
  0
LINE
  5
1AB
100
AcDbEntity
  8
0
390
0
  6
Continuous
 62
     7
100
AcDbLine
 10
4.0
 20
-84.718983
 30
0.0
 11
6.5
 21
-86.162359
 31
0.0
  0
LINE
  5
1AC
100
AcDbEntity
  8
0
390
0
  6
Continuous
 62
     7
100
AcDbLine
 10
6.5
 20
-86.162359
 30
0.0
 11
9.0
 21
-84.718983
 31
0.0
  0
LINE
  5
1AD
100
AcDbEntity
  8
0
390
0
  6
Continuous
 62
     7
100
AcDbLine
 10
9.0
 20
-84.718983
 30
0.0
 11
9.0
 21
-81.832232
 31
0.0
  0
LINE
  5
1AE
100
AcDbEntity
  8
0
390
0
  6
Continuous
 62
     7
100
AcDbLine
 10
2.5
 20
-81.832232
 30
0.0
 11
0.0
 21
-80.388856
 31
0.0
  0
LINE
  5
1AF
100
AcDbEntity
  8
0
390
0
  6
Continuous
 62
     7
100
AcDbLine
 10
0.0
 20
-80.388856
 30
0.0
 11
-2.5
 21
-81.832232
 31
0.0
  0
LINE
  5
1B0
100
AcDbEntity
  8
0
390
0
  6
Continuous
 62
     7
100
AcDbLine
 10
-2.5
 20
-81.832232
 30
0.0
 11
-2.5
 21
-84.718983
 31
0.0
  0
LINE
  5
1B1
100
AcDbEntity
  8
0
390
0
  6
Continuous
 62
     7
100
AcDbLine
 10
-2.5
 20
-84.718983
 30
0.0
 11
0.0
 21
-86.162359
 31
0.0
  0
LINE
  5
1B2
100
AcDbEntity
  8
0
390
0
  6
Continuous
 62
     7
100
AcDbLine
 10
0.0
 20
-86.162359
 30
0.0
 11
2.5
 21
-84.718983
 31
0.0
  0
LINE
  5
1B3
100
AcDbEntity
  8
0
390
0
  6
Continuous
 62
     7
100
AcDbLine
 10
2.5
 20
-84.718983
 30
0.0
 11
2.5
 21
-81.832232
 31
0.0
  0
LINE
  5
1B4
100
AcDbEntity
  8
0
390
0
  6
Continuous
 62
     7
100
AcDbLine
 10
-18.75
 20
-87.461397
 30
0.0
 11
-16.25
 21
-86.018021
 31
0.0
  0
LINE
  5
1B5
100
AcDbEntity
  8
0
390
0
  6
Continuous
 62
     7
100
AcDbLine
 10
-18.75
 20
-90.348148
 30
0.0
 11
-18.75
 21
-87.461397
 31
0.0
  0
LINE
  5
1B6
100
AcDbEntity
  8
0
390
0
  6
Continuous
 62
     7
100
AcDbLine
 10
-16.25
 20
-91.791524
 30
0.0
 11
-18.75
 21
-90.348148
 31
0.0
  0
LINE
  5
1B7
100
AcDbEntity
  8
0
390
0
  6
Continuous
 62
     7
100
AcDbLine
 10
-13.75
 20
-90.348148
 30
0.0
 11
-16.25
 21
-91.791524
 31
0.0
  0
LINE
  5
1B8
100
AcDbEntity
  8
0
390
0
  6
Continuous
 62
     7
100
AcDbLine
 10
-13.75
 20
-87.461397
 30
0.0
 11
-13.75
 21
-90.348148
 31
0.0
  0
LINE
  5
1B9
100
AcDbEntity
  8
0
390
0
  6
Continuous
 62
     7
100
AcDbLine
 10
-16.25
 20
-86.018021
 30
0.0
 11
-13.75
 21
-87.461397
 31
0.0
  0
LINE
  5
1BA
100
AcDbEntity
  8
0
390
0
  6
Continuous
 62
     7
100
AcDbLine
 10
-5.75
 20
-87.461397
 30
0.0
 11
-3.25
 21
-86.018021
 31
0.0
  0
LINE
  5
1BB
100
AcDbEntity
  8
0
390
0
  6
Continuous
 62
     7
100
AcDbLine
 10
-5.75
 20
-90.348148
 30
0.0
 11
-5.75
 21
-87.461397
 31
0.0
  0
LINE
  5
1BC
100
AcDbEntity
  8
0
390
0
  6
Continuous
 62
     7
100
AcDbLine
 10
-3.25
 20
-91.791524
 30
0.0
 11
-5.75
 21
-90.348148
 31
0.0
  0
LINE
  5
1BD
100
AcDbEntity
  8
0
390
0
  6
Continuous
 62
     7
100
AcDbLine
 10
-0.75
 20
-90.348148
 30
0.0
 11
-3.25
 21
-91.791524
 31
0.0
  0
LINE
  5
1BE
100
AcDbEntity
  8
0
390
0
  6
Continuous
 62
     7
100
AcDbLine
 10
-0.75
 20
-87.461397
 30
0.0
 11
-0.75
 21
-90.348148
 31
0.0
  0
LINE
  5
1BF
100
AcDbEntity
  8
0
390
0
  6
Continuous
 62
     7
100
AcDbLine
 10
-3.25
 20
-86.018021
 30
0.0
 11
-0.75
 21
-87.461397
 31
0.0
  0
LINE
  5
1C0
100
AcDbEntity
  8
0
390
0
  6
Continuous
 62
     7
100
AcDbLine
 10
7.25
 20
-87.461397
 30
0.0
 11
9.75
 21
-86.018021
 31
0.0
  0
LINE
  5
1C1
100
AcDbEntity
  8
0
390
0
  6
Continuous
 62
     7
100
AcDbLine
 10
7.25
 20
-90.348148
 30
0.0
 11
7.25
 21
-87.461397
 31
0.0
  0
LINE
  5
1C2
100
AcDbEntity
  8
0
390
0
  6
Continuous
 62
     7
100
AcDbLine
 10
9.75
 20
-91.791524
 30
0.0
 11
7.25
 21
-90.348148
 31
0.0
  0
LINE
  5
1C3
100
AcDbEntity
  8
0
390
0
  6
Continuous
 62
     7
100
AcDbLine
 10
12.25
 20
-90.348148
 30
0.0
 11
9.75
 21
-91.791524
 31
0.0
  0
LINE
  5
1C4
100
AcDbEntity
  8
0
390
0
  6
Continuous
 62
     7
100
AcDbLine
 10
12.25
 20
-87.461397
 30
0.0
 11
12.25
 21
-90.348148
 31
0.0
  0
LINE
  5
1C5
100
AcDbEntity
  8
0
390
0
  6
Continuous
 62
     7
100
AcDbLine
 10
9.75
 20
-86.018021
 30
0.0
 11
12.25
 21
-87.461397
 31
0.0
  0
LINE
  5
1C6
100
AcDbEntity
  8
0
390
0
  6
Continuous
 62
     7
100
AcDbLine
 10
20.25
 20
-87.461397
 30
0.0
 11
22.75
 21
-86.018021
 31
0.0
  0
LINE
  5
1C7
100
AcDbEntity
  8
0
390
0
  6
Continuous
 62
     7
100
AcDbLine
 10
20.25
 20
-90.348148
 30
0.0
 11
20.25
 21
-87.461397
 31
0.0
  0
LINE
  5
1C8
100
AcDbEntity
  8
0
390
0
  6
Continuous
 62
     7
100
AcDbLine
 10
22.75
 20
-91.791524
 30
0.0
 11
20.25
 21
-90.348148
 31
0.0
  0
LINE
  5
1C9
100
AcDbEntity
  8
0
390
0
  6
Continuous
 62
     7
100
AcDbLine
 10
25.25
 20
-90.348148
 30
0.0
 11
22.75
 21
-91.791524
 31
0.0
  0
LINE
  5
1CA
100
AcDbEntity
  8
0
390
0
  6
Continuous
 62
     7
100
AcDbLine
 10
25.25
 20
-87.461397
 30
0.0
 11
25.25
 21
-90.348148
 31
0.0
  0
LINE
  5
1CB
100
AcDbEntity
  8
0
390
0
  6
Continuous
 62
     7
100
AcDbLine
 10
22.75
 20
-86.018021
 30
0.0
 11
25.25
 21
-87.461397
 31
0.0
  0
LINE
  5
1CC
100
AcDbEntity
  8
0
390
0
  6
Continuous
 62
     7
100
AcDbLine
 10
-33.25
 20
-90.348148
 30
0.0
 11
-33.25
 21
-87.461397
 31
0.0
  0
LINE
  5
1CD
100
AcDbEntity
  8
0
390
0
  6
Continuous
 62
     7
100
AcDbLine
 10
-33.25
 20
-87.461397
 30
0.0
 11
-35.75
 21
-86.018021
 31
0.0
  0
LINE
  5
1CE
100
AcDbEntity
  8
0
390
0
  6
Continuous
 62
     7
100
AcDbLine
 10
-35.75
 20
-86.018021
 30
0.0
 11
-38.25
 21
-87.461397
 31
0.0
  0
LINE
  5
1CF
100
AcDbEntity
  8
0
390
0
  6
Continuous
 62
     7
100
AcDbLine
 10
-38.25
 20
-87.461397
 30
0.0
 11
-38.25
 21
-90.348148
 31
0.0
  0
LINE
  5
1D0
100
AcDbEntity
  8
0
390
0
  6
Continuous
 62
     7
100
AcDbLine
 10
-38.25
 20
-90.348148
 30
0.0
 11
-35.75
 21
-91.791524
 31
0.0
  0
LINE
  5
1D1
100
AcDbEntity
  8
0
390
0
  6
Continuous
 62
     7
100
AcDbLine
 10
-35.75
 20
-91.791524
 30
0.0
 11
-33.25
 21
-90.348148
 31
0.0
  0
LINE
  5
1D2
100
AcDbEntity
  8
0
390
0
  6
Continuous
 62
     7
100
AcDbLine
 10
38.25
 20
-79.089818
 30
0.0
 11
38.25
 21
-76.203066
 31
0.0
  0
LINE
  5
1D3
100
AcDbEntity
  8
0
390
0
  6
Continuous
 62
     7
100
AcDbLine
 10
38.25
 20
-76.203066
 30
0.0
 11
35.75
 21
-74.759691
 31
0.0
  0
LINE
  5
1D4
100
AcDbEntity
  8
0
390
0
  6
Continuous
 62
     7
100
AcDbLine
 10
35.75
 20
-74.759691
 30
0.0
 11
33.25
 21
-76.203066
 31
0.0
  0
LINE
  5
1D5
100
AcDbEntity
  8
0
390
0
  6
Continuous
 62
     7
100
AcDbLine
 10
33.25
 20
-76.203066
 30
0.0
 11
33.25
 21
-79.089818
 31
0.0
  0
LINE
  5
1D6
100
AcDbEntity
  8
0
390
0
  6
Continuous
 62
     7
100
AcDbLine
 10
33.25
 20
-79.089818
 30
0.0
 11
35.75
 21
-80.533194
 31
0.0
  0
LINE
  5
1D7
100
AcDbEntity
  8
0
390
0
  6
Continuous
 62
     7
100
AcDbLine
 10
35.75
 20
-80.533194
 30
0.0
 11
38.25
 21
-79.089818
 31
0.0
  0
LINE
  5
1D8
100
AcDbEntity
  8
0
390
0
  6
Continuous
 62
     7
100
AcDbLine
 10
36.5
 20
-81.832232
 30
0.0
 11
36.5
 21
-84.718983
 31
0.0
  0
LINE
  5
1D9
100
AcDbEntity
  8
0
390
0
  6
Continuous
 62
     7
100
AcDbLine
 10
36.5
 20
-84.718983
 30
0.0
 11
38.5
 21
-85.873683
 31
0.0
  0
LINE
  5
1DA
100
AcDbEntity
  8
0
390
0
  6
Continuous
 62
     7
100
AcDbLine
 10
38.5
 20
-80.677531
 30
0.0
 11
38.5
 21
-85.873683
 31
0.0
  0
LINE
  5
1DB
100
AcDbEntity
  8
0
390
0
  6
Continuous
 62
     7
100
AcDbLine
 10
38.5
 20
-80.677531
 30
0.0
 11
36.5
 21
-81.832232
 31
0.0
  0
LINE
  5
1DC
100
AcDbEntity
  8
0
390
0
  6
Continuous
 62
     7
100
AcDbLine
 10
-23.907927
 20
-73.225466
 30
0.0
 11
-23.5
 21
-73.460983
 31
0.0
  0
LINE
  5
1DD
100
AcDbEntity
  8
0
390
0
  6
Continuous
 62
     7
100
AcDbLine
 10
-23.907927
 20
-72.775607
 30
0.0
 11
-23.907927
 21
-73.225466
 31
0.0
  0
LINE
  5
1DE
100
AcDbEntity
  8
0
390
0
  6
Continuous
 62
     7
100
AcDbLine
 10
-8.689435
 20
-73.281678
 30
0.0
 11
-8.689435
 21
-72.775607
 31
0.0
  0
LINE
  5
1DF
100
AcDbEntity
  8
0
390
0
  6
Continuous
 62
     7
100
AcDbLine
 10
-8.689435
 20
-73.281678
 30
0.0
 11
-9.0
 21
-73.460983
 31
0.0
  0
LINE
  5
1E0
100
AcDbEntity
  8
0
390
0
  6
Continuous
 62
     7
100
AcDbLine
 10
-30.453832
 20
-73.198963
 30
0.0
 11
-30.0
 21
-73.460983
 31
0.0
  0
LINE
  5
1E1
100
AcDbEntity
  8
0
390
0
  6
Continuous
 62
     7
100
AcDbLine
 10
-30.453832
 20
-73.198963
 30
0.0
 11
-30.453832
 21
-72.775607
 31
0.0
  0
LINE
  5
1E2
100
AcDbEntity
  8
0
390
0
  6
Continuous
 62
     7
100
AcDbLine
 10
-2.202383
 20
-73.289153
 30
0.0
 11
-2.202383
 21
-72.775607
 31
0.0
  0
LINE
  5
1E3
100
AcDbEntity
  8
0
390
0
  6
Continuous
 62
     7
100
AcDbLine
 10
-2.202383
 20
-73.289153
 30
0.0
 11
-2.5
 21
-73.460983
 31
0.0
  0
LINE
  5
1E4
100
AcDbEntity
  8
0
390
0
  6
Continuous
 62
     7
100
AcDbLine
 10
-28.046168
 20
-73.198963
 30
0.0
 11
-28.5
 21
-73.460983
 31
0.0
  0
LINE
  5
1E5
100
AcDbEntity
  8
0
390
0
  6
Continuous
 62
     7
100
AcDbLine
 10
-28.046168
 20
-73.198963
 30
0.0
 11
-28.046168
 21
-72.775607
 31
0.0
  0
LINE
  5
1E6
100
AcDbEntity
  8
0
390
0
  6
Continuous
 62
     7
100
AcDbLine
 10
-10.81827
 20
-73.27723
 30
0.0
 11
-10.5
 21
-73.460983
 31
0.0
  0
LINE
  5
1E7
100
AcDbEntity
  8
0
390
0
  6
Continuous
 62
     7
100
AcDbLine
 10
-10.81827
 20
-72.775607
 30
0.0
 11
-10.81827
 21
-73.27723
 31
0.0
  0
LINE
  5
1E8
100
AcDbEntity
  8
0
390
0
  6
Continuous
 62
     7
100
AcDbLine
 10
-15.160423
 20
-73.264928
 30
0.0
 11
-15.160423
 21
-72.775607
 31
0.0
  0
LINE
  5
1E9
100
AcDbEntity
  8
0
390
0
  6
Continuous
 62
     7
100
AcDbLine
 10
-15.160423
 20
-73.264928
 30
0.0
 11
-15.5
 21
-73.460983
 31
0.0
  0
LINE
  5
1EA
100
AcDbEntity
  8
0
390
0
  6
Continuous
 62
     7
100
AcDbLine
 10
4.300101
 20
-73.287719
 30
0.0
 11
4.300101
 21
-72.775607
 31
0.0
  0
LINE
  5
1EB
100
AcDbEntity
  8
0
390
0
  6
Continuous
 62
     7
100
AcDbLine
 10
4.300101
 20
-73.287719
 30
0.0
 11
4.0
 21
-73.460983
 31
0.0
  0
LINE
  5
1EC
100
AcDbEntity
  8
0
390
0
  6
Continuous
 62
     7
100
AcDbLine
 10
-34.546168
 20
-72.775607
 30
0.0
 11
-34.546168
 21
-73.198963
 31
0.0
  0
LINE
  5
1ED
100
AcDbEntity
  8
0
390
0
  6
Continuous
 62
     7
100
AcDbLine
 10
-34.546168
 20
-73.198963
 30
0.0
 11
-35.0
 21
-73.460983
 31
0.0
  0
LINE
  5
1EE
100
AcDbEntity
  8
0
390
0
  6
Continuous
 62
     7
100
AcDbLine
 10
-4.300102
 20
-73.287719
 30
0.0
 11
-4.0
 21
-73.460983
 31
0.0
  0
LINE
  5
1EF
100
AcDbEntity
  8
0
390
0
  6
Continuous
 62
     7
100
AcDbLine
 10
-4.300102
 20
-72.775607
 30
0.0
 11
-4.300102
 21
-73.287719
 31
0.0
  0
LINE
  5
1F0
100
AcDbEntity
  8
0
390
0
  6
Continuous
 62
     7
100
AcDbLine
 10
17.353343
 20
-73.25698
 30
0.0
 11
17.353343
 21
-72.775607
 31
0.0
  0
LINE
  5
1F1
100
AcDbEntity
  8
0
390
0
  6
Continuous
 62
     7
100
AcDbLine
 10
17.353343
 20
-73.25698
 30
0.0
 11
17.0
 21
-73.460983
 31
0.0
  0
LINE
  5
1F2
100
AcDbEntity
  8
0
390
0
  6
Continuous
 62
     7
100
AcDbLine
 10
-21.613623
 20
-73.237908
 30
0.0
 11
-22.0
 21
-73.460983
 31
0.0
  0
LINE
  5
1F3
100
AcDbEntity
  8
0
390
0
  6
Continuous
 62
     7
100
AcDbLine
 10
-21.613623
 20
-73.237908
 30
0.0
 11
-21.613623
 21
-72.775607
 31
0.0
  0
LINE
  5
1F4
100
AcDbEntity
  8
0
390
0
  6
Continuous
 62
     7
100
AcDbLine
 10
21.613623
 20
-73.237908
 30
0.0
 11
22.0
 21
-73.460983
 31
0.0
  0
LINE
  5
1F5
100
AcDbEntity
  8
0
390
0
  6
Continuous
 62
     7
100
AcDbLine
 10
21.613623
 20
-72.775607
 30
0.0
 11
21.613623
 21
-73.237908
 31
0.0
  0
LINE
  5
1F6
100
AcDbEntity
  8
0
390
0
  6
Continuous
 62
     7
100
AcDbLine
 10
28.046168
 20
-73.198963
 30
0.0
 11
28.5
 21
-73.460983
 31
0.0
  0
LINE
  5
1F7
100
AcDbEntity
  8
0
390
0
  6
Continuous
 62
     7
100
AcDbLine
 10
28.046168
 20
-72.775607
 30
0.0
 11
28.046168
 21
-73.198963
 31
0.0
  0
LINE
  5
1F8
100
AcDbEntity
  8
0
390
0
  6
Continuous
 62
     7
100
AcDbLine
 10
34.546168
 20
-73.198963
 30
0.0
 11
35.0
 21
-73.460983
 31
0.0
  0
LINE
  5
1F9
100
AcDbEntity
  8
0
390
0
  6
Continuous
 62
     7
100
AcDbLine
 10
34.546168
 20
-73.198963
 30
0.0
 11
34.546168
 21
-72.775607
 31
0.0
  0
LINE
  5
1FA
100
AcDbEntity
  8
0
390
0
  6
Continuous
 62
     7
100
AcDbLine
 10
2.202382
 20
-73.289153
 30
0.0
 11
2.5
 21
-73.460983
 31
0.0
  0
LINE
  5
1FB
100
AcDbEntity
  8
0
390
0
  6
Continuous
 62
     7
100
AcDbLine
 10
2.202382
 20
-72.775607
 30
0.0
 11
2.202382
 21
-73.289153
 31
0.0
  0
LINE
  5
1FC
100
AcDbEntity
  8
0
390
0
  6
Continuous
 62
     7
100
AcDbLine
 10
30.453832
 20
-72.775607
 30
0.0
 11
30.453832
 21
-73.198963
 31
0.0
  0
LINE
  5
1FD
100
AcDbEntity
  8
0
390
0
  6
Continuous
 62
     7
100
AcDbLine
 10
30.453832
 20
-73.198963
 30
0.0
 11
30.0
 21
-73.460983
 31
0.0
  0
LINE
  5
1FE
100
AcDbEntity
  8
0
390
0
  6
Continuous
 62
     7
100
AcDbLine
 10
10.81827
 20
-73.27723
 30
0.0
 11
10.81827
 21
-72.775607
 31
0.0
  0
LINE
  5
1FF
100
AcDbEntity
  8
0
390
0
  6
Continuous
 62
     7
100
AcDbLine
 10
10.81827
 20
-73.27723
 30
0.0
 11
10.5
 21
-73.460983
 31
0.0
  0
LINE
  5
200
100
AcDbEntity
  8
0
390
0
  6
Continuous
 62
     7
100
AcDbLine
 10
-17.353344
 20
-73.25698
 30
0.0
 11
-17.0
 21
-73.460983
 31
0.0
  0
LINE
  5
201
100
AcDbEntity
  8
0
390
0
  6
Continuous
 62
     7
100
AcDbLine
 10
-17.353344
 20
-72.775607
 30
0.0
 11
-17.353344
 21
-73.25698
 31
0.0
  0
LINE
  5
202
100
AcDbEntity
  8
0
390
0
  6
Continuous
 62
     7
100
AcDbLine
 10
8.689435
 20
-73.281678
 30
0.0
 11
9.0
 21
-73.460983
 31
0.0
  0
LINE
  5
203
100
AcDbEntity
  8
0
390
0
  6
Continuous
 62
     7
100
AcDbLine
 10
8.689435
 20
-72.775607
 30
0.0
 11
8.689435
 21
-73.281678
 31
0.0
  0
LINE
  5
204
100
AcDbEntity
  8
0
390
0
  6
Continuous
 62
     7
100
AcDbLine
 10
23.907927
 20
-73.225466
 30
0.0
 11
23.907927
 21
-72.775607
 31
0.0
  0
LINE
  5
205
100
AcDbEntity
  8
0
390
0
  6
Continuous
 62
     7
100
AcDbLine
 10
23.907927
 20
-73.225466
 30
0.0
 11
23.5
 21
-73.460983
 31
0.0
  0
LINE
  5
206
100
AcDbEntity
  8
0
390
0
  6
Continuous
 62
     7
100
AcDbLine
 10
15.160423
 20
-73.264928
 30
0.0
 11
15.5
 21
-73.460983
 31
0.0
  0
LINE
  5
207
100
AcDbEntity
  8
0
390
0
  6
Continuous
 62
     7
100
AcDbLine
 10
15.160423
 20
-72.775607
 30
0.0
 11
15.160423
 21
-73.264928
 31
0.0
  0
LINE
  5
208
100
AcDbEntity
  8
0
390
0
  6
Continuous
 62
     7
100
AcDbLine
 10
-26.0
 20
-74.407689
 30
0.0
 11
-26.0
 21
-74.904359
 31
0.0
  0
ELLIPSE
  5
209
100
AcDbEntity
  8
0
390
0
  6
Continuous
 62
     7
100
AcDbEllipse
 10
0.0
 20
-58.582145
 30
0.0
 11
48.048169288076927
 21
27.749077397704163
 31
0.0
210
0.0
220
0.0
230
0.9999999999999999
 40
0.015115
 41
4.1319114952018543
 42
4.182872036580334
  0
LINE
  5
20A
100
AcDbEntity
  8
0
390
0
  6
Continuous
 62
     7
100
AcDbLine
 10
30.453832
 20
-73.198963
 30
0.0
 11
32.5
 21
-74.380319
 31
0.0
  0
LINE
  5
20B
100
AcDbEntity
  8
0
390
0
  6
Continuous
 62
     7
100
AcDbLine
 10
32.5
 20
-74.380319
 30
0.0
 11
32.5
 21
-74.904359
 31
0.0
  0
LINE
  5
20C
100
AcDbEntity
  8
0
390
0
  6
Continuous
 62
     7
100
AcDbLine
 10
26.0
 20
-74.407689
 30
0.0
 11
26.0
 21
-74.904359
 31
0.0
  0
ELLIPSE
  5
20D
100
AcDbEntity
  8
0
390
0
  6
Continuous
 62
     7
100
AcDbEllipse
 10
0.0
 20
-58.582145
 30
0.0
 11
-48.048169288076927
 21
27.749077397704209
 31
0.0
210
0.0
220
0.0
230
1.0
 40
0.015115
 41
2.100313270599254
 42
2.1512738119777328
  0
LINE
  5
20E
100
AcDbEntity
  8
0
390
0
  6
Continuous
 62
     7
100
AcDbLine
 10
-27.998214
 20
-73.226649
 30
0.0
 11
-28.046168
 21
-73.198963
 31
0.0
  0
ELLIPSE
  5
20F
100
AcDbEntity
  8
0
390
0
  6
Continuous
 62
     7
100
AcDbEllipse
 10
0.0
 20
-88.604359
 30
0.0
 11
-48.048169288076927
 21
27.749077397704212
 31
0.0
210
0.0
220
0.0
230
1.0
 40
0.015115
 41
0.9574919082365739
 42
1.0077774523288228
  0
LINE
  5
210
100
AcDbEntity
  8
0
390
0
  6
Continuous
 62
     7
100
AcDbLine
 10
28.046168
 20
-73.198963
 30
0.0
 11
27.998214
 21
-73.226649
 31
0.0
  0
ELLIPSE
  5
211
100
AcDbEntity
  8
0
390
0
  6
Continuous
 62
     7
100
AcDbEllipse
 10
0.0
 20
-88.604359
 30
0.0
 11
48.048169288076927
 21
27.749077397704159
 31
0.0
210
0.0
220
0.0
230
0.9999999999999999
 40
0.015115
 41
5.2754078548507648
 42
5.3256933989430131
  0
LINE
  5
212
100
AcDbEntity
  8
0
390
0
  6
Continuous
 62
     7
100
AcDbLine
 10
32.5
 20
-74.380319
 30
0.0
 11
34.546168
 21
-73.198963
 31
0.0
  0
LINE
  5
213
100
AcDbEntity
  8
0
390
0
  6
Continuous
 62
     7
100
AcDbLine
 10
-34.546168
 20
-73.198963
 30
0.0
 11
-32.5
 21
-74.380319
 31
0.0
  0
LINE
  5
214
100
AcDbEntity
  8
0
390
0
  6
Continuous
 62
     7
100
AcDbLine
 10
-32.5
 20
-74.380319
 30
0.0
 11
-32.5
 21
-74.904359
 31
0.0
  0
LINE
  5
215
100
AcDbEntity
  8
0
390
0
  6
Continuous
 62
     7
100
AcDbLine
 10
-32.5
 20
-74.380319
 30
0.0
 11
-30.453832
 21
-73.198963
 31
0.0
  0
LINE
  5
216
100
AcDbEntity
  8
0
390
0
  6
Continuous
 62
     7
100
AcDbLine
 10
19.5
 20
-74.478381
 30
0.0
 11
19.5
 21
-74.904359
 31
0.0
  0
ELLIPSE
  5
217
100
AcDbEntity
  8
0
390
0
  6
Continuous
 62
     7
100
AcDbEllipse
 10
0.0
 20
-84.851582
 30
0.0
 11
48.048169288076927
 21
27.749077397704159
 31
0.0
210
0.0
220
0.0
230
0.9999999999999999
 40
0.015115
 41
5.121543475702607
 42
5.1702181571898249
  0
LINE
  5
218
100
AcDbEntity
  8
0
390
0
  6
Continuous
 62
     7
100
AcDbLine
 10
0.0
 20
-74.561717
 30
0.0
 11
0.0
 21
-74.904359
 31
0.0
  0
ELLIPSE
  5
219
100
AcDbEntity
  8
0
390
0
  6
Continuous
 62
     7
100
AcDbEllipse
 10
0.0
 20
-73.593252
 30
0.0
 11
-48.048169288076927
 21
27.749077397704212
 31
0.0
210
0.0
220
0.0
230
1.0
 40
0.015115
 41
1.5336743459976898
 42
1.5795256321532773
  0
LINE
  5
21A
100
AcDbEntity
  8
0
390
0
  6
Continuous
 62
     7
100
AcDbLine
 10
6.5
 20
-74.552815
 30
0.0
 11
6.5
 21
-74.904359
 31
0.0
  0
ELLIPSE
  5
21B
100
AcDbEntity
  8
0
390
0
  6
Continuous
 62
     7
100
AcDbEllipse
 10
0.0
 20
-77.346028
 30
0.0
 11
48.048169288076927
 21
27.749077397704159
 31
0.0
210
0.0
220
0.0
230
0.9999999999999999
 40
0.015115
 41
4.8393514448847297
 42
4.8855016932459829
  0
LINE
  5
21C
100
AcDbEntity
  8
0
390
0
  6
Continuous
 62
     7
100
AcDbLine
 10
-6.5
 20
-74.552815
 30
0.0
 11
-6.5
 21
-74.904359
 31
0.0
  0
ELLIPSE
  5
21D
100
AcDbEntity
  8
0
390
0
  6
Continuous
 62
     7
100
AcDbEllipse
 10
0.0
 20
-77.346028
 30
0.0
 11
-48.048169288076927
 21
27.749077397704212
 31
0.0
210
0.0
220
0.0
230
1.0
 40
0.015115
 41
1.3976836139336033
 42
1.4438338622948581
  0
LINE
  5
21E
100
AcDbEntity
  8
0
390
0
  6
Continuous
 62
     7
100
AcDbLine
 10
-13.0
 20
-74.525599
 30
0.0
 11
-13.0
 21
-74.904359
 31
0.0
  0
ELLIPSE
  5
21F
100
AcDbEntity
  8
0
390
0
  6
Continuous
 62
     7
100
AcDbEllipse
 10
0.0
 20
-66.087698
 30
0.0
 11
48.048169288076927
 21
27.749077397704159
 31
0.0
210
0.0
220
0.0
230
0.9999999999999999
 40
0.015115
 41
4.4296938157454981
 42
4.4765666911243258
  0
ELLIPSE
  5
220
100
AcDbEntity
  8
0
390
0
  6
Continuous
 62
     7
100
AcDbEllipse
 10
0.0
 20
-69.840475
 30
0.0
 11
48.048169288076927
 21
27.749077397704159
 31
0.0
210
0.0
220
0.0
230
0.9999999999999999
 40
0.015115
 41
4.5679679051678912
 42
4.6140475618857089
  0
LINE
  5
221
100
AcDbEntity
  8
0
390
0
  6
Continuous
 62
     7
100
AcDbLine
 10
13.0
 20
-74.525599
 30
0.0
 11
13.0
 21
-74.904359
 31
0.0
  0
ELLIPSE
  5
222
100
AcDbEntity
  8
0
390
0
  6
Continuous
 62
     7
100
AcDbEllipse
 10
0.0
 20
-81.098805
 30
0.0
 11
48.048169288076927
 21
27.749077397704159
 31
0.0
210
0.0
220
0.0
230
0.9999999999999999
 40
0.015115
 41
4.9776255343071201
 42
5.0246574110048821
  0
ELLIPSE
  5
223
100
AcDbEntity
  8
0
390
0
  6
Continuous
 62
     7
100
AcDbEllipse
 10
0.0
 20
-66.087698
 30
0.0
 11
-48.048169288076927
 21
27.749077397704212
 31
0.0
210
0.0
220
0.0
230
1.0
 40
0.015115
 41
1.8066186160552611
 42
1.8534914914340888
  0
ELLIPSE
  5
224
100
AcDbEntity
  8
0
390
0
  6
Continuous
 62
     7
100
AcDbEllipse
 10
0.0
 20
-69.840475
 30
0.0
 11
-48.048169288076927
 21
27.749077397704212
 31
0.0
210
0.0
220
0.0
230
1.0
 40
0.015115
 41
1.6691377452938791
 42
1.7152174020116975
  0
ELLIPSE
  5
225
100
AcDbEntity
  8
0
390
0
  6
Continuous
 62
     7
100
AcDbEllipse
 10
0.0
 20
-73.593252
 30
0.0
 11
48.048169288076927
 21
27.749077397704159
 31
0.0
210
0.0
220
0.0
230
0.9999999999999999
 40
0.015115
 41
4.7036596750263096
 42
4.7495109611818975
  0
LINE
  5
226
100
AcDbEntity
  8
0
390
0
  6
Continuous
 62
     7
100
AcDbLine
 10
-19.5
 20
-74.478381
 30
0.0
 11
-19.5
 21
-74.904359
 31
0.0
  0
ELLIPSE
  5
227
100
AcDbEntity
  8
0
390
0
  6
Continuous
 62
     7
100
AcDbEllipse
 10
0.0
 20
-62.334921
 30
0.0
 11
48.048169288076927
 21
27.749077397704159
 31
0.0
210
0.0
220
0.0
230
0.9999999999999999
 40
0.015115
 41
4.2857758743500112
 42
4.3341569221553344
  0
ELLIPSE
  5
228
100
AcDbEntity
  8
0
390
0
  6
Continuous
 62
     7
100
AcDbEllipse
 10
0.0
 20
-81.098805
 30
0.0
 11
-48.048169288076927
 21
27.749077397704212
 31
0.0
210
0.0
220
0.0
230
1.0
 40
0.015115
 41
1.2585278961747046
 42
1.3055597728724668
  0
ELLIPSE
  5
229
100
AcDbEntity
  8
0
390
0
  6
Continuous
 62
     7
100
AcDbEllipse
 10
0.0
 20
-62.334921
 30
0.0
 11
-48.048169288076927
 21
27.749077397704212
 31
0.0
210
0.0
220
0.0
230
1.0
 40
0.015115
 41
1.9490283850242534
 42
1.9974094328295755
  0
ELLIPSE
  5
22A
100
AcDbEntity
  8
0
390
0
  6
Continuous
 62
     7
100
AcDbEllipse
 10
0.0
 20
-84.851582
 30
0.0
 11
-48.048169288076927
 21
27.749077397704212
 31
0.0
210
0.0
220
0.0
230
1.0
 40
0.015115
 41
1.1129671499897624
 42
1.1616418314769801
  0
LINE
  5
22B
100
AcDbEntity
  8
0
390
0
  6
Continuous
 62
     7
100
AcDbLine
 10
29.25
 20
-75.283731
 30
0.0
 11
27.998214
 21
-76.006449
 31
0.0
  0
ELLIPSE
  5
22C
100
AcDbEntity
  8
0
390
0
  6
Continuous
 62
     7
100
AcDbEllipse
 10
0.0
 20
-92.958293
 30
0.0
 11
48.048169288076927
 21
27.749077397704212
 31
0.0
210
0.0
220
0.0
230
1.0
 40
0.015115
 41
0.9400332975198129
 42
0.9604797807834723
  0
LINE
  5
22D
100
AcDbEntity
  8
0
390
0
  6
Continuous
 62
     7
100
AcDbLine
 10
27.193982
 20
-76.4594
 30
0.0
 11
26.75
 21
-76.203066
 31
0.0
  0
LINE
  5
22E
100
AcDbEntity
  8
0
390
0
  6
Continuous
 62
     7
100
AcDbLine
 10
29.25
 20
-75.283731
 30
0.0
 11
29.25
 21
-74.759691
 31
0.0
  0
LINE
  5
22F
100
AcDbEntity
  8
0
390
0
  6
Continuous
 62
     7
100
AcDbLine
 10
-33.703832
 20
-76.465086
 30
0.0
 11
-35.75
 21
-75.283731
 31
0.0
  0
LINE
  5
230
100
AcDbEntity
  8
0
390
0
  6
Continuous
 62
     7
100
AcDbLine
 10
-35.75
 20
-75.283731
 30
0.0
 11
-35.75
 21
-74.759691
 31
0.0
  0
LINE
  5
231
100
AcDbEntity
  8
0
390
0
  6
Continuous
 62
     7
100
AcDbLine
 10
-33.703832
 20
-76.465086
 30
0.0
 11
-33.25
 21
-76.203066
 31
0.0
  0
LINE
  5
232
100
AcDbEntity
  8
0
390
0
  6
Continuous
 62
     7
100
AcDbLine
 10
-22.75
 20
-75.217761
 30
0.0
 11
-22.75
 21
-74.759691
 31
0.0
  0
LINE
  5
233
100
AcDbEntity
  8
0
390
0
  6
Continuous
 62
     7
100
AcDbLine
 10
-20.627957
 20
-76.42128
 30
0.0
 11
-20.25
 21
-76.203066
 31
0.0
  0
ELLIPSE
  5
234
100
AcDbEntity
  8
0
390
0
  6
Continuous
 62
     7
100
AcDbEllipse
 10
0.0
 20
-89.205516
 30
0.0
 11
-48.048169288076927
 21
27.749077397704188
 31
0.0
210
0.0
220
0.0
230
0.9999999999999999
 40
0.015115
 41
5.1648379727655769
 42
5.2143389501624471
  0
LINE
  5
235
100
AcDbEntity
  8
0
390
0
  6
Continuous
 62
     7
100
AcDbLine
 10
-29.25
 20
-75.283731
 30
0.0
 11
-31.296168
 21
-76.465086
 31
0.0
  0
LINE
  5
236
100
AcDbEntity
  8
0
390
0
  6
Continuous
 62
     7
100
AcDbLine
 10
-31.296168
 20
-76.465086
 30
0.0
 11
-31.75
 21
-76.203066
 31
0.0
  0
LINE
  5
237
100
AcDbEntity
  8
0
390
0
  6
Continuous
 62
     7
100
AcDbLine
 10
-29.25
 20
-75.283731
 30
0.0
 11
-29.25
 21
-74.759691
 31
0.0
  0
LINE
  5
238
100
AcDbEntity
  8
0
390
0
  6
Continuous
 62
     7
100
AcDbLine
 10
14.083572
 20
-76.395654
 30
0.0
 11
13.75
 21
-76.203066
 31
0.0
  0
LINE
  5
239
100
AcDbEntity
  8
0
390
0
  6
Continuous
 62
     7
100
AcDbLine
 10
16.25
 20
-75.159396
 30
0.0
 11
16.25
 21
-74.759691
 31
0.0
  0
ELLIPSE
  5
23A
100
AcDbEntity
  8
0
390
0
  6
Continuous
 62
     7
100
AcDbEllipse
 10
0.0
 20
-85.45274
 30
0.0
 11
48.048169288076977
 21
27.749077397704212
 31
0.0
210
0.0
220
0.0
230
1.0
 40
0.015115
 41
1.2170747691483803
 42
1.2645968487735306
  0
LINE
  5
23B
100
AcDbEntity
  8
0
390
0
  6
Continuous
 62
     7
100
AcDbLine
 10
31.296168
 20
-76.465086
 30
0.0
 11
29.25
 21
-75.283731
 31
0.0
  0
LINE
  5
23C
100
AcDbEntity
  8
0
390
0
  6
Continuous
 62
     7
100
AcDbLine
 10
31.296168
 20
-76.465086
 30
0.0
 11
31.75
 21
-76.203066
 31
0.0
  0
LINE
  5
23D
100
AcDbEntity
  8
0
390
0
  6
Continuous
 62
     7
100
AcDbLine
 10
-24.832574
 20
-76.444067
 30
0.0
 11
-25.25
 21
-76.203066
 31
0.0
  0
ELLIPSE
  5
23E
100
AcDbEntity
  8
0
390
0
  6
Continuous
 62
     7
100
AcDbEllipse
 10
0.0
 20
-62.936079
 30
0.0
 11
48.048169288076977
 21
27.749077397704212
 31
0.0
210
0.0
220
0.0
230
1.0
 40
0.015115
 41
2.0552876858558933
 42
2.1051840100092161
  0
LINE
  5
23F
100
AcDbEntity
  8
0
390
0
  6
Continuous
 62
     7
100
AcDbLine
 10
-27.998214
 20
-76.006449
 30
0.0
 11
-29.25
 21
-75.283731
 31
0.0
  0
LINE
  5
240
100
AcDbEntity
  8
0
390
0
  6
Continuous
 62
     7
100
AcDbLine
 10
-27.193983
 20
-76.4594
 30
0.0
 11
-26.75
 21
-76.203066
 31
0.0
  0
ELLIPSE
  5
241
100
AcDbEntity
  8
0
390
0
  6
Continuous
 62
     7
100
AcDbEllipse
 10
0.0
 20
-92.958293
 30
0.0
 11
-48.048169288076927
 21
27.749077397704212
 31
0.0
210
0.0
220
0.0
230
1.0
 40
0.015115
 41
5.3227055263961152
 42
5.3431520096597751
  0
LINE
  5
242
100
AcDbEntity
  8
0
390
0
  6
Continuous
 62
     7
100
AcDbLine
 10
-11.927015
 20
-76.389542
 30
0.0
 11
-12.25
 21
-76.203066
 31
0.0
  0
LINE
  5
243
100
AcDbEntity
  8
0
390
0
  6
Continuous
 62
     7
100
AcDbLine
 10
-9.75
 20
-75.122479
 30
0.0
 11
-9.75
 21
-74.759691
 31
0.0
  0
ELLIPSE
  5
244
100
AcDbEntity
  8
0
390
0
  6
Continuous
 62
     7
100
AcDbEllipse
 10
0.0
 20
-70.441633
 30
0.0
 11
48.048169288076977
 21
27.749077397704212
 31
0.0
210
0.0
220
0.0
230
1.0
 40
0.015115
 41
1.7663995625292652
 42
1.8129102805125801
  0
LINE
  5
245
100
AcDbEntity
  8
0
390
0
  6
Continuous
 62
     7
100
AcDbLine
 10
20.627956
 20
-76.42128
 30
0.0
 11
20.25
 21
-76.203066
 31
0.0
  0
LINE
  5
246
100
AcDbEntity
  8
0
390
0
  6
Continuous
 62
     7
100
AcDbLine
 10
22.75
 20
-75.217761
 30
0.0
 11
22.75
 21
-74.759691
 31
0.0
  0
ELLIPSE
  5
247
100
AcDbEntity
  8
0
390
0
  6
Continuous
 62
     7
100
AcDbEllipse
 10
0.0
 20
-89.205516
 30
0.0
 11
48.048169288076977
 21
27.749077397704188
 31
0.0
210
0.0
220
0.0
230
1.0
 40
0.015115
 41
1.0688463570171385
 42
1.1183473344140085
  0
LINE
  5
248
100
AcDbEntity
  8
0
390
0
  6
Continuous
 62
     7
100
AcDbLine
 10
3.25
 20
-75.10455
 30
0.0
 11
3.25
 21
-74.759691
 31
0.0
  0
LINE
  5
249
100
AcDbEntity
  8
0
390
0
  6
Continuous
 62
     7
100
AcDbLine
 10
5.447856
 20
-76.37751
 30
0.0
 11
5.75
 21
-76.203066
 31
0.0
  0
ELLIPSE
  5
24A
100
AcDbEntity
  8
0
390
0
  6
Continuous
 62
     7
100
AcDbEllipse
 10
0.0
 20
-74.194409
 30
0.0
 11
-48.048169288076927
 21
27.749077397704212
 31
0.0
210
0.0
220
0.0
230
1.0
 40
0.015115
 41
4.6074950688447132
 42
4.6534287295134851
  0
LINE
  5
24B
100
AcDbEntity
  8
0
390
0
  6
Continuous
 62
     7
100
AcDbLine
 10
37.796168
 20
-76.465086
 30
0.0
 11
35.75
 21
-75.283731
 31
0.0
  0
LINE
  5
24C
100
AcDbEntity
  8
0
390
0
  6
Continuous
 62
     7
100
AcDbLine
 10
35.75
 20
-75.283731
 30
0.0
 11
35.75
 21
-74.759691
 31
0.0
  0
LINE
  5
24D
100
AcDbEntity
  8
0
390
0
  6
Continuous
 62
     7
100
AcDbLine
 10
37.796168
 20
-76.465086
 30
0.0
 11
38.25
 21
-76.203066
 31
0.0
  0
LINE
  5
24E
100
AcDbEntity
  8
0
390
0
  6
Continuous
 62
     7
100
AcDbLine
 10
-7.557174
 20
-76.380414
 30
0.0
 11
-7.25
 21
-76.203066
 31
0.0
  0
ELLIPSE
  5
24F
100
AcDbEntity
  8
0
390
0
  6
Continuous
 62
     7
100
AcDbEllipse
 10
0.0
 20
-81.699963
 30
0.0
 11
-48.048169288076927
 21
27.749077397704212
 31
0.0
210
0.0
220
0.0
230
1.0
 40
0.015115
 41
4.8790513191897382
 42
4.9254508268358199
  0
LINE
  5
250
100
AcDbEntity
  8
0
390
0
  6
Continuous
 62
     7
100
AcDbLine
 10
24.832574
 20
-76.444067
 30
0.0
 11
25.25
 21
-76.203066
 31
0.0
  0
ELLIPSE
  5
251
100
AcDbEntity
  8
0
390
0
  6
Continuous
 62
     7
100
AcDbEllipse
 10
0.0
 20
-62.936079
 30
0.0
 11
-48.048169288076927
 21
27.749077397704212
 31
0.0
210
0.0
220
0.0
230
1.0
 40
0.015115
 41
4.1780012971703711
 42
4.2278976213236925
  0
LINE
  5
252
100
AcDbEntity
  8
0
390
0
  6
Continuous
 62
     7
100
AcDbLine
 10
18.38941
 20
-76.411253
 30
0.0
 11
18.75
 21
-76.203066
 31
0.0
  0
ELLIPSE
  5
253
100
AcDbEntity
  8
0
390
0
  6
Continuous
 62
     7
100
AcDbEllipse
 10
0.0
 20
-66.688856
 30
0.0
 11
-48.048169288076927
 21
27.749077397704212
 31
0.0
210
0.0
220
0.0
230
1.0
 40
0.015115
 41
4.3283860699614616
 42
4.376126033454935
  0
LINE
  5
254
100
AcDbEntity
  8
0
390
0
  6
Continuous
 62
     7
100
AcDbLine
 10
-5.447856
 20
-76.37751
 30
0.0
 11
-5.75
 21
-76.203066
 31
0.0
  0
LINE
  5
255
100
AcDbEntity
  8
0
390
0
  6
Continuous
 62
     7
100
AcDbLine
 10
-3.25
 20
-75.10455
 30
0.0
 11
-3.25
 21
-74.759691
 31
0.0
  0
ELLIPSE
  5
256
100
AcDbEntity
  8
0
390
0
  6
Continuous
 62
     7
100
AcDbEllipse
 10
0.0
 20
-74.194409
 30
0.0
 11
48.048169288076977
 21
27.749077397704212
 31
0.0
210
0.0
220
0.0
230
1.0
 40
0.015115
 41
1.6297565776661016
 42
1.6756902383348733
  0
LINE
  5
257
100
AcDbEntity
  8
0
390
0
  6
Continuous
 62
     7
100
AcDbLine
 10
35.75
 20
-75.283731
 30
0.0
 11
33.703832
 21
-76.465086
 31
0.0
  0
LINE
  5
258
100
AcDbEntity
  8
0
390
0
  6
Continuous
 62
     7
100
AcDbLine
 10
33.703832
 20
-76.465086
 30
0.0
 11
33.25
 21
-76.203066
 31
0.0
  0
LINE
  5
259
100
AcDbEntity
  8
0
390
0
  6
Continuous
 62
     7
100
AcDbLine
 10
-1.046935
 20
-76.374502
 30
0.0
 11
-0.75
 21
-76.203066
 31
0.0
  0
ELLIPSE
  5
25A
100
AcDbEntity
  8
0
390
0
  6
Continuous
 62
     7
100
AcDbEllipse
 10
0.0
 20
-77.947186
 30
0.0
 11
-48.048169288076927
 21
27.749077397704212
 31
0.0
210
0.0
220
0.0
230
1.0
 40
0.015115
 41
4.7429084640190338
 42
4.7888078419726572
  0
LINE
  5
25B
100
AcDbEntity
  8
0
390
0
  6
Continuous
 62
     7
100
AcDbLine
 10
-18.38941
 20
-76.411253
 30
0.0
 11
-18.75
 21
-76.203066
 31
0.0
  0
LINE
  5
25C
100
AcDbEntity
  8
0
390
0
  6
Continuous
 62
     7
100
AcDbLine
 10
-16.25
 20
-75.159396
 30
0.0
 11
-16.25
 21
-74.759691
 31
0.0
  0
ELLIPSE
  5
25D
100
AcDbEntity
  8
0
390
0
  6
Continuous
 62
     7
100
AcDbEllipse
 10
0.0
 20
-66.688856
 30
0.0
 11
48.048169288076977
 21
27.749077397704212
 31
0.0
210
0.0
220
0.0
230
1.0
 40
0.015115
 41
1.9070592737246523
 42
1.9547992372181249
  0
LINE
  5
25E
100
AcDbEntity
  8
0
390
0
  6
Continuous
 62
     7
100
AcDbLine
 10
9.75
 20
-75.122479
 30
0.0
 11
9.75
 21
-74.759691
 31
0.0
  0
LINE
  5
25F
100
AcDbEntity
  8
0
390
0
  6
Continuous
 62
     7
100
AcDbLine
 10
11.927015
 20
-76.389542
 30
0.0
 11
12.25
 21
-76.203066
 31
0.0
  0
ELLIPSE
  5
260
100
AcDbEntity
  8
0
390
0
  6
Continuous
 62
     7
100
AcDbEllipse
 10
0.0
 20
-70.441633
 30
0.0
 11
-48.048169288076927
 21
27.749077397704212
 31
0.0
210
0.0
220
0.0
230
1.0
 40
0.015115
 41
4.4702750266670064
 42
4.5167857446503215
  0
LINE
  5
261
100
AcDbEntity
  8
0
390
0
  6
Continuous
 62
     7
100
AcDbLine
 10
7.557174
 20
-76.380414
 30
0.0
 11
7.25
 21
-76.203066
 31
0.0
  0
ELLIPSE
  5
262
100
AcDbEntity
  8
0
390
0
  6
Continuous
 62
     7
100
AcDbEllipse
 10
0.0
 20
-81.699963
 30
0.0
 11
48.048169288076977
 21
27.749077397704212
 31
0.0
210
0.0
220
0.0
230
1.0
 40
0.015115
 41
1.357734480343767
 42
1.4041339879898478
  0
LINE
  5
263
100
AcDbEntity
  8
0
390
0
  6
Continuous
 62
     7
100
AcDbLine
 10
1.046935
 20
-76.374502
 30
0.0
 11
0.75
 21
-76.203066
 31
0.0
  0
ELLIPSE
  5
264
100
AcDbEntity
  8
0
390
0
  6
Continuous
 62
     7
100
AcDbEllipse
 10
0.0
 20
-77.947186
 30
0.0
 11
48.048169288076977
 21
27.749077397704212
 31
0.0
210
0.0
220
0.0
230
1.0
 40
0.015115
 41
1.4943774652069304
 42
1.5402768431605518
  0
LINE
  5
265
100
AcDbEntity
  8
0
390
0
  6
Continuous
 62
     7
100
AcDbLine
 10
-14.083572
 20
-76.395654
 30
0.0
 11
-13.75
 21
-76.203066
 31
0.0
  0
ELLIPSE
  5
266
100
AcDbEntity
  8
0
390
0
  6
Continuous
 62
     7
100
AcDbEllipse
 10
0.0
 20
-85.45274
 30
0.0
 11
-48.048169288076927
 21
27.749077397704212
 31
0.0
210
0.0
220
0.0
230
1.0
 40
0.015115
 41
5.0185884584060547
 42
5.0661105380312064
  0
LINE
  5
267
100
AcDbEntity
  8
0
390
0
  6
Continuous
 62
     7
100
AcDbLine
 10
-35.75
 20
-75.283731
 30
0.0
 11
-37.796168
 21
-76.465086
 31
0.0
  0
LINE
  5
268
100
AcDbEntity
  8
0
390
0
  6
Continuous
 62
     7
100
AcDbLine
 10
-37.796168
 20
-76.465086
 30
0.0
 11
-38.25
 21
-76.203066
 31
0.0
  0
LINE
  5
269
100
AcDbEntity
  8
0
390
0
  6
Continuous
 62
     7
100
AcDbLine
 10
31.296168
 20
-78.827798
 30
0.0
 11
31.296168
 21
-76.465086
 31
0.0
  0
LINE
  5
26A
100
AcDbEntity
  8
0
390
0
  6
Continuous
 62
     7
100
AcDbLine
 10
31.296168
 20
-78.827798
 30
0.0
 11
31.75
 21
-79.089818
 31
0.0
  0
LINE
  5
26B
100
AcDbEntity
  8
0
390
0
  6
Continuous
 62
     7
100
AcDbLine
 10
-18.38941
 20
-78.881631
 30
0.0
 11
-18.75
 21
-79.089818
 31
0.0
  0
LINE
  5
26C
100
AcDbEntity
  8
0
390
0
  6
Continuous
 62
     7
100
AcDbLine
 10
-18.38941
 20
-78.881631
 30
0.0
 11
-18.38941
 21
-76.411253
 31
0.0
  0
LINE
  5
26D
100
AcDbEntity
  8
0
390
0
  6
Continuous
 62
     7
100
AcDbLine
 10
-24.832574
 20
-78.848817
 30
0.0
 11
-25.25
 21
-79.089818
 31
0.0
  0
LINE
  5
26E
100
AcDbEntity
  8
0
390
0
  6
Continuous
 62
     7
100
AcDbLine
 10
-24.832574
 20
-78.848817
 30
0.0
 11
-24.832574
 21
-76.444067
 31
0.0
  0
LINE
  5
26F
100
AcDbEntity
  8
0
390
0
  6
Continuous
 62
     7
100
AcDbLine
 10
11.927015
 20
-78.903342
 30
0.0
 11
12.25
 21
-79.089818
 31
0.0
  0
LINE
  5
270
100
AcDbEntity
  8
0
390
0
  6
Continuous
 62
     7
100
AcDbLine
 10
11.927015
 20
-76.389542
 30
0.0
 11
11.927015
 21
-78.903342
 31
0.0
  0
LINE
  5
271
100
AcDbEntity
  8
0
390
0
  6
Continuous
 62
     7
100
AcDbLine
 10
-11.927015
 20
-78.903342
 30
0.0
 11
-12.25
 21
-79.089818
 31
0.0
  0
LINE
  5
272
100
AcDbEntity
  8
0
390
0
  6
Continuous
 62
     7
100
AcDbLine
 10
-11.927015
 20
-78.903342
 30
0.0
 11
-11.927015
 21
-76.389542
 31
0.0
  0
LINE
  5
273
100
AcDbEntity
  8
0
390
0
  6
Continuous
 62
     7
100
AcDbLine
 10
18.38941
 20
-78.881631
 30
0.0
 11
18.75
 21
-79.089818
 31
0.0
  0
LINE
  5
274
100
AcDbEntity
  8
0
390
0
  6
Continuous
 62
     7
100
AcDbLine
 10
18.38941
 20
-76.411253
 30
0.0
 11
18.38941
 21
-78.881631
 31
0.0
  0
LINE
  5
275
100
AcDbEntity
  8
0
390
0
  6
Continuous
 62
     7
100
AcDbLine
 10
-31.296168
 20
-76.465086
 30
0.0
 11
-31.296168
 21
-78.827798
 31
0.0
  0
LINE
  5
276
100
AcDbEntity
  8
0
390
0
  6
Continuous
 62
     7
100
AcDbLine
 10
-31.296168
 20
-78.827798
 30
0.0
 11
-31.75
 21
-79.089818
 31
0.0
  0
LINE
  5
277
100
AcDbEntity
  8
0
390
0
  6
Continuous
 62
     7
100
AcDbLine
 10
14.083572
 20
-78.89723
 30
0.0
 11
13.75
 21
-79.089818
 31
0.0
  0
LINE
  5
278
100
AcDbEntity
  8
0
390
0
  6
Continuous
 62
     7
100
AcDbLine
 10
14.083572
 20
-78.89723
 30
0.0
 11
14.083572
 21
-76.395654
 31
0.0
  0
LINE
  5
279
100
AcDbEntity
  8
0
390
0
  6
Continuous
 62
     7
100
AcDbLine
 10
27.193982
 20
-76.4594
 30
0.0
 11
27.193982
 21
-78.833484
 31
0.0
  0
LINE
  5
27A
100
AcDbEntity
  8
0
390
0
  6
Continuous
 62
     7
100
AcDbLine
 10
27.193982
 20
-78.833484
 30
0.0
 11
26.75
 21
-79.089818
 31
0.0
  0
LINE
  5
27B
100
AcDbEntity
  8
0
390
0
  6
Continuous
 62
     7
100
AcDbLine
 10
-7.557174
 20
-78.912471
 30
0.0
 11
-7.25
 21
-79.089818
 31
0.0
  0
LINE
  5
27C
100
AcDbEntity
  8
0
390
0
  6
Continuous
 62
     7
100
AcDbLine
 10
-7.557174
 20
-76.380414
 30
0.0
 11
-7.557174
 21
-78.912471
 31
0.0
  0
LINE
  5
27D
100
AcDbEntity
  8
0
390
0
  6
Continuous
 62
     7
100
AcDbLine
 10
37.796168
 20
-78.827798
 30
0.0
 11
37.796168
 21
-76.465086
 31
0.0
  0
LINE
  5
27E
100
AcDbEntity
  8
0
390
0
  6
Continuous
 62
     7
100
AcDbLine
 10
37.796168
 20
-78.827798
 30
0.0
 11
38.25
 21
-79.089818
 31
0.0
  0
LINE
  5
27F
100
AcDbEntity
  8
0
390
0
  6
Continuous
 62
     7
100
AcDbLine
 10
-5.447856
 20
-78.915375
 30
0.0
 11
-5.75
 21
-79.089818
 31
0.0
  0
LINE
  5
280
100
AcDbEntity
  8
0
390
0
  6
Continuous
 62
     7
100
AcDbLine
 10
-5.447856
 20
-78.915375
 30
0.0
 11
-5.447856
 21
-76.37751
 31
0.0
  0
LINE
  5
281
100
AcDbEntity
  8
0
390
0
  6
Continuous
 62
     7
100
AcDbLine
 10
7.557174
 20
-78.912471
 30
0.0
 11
7.25
 21
-79.089818
 31
0.0
  0
LINE
  5
282
100
AcDbEntity
  8
0
390
0
  6
Continuous
 62
     7
100
AcDbLine
 10
7.557174
 20
-78.912471
 30
0.0
 11
7.557174
 21
-76.380414
 31
0.0
  0
LINE
  5
283
100
AcDbEntity
  8
0
390
0
  6
Continuous
 62
     7
100
AcDbLine
 10
-20.627957
 20
-78.871605
 30
0.0
 11
-20.25
 21
-79.089818
 31
0.0
  0
LINE
  5
284
100
AcDbEntity
  8
0
390
0
  6
Continuous
 62
     7
100
AcDbLine
 10
-20.627957
 20
-76.42128
 30
0.0
 11
-20.627957
 21
-78.871605
 31
0.0
  0
LINE
  5
285
100
AcDbEntity
  8
0
390
0
  6
Continuous
 62
     7
100
AcDbLine
 10
-33.703832
 20
-78.827798
 30
0.0
 11
-33.703832
 21
-76.465086
 31
0.0
  0
LINE
  5
286
100
AcDbEntity
  8
0
390
0
  6
Continuous
 62
     7
100
AcDbLine
 10
-33.703832
 20
-78.827798
 30
0.0
 11
-33.25
 21
-79.089818
 31
0.0
  0
LINE
  5
287
100
AcDbEntity
  8
0
390
0
  6
Continuous
 62
     7
100
AcDbLine
 10
1.046935
 20
-78.918382
 30
0.0
 11
0.75
 21
-79.089818
 31
0.0
  0
LINE
  5
288
100
AcDbEntity
  8
0
390
0
  6
Continuous
 62
     7
100
AcDbLine
 10
1.046935
 20
-78.918382
 30
0.0
 11
1.046935
 21
-76.374502
 31
0.0
  0
LINE
  5
289
100
AcDbEntity
  8
0
390
0
  6
Continuous
 62
     7
100
AcDbLine
 10
20.627956
 20
-78.871605
 30
0.0
 11
20.25
 21
-79.089818
 31
0.0
  0
LINE
  5
28A
100
AcDbEntity
  8
0
390
0
  6
Continuous
 62
     7
100
AcDbLine
 10
20.627956
 20
-78.871605
 30
0.0
 11
20.627956
 21
-76.42128
 31
0.0
  0
LINE
  5
28B
100
AcDbEntity
  8
0
390
0
  6
Continuous
 62
     7
100
AcDbLine
 10
-1.046935
 20
-78.918382
 30
0.0
 11
-0.75
 21
-79.089818
 31
0.0
  0
LINE
  5
28C
100
AcDbEntity
  8
0
390
0
  6
Continuous
 62
     7
100
AcDbLine
 10
-1.046935
 20
-76.374502
 30
0.0
 11
-1.046935
 21
-78.918382
 31
0.0
  0
LINE
  5
28D
100
AcDbEntity
  8
0
390
0
  6
Continuous
 62
     7
100
AcDbLine
 10
-14.083572
 20
-78.89723
 30
0.0
 11
-13.75
 21
-79.089818
 31
0.0
  0
LINE
  5
28E
100
AcDbEntity
  8
0
390
0
  6
Continuous
 62
     7
100
AcDbLine
 10
-14.083572
 20
-76.395654
 30
0.0
 11
-14.083572
 21
-78.89723
 31
0.0
  0
LINE
  5
28F
100
AcDbEntity
  8
0
390
0
  6
Continuous
 62
     7
100
AcDbLine
 10
5.447856
 20
-78.915375
 30
0.0
 11
5.75
 21
-79.089818
 31
0.0
  0
LINE
  5
290
100
AcDbEntity
  8
0
390
0
  6
Continuous
 62
     7
100
AcDbLine
 10
5.447856
 20
-76.37751
 30
0.0
 11
5.447856
 21
-78.915375
 31
0.0
  0
LINE
  5
291
100
AcDbEntity
  8
0
390
0
  6
Continuous
 62
     7
100
AcDbLine
 10
-27.193983
 20
-78.833484
 30
0.0
 11
-27.193983
 21
-76.4594
 31
0.0
  0
LINE
  5
292
100
AcDbEntity
  8
0
390
0
  6
Continuous
 62
     7
100
AcDbLine
 10
-27.193983
 20
-78.833484
 30
0.0
 11
-26.75
 21
-79.089818
 31
0.0
  0
LINE
  5
293
100
AcDbEntity
  8
0
390
0
  6
Continuous
 62
     7
100
AcDbLine
 10
33.703832
 20
-76.465086
 30
0.0
 11
33.703832
 21
-78.827798
 31
0.0
  0
LINE
  5
294
100
AcDbEntity
  8
0
390
0
  6
Continuous
 62
     7
100
AcDbLine
 10
33.703832
 20
-78.827798
 30
0.0
 11
33.25
 21
-79.089818
 31
0.0
  0
LINE
  5
295
100
AcDbEntity
  8
0
390
0
  6
Continuous
 62
     7
100
AcDbLine
 10
24.832574
 20
-78.848817
 30
0.0
 11
25.25
 21
-79.089818
 31
0.0
  0
LINE
  5
296
100
AcDbEntity
  8
0
390
0
  6
Continuous
 62
     7
100
AcDbLine
 10
24.832574
 20
-76.444067
 30
0.0
 11
24.832574
 21
-78.848817
 31
0.0
  0
LINE
  5
297
100
AcDbEntity
  8
0
390
0
  6
Continuous
 62
     7
100
AcDbLine
 10
-37.796168
 20
-76.465086
 30
0.0
 11
-37.796168
 21
-78.827798
 31
0.0
  0
LINE
  5
298
100
AcDbEntity
  8
0
390
0
  6
Continuous
 62
     7
100
AcDbLine
 10
-37.796168
 20
-78.827798
 30
0.0
 11
-38.25
 21
-79.089818
 31
0.0
  0
LINE
  5
299
100
AcDbEntity
  8
0
390
0
  6
Continuous
 62
     7
100
AcDbLine
 10
-22.75
 20
-80.075123
 30
0.0
 11
-22.75
 21
-80.533194
 31
0.0
  0
ELLIPSE
  5
29A
100
AcDbEntity
  8
0
390
0
  6
Continuous
 62
     7
100
AcDbEllipse
 10
0.0
 20
-92.356805
 30
0.0
 11
-48.048169288076963
 21
27.749077397704212
 31
0.0
210
0.0
220
0.0
230
1.0
 40
0.015115
 41
1.0364086435805775
 42
1.0863049677339016
  0
LINE
  5
29B
100
AcDbEntity
  8
0
390
0
  6
Continuous
 62
     7
100
AcDbLine
 10
-35.75
 20
-80.009154
 30
0.0
 11
-33.703832
 21
-78.827798
 31
0.0
  0
LINE
  5
29C
100
AcDbEntity
  8
0
390
0
  6
Continuous
 62
     7
100
AcDbLine
 10
-35.75
 20
-80.009154
 30
0.0
 11
-35.75
 21
-80.533194
 31
0.0
  0
LINE
  5
29D
100
AcDbEntity
  8
0
390
0
  6
Continuous
 62
     7
100
AcDbLine
 10
27.998214
 20
-79.286435
 30
0.0
 11
29.25
 21
-80.009154
 31
0.0
  0
LINE
  5
29E
100
AcDbEntity
  8
0
390
0
  6
Continuous
 62
     7
100
AcDbLine
 10
29.25
 20
-80.009154
 30
0.0
 11
29.25
 21
-80.533194
 31
0.0
  0
ELLIPSE
  5
29F
100
AcDbEntity
  8
0
390
0
  6
Continuous
 62
     7
100
AcDbEllipse
 10
0.0
 20
-62.334591
 30
0.0
 11
-48.048169288076963
 21
27.749077397704212
 31
0.0
210
0.0
220
0.0
230
1.0
 40
0.015115
 41
2.1811128728063207
 42
2.2015593560699802
  0
LINE
  5
2A0
100
AcDbEntity
  8
0
390
0
  6
Continuous
 62
     7
100
AcDbLine
 10
-37.796168
 20
-78.827798
 30
0.0
 11
-35.75
 21
-80.009154
 31
0.0
  0
LINE
  5
2A1
100
AcDbEntity
  8
0
390
0
  6
Continuous
 62
     7
100
AcDbLine
 10
29.25
 20
-80.009154
 30
0.0
 11
31.296168
 21
-78.827798
 31
0.0
  0
LINE
  5
2A2
100
AcDbEntity
  8
0
390
0
  6
Continuous
 62
     7
100
AcDbLine
 10
-29.25
 20
-80.009154
 30
0.0
 11
-27.998214
 21
-79.286435
 31
0.0
  0
ELLIPSE
  5
2A3
100
AcDbEntity
  8
0
390
0
  6
Continuous
 62
     7
100
AcDbEllipse
 10
0.0
 20
-62.334591
 30
0.0
 11
48.048169288076927
 21
27.749077397704212
 31
0.0
210
0.0
220
0.0
230
1.0
 40
0.015115
 41
4.0816259511096051
 42
4.1020724343732642
  0
LINE
  5
2A4
100
AcDbEntity
  8
0
390
0
  6
Continuous
 62
     7
100
AcDbLine
 10
-29.25
 20
-80.009154
 30
0.0
 11
-29.25
 21
-80.533194
 31
0.0
  0
LINE
  5
2A5
100
AcDbEntity
  8
0
390
0
  6
Continuous
 62
     7
100
AcDbLine
 10
22.75
 20
-80.075123
 30
0.0
 11
22.75
 21
-80.533194
 31
0.0
  0
ELLIPSE
  5
2A6
100
AcDbEntity
  8
0
390
0
  6
Continuous
 62
     7
100
AcDbEllipse
 10
0.0
 20
-92.356805
 30
0.0
 11
48.048169288076927
 21
27.749077397704159
 31
0.0
210
0.0
220
0.0
230
0.9999999999999999
 40
0.015115
 41
5.1968803394456859
 42
5.2467766635990101
  0
ELLIPSE
  5
2A7
100
AcDbEntity
  8
0
390
0
  6
Continuous
 62
     7
100
AcDbEllipse
 10
0.0
 20
-66.087368
 30
0.0
 11
48.048169288076927
 21
27.749077397704159
 31
0.0
210
0.0
220
0.0
230
0.9999999999999999
 40
0.015115
 41
4.2104390106069323
 42
4.2599399880038025
  0
LINE
  5
2A8
100
AcDbEntity
  8
0
390
0
  6
Continuous
 62
     7
100
AcDbLine
 10
-31.296168
 20
-78.827798
 30
0.0
 11
-29.25
 21
-80.009154
 31
0.0
  0
ELLIPSE
  5
2A9
100
AcDbEntity
  8
0
390
0
  6
Continuous
 62
     7
100
AcDbEllipse
 10
0.0
 20
-66.087368
 30
0.0
 11
-48.048169288076963
 21
27.749077397704212
 31
0.0
210
0.0
220
0.0
230
1.0
 40
0.015115
 41
2.0232453191757847
 42
2.0727462965726549
  0
LINE
  5
2AA
100
AcDbEntity
  8
0
390
0
  6
Continuous
 62
     7
100
AcDbLine
 10
35.75
 20
-80.009154
 30
0.0
 11
37.796168
 21
-78.827798
 31
0.0
  0
LINE
  5
2AB
100
AcDbEntity
  8
0
390
0
  6
Continuous
 62
     7
100
AcDbLine
 10
35.75
 20
-80.009154
 30
0.0
 11
35.75
 21
-80.533194
 31
0.0
  0
LINE
  5
2AC
100
AcDbEntity
  8
0
390
0
  6
Continuous
 62
     7
100
AcDbLine
 10
33.703832
 20
-78.827798
 30
0.0
 11
35.75
 21
-80.009154
 31
0.0
  0
LINE
  5
2AD
100
AcDbEntity
  8
0
390
0
  6
Continuous
 62
     7
100
AcDbLine
 10
-3.25
 20
-80.188334
 30
0.0
 11
-3.25
 21
-80.533194
 31
0.0
  0
ELLIPSE
  5
2AE
100
AcDbEntity
  8
0
390
0
  6
Continuous
 62
     7
100
AcDbEllipse
 10
0.0
 20
-77.345698
 30
0.0
 11
48.048169288076927
 21
27.749077397704159
 31
0.0
210
0.0
220
0.0
230
0.9999999999999999
 40
0.015115
 41
4.6359701187967239
 42
4.6818694967503447
  0
LINE
  5
2AF
100
AcDbEntity
  8
0
390
0
  6
Continuous
 62
     7
100
AcDbLine
 10
16.25
 20
-80.133488
 30
0.0
 11
16.25
 21
-80.533194
 31
0.0
  0
ELLIPSE
  5
2B0
100
AcDbEntity
  8
0
390
0
  6
Continuous
 62
     7
100
AcDbEllipse
 10
0.0
 20
-88.604028
 30
0.0
 11
48.048169288076927
 21
27.749077397704188
 31
0.0
210
0.0
220
0.0
230
0.9999999999999999
 40
0.015115
 41
5.0486519273144452
 42
5.0963918908079178
  0
LINE
  5
2B1
100
AcDbEntity
  8
0
390
0
  6
Continuous
 62
     7
100
AcDbLine
 10
9.75
 20
-80.170405
 30
0.0
 11
9.75
 21
-80.533194
 31
0.0
  0
ELLIPSE
  5
2B2
100
AcDbEntity
  8
0
390
0
  6
Continuous
 62
     7
100
AcDbEllipse
 10
0.0
 20
-84.851252
 30
0.0
 11
48.048169288076927
 21
27.749077397704159
 31
0.0
210
0.0
220
0.0
230
0.9999999999999999
 40
0.015115
 41
4.9079922161190588
 42
4.954502934102373
  0
LINE
  5
2B3
100
AcDbEntity
  8
0
390
0
  6
Continuous
 62
     7
100
AcDbLine
 10
3.25
 20
-80.188334
 30
0.0
 11
3.25
 21
-80.533194
 31
0.0
  0
ELLIPSE
  5
2B4
100
AcDbEntity
  8
0
390
0
  6
Continuous
 62
     7
100
AcDbEllipse
 10
0.0
 20
-81.098475
 30
0.0
 11
48.048169288076927
 21
27.749077397704212
 31
0.0
210
0.0
220
0.0
230
1.0
 40
0.015115
 41
4.7713492312558943
 42
4.8172828919246662
  0
ELLIPSE
  5
2B5
100
AcDbEntity
  8
0
390
0
  6
Continuous
 62
     7
100
AcDbEllipse
 10
0.0
 20
-69.840145
 30
0.0
 11
-48.048169288076963
 21
27.749077397704212
 31
0.0
210
0.0
220
0.0
230
1.0
 40
0.015115
 41
1.8769958048162627
 42
1.9245178844414133
  0
ELLIPSE
  5
2B6
100
AcDbEntity
  8
0
390
0
  6
Continuous
 62
     7
100
AcDbEllipse
 10
0.0
 20
-73.592921
 30
0.0
 11
-48.048169288076963
 21
27.749077397704212
 31
0.0
210
0.0
220
0.0
230
1.0
 40
0.015115
 41
1.7374586655999456
 42
1.7838581732460272
  0
LINE
  5
2B7
100
AcDbEntity
  8
0
390
0
  6
Continuous
 62
     7
100
AcDbLine
 10
-16.25
 20
-80.133488
 30
0.0
 11
-16.25
 21
-80.533194
 31
0.0
  0
ELLIPSE
  5
2B8
100
AcDbEntity
  8
0
390
0
  6
Continuous
 62
     7
100
AcDbEllipse
 10
0.0
 20
-88.604028
 30
0.0
 11
-48.048169288076956
 21
27.749077397704241
 31
0.0
210
0.0
220
0.0
230
1.0
 40
0.015115
 41
1.1867934163716694
 42
1.2345333798651428
  0
ELLIPSE
  5
2B9
100
AcDbEntity
  8
0
390
0
  6
Continuous
 62
     7
100
AcDbEllipse
 10
0.0
 20
-69.840145
 30
0.0
 11
48.048169288076927
 21
27.749077397704212
 31
0.0
210
0.0
220
0.0
230
1.0
 40
0.015115
 41
4.358667422738173
 42
4.4061895023633246
  0
ELLIPSE
  5
2BA
100
AcDbEntity
  8
0
390
0
  6
Continuous
 62
     7
100
AcDbEllipse
 10
0.0
 20
-81.098475
 30
0.0
 11
-48.048169288076963
 21
27.749077397704212
 31
0.0
210
0.0
220
0.0
230
1.0
 40
0.015115
 41
1.4659024152549209
 42
1.5118360759236917
  0
LINE
  5
2BB
100
AcDbEntity
  8
0
390
0
  6
Continuous
 62
     7
100
AcDbLine
 10
-9.75
 20
-80.170405
 30
0.0
 11
-9.75
 21
-80.533194
 31
0.0
  0
ELLIPSE
  5
2BC
100
AcDbEntity
  8
0
390
0
  6
Continuous
 62
     7
100
AcDbEllipse
 10
0.0
 20
-84.851252
 30
0.0
 11
-48.048169288076963
 21
27.749077397704212
 31
0.0
210
0.0
220
0.0
230
1.0
 40
0.015115
 41
1.3286823730772142
 42
1.375193091060529
  0
ELLIPSE
  5
2BD
100
AcDbEntity
  8
0
390
0
  6
Continuous
 62
     7
100
AcDbEllipse
 10
0.0
 20
-73.592921
 30
0.0
 11
48.048169288076927
 21
27.749077397704212
 31
0.0
210
0.0
220
0.0
230
1.0
 40
0.015115
 41
4.4993271339335612
 42
4.545726641579642
  0
ELLIPSE
  5
2BE
100
AcDbEntity
  8
0
390
0
  6
Continuous
 62
     7
100
AcDbEllipse
 10
0.0
 20
-77.345698
 30
0.0
 11
-48.048169288076963
 21
27.749077397704212
 31
0.0
210
0.0
220
0.0
230
1.0
 40
0.015115
 41
1.6013158104292415
 42
1.6472151883828638
  0
LINE
  5
2BF
100
AcDbEntity
  8
0
390
0
  6
Continuous
 62
     7
100
AcDbLine
 10
4.300101
 20
-82.005495
 30
0.0
 11
4.0
 21
-81.832232
 31
0.0
  0
LINE
  5
2C0
100
AcDbEntity
  8
0
390
0
  6
Continuous
 62
     7
100
AcDbLine
 10
6.5
 20
-80.740399
 30
0.0
 11
6.5
 21
-80.388856
 31
0.0
  0
ELLIPSE
  5
2C1
100
AcDbEntity
  8
0
390
0
  6
Continuous
 62
     7
100
AcDbEllipse
 10
0.0
 20
-85.45274
 30
0.0
 11
48.048169288076927
 21
27.749077397704159
 31
0.0
210
0.0
220
0.0
230
0.9999999999999999
 40
0.015115
 41
1.4263752515780967
 42
1.4724549082959142
  0
LINE
  5
2C2
100
AcDbEntity
  8
0
390
0
  6
Continuous
 62
     7
100
AcDbLine
 10
-15.160423
 20
-82.028286
 30
0.0
 11
-15.5
 21
-81.832232
 31
0.0
  0
LINE
  5
2C3
100
AcDbEntity
  8
0
390
0
  6
Continuous
 62
     7
100
AcDbLine
 10
-13.0
 20
-80.767616
 30
0.0
 11
-13.0
 21
-80.388856
 31
0.0
  0
ELLIPSE
  5
2C4
100
AcDbEntity
  8
0
390
0
  6
Continuous
 62
     7
100
AcDbEllipse
 10
0.0
 20
-74.194409
 30
0.0
 11
48.048169288076927
 21
27.749077397704159
 31
0.0
210
0.0
220
0.0
230
0.9999999999999999
 40
0.015115
 41
1.8360328807173274
 42
1.8830647574150889
  0
LINE
  5
2C5
100
AcDbEntity
  8
0
390
0
  6
Continuous
 62
     7
100
AcDbLine
 10
-10.81827
 20
-82.015985
 30
0.0
 11
-10.5
 21
-81.832232
 31
0.0
  0
ELLIPSE
  5
2C6
100
AcDbEntity
  8
0
390
0
  6
Continuous
 62
     7
100
AcDbEllipse
 10
0.0
 20
-89.205516
 30
0.0
 11
-48.048169288076956
 21
27.749077397704188
 31
0.0
210
0.0
220
0.0
230
1.0
 40
0.015115
 41
4.9482112696450535
 42
4.9950841450238821
  0
LINE
  5
2C7
100
AcDbEntity
  8
0
390
0
  6
Continuous
 62
     7
100
AcDbLine
 10
17.353343
 20
-82.036235
 30
0.0
 11
17.0
 21
-81.832232
 31
0.0
  0
LINE
  5
2C8
100
AcDbEntity
  8
0
390
0
  6
Continuous
 62
     7
100
AcDbLine
 10
19.5
 20
-80.814834
 30
0.0
 11
19.5
 21
-80.388856
 31
0.0
  0
ELLIPSE
  5
2C9
100
AcDbEntity
  8
0
390
0
  6
Continuous
 62
     7
100
AcDbEllipse
 10
0.0
 20
-92.958293
 30
0.0
 11
48.048169288076927
 21
27.749077397704159
 31
0.0
210
0.0
220
0.0
230
0.9999999999999999
 40
0.015115
 41
1.1441832207602187
 42
1.19256426856554
  0
LINE
  5
2CA
100
AcDbEntity
  8
0
390
0
  6
Continuous
 62
     7
100
AcDbLine
 10
-26.0
 20
-80.885526
 30
0.0
 11
-26.0
 21
-80.388856
 31
0.0
  0
LINE
  5
2CB
100
AcDbEntity
  8
0
390
0
  6
Continuous
 62
     7
100
AcDbLine
 10
-23.907927
 20
-82.067748
 30
0.0
 11
-23.5
 21
-81.832232
 31
0.0
  0
ELLIPSE
  5
2CC
100
AcDbEntity
  8
0
390
0
  6
Continuous
 62
     7
100
AcDbEllipse
 10
0.0
 20
-96.71107
 30
0.0
 11
-48.048169288076956
 21
27.749077397704241
 31
0.0
210
0.0
220
0.0
230
1.0
 40
0.015115
 41
5.2419059241890453
 42
5.292866465567525
  0
LINE
  5
2CD
100
AcDbEntity
  8
0
390
0
  6
Continuous
 62
     7
100
AcDbLine
 10
8.689435
 20
-82.011536
 30
0.0
 11
9.0
 21
-81.832232
 31
0.0
  0
ELLIPSE
  5
2CE
100
AcDbEntity
  8
0
390
0
  6
Continuous
 62
     7
100
AcDbEllipse
 10
0.0
 20
-77.947186
 30
0.0
 11
-48.048169288076963
 21
27.749077397704212
 31
0.0
210
0.0
220
0.0
230
1.0
 40
0.015115
 41
4.5392762675233964
 42
4.5854265158846514
  0
LINE
  5
2CF
100
AcDbEntity
  8
0
390
0
  6
Continuous
 62
     7
100
AcDbLine
 10
21.613623
 20
-82.055306
 30
0.0
 11
22.0
 21
-81.832232
 31
0.0
  0
ELLIPSE
  5
2D0
100
AcDbEntity
  8
0
390
0
  6
Continuous
 62
     7
100
AcDbEllipse
 10
0.0
 20
-70.441633
 30
0.0
 11
-48.048169288076963
 21
27.749077397704212
 31
0.0
210
0.0
220
0.0
230
1.0
 40
0.015115
 41
4.2545598035795553
 42
4.3032344850667723
  0
LINE
  5
2D1
100
AcDbEntity
  8
0
390
0
  6
Continuous
 62
     7
100
AcDbLine
 10
-21.613623
 20
-82.055306
 30
0.0
 11
-22.0
 21
-81.832232
 31
0.0
  0
LINE
  5
2D2
100
AcDbEntity
  8
0
390
0
  6
Continuous
 62
     7
100
AcDbLine
 10
-19.5
 20
-80.814834
 30
0.0
 11
-19.5
 21
-80.388856
 31
0.0
  0
ELLIPSE
  5
2D3
100
AcDbEntity
  8
0
390
0
  6
Continuous
 62
     7
100
AcDbEllipse
 10
0.0
 20
-70.441633
 30
0.0
 11
48.048169288076927
 21
27.749077397704159
 31
0.0
210
0.0
220
0.0
230
0.9999999999999999
 40
0.015115
 41
1.9799508221128137
 42
2.0286255036000314
  0
LINE
  5
2D4
100
AcDbEntity
  8
0
390
0
  6
Continuous
 62
     7
100
AcDbLine
 10
-28.046168
 20
-82.094251
 30
0.0
 11
-28.5
 21
-81.832232
 31
0.0
  0
ELLIPSE
  5
2D5
100
AcDbEntity
  8
0
390
0
  6
Continuous
 62
     7
100
AcDbEllipse
 10
0.0
 20
-66.688856
 30
0.0
 11
48.048169288076927
 21
27.749077397704159
 31
0.0
210
0.0
220
0.0
230
0.9999999999999999
 40
0.015115
 41
2.1338152012609712
 42
2.1841007453532195
  0
LINE
  5
2D6
100
AcDbEntity
  8
0
390
0
  6
Continuous
 62
     7
100
AcDbLine
 10
-28.046168
 20
-82.094251
 30
0.0
 11
-27.998214
 21
-82.066565
 31
0.0
  0
LINE
  5
2D7
100
AcDbEntity
  8
0
390
0
  6
Continuous
 62
     7
100
AcDbLine
 10
13.0
 20
-80.767616
 30
0.0
 11
13.0
 21
-80.388856
 31
0.0
  0
LINE
  5
2D8
100
AcDbEntity
  8
0
390
0
  6
Continuous
 62
     7
100
AcDbLine
 10
15.160423
 20
-82.028286
 30
0.0
 11
15.5
 21
-81.832232
 31
0.0
  0
ELLIPSE
  5
2D9
100
AcDbEntity
  8
0
390
0
  6
Continuous
 62
     7
100
AcDbEllipse
 10
0.0
 20
-74.194409
 30
0.0
 11
-48.048169288076963
 21
27.749077397704212
 31
0.0
210
0.0
220
0.0
230
1.0
 40
0.015115
 41
4.4001205497644973
 42
4.4471524264622593
  0
LINE
  5
2DA
100
AcDbEntity
  8
0
390
0
  6
Continuous
 62
     7
100
AcDbLine
 10
32.5
 20
-80.912896
 30
0.0
 11
30.453832
 21
-82.094251
 31
0.0
  0
LINE
  5
2DB
100
AcDbEntity
  8
0
390
0
  6
Continuous
 62
     7
100
AcDbLine
 10
30.453832
 20
-82.094251
 30
0.0
 11
30.0
 21
-81.832232
 31
0.0
  0
LINE
  5
2DC
100
AcDbEntity
  8
0
390
0
  6
Continuous
 62
     7
100
AcDbLine
 10
32.5
 20
-80.912896
 30
0.0
 11
32.5
 21
-80.388856
 31
0.0
  0
LINE
  5
2DD
100
AcDbEntity
  8
0
390
0
  6
Continuous
 62
     7
100
AcDbLine
 10
-30.453832
 20
-82.094251
 30
0.0
 11
-32.5
 21
-80.912896
 31
0.0
  0
LINE
  5
2DE
100
AcDbEntity
  8
0
390
0
  6
Continuous
 62
     7
100
AcDbLine
 10
-32.5
 20
-80.912896
 30
0.0
 11
-32.5
 21
-80.388856
 31
0.0
  0
LINE
  5
2DF
100
AcDbEntity
  8
0
390
0
  6
Continuous
 62
     7
100
AcDbLine
 10
-30.453832
 20
-82.094251
 30
0.0
 11
-30.0
 21
-81.832232
 31
0.0
  0
LINE
  5
2E0
100
AcDbEntity
  8
0
390
0
  6
Continuous
 62
     7
100
AcDbLine
 10
0.0
 20
-80.731497
 30
0.0
 11
0.0
 21
-80.388856
 31
0.0
  0
LINE
  5
2E1
100
AcDbEntity
  8
0
390
0
  6
Continuous
 62
     7
100
AcDbLine
 10
2.202382
 20
-82.004061
 30
0.0
 11
2.5
 21
-81.832232
 31
0.0
  0
ELLIPSE
  5
2E2
100
AcDbEntity
  8
0
390
0
  6
Continuous
 62
     7
100
AcDbEllipse
 10
0.0
 20
-81.699963
 30
0.0
 11
-48.048169288076963
 21
27.749077397704212
 31
0.0
210
0.0
220
0.0
230
1.0
 40
0.015115
 41
4.6752669995874827
 42
4.7211182857430707
  0
LINE
  5
2E3
100
AcDbEntity
  8
0
390
0
  6
Continuous
 62
     7
100
AcDbLine
 10
-2.202383
 20
-82.004061
 30
0.0
 11
-2.5
 21
-81.832232
 31
0.0
  0
ELLIPSE
  5
2E4
100
AcDbEntity
  8
0
390
0
  6
Continuous
 62
     7
100
AcDbEllipse
 10
0.0
 20
-81.699963
 30
0.0
 11
48.048169288076927
 21
27.749077397704159
 31
0.0
210
0.0
220
0.0
230
0.9999999999999999
 40
0.015115
 41
1.562067021436516
 42
1.6079183075921035
  0
LINE
  5
2E5
100
AcDbEntity
  8
0
390
0
  6
Continuous
 62
     7
100
AcDbLine
 10
34.546168
 20
-82.094251
 30
0.0
 11
32.5
 21
-80.912896
 31
0.0
  0
LINE
  5
2E6
100
AcDbEntity
  8
0
390
0
  6
Continuous
 62
     7
100
AcDbLine
 10
34.546168
 20
-82.094251
 30
0.0
 11
35.0
 21
-81.832232
 31
0.0
  0
ELLIPSE
  5
2E7
100
AcDbEntity
  8
0
390
0
  6
Continuous
 62
     7
100
AcDbEllipse
 10
0.0
 20
-66.688856
 30
0.0
 11
-48.048169288076963
 21
27.749077397704212
 31
0.0
210
0.0
220
0.0
230
1.0
 40
0.015115
 41
4.0990845618263672
 42
4.1493701059186154
  0
LINE
  5
2E8
100
AcDbEntity
  8
0
390
0
  6
Continuous
 62
     7
100
AcDbLine
 10
26.0
 20
-80.885526
 30
0.0
 11
26.0
 21
-80.388856
 31
0.0
  0
LINE
  5
2E9
100
AcDbEntity
  8
0
390
0
  6
Continuous
 62
     7
100
AcDbLine
 10
28.046168
 20
-82.094251
 30
0.0
 11
28.5
 21
-81.832232
 31
0.0
  0
LINE
  5
2EA
100
AcDbEntity
  8
0
390
0
  6
Continuous
 62
     7
100
AcDbLine
 10
27.998214
 20
-82.066565
 30
0.0
 11
28.046168
 21
-82.094251
 31
0.0
  0
LINE
  5
2EB
100
AcDbEntity
  8
0
390
0
  6
Continuous
 62
     7
100
AcDbLine
 10
-8.689435
 20
-82.011536
 30
0.0
 11
-9.0
 21
-81.832232
 31
0.0
  0
LINE
  5
2EC
100
AcDbEntity
  8
0
390
0
  6
Continuous
 62
     7
100
AcDbLine
 10
-6.5
 20
-80.740399
 30
0.0
 11
-6.5
 21
-80.388856
 31
0.0
  0
ELLIPSE
  5
2ED
100
AcDbEntity
  8
0
390
0
  6
Continuous
 62
     7
100
AcDbEllipse
 10
0.0
 20
-77.947186
 30
0.0
 11
48.048169288076927
 21
27.749077397704159
 31
0.0
210
0.0
220
0.0
230
0.9999999999999999
 40
0.015115
 41
1.6977587912949352
 42
1.74390903965619
  0
LINE
  5
2EE
100
AcDbEntity
  8
0
390
0
  6
Continuous
 62
     7
100
AcDbLine
 10
10.81827
 20
-82.015985
 30
0.0
 11
10.5
 21
-81.832232
 31
0.0
  0
ELLIPSE
  5
2EF
100
AcDbEntity
  8
0
390
0
  6
Continuous
 62
     7
100
AcDbEllipse
 10
0.0
 20
-89.205516
 30
0.0
 11
48.048169288076927
 21
27.749077397704188
 31
0.0
210
0.0
220
0.0
230
1.0
 40
0.015115
 41
1.2881011621557046
 42
1.334974037534532
  0
LINE
  5
2F0
100
AcDbEntity
  8
0
390
0
  6
Continuous
 62
     7
100
AcDbLine
 10
-17.353344
 20
-82.036235
 30
0.0
 11
-17.0
 21
-81.832232
 31
0.0
  0
ELLIPSE
  5
2F1
100
AcDbEntity
  8
0
390
0
  6
Continuous
 62
     7
100
AcDbEllipse
 10
0.0
 20
-92.958293
 30
0.0
 11
-48.048169288076963
 21
27.749077397704212
 31
0.0
210
0.0
220
0.0
230
1.0
 40
0.015115
 41
5.0906210386140467
 42
5.1390020864193673
  0
LINE
  5
2F2
100
AcDbEntity
  8
0
390
0
  6
Continuous
 62
     7
100
AcDbLine
 10
23.907927
 20
-82.067748
 30
0.0
 11
23.5
 21
-81.832232
 31
0.0
  0
ELLIPSE
  5
2F3
100
AcDbEntity
  8
0
390
0
  6
Continuous
 62
     7
100
AcDbEllipse
 10
0.0
 20
-96.71107
 30
0.0
 11
48.048169288076927
 21
27.749077397704188
 31
0.0
210
0.0
220
0.0
230
1.0
 40
0.015115
 41
0.9903188416120606
 42
1.0412793829905398
  0
LINE
  5
2F4
100
AcDbEntity
  8
0
390
0
  6
Continuous
 62
     7
100
AcDbLine
 10
-32.5
 20
-80.912896
 30
0.0
 11
-34.546168
 21
-82.094251
 31
0.0
  0
LINE
  5
2F5
100
AcDbEntity
  8
0
390
0
  6
Continuous
 62
     7
100
AcDbLine
 10
-34.546168
 20
-82.094251
 30
0.0
 11
-35.0
 21
-81.832232
 31
0.0
  0
LINE
  5
2F6
100
AcDbEntity
  8
0
390
0
  6
Continuous
 62
     7
100
AcDbLine
 10
-4.300102
 20
-82.005495
 30
0.0
 11
-4.0
 21
-81.832232
 31
0.0
  0
ELLIPSE
  5
2F7
100
AcDbEntity
  8
0
390
0
  6
Continuous
 62
     7
100
AcDbEllipse
 10
0.0
 20
-85.45274
 30
0.0
 11
-48.048169288076963
 21
27.749077397704212
 31
0.0
210
0.0
220
0.0
230
1.0
 40
0.015115
 41
4.8107303988836723
 42
4.8568100556014908
  0
LINE
  5
2F8
100
AcDbEntity
  8
0
390
0
  6
Continuous
 62
     7
100
AcDbLine
 10
38.5
 20
-81.201571
 30
0.0
 11
36.953832
 21
-82.094251
 31
0.0
  0
LINE
  5
2F9
100
AcDbEntity
  8
0
390
0
  6
Continuous
 62
     7
100
AcDbLine
 10
36.953832
 20
-82.094251
 30
0.0
 11
36.5
 21
-81.832232
 31
0.0
  0
LINE
  5
2FA
100
AcDbEntity
  8
0
390
0
  6
Continuous
 62
     7
100
AcDbLine
 10
-36.953832
 20
-82.094251
 30
0.0
 11
-38.5
 21
-81.201571
 31
0.0
  0
LINE
  5
2FB
100
AcDbEntity
  8
0
390
0
  6
Continuous
 62
     7
100
AcDbLine
 10
-36.953832
 20
-82.094251
 30
0.0
 11
-36.5
 21
-81.832232
 31
0.0
  0
LINE
  5
2FC
100
AcDbEntity
  8
0
390
0
  6
Continuous
 62
     7
100
AcDbLine
 10
17.353343
 20
-84.51498
 30
0.0
 11
17.0
 21
-84.718983
 31
0.0
  0
LINE
  5
2FD
100
AcDbEntity
  8
0
390
0
  6
Continuous
 62
     7
100
AcDbLine
 10
17.353343
 20
-84.51498
 30
0.0
 11
17.353343
 21
-82.036235
 31
0.0
  0
LINE
  5
2FE
100
AcDbEntity
  8
0
390
0
  6
Continuous
 62
     7
100
AcDbLine
 10
36.953832
 20
-82.094251
 30
0.0
 11
36.953832
 21
-84.456963
 31
0.0
  0
LINE
  5
2FF
100
AcDbEntity
  8
0
390
0
  6
Continuous
 62
     7
100
AcDbLine
 10
36.953832
 20
-84.456963
 30
0.0
 11
36.5
 21
-84.718983
 31
0.0
  0
LINE
  5
300
100
AcDbEntity
  8
0
390
0
  6
Continuous
 62
     7
100
AcDbLine
 10
2.202382
 20
-84.547153
 30
0.0
 11
2.5
 21
-84.718983
 31
0.0
  0
LINE
  5
301
100
AcDbEntity
  8
0
390
0
  6
Continuous
 62
     7
100
AcDbLine
 10
2.202382
 20
-82.004061
 30
0.0
 11
2.202382
 21
-84.547153
 31
0.0
  0
LINE
  5
302
100
AcDbEntity
  8
0
390
0
  6
Continuous
 62
     7
100
AcDbLine
 10
30.453832
 20
-82.094251
 30
0.0
 11
30.453832
 21
-84.456963
 31
0.0
  0
LINE
  5
303
100
AcDbEntity
  8
0
390
0
  6
Continuous
 62
     7
100
AcDbLine
 10
30.453832
 20
-84.456963
 30
0.0
 11
30.0
 21
-84.718983
 31
0.0
  0
LINE
  5
304
100
AcDbEntity
  8
0
390
0
  6
Continuous
 62
     7
100
AcDbLine
 10
10.81827
 20
-84.53523
 30
0.0
 11
10.5
 21
-84.718983
 31
0.0
  0
LINE
  5
305
100
AcDbEntity
  8
0
390
0
  6
Continuous
 62
     7
100
AcDbLine
 10
10.81827
 20
-84.53523
 30
0.0
 11
10.81827
 21
-82.015985
 31
0.0
  0
LINE
  5
306
100
AcDbEntity
  8
0
390
0
  6
Continuous
 62
     7
100
AcDbLine
 10
15.160423
 20
-84.522928
 30
0.0
 11
15.5
 21
-84.718983
 31
0.0
  0
LINE
  5
307
100
AcDbEntity
  8
0
390
0
  6
Continuous
 62
     7
100
AcDbLine
 10
15.160423
 20
-82.028286
 30
0.0
 11
15.160423
 21
-84.522928
 31
0.0
  0
LINE
  5
308
100
AcDbEntity
  8
0
390
0
  6
Continuous
 62
     7
100
AcDbLine
 10
-2.202383
 20
-84.547153
 30
0.0
 11
-2.5
 21
-84.718983
 31
0.0
  0
LINE
  5
309
100
AcDbEntity
  8
0
390
0
  6
Continuous
 62
     7
100
AcDbLine
 10
-2.202383
 20
-84.547153
 30
0.0
 11
-2.202383
 21
-82.004061
 31
0.0
  0
LINE
  5
30A
100
AcDbEntity
  8
0
390
0
  6
Continuous
 62
     7
100
AcDbLine
 10
4.300101
 20
-84.545719
 30
0.0
 11
4.0
 21
-84.718983
 31
0.0
  0
LINE
  5
30B
100
AcDbEntity
  8
0
390
0
  6
Continuous
 62
     7
100
AcDbLine
 10
4.300101
 20
-84.545719
 30
0.0
 11
4.300101
 21
-82.005495
 31
0.0
  0
LINE
  5
30C
100
AcDbEntity
  8
0
390
0
  6
Continuous
 62
     7
100
AcDbLine
 10
-10.81827
 20
-84.53523
 30
0.0
 11
-10.5
 21
-84.718983
 31
0.0
  0
LINE
  5
30D
100
AcDbEntity
  8
0
390
0
  6
Continuous
 62
     7
100
AcDbLine
 10
-10.81827
 20
-82.015985
 30
0.0
 11
-10.81827
 21
-84.53523
 31
0.0
  0
LINE
  5
30E
100
AcDbEntity
  8
0
390
0
  6
Continuous
 62
     7
100
AcDbLine
 10
-17.353344
 20
-84.51498
 30
0.0
 11
-17.0
 21
-84.718983
 31
0.0
  0
LINE
  5
30F
100
AcDbEntity
  8
0
390
0
  6
Continuous
 62
     7
100
AcDbLine
 10
-17.353344
 20
-82.036235
 30
0.0
 11
-17.353344
 21
-84.51498
 31
0.0
  0
LINE
  5
310
100
AcDbEntity
  8
0
390
0
  6
Continuous
 62
     7
100
AcDbLine
 10
-21.613623
 20
-84.495908
 30
0.0
 11
-22.0
 21
-84.718983
 31
0.0
  0
LINE
  5
311
100
AcDbEntity
  8
0
390
0
  6
Continuous
 62
     7
100
AcDbLine
 10
-21.613623
 20
-84.495908
 30
0.0
 11
-21.613623
 21
-82.055306
 31
0.0
  0
LINE
  5
312
100
AcDbEntity
  8
0
390
0
  6
Continuous
 62
     7
100
AcDbLine
 10
-36.953832
 20
-84.456963
 30
0.0
 11
-36.953832
 21
-82.094251
 31
0.0
  0
LINE
  5
313
100
AcDbEntity
  8
0
390
0
  6
Continuous
 62
     7
100
AcDbLine
 10
-36.953832
 20
-84.456963
 30
0.0
 11
-36.5
 21
-84.718983
 31
0.0
  0
LINE
  5
314
100
AcDbEntity
  8
0
390
0
  6
Continuous
 62
     7
100
AcDbLine
 10
-15.160423
 20
-84.522928
 30
0.0
 11
-15.5
 21
-84.718983
 31
0.0
  0
LINE
  5
315
100
AcDbEntity
  8
0
390
0
  6
Continuous
 62
     7
100
AcDbLine
 10
-15.160423
 20
-84.522928
 30
0.0
 11
-15.160423
 21
-82.028286
 31
0.0
  0
LINE
  5
316
100
AcDbEntity
  8
0
390
0
  6
Continuous
 62
     7
100
AcDbLine
 10
23.907927
 20
-84.483466
 30
0.0
 11
23.5
 21
-84.718983
 31
0.0
  0
LINE
  5
317
100
AcDbEntity
  8
0
390
0
  6
Continuous
 62
     7
100
AcDbLine
 10
23.907927
 20
-84.483466
 30
0.0
 11
23.907927
 21
-82.067748
 31
0.0
  0
LINE
  5
318
100
AcDbEntity
  8
0
390
0
  6
Continuous
 62
     7
100
AcDbLine
 10
8.689435
 20
-84.539678
 30
0.0
 11
9.0
 21
-84.718983
 31
0.0
  0
LINE
  5
319
100
AcDbEntity
  8
0
390
0
  6
Continuous
 62
     7
100
AcDbLine
 10
8.689435
 20
-82.011536
 30
0.0
 11
8.689435
 21
-84.539678
 31
0.0
  0
LINE
  5
31A
100
AcDbEntity
  8
0
390
0
  6
Continuous
 62
     7
100
AcDbLine
 10
-30.453832
 20
-84.456963
 30
0.0
 11
-30.453832
 21
-82.094251
 31
0.0
  0
LINE
  5
31B
100
AcDbEntity
  8
0
390
0
  6
Continuous
 62
     7
100
AcDbLine
 10
-30.453832
 20
-84.456963
 30
0.0
 11
-30.0
 21
-84.718983
 31
0.0
  0
LINE
  5
31C
100
AcDbEntity
  8
0
390
0
  6
Continuous
 62
     7
100
AcDbLine
 10
-28.046168
 20
-84.456963
 30
0.0
 11
-28.5
 21
-84.718983
 31
0.0
  0
LINE
  5
31D
100
AcDbEntity
  8
0
390
0
  6
Continuous
 62
     7
100
AcDbLine
 10
-28.046168
 20
-84.456963
 30
0.0
 11
-28.046168
 21
-82.094251
 31
0.0
  0
LINE
  5
31E
100
AcDbEntity
  8
0
390
0
  6
Continuous
 62
     7
100
AcDbLine
 10
-34.546168
 20
-82.094251
 30
0.0
 11
-34.546168
 21
-84.456963
 31
0.0
  0
LINE
  5
31F
100
AcDbEntity
  8
0
390
0
  6
Continuous
 62
     7
100
AcDbLine
 10
-34.546168
 20
-84.456963
 30
0.0
 11
-35.0
 21
-84.718983
 31
0.0
  0
LINE
  5
320
100
AcDbEntity
  8
0
390
0
  6
Continuous
 62
     7
100
AcDbLine
 10
21.613623
 20
-84.495908
 30
0.0
 11
22.0
 21
-84.718983
 31
0.0
  0
LINE
  5
321
100
AcDbEntity
  8
0
390
0
  6
Continuous
 62
     7
100
AcDbLine
 10
21.613623
 20
-82.055306
 30
0.0
 11
21.613623
 21
-84.495908
 31
0.0
  0
LINE
  5
322
100
AcDbEntity
  8
0
390
0
  6
Continuous
 62
     7
100
AcDbLine
 10
34.546168
 20
-84.456963
 30
0.0
 11
34.546168
 21
-82.094251
 31
0.0
  0
LINE
  5
323
100
AcDbEntity
  8
0
390
0
  6
Continuous
 62
     7
100
AcDbLine
 10
34.546168
 20
-84.456963
 30
0.0
 11
35.0
 21
-84.718983
 31
0.0
  0
LINE
  5
324
100
AcDbEntity
  8
0
390
0
  6
Continuous
 62
     7
100
AcDbLine
 10
-8.689435
 20
-84.539678
 30
0.0
 11
-9.0
 21
-84.718983
 31
0.0
  0
LINE
  5
325
100
AcDbEntity
  8
0
390
0
  6
Continuous
 62
     7
100
AcDbLine
 10
-8.689435
 20
-84.539678
 30
0.0
 11
-8.689435
 21
-82.011536
 31
0.0
  0
LINE
  5
326
100
AcDbEntity
  8
0
390
0
  6
Continuous
 62
     7
100
AcDbLine
 10
28.046168
 20
-84.456963
 30
0.0
 11
28.5
 21
-84.718983
 31
0.0
  0
LINE
  5
327
100
AcDbEntity
  8
0
390
0
  6
Continuous
 62
     7
100
AcDbLine
 10
28.046168
 20
-82.094251
 30
0.0
 11
28.046168
 21
-84.456963
 31
0.0
  0
LINE
  5
328
100
AcDbEntity
  8
0
390
0
  6
Continuous
 62
     7
100
AcDbLine
 10
-4.300102
 20
-84.545719
 30
0.0
 11
-4.0
 21
-84.718983
 31
0.0
  0
LINE
  5
329
100
AcDbEntity
  8
0
390
0
  6
Continuous
 62
     7
100
AcDbLine
 10
-4.300102
 20
-82.005495
 30
0.0
 11
-4.300102
 21
-84.545719
 31
0.0
  0
LINE
  5
32A
100
AcDbEntity
  8
0
390
0
  6
Continuous
 62
     7
100
AcDbLine
 10
-23.907927
 20
-84.483466
 30
0.0
 11
-23.5
 21
-84.718983
 31
0.0
  0
LINE
  5
32B
100
AcDbEntity
  8
0
390
0
  6
Continuous
 62
     7
100
AcDbLine
 10
-23.907927
 20
-82.067748
 30
0.0
 11
-23.907927
 21
-84.483466
 31
0.0
  0
LINE
  5
32C
100
AcDbEntity
  8
0
390
0
  6
Continuous
 62
     7
100
AcDbLine
 10
19.5
 20
-85.736381
 30
0.0
 11
19.5
 21
-86.162359
 31
0.0
  0
ELLIPSE
  5
32D
100
AcDbEntity
  8
0
390
0
  6
Continuous
 62
     7
100
AcDbEllipse
 10
0.0
 20
-96.109582
 30
0.0
 11
48.048169288076927
 21
27.749077397704159
 31
0.0
210
0.0
220
0.0
230
0.9999999999999999
 40
0.015115
 41
5.121543475702607
 42
5.170218157189824
  0
ELLIPSE
  5
32E
100
AcDbEntity
  8
0
390
0
  6
Continuous
 62
     7
100
AcDbEllipse
 10
0.0
 20
-73.592921
 30
0.0
 11
-48.048169288076927
 21
27.749077397704212
 31
0.0
210
0.0
220
0.0
230
1.0
 40
0.015115
 41
1.9490283850242527
 42
1.9974094328295755
  0
LINE
  5
32F
100
AcDbEntity
  8
0
390
0
  6
Continuous
 62
     7
100
AcDbLine
 10
26.0
 20
-85.665689
 30
0.0
 11
26.0
 21
-86.162359
 31
0.0
  0
ELLIPSE
  5
330
100
AcDbEntity
  8
0
390
0
  6
Continuous
 62
     7
100
AcDbEllipse
 10
0.0
 20
-99.862359
 30
0.0
 11
48.048169288076927
 21
27.749077397704188
 31
0.0
210
0.0
220
0.0
230
1.0
 40
0.015115
 41
5.2754078548507648
 42
5.3256933989430131
  0
LINE
  5
331
100
AcDbEntity
  8
0
390
0
  6
Continuous
 62
     7
100
AcDbLine
 10
28.046168
 20
-84.456963
 30
0.0
 11
27.998214
 21
-84.484649
 31
0.0
  0
ELLIPSE
  5
332
100
AcDbEntity
  8
0
390
0
  6
Continuous
 62
     7
100
AcDbEllipse
 10
0.0
 20
-99.862359
 30
0.0
 11
-48.048169288076927
 21
27.749077397704188
 31
0.0
210
0.0
220
0.0
230
0.9999999999999999
 40
0.015115
 41
0.9574919082365739
 42
1.0077774523288228
  0
LINE
  5
333
100
AcDbEntity
  8
0
390
0
  6
Continuous
 62
     7
100
AcDbLine
 10
-26.0
 20
-85.665689
 30
0.0
 11
-26.0
 21
-86.162359
 31
0.0
  0
LINE
  5
334
100
AcDbEntity
  8
0
390
0
  6
Continuous
 62
     7
100
AcDbLine
 10
-27.998214
 20
-84.484649
 30
0.0
 11
-28.046168
 21
-84.456963
 31
0.0
  0
LINE
  5
335
100
AcDbEntity
  8
0
390
0
  6
Continuous
 62
     7
100
AcDbLine
 10
-19.5
 20
-85.736381
 30
0.0
 11
-19.5
 21
-86.162359
 31
0.0
  0
ELLIPSE
  5
336
100
AcDbEntity
  8
0
390
0
  6
Continuous
 62
     7
100
AcDbEllipse
 10
0.0
 20
-96.109582
 30
0.0
 11
-48.048169288076927
 21
27.749077397704212
 31
0.0
210
0.0
220
0.0
230
1.0
 40
0.015115
 41
1.1129671499897633
 42
1.1616418314769801
  0
LINE
  5
337
100
AcDbEntity
  8
0
390
0
  6
Continuous
 62
     7
100
AcDbLine
 10
-38.5
 20
-85.349644
 30
0.0
 11
-36.953832
 21
-84.456963
 31
0.0
  0
LINE
  5
338
100
AcDbEntity
  8
0
390
0
  6
Continuous
 62
     7
100
AcDbLine
 10
-32.5
 20
-85.638319
 30
0.0
 11
-30.453832
 21
-84.456963
 31
0.0
  0
LINE
  5
339
100
AcDbEntity
  8
0
390
0
  6
Continuous
 62
     7
100
AcDbLine
 10
-32.5
 20
-85.638319
 30
0.0
 11
-32.5
 21
-86.162359
 31
0.0
  0
LINE
  5
33A
100
AcDbEntity
  8
0
390
0
  6
Continuous
 62
     7
100
AcDbLine
 10
-34.546168
 20
-84.456963
 30
0.0
 11
-32.5
 21
-85.638319
 31
0.0
  0
ELLIPSE
  5
33B
100
AcDbEntity
  8
0
390
0
  6
Continuous
 62
     7
100
AcDbEllipse
 10
0.0
 20
-73.592921
 30
0.0
 11
48.048169288076927
 21
27.749077397704159
 31
0.0
210
0.0
220
0.0
230
0.9999999999999999
 40
0.015115
 41
4.2857758743500121
 42
4.3341569221553344
  0
ELLIPSE
  5
33C
100
AcDbEntity
  8
0
390
0
  6
Continuous
 62
     7
100
AcDbEllipse
 10
0.0
 20
-69.840145
 30
0.0
 11
-48.048169288076927
 21
27.749077397704212
 31
0.0
210
0.0
220
0.0
230
1.0
 40
0.015115
 41
2.1003132705992544
 42
2.1512738119777328
  0
LINE
  5
33D
100
AcDbEntity
  8
0
390
0
  6
Continuous
 62
     7
100
AcDbLine
 10
36.953832
 20
-84.456963
 30
0.0
 11
38.5
 21
-85.349644
 31
0.0
  0
LINE
  5
33E
100
AcDbEntity
  8
0
390
0
  6
Continuous
 62
     7
100
AcDbLine
 10
30.453832
 20
-84.456963
 30
0.0
 11
32.5
 21
-85.638319
 31
0.0
  0
LINE
  5
33F
100
AcDbEntity
  8
0
390
0
  6
Continuous
 62
     7
100
AcDbLine
 10
32.5
 20
-85.638319
 30
0.0
 11
32.5
 21
-86.162359
 31
0.0
  0
ELLIPSE
  5
340
100
AcDbEntity
  8
0
390
0
  6
Continuous
 62
     7
100
AcDbEllipse
 10
0.0
 20
-69.840145
 30
0.0
 11
48.048169288076927
 21
27.749077397704159
 31
0.0
210
0.0
220
0.0
230
0.9999999999999999
 40
0.015115
 41
4.1319114952018543
 42
4.182872036580334
  0
LINE
  5
341
100
AcDbEntity
  8
0
390
0
  6
Continuous
 62
     7
100
AcDbLine
 10
32.5
 20
-85.638319
 30
0.0
 11
34.546168
 21
-84.456963
 31
0.0
  0
LINE
  5
342
100
AcDbEntity
  8
0
390
0
  6
Continuous
 62
     7
100
AcDbLine
 10
13.0
 20
-85.783599
 30
0.0
 11
13.0
 21
-86.162359
 31
0.0
  0
ELLIPSE
  5
343
100
AcDbEntity
  8
0
390
0
  6
Continuous
 62
     7
100
AcDbEllipse
 10
0.0
 20
-92.356805
 30
0.0
 11
48.048169288076927
 21
27.749077397704159
 31
0.0
210
0.0
220
0.0
230
0.9999999999999999
 40
0.015115
 41
4.9776255343071201
 42
5.0246574110048821
  0
LINE
  5
344
100
AcDbEntity
  8
0
390
0
  6
Continuous
 62
     7
100
AcDbLine
 10
0.0
 20
-85.819717
 30
0.0
 11
0.0
 21
-86.162359
 31
0.0
  0
ELLIPSE
  5
345
100
AcDbEntity
  8
0
390
0
  6
Continuous
 62
     7
100
AcDbEllipse
 10
0.0
 20
-84.851252
 30
0.0
 11
-48.048169288076927
 21
27.749077397704212
 31
0.0
210
0.0
220
0.0
230
1.0
 40
0.015115
 41
1.5336743459976911
 42
1.5795256321532773
  0
LINE
  5
346
100
AcDbEntity
  8
0
390
0
  6
Continuous
 62
     7
100
AcDbLine
 10
-13.0
 20
-85.783599
 30
0.0
 11
-13.0
 21
-86.162359
 31
0.0
  0
ELLIPSE
  5
347
100
AcDbEntity
  8
0
390
0
  6
Continuous
 62
     7
100
AcDbEllipse
 10
0.0
 20
-92.356805
 30
0.0
 11
-48.048169288076927
 21
27.749077397704212
 31
0.0
210
0.0
220
0.0
230
1.0
 40
0.015115
 41
1.2585278961747053
 42
1.3055597728724668
  0
LINE
  5
348
100
AcDbEntity
  8
0
390
0
  6
Continuous
 62
     7
100
AcDbLine
 10
6.5
 20
-85.810815
 30
0.0
 11
6.5
 21
-86.162359
 31
0.0
  0
ELLIPSE
  5
349
100
AcDbEntity
  8
0
390
0
  6
Continuous
 62
     7
100
AcDbEllipse
 10
0.0
 20
-88.604028
 30
0.0
 11
48.048169288076927
 21
27.749077397704188
 31
0.0
210
0.0
220
0.0
230
1.0
 40
0.015115
 41
4.8393514448847297
 42
4.8855016932459829
  0
ELLIPSE
  5
34A
100
AcDbEntity
  8
0
390
0
  6
Continuous
 62
     7
100
AcDbEllipse
 10
0.0
 20
-77.345698
 30
0.0
 11
48.048169288076927
 21
27.749077397704159
 31
0.0
210
0.0
220
0.0
230
0.9999999999999999
 40
0.015115
 41
4.4296938157454981
 42
4.4765666911243258
  0
LINE
  5
34B
100
AcDbEntity
  8
0
390
0
  6
Continuous
 62
     7
100
AcDbLine
 10
-6.5
 20
-85.810815
 30
0.0
 11
-6.5
 21
-86.162359
 31
0.0
  0
ELLIPSE
  5
34C
100
AcDbEntity
  8
0
390
0
  6
Continuous
 62
     7
100
AcDbEllipse
 10
0.0
 20
-88.604028
 30
0.0
 11
-48.048169288076927
 21
27.749077397704188
 31
0.0
210
0.0
220
0.0
230
0.9999999999999999
 40
0.015115
 41
1.3976836139336044
 42
1.4438338622948581
  0
ELLIPSE
  5
34D
100
AcDbEntity
  8
0
390
0
  6
Continuous
 62
     7
100
AcDbEllipse
 10
0.0
 20
-81.098475
 30
0.0
 11
48.048169288076927
 21
27.749077397704159
 31
0.0
210
0.0
220
0.0
230
0.9999999999999999
 40
0.015115
 41
4.5679679051678912
 42
4.6140475618857089
  0
ELLIPSE
  5
34E
100
AcDbEntity
  8
0
390
0
  6
Continuous
 62
     7
100
AcDbEllipse
 10
0.0
 20
-77.345698
 30
0.0
 11
-48.048169288076927
 21
27.749077397704212
 31
0.0
210
0.0
220
0.0
230
1.0
 40
0.015115
 41
1.8066186160552611
 42
1.8534914914340888
  0
ELLIPSE
  5
34F
100
AcDbEntity
  8
0
390
0
  6
Continuous
 62
     7
100
AcDbEllipse
 10
0.0
 20
-84.851252
 30
0.0
 11
48.048169288076927
 21
27.749077397704159
 31
0.0
210
0.0
220
0.0
230
0.9999999999999999
 40
0.015115
 41
4.7036596750263096
 42
4.7495109611818975
  0
ELLIPSE
  5
350
100
AcDbEntity
  8
0
390
0
  6
Continuous
 62
     7
100
AcDbEllipse
 10
0.0
 20
-81.098475
 30
0.0
 11
-48.048169288076927
 21
27.749077397704212
 31
0.0
210
0.0
220
0.0
230
1.0
 40
0.015115
 41
1.6691377452938791
 42
1.7152174020116975
  0
LINE
  5
351
100
AcDbEntity
  8
0
390
0
  6
Continuous
 62
     7
100
AcDbLine
 10
-29.25
 20
-86.542061
 30
0.0
 11
-31.296168
 21
-87.723417
 31
0.0
  0
LINE
  5
352
100
AcDbEntity
  8
0
390
0
  6
Continuous
 62
     7
100
AcDbLine
 10
-31.296168
 20
-87.723417
 30
0.0
 11
-31.75
 21
-87.461397
 31
0.0
  0
LINE
  5
353
100
AcDbEntity
  8
0
390
0
  6
Continuous
 62
     7
100
AcDbLine
 10
-29.25
 20
-86.542061
 30
0.0
 11
-29.25
 21
-86.018021
 31
0.0
  0
LINE
  5
354
100
AcDbEntity
  8
0
390
0
  6
Continuous
 62
     7
100
AcDbLine
 10
-35.75
 20
-86.542061
 30
0.0
 11
-37.796168
 21
-87.723417
 31
0.0
  0
LINE
  5
355
100
AcDbEntity
  8
0
390
0
  6
Continuous
 62
     7
100
AcDbLine
 10
-37.796168
 20
-87.723417
 30
0.0
 11
-38.25
 21
-87.461397
 31
0.0
  0
LINE
  5
356
100
AcDbEntity
  8
0
390
0
  6
Continuous
 62
     7
100
AcDbLine
 10
-35.75
 20
-86.542061
 30
0.0
 11
-35.75
 21
-86.018021
 31
0.0
  0
LINE
  5
357
100
AcDbEntity
  8
0
390
0
  6
Continuous
 62
     7
100
AcDbLine
 10
29.25
 20
-86.542061
 30
0.0
 11
27.998214
 21
-87.26478
 31
0.0
  0
ELLIPSE
  5
358
100
AcDbEntity
  8
0
390
0
  6
Continuous
 62
     7
100
AcDbEllipse
 10
0.0
 20
-104.216623
 30
0.0
 11
48.048169288076927
 21
27.749077397704188
 31
0.0
210
0.0
220
0.0
230
1.0
 40
0.015115
 41
0.9400332975198129
 42
0.9604797807834724
  0
LINE
  5
359
100
AcDbEntity
  8
0
390
0
  6
Continuous
 62
     7
100
AcDbLine
 10
27.193982
 20
-87.71773
 30
0.0
 11
26.75
 21
-87.461397
 31
0.0
  0
LINE
  5
35A
100
AcDbEntity
  8
0
390
0
  6
Continuous
 62
     7
100
AcDbLine
 10
29.25
 20
-86.542061
 30
0.0
 11
29.25
 21
-86.018021
 31
0.0
  0
LINE
  5
35B
100
AcDbEntity
  8
0
390
0
  6
Continuous
 62
     7
100
AcDbLine
 10
37.796168
 20
-87.723417
 30
0.0
 11
35.75
 21
-86.542061
 31
0.0
  0
LINE
  5
35C
100
AcDbEntity
  8
0
390
0
  6
Continuous
 62
     7
100
AcDbLine
 10
35.75
 20
-86.542061
 30
0.0
 11
35.75
 21
-86.018021
 31
0.0
  0
LINE
  5
35D
100
AcDbEntity
  8
0
390
0
  6
Continuous
 62
     7
100
AcDbLine
 10
37.796168
 20
-87.723417
 30
0.0
 11
38.25
 21
-87.461397
 31
0.0
  0
LINE
  5
35E
100
AcDbEntity
  8
0
390
0
  6
Continuous
 62
     7
100
AcDbLine
 10
-33.703832
 20
-87.723417
 30
0.0
 11
-35.75
 21
-86.542061
 31
0.0
  0
LINE
  5
35F
100
AcDbEntity
  8
0
390
0
  6
Continuous
 62
     7
100
AcDbLine
 10
-33.703832
 20
-87.723417
 30
0.0
 11
-33.25
 21
-87.461397
 31
0.0
  0
LINE
  5
360
100
AcDbEntity
  8
0
390
0
  6
Continuous
 62
     7
100
AcDbLine
 10
-27.998214
 20
-87.26478
 30
0.0
 11
-29.25
 21
-86.542061
 31
0.0
  0
LINE
  5
361
100
AcDbEntity
  8
0
390
0
  6
Continuous
 62
     7
100
AcDbLine
 10
-27.193983
 20
-87.71773
 30
0.0
 11
-26.75
 21
-87.461397
 31
0.0
  0
ELLIPSE
  5
362
100
AcDbEntity
  8
0
390
0
  6
Continuous
 62
     7
100
AcDbEllipse
 10
0.0
 20
-104.216623
 30
0.0
 11
-48.048169288076956
 21
27.749077397704241
 31
0.0
210
0.0
220
0.0
230
1.0
 40
0.015115
 41
5.3227055263961134
 42
5.3431520096597751
  0
ELLIPSE
  5
363
100
AcDbEntity
  8
0
390
0
  6
Continuous
 62
     7
100
AcDbEllipse
 10
0.0
 20
-81.699963
 30
0.0
 11
48.048169288076927
 21
27.749077397704159
 31
0.0
210
0.0
220
0.0
230
0.9999999999999999
 40
0.015115
 41
1.7663995625292646
 42
1.8129102805125801
  0
LINE
  5
364
100
AcDbEntity
  8
0
390
0
  6
Continuous
 62
     7
100
AcDbLine
 10
-11.927015
 20
-87.647872
 30
0.0
 11
-12.25
 21
-87.461397
 31
0.0
  0
LINE
  5
365
100
AcDbEntity
  8
0
390
0
  6
Continuous
 62
     7
100
AcDbLine
 10
-9.75
 20
-86.38081
 30
0.0
 11
-9.75
 21
-86.018021
 31
0.0
  0
ELLIPSE
  5
366
100
AcDbEntity
  8
0
390
0
  6
Continuous
 62
     7
100
AcDbEllipse
 10
0.0
 20
-92.958293
 30
0.0
 11
-48.048169288076963
 21
27.749077397704212
 31
0.0
210
0.0
220
0.0
230
1.0
 40
0.015115
 41
4.8790513191897382
 42
4.9254508268358199
  0
LINE
  5
367
100
AcDbEntity
  8
0
390
0
  6
Continuous
 62
     7
100
AcDbLine
 10
-7.557174
 20
-87.638744
 30
0.0
 11
-7.25
 21
-87.461397
 31
0.0
  0
LINE
  5
368
100
AcDbEntity
  8
0
390
0
  6
Continuous
 62
     7
100
AcDbLine
 10
35.75
 20
-86.542061
 30
0.0
 11
33.703832
 21
-87.723417
 31
0.0
  0
LINE
  5
369
100
AcDbEntity
  8
0
390
0
  6
Continuous
 62
     7
100
AcDbLine
 10
33.703832
 20
-87.723417
 30
0.0
 11
33.25
 21
-87.461397
 31
0.0
  0
ELLIPSE
  5
36A
100
AcDbEntity
  8
0
390
0
  6
Continuous
 62
     7
100
AcDbEllipse
 10
0.0
 20
-81.699963
 30
0.0
 11
-48.048169288076963
 21
27.749077397704212
 31
0.0
210
0.0
220
0.0
230
1.0
 40
0.015115
 41
4.4702750266670064
 42
4.5167857446503215
  0
LINE
  5
36B
100
AcDbEntity
  8
0
390
0
  6
Continuous
 62
     7
100
AcDbLine
 10
9.75
 20
-86.38081
 30
0.0
 11
9.75
 21
-86.018021
 31
0.0
  0
LINE
  5
36C
100
AcDbEntity
  8
0
390
0
  6
Continuous
 62
     7
100
AcDbLine
 10
11.927015
 20
-87.647872
 30
0.0
 11
12.25
 21
-87.461397
 31
0.0
  0
ELLIPSE
  5
36D
100
AcDbEntity
  8
0
390
0
  6
Continuous
 62
     7
100
AcDbEllipse
 10
0.0
 20
-85.45274
 30
0.0
 11
-48.048169288076963
 21
27.749077397704212
 31
0.0
210
0.0
220
0.0
230
1.0
 40
0.015115
 41
4.6074950688447132
 42
4.6534287295134851
  0
LINE
  5
36E
100
AcDbEntity
  8
0
390
0
  6
Continuous
 62
     7
100
AcDbLine
 10
3.25
 20
-86.36288
 30
0.0
 11
3.25
 21
-86.018021
 31
0.0
  0
LINE
  5
36F
100
AcDbEntity
  8
0
390
0
  6
Continuous
 62
     7
100
AcDbLine
 10
5.447856
 20
-87.63584
 30
0.0
 11
5.75
 21
-87.461397
 31
0.0
  0
ELLIPSE
  5
370
100
AcDbEntity
  8
0
390
0
  6
Continuous
 62
     7
100
AcDbEllipse
 10
0.0
 20
-74.194409
 30
0.0
 11
-48.048169288076963
 21
27.749077397704212
 31
0.0
210
0.0
220
0.0
230
1.0
 40
0.015115
 41
4.1780012971703702
 42
4.2278976213236934
  0
LINE
  5
371
100
AcDbEntity
  8
0
390
0
  6
Continuous
 62
     7
100
AcDbLine
 10
22.75
 20
-86.476091
 30
0.0
 11
22.75
 21
-86.018021
 31
0.0
  0
LINE
  5
372
100
AcDbEntity
  8
0
390
0
  6
Continuous
 62
     7
100
AcDbLine
 10
24.832574
 20
-87.702398
 30
0.0
 11
25.25
 21
-87.461397
 31
0.0
  0
ELLIPSE
  5
373
100
AcDbEntity
  8
0
390
0
  6
Continuous
 62
     7
100
AcDbEllipse
 10
0.0
 20
-92.958293
 30
0.0
 11
48.048169288076927
 21
27.749077397704212
 31
0.0
210
0.0
220
0.0
230
1.0
 40
0.015115
 41
1.357734480343767
 42
1.4041339879898482
  0
LINE
  5
374
100
AcDbEntity
  8
0
390
0
  6
Continuous
 62
     7
100
AcDbLine
 10
7.557174
 20
-87.638744
 30
0.0
 11
7.25
 21
-87.461397
 31
0.0
  0
ELLIPSE
  5
375
100
AcDbEntity
  8
0
390
0
  6
Continuous
 62
     7
100
AcDbEllipse
 10
0.0
 20
-74.194409
 30
0.0
 11
48.048169288076927
 21
27.749077397704159
 31
0.0
210
0.0
220
0.0
230
0.9999999999999999
 40
0.015115
 41
2.0552876858558924
 42
2.1051840100092156
  0
LINE
  5
376
100
AcDbEntity
  8
0
390
0
  6
Continuous
 62
     7
100
AcDbLine
 10
-24.832574
 20
-87.702398
 30
0.0
 11
-25.25
 21
-87.461397
 31
0.0
  0
LINE
  5
377
100
AcDbEntity
  8
0
390
0
  6
Continuous
 62
     7
100
AcDbLine
 10
-22.75
 20
-86.476091
 30
0.0
 11
-22.75
 21
-86.018021
 31
0.0
  0
ELLIPSE
  5
378
100
AcDbEntity
  8
0
390
0
  6
Continuous
 62
     7
100
AcDbEllipse
 10
0.0
 20
-77.947186
 30
0.0
 11
48.048169288076927
 21
27.749077397704212
 31
0.0
210
0.0
220
0.0
230
1.0
 40
0.015115
 41
1.9070592737246512
 42
1.9547992372181244
  0
LINE
  5
379
100
AcDbEntity
  8
0
390
0
  6
Continuous
 62
     7
100
AcDbLine
 10
-18.38941
 20
-87.669584
 30
0.0
 11
-18.75
 21
-87.461397
 31
0.0
  0
LINE
  5
37A
100
AcDbEntity
  8
0
390
0
  6
Continuous
 62
     7
100
AcDbLine
 10
-16.25
 20
-86.417726
 30
0.0
 11
-16.25
 21
-86.018021
 31
0.0
  0
ELLIPSE
  5
37B
100
AcDbEntity
  8
0
390
0
  6
Continuous
 62
     7
100
AcDbEllipse
 10
0.0
 20
-96.71107
 30
0.0
 11
-48.048169288076956
 21
27.749077397704241
 31
0.0
210
0.0
220
0.0
230
1.0
 40
0.015115
 41
5.0185884584060547
 42
5.0661105380312064
  0
LINE
  5
37C
100
AcDbEntity
  8
0
390
0
  6
Continuous
 62
     7
100
AcDbLine
 10
-14.083572
 20
-87.653984
 30
0.0
 11
-13.75
 21
-87.461397
 31
0.0
  0
ELLIPSE
  5
37D
100
AcDbEntity
  8
0
390
0
  6
Continuous
 62
     7
100
AcDbEllipse
 10
0.0
 20
-89.205516
 30
0.0
 11
48.048169288076927
 21
27.749077397704188
 31
0.0
210
0.0
220
0.0
230
1.0
 40
0.015115
 41
1.4943774652069302
 42
1.5402768431605518
  0
LINE
  5
37E
100
AcDbEntity
  8
0
390
0
  6
Continuous
 62
     7
100
AcDbLine
 10
1.046935
 20
-87.632832
 30
0.0
 11
0.75
 21
-87.461397
 31
0.0
  0
ELLIPSE
  5
37F
100
AcDbEntity
  8
0
390
0
  6
Continuous
 62
     7
100
AcDbEllipse
 10
0.0
 20
-85.45274
 30
0.0
 11
48.048169288076927
 21
27.749077397704212
 31
0.0
210
0.0
220
0.0
230
1.0
 40
0.015115
 41
1.6297565776661016
 42
1.6756902383348733
  0
LINE
  5
380
100
AcDbEntity
  8
0
390
0
  6
Continuous
 62
     7
100
AcDbLine
 10
-5.447856
 20
-87.63584
 30
0.0
 11
-5.75
 21
-87.461397
 31
0.0
  0
LINE
  5
381
100
AcDbEntity
  8
0
390
0
  6
Continuous
 62
     7
100
AcDbLine
 10
-3.25
 20
-86.36288
 30
0.0
 11
-3.25
 21
-86.018021
 31
0.0
  0
LINE
  5
382
100
AcDbEntity
  8
0
390
0
  6
Continuous
 62
     7
100
AcDbLine
 10
31.296168
 20
-87.723417
 30
0.0
 11
29.25
 21
-86.542061
 31
0.0
  0
LINE
  5
383
100
AcDbEntity
  8
0
390
0
  6
Continuous
 62
     7
100
AcDbLine
 10
31.296168
 20
-87.723417
 30
0.0
 11
31.75
 21
-87.461397
 31
0.0
  0
ELLIPSE
  5
384
100
AcDbEntity
  8
0
390
0
  6
Continuous
 62
     7
100
AcDbEllipse
 10
0.0
 20
-96.71107
 30
0.0
 11
48.048169288076927
 21
27.749077397704188
 31
0.0
210
0.0
220
0.0
230
1.0
 40
0.015115
 41
1.2170747691483803
 42
1.2645968487735306
  0
LINE
  5
385
100
AcDbEntity
  8
0
390
0
  6
Continuous
 62
     7
100
AcDbLine
 10
14.083572
 20
-87.653984
 30
0.0
 11
13.75
 21
-87.461397
 31
0.0
  0
LINE
  5
386
100
AcDbEntity
  8
0
390
0
  6
Continuous
 62
     7
100
AcDbLine
 10
16.25
 20
-86.417726
 30
0.0
 11
16.25
 21
-86.018021
 31
0.0
  0
ELLIPSE
  5
387
100
AcDbEntity
  8
0
390
0
  6
Continuous
 62
     7
100
AcDbEllipse
 10
0.0
 20
-100.463847
 30
0.0
 11
48.048169288076927
 21
27.749077397704212
 31
0.0
210
0.0
220
0.0
230
1.0
 40
0.015115
 41
1.0688463570171391
 42
1.1183473344140085
  0
LINE
  5
388
100
AcDbEntity
  8
0
390
0
  6
Continuous
 62
     7
100
AcDbLine
 10
20.627956
 20
-87.67961
 30
0.0
 11
20.25
 21
-87.461397
 31
0.0
  0
ELLIPSE
  5
389
100
AcDbEntity
  8
0
390
0
  6
Continuous
 62
     7
100
AcDbEllipse
 10
0.0
 20
-100.463847
 30
0.0
 11
-48.048169288076963
 21
27.749077397704212
 31
0.0
210
0.0
220
0.0
230
1.0
 40
0.015115
 41
5.1648379727655769
 42
5.2143389501624471
  0
LINE
  5
38A
100
AcDbEntity
  8
0
390
0
  6
Continuous
 62
     7
100
AcDbLine
 10
-20.627957
 20
-87.67961
 30
0.0
 11
-20.25
 21
-87.461397
 31
0.0
  0
ELLIPSE
  5
38B
100
AcDbEntity
  8
0
390
0
  6
Continuous
 62
     7
100
AcDbEllipse
 10
0.0
 20
-89.205516
 30
0.0
 11
-48.048169288076956
 21
27.749077397704188
 31
0.0
210
0.0
220
0.0
230
1.0
 40
0.015115
 41
4.7429084640190347
 42
4.7888078419726572
  0
LINE
  5
38C
100
AcDbEntity
  8
0
390
0
  6
Continuous
 62
     7
100
AcDbLine
 10
-1.046935
 20
-87.632832
 30
0.0
 11
-0.75
 21
-87.461397
 31
0.0
  0
ELLIPSE
  5
38D
100
AcDbEntity
  8
0
390
0
  6
Continuous
 62
     7
100
AcDbEllipse
 10
0.0
 20
-77.947186
 30
0.0
 11
-48.048169288076963
 21
27.749077397704212
 31
0.0
210
0.0
220
0.0
230
1.0
 40
0.015115
 41
4.3283860699614607
 42
4.3761260334549341
  0
LINE
  5
38E
100
AcDbEntity
  8
0
390
0
  6
Continuous
 62
     7
100
AcDbLine
 10
18.38941
 20
-87.669584
 30
0.0
 11
18.75
 21
-87.461397
 31
0.0
  0
LINE
  5
38F
100
AcDbEntity
  8
0
390
0
  6
Continuous
 62
     7
100
AcDbLine
 10
-31.296168
 20
-87.723417
 30
0.0
 11
-31.296168
 21
-90.086128
 31
0.0
  0
LINE
  5
390
100
AcDbEntity
  8
0
390
0
  6
Continuous
 62
     7
100
AcDbLine
 10
-31.296168
 20
-90.086128
 30
0.0
 11
-31.75
 21
-90.348148
 31
0.0
  0
LINE
  5
391
100
AcDbEntity
  8
0
390
0
  6
Continuous
 62
     7
100
AcDbLine
 10
7.557174
 20
-87.638744
 30
0.0
 11
7.557174
 21
-90.170801
 31
0.0
  0
LINE
  5
392
100
AcDbEntity
  8
0
390
0
  6
Continuous
 62
     7
100
AcDbLine
 10
7.557174
 20
-90.170801
 30
0.0
 11
7.25
 21
-90.348148
 31
0.0
  0
LINE
  5
393
100
AcDbEntity
  8
0
390
0
  6
Continuous
 62
     7
100
AcDbLine
 10
11.927015
 20
-90.161673
 30
0.0
 11
11.927015
 21
-87.647872
 31
0.0
  0
LINE
  5
394
100
AcDbEntity
  8
0
390
0
  6
Continuous
 62
     7
100
AcDbLine
 10
11.927015
 20
-90.161673
 30
0.0
 11
12.25
 21
-90.348148
 31
0.0
  0
LINE
  5
395
100
AcDbEntity
  8
0
390
0
  6
Continuous
 62
     7
100
AcDbLine
 10
-33.703832
 20
-90.086128
 30
0.0
 11
-33.703832
 21
-87.723417
 31
0.0
  0
LINE
  5
396
100
AcDbEntity
  8
0
390
0
  6
Continuous
 62
     7
100
AcDbLine
 10
-33.703832
 20
-90.086128
 30
0.0
 11
-33.25
 21
-90.348148
 31
0.0
  0
LINE
  5
397
100
AcDbEntity
  8
0
390
0
  6
Continuous
 62
     7
100
AcDbLine
 10
-5.447856
 20
-87.63584
 30
0.0
 11
-5.447856
 21
-90.173705
 31
0.0
  0
LINE
  5
398
100
AcDbEntity
  8
0
390
0
  6
Continuous
 62
     7
100
AcDbLine
 10
-5.447856
 20
-90.173705
 30
0.0
 11
-5.75
 21
-90.348148
 31
0.0
  0
LINE
  5
399
100
AcDbEntity
  8
0
390
0
  6
Continuous
 62
     7
100
AcDbLine
 10
-7.557174
 20
-90.170801
 30
0.0
 11
-7.557174
 21
-87.638744
 31
0.0
  0
LINE
  5
39A
100
AcDbEntity
  8
0
390
0
  6
Continuous
 62
     7
100
AcDbLine
 10
-7.557174
 20
-90.170801
 30
0.0
 11
-7.25
 21
-90.348148
 31
0.0
  0
LINE
  5
39B
100
AcDbEntity
  8
0
390
0
  6
Continuous
 62
     7
100
AcDbLine
 10
-37.796168
 20
-87.723417
 30
0.0
 11
-37.796168
 21
-90.086128
 31
0.0
  0
LINE
  5
39C
100
AcDbEntity
  8
0
390
0
  6
Continuous
 62
     7
100
AcDbLine
 10
-37.796168
 20
-90.086128
 30
0.0
 11
-38.25
 21
-90.348148
 31
0.0
  0
LINE
  5
39D
100
AcDbEntity
  8
0
390
0
  6
Continuous
 62
     7
100
AcDbLine
 10
1.046935
 20
-87.632832
 30
0.0
 11
1.046935
 21
-90.176712
 31
0.0
  0
LINE
  5
39E
100
AcDbEntity
  8
0
390
0
  6
Continuous
 62
     7
100
AcDbLine
 10
1.046935
 20
-90.176712
 30
0.0
 11
0.75
 21
-90.348148
 31
0.0
  0
LINE
  5
39F
100
AcDbEntity
  8
0
390
0
  6
Continuous
 62
     7
100
AcDbLine
 10
-14.083572
 20
-90.15556
 30
0.0
 11
-14.083572
 21
-87.653984
 31
0.0
  0
LINE
  5
3A0
100
AcDbEntity
  8
0
390
0
  6
Continuous
 62
     7
100
AcDbLine
 10
-14.083572
 20
-90.15556
 30
0.0
 11
-13.75
 21
-90.348148
 31
0.0
  0
LINE
  5
3A1
100
AcDbEntity
  8
0
390
0
  6
Continuous
 62
     7
100
AcDbLine
 10
-27.193983
 20
-90.091815
 30
0.0
 11
-27.193983
 21
-87.71773
 31
0.0
  0
LINE
  5
3A2
100
AcDbEntity
  8
0
390
0
  6
Continuous
 62
     7
100
AcDbLine
 10
-27.193983
 20
-90.091815
 30
0.0
 11
-26.75
 21
-90.348148
 31
0.0
  0
LINE
  5
3A3
100
AcDbEntity
  8
0
390
0
  6
Continuous
 62
     7
100
AcDbLine
 10
-20.627957
 20
-90.129935
 30
0.0
 11
-20.627957
 21
-87.67961
 31
0.0
  0
LINE
  5
3A4
100
AcDbEntity
  8
0
390
0
  6
Continuous
 62
     7
100
AcDbLine
 10
-20.627957
 20
-90.129935
 30
0.0
 11
-20.25
 21
-90.348148
 31
0.0
  0
LINE
  5
3A5
100
AcDbEntity
  8
0
390
0
  6
Continuous
 62
     7
100
AcDbLine
 10
-18.38941
 20
-87.669584
 30
0.0
 11
-18.38941
 21
-90.139961
 31
0.0
  0
LINE
  5
3A6
100
AcDbEntity
  8
0
390
0
  6
Continuous
 62
     7
100
AcDbLine
 10
-18.38941
 20
-90.139961
 30
0.0
 11
-18.75
 21
-90.348148
 31
0.0
  0
LINE
  5
3A7
100
AcDbEntity
  8
0
390
0
  6
Continuous
 62
     7
100
AcDbLine
 10
-24.832574
 20
-87.702398
 30
0.0
 11
-24.832574
 21
-90.107147
 31
0.0
  0
LINE
  5
3A8
100
AcDbEntity
  8
0
390
0
  6
Continuous
 62
     7
100
AcDbLine
 10
-24.832574
 20
-90.107147
 30
0.0
 11
-25.25
 21
-90.348148
 31
0.0
  0
LINE
  5
3A9
100
AcDbEntity
  8
0
390
0
  6
Continuous
 62
     7
100
AcDbLine
 10
24.832574
 20
-90.107147
 30
0.0
 11
24.832574
 21
-87.702398
 31
0.0
  0
LINE
  5
3AA
100
AcDbEntity
  8
0
390
0
  6
Continuous
 62
     7
100
AcDbLine
 10
24.832574
 20
-90.107147
 30
0.0
 11
25.25
 21
-90.348148
 31
0.0
  0
LINE
  5
3AB
100
AcDbEntity
  8
0
390
0
  6
Continuous
 62
     7
100
AcDbLine
 10
31.296168
 20
-90.086128
 30
0.0
 11
31.296168
 21
-87.723417
 31
0.0
  0
LINE
  5
3AC
100
AcDbEntity
  8
0
390
0
  6
Continuous
 62
     7
100
AcDbLine
 10
31.296168
 20
-90.086128
 30
0.0
 11
31.75
 21
-90.348148
 31
0.0
  0
LINE
  5
3AD
100
AcDbEntity
  8
0
390
0
  6
Continuous
 62
     7
100
AcDbLine
 10
-1.046935
 20
-90.176712
 30
0.0
 11
-1.046935
 21
-87.632832
 31
0.0
  0
LINE
  5
3AE
100
AcDbEntity
  8
0
390
0
  6
Continuous
 62
     7
100
AcDbLine
 10
-1.046935
 20
-90.176712
 30
0.0
 11
-0.75
 21
-90.348148
 31
0.0
  0
LINE
  5
3AF
100
AcDbEntity
  8
0
390
0
  6
Continuous
 62
     7
100
AcDbLine
 10
33.703832
 20
-87.723417
 30
0.0
 11
33.703832
 21
-90.086128
 31
0.0
  0
LINE
  5
3B0
100
AcDbEntity
  8
0
390
0
  6
Continuous
 62
     7
100
AcDbLine
 10
33.703832
 20
-90.086128
 30
0.0
 11
33.25
 21
-90.348148
 31
0.0
  0
LINE
  5
3B1
100
AcDbEntity
  8
0
390
0
  6
Continuous
 62
     7
100
AcDbLine
 10
14.083572
 20
-87.653984
 30
0.0
 11
14.083572
 21
-90.15556
 31
0.0
  0
LINE
  5
3B2
100
AcDbEntity
  8
0
390
0
  6
Continuous
 62
     7
100
AcDbLine
 10
14.083572
 20
-90.15556
 30
0.0
 11
13.75
 21
-90.348148
 31
0.0
  0
LINE
  5
3B3
100
AcDbEntity
  8
0
390
0
  6
Continuous
 62
     7
100
AcDbLine
 10
-11.927015
 20
-87.647872
 30
0.0
 11
-11.927015
 21
-90.161673
 31
0.0
  0
LINE
  5
3B4
100
AcDbEntity
  8
0
390
0
  6
Continuous
 62
     7
100
AcDbLine
 10
-11.927015
 20
-90.161673
 30
0.0
 11
-12.25
 21
-90.348148
 31
0.0
  0
LINE
  5
3B5
100
AcDbEntity
  8
0
390
0
  6
Continuous
 62
     7
100
AcDbLine
 10
5.447856
 20
-90.173705
 30
0.0
 11
5.447856
 21
-87.63584
 31
0.0
  0
LINE
  5
3B6
100
AcDbEntity
  8
0
390
0
  6
Continuous
 62
     7
100
AcDbLine
 10
5.447856
 20
-90.173705
 30
0.0
 11
5.75
 21
-90.348148
 31
0.0
  0
LINE
  5
3B7
100
AcDbEntity
  8
0
390
0
  6
Continuous
 62
     7
100
AcDbLine
 10
20.627956
 20
-87.67961
 30
0.0
 11
20.627956
 21
-90.129935
 31
0.0
  0
LINE
  5
3B8
100
AcDbEntity
  8
0
390
0
  6
Continuous
 62
     7
100
AcDbLine
 10
20.627956
 20
-90.129935
 30
0.0
 11
20.25
 21
-90.348148
 31
0.0
  0
LINE
  5
3B9
100
AcDbEntity
  8
0
390
0
  6
Continuous
 62
     7
100
AcDbLine
 10
18.38941
 20
-90.139961
 30
0.0
 11
18.38941
 21
-87.669584
 31
0.0
  0
LINE
  5
3BA
100
AcDbEntity
  8
0
390
0
  6
Continuous
 62
     7
100
AcDbLine
 10
18.38941
 20
-90.139961
 30
0.0
 11
18.75
 21
-90.348148
 31
0.0
  0
LINE
  5
3BB
100
AcDbEntity
  8
0
390
0
  6
Continuous
 62
     7
100
AcDbLine
 10
37.796168
 20
-90.086128
 30
0.0
 11
37.796168
 21
-87.723417
 31
0.0
  0
LINE
  5
3BC
100
AcDbEntity
  8
0
390
0
  6
Continuous
 62
     7
100
AcDbLine
 10
37.796168
 20
-90.086128
 30
0.0
 11
38.25
 21
-90.348148
 31
0.0
  0
LINE
  5
3BD
100
AcDbEntity
  8
0
390
0
  6
Continuous
 62
     7
100
AcDbLine
 10
27.193982
 20
-87.71773
 30
0.0
 11
27.193982
 21
-90.091815
 31
0.0
  0
LINE
  5
3BE
100
AcDbEntity
  8
0
390
0
  6
Continuous
 62
     7
100
AcDbLine
 10
27.193982
 20
-90.091815
 30
0.0
 11
26.75
 21
-90.348148
 31
0.0
  0
ELLIPSE
  5
3BF
100
AcDbEntity
  8
0
390
0
  6
Continuous
 62
     7
100
AcDbEllipse
 10
0.0
 20
-96.109582
 30
0.0
 11
48.048169288076927
 21
27.749077397704212
 31
0.0
210
0.0
220
0.0
230
1.0
 40
0.015115
 41
4.9079922161190588
 42
4.954502934102373
  0
LINE
  5
3C0
100
AcDbEntity
  8
0
390
0
  6
Continuous
 62
     7
100
AcDbLine
 10
9.75
 20
-91.428735
 30
0.0
 11
9.75
 21
-91.791524
 31
0.0
  0
ELLIPSE
  5
3C1
100
AcDbEntity
  8
0
390
0
  6
Continuous
 62
     7
100
AcDbEllipse
 10
0.0
 20
-99.862359
 30
0.0
 11
48.048169288076927
 21
27.749077397704188
 31
0.0
210
0.0
220
0.0
230
0.9999999999999999
 40
0.015115
 41
5.0486519273144452
 42
5.0963918908079178
  0
LINE
  5
3C2
100
AcDbEntity
  8
0
390
0
  6
Continuous
 62
     7
100
AcDbLine
 10
16.25
 20
-91.391819
 30
0.0
 11
16.25
 21
-91.791524
 31
0.0
  0
LINE
  5
3C3
100
AcDbEntity
  8
0
390
0
  6
Continuous
 62
     7
100
AcDbLine
 10
33.703832
 20
-90.086128
 30
0.0
 11
35.75
 21
-91.267484
 31
0.0
  0
LINE
  5
3C4
100
AcDbEntity
  8
0
390
0
  6
Continuous
 62
     7
100
AcDbLine
 10
35.75
 20
-91.267484
 30
0.0
 11
35.75
 21
-91.791524
 31
0.0
  0
LINE
  5
3C5
100
AcDbEntity
  8
0
390
0
  6
Continuous
 62
     7
100
AcDbLine
 10
-37.796168
 20
-90.086128
 30
0.0
 11
-35.75
 21
-91.267484
 31
0.0
  0
LINE
  5
3C6
100
AcDbEntity
  8
0
390
0
  6
Continuous
 62
     7
100
AcDbLine
 10
-35.75
 20
-91.267484
 30
0.0
 11
-35.75
 21
-91.791524
 31
0.0
  0
ELLIPSE
  5
3C7
100
AcDbEntity
  8
0
390
0
  6
Continuous
 62
     7
100
AcDbEllipse
 10
0.0
 20
-81.098475
 30
0.0
 11
-48.048169288076963
 21
27.749077397704212
 31
0.0
210
0.0
220
0.0
230
1.0
 40
0.015115
 41
1.8769958048162627
 42
1.924517884441413
  0
LINE
  5
3C8
100
AcDbEntity
  8
0
390
0
  6
Continuous
 62
     7
100
AcDbLine
 10
29.25
 20
-91.267484
 30
0.0
 11
31.296168
 21
-90.086128
 31
0.0
  0
LINE
  5
3C9
100
AcDbEntity
  8
0
390
0
  6
Continuous
 62
     7
100
AcDbLine
 10
29.25
 20
-91.267484
 30
0.0
 11
29.25
 21
-91.791524
 31
0.0
  0
LINE
  5
3CA
100
AcDbEntity
  8
0
390
0
  6
Continuous
 62
     7
100
AcDbLine
 10
-29.25
 20
-91.267484
 30
0.0
 11
-27.998214
 21
-90.544765
 31
0.0
  0
ELLIPSE
  5
3CB
100
AcDbEntity
  8
0
390
0
  6
Continuous
 62
     7
100
AcDbEllipse
 10
0.0
 20
-73.592921
 30
0.0
 11
48.048169288076927
 21
27.749077397704212
 31
0.0
210
0.0
220
0.0
230
1.0
 40
0.015115
 41
4.081625951109606
 42
4.1020724343732669
  0
LINE
  5
3CC
100
AcDbEntity
  8
0
390
0
  6
Continuous
 62
     7
100
AcDbLine
 10
-29.25
 20
-91.267484
 30
0.0
 11
-29.25
 21
-91.791524
 31
0.0
  0
LINE
  5
3CD
100
AcDbEntity
  8
0
390
0
  6
Continuous
 62
     7
100
AcDbLine
 10
-31.296168
 20
-90.086128
 30
0.0
 11
-29.25
 21
-91.267484
 31
0.0
  0
LINE
  5
3CE
100
AcDbEntity
  8
0
390
0
  6
Continuous
 62
     7
100
AcDbLine
 10
27.998214
 20
-90.544765
 30
0.0
 11
29.25
 21
-91.267484
 31
0.0
  0
ELLIPSE
  5
3CF
100
AcDbEntity
  8
0
390
0
  6
Continuous
 62
     7
100
AcDbEllipse
 10
0.0
 20
-73.592921
 30
0.0
 11
-48.048169288076927
 21
27.749077397704212
 31
0.0
210
0.0
220
0.0
230
1.0
 40
0.015115
 41
2.1811128728063212
 42
2.2015593560699802
  0
ELLIPSE
  5
3D0
100
AcDbEntity
  8
0
390
0
  6
Continuous
 62
     7
100
AcDbEllipse
 10
0.0
 20
-96.109582
 30
0.0
 11
-48.048169288076963
 21
27.749077397704212
 31
0.0
210
0.0
220
0.0
230
1.0
 40
0.015115
 41
1.3286823730772137
 42
1.3751930910605288
  0
LINE
  5
3D1
100
AcDbEntity
  8
0
390
0
  6
Continuous
 62
     7
100
AcDbLine
 10
-9.75
 20
-91.428735
 30
0.0
 11
-9.75
 21
-91.791524
 31
0.0
  0
ELLIPSE
  5
3D2
100
AcDbEntity
  8
0
390
0
  6
Continuous
 62
     7
100
AcDbEllipse
 10
0.0
 20
-103.615135
 30
0.0
 11
48.048169288076927
 21
27.749077397704188
 31
0.0
210
0.0
220
0.0
230
0.9999999999999999
 40
0.015115
 41
5.1968803394456859
 42
5.2467766635990101
  0
LINE
  5
3D3
100
AcDbEntity
  8
0
390
0
  6
Continuous
 62
     7
100
AcDbLine
 10
22.75
 20
-91.333453
 30
0.0
 11
22.75
 21
-91.791524
 31
0.0
  0
ELLIPSE
  5
3D4
100
AcDbEntity
  8
0
390
0
  6
Continuous
 62
     7
100
AcDbEllipse
 10
0.0
 20
-103.615135
 30
0.0
 11
-48.048169288076956
 21
27.749077397704188
 31
0.0
210
0.0
220
0.0
230
1.0
 40
0.015115
 41
1.0364086435805784
 42
1.086304967733901
  0
LINE
  5
3D5
100
AcDbEntity
  8
0
390
0
  6
Continuous
 62
     7
100
AcDbLine
 10
-22.75
 20
-91.333453
 30
0.0
 11
-22.75
 21
-91.791524
 31
0.0
  0
LINE
  5
3D6
100
AcDbEntity
  8
0
390
0
  6
Continuous
 62
     7
100
AcDbLine
 10
-35.75
 20
-91.267484
 30
0.0
 11
-33.703832
 21
-90.086128
 31
0.0
  0
ELLIPSE
  5
3D7
100
AcDbEntity
  8
0
390
0
  6
Continuous
 62
     7
100
AcDbEllipse
 10
0.0
 20
-77.345698
 30
0.0
 11
48.048169288076927
 21
27.749077397704212
 31
0.0
210
0.0
220
0.0
230
1.0
 40
0.015115
 41
4.2104390106069323
 42
4.2599399880038016
  0
LINE
  5
3D8
100
AcDbEntity
  8
0
390
0
  6
Continuous
 62
     7
100
AcDbLine
 10
35.75
 20
-91.267484
 30
0.0
 11
37.796168
 21
-90.086128
 31
0.0
  0
ELLIPSE
  5
3D9
100
AcDbEntity
  8
0
390
0
  6
Continuous
 62
     7
100
AcDbEllipse
 10
0.0
 20
-81.098475
 30
0.0
 11
48.048169288076927
 21
27.749077397704212
 31
0.0
210
0.0
220
0.0
230
1.0
 40
0.015115
 41
4.358667422738173
 42
4.4061895023633237
  0
LINE
  5
3DA
100
AcDbEntity
  8
0
390
0
  6
Continuous
 62
     7
100
AcDbLine
 10
-16.25
 20
-91.391819
 30
0.0
 11
-16.25
 21
-91.791524
 31
0.0
  0
ELLIPSE
  5
3DB
100
AcDbEntity
  8
0
390
0
  6
Continuous
 62
     7
100
AcDbEllipse
 10
0.0
 20
-99.862359
 30
0.0
 11
-48.048169288076956
 21
27.749077397704188
 31
0.0
210
0.0
220
0.0
230
1.0
 40
0.015115
 41
1.1867934163716689
 42
1.2345333798651419
  0
ELLIPSE
  5
3DC
100
AcDbEntity
  8
0
390
0
  6
Continuous
 62
     7
100
AcDbEllipse
 10
0.0
 20
-77.345698
 30
0.0
 11
-48.048169288076963
 21
27.749077397704212
 31
0.0
210
0.0
220
0.0
230
1.0
 40
0.015115
 41
2.0232453191757847
 42
2.0727462965726544
  0
ELLIPSE
  5
3DD
100
AcDbEntity
  8
0
390
0
  6
Continuous
 62
     7
100
AcDbEllipse
 10
0.0
 20
-88.604028
 30
0.0
 11
48.048169288076927
 21
27.749077397704188
 31
0.0
210
0.0
220
0.0
230
0.9999999999999999
 40
0.015115
 41
4.6359701187967239
 42
4.6818694967503447
  0
LINE
  5
3DE
100
AcDbEntity
  8
0
390
0
  6
Continuous
 62
     7
100
AcDbLine
 10
-3.25
 20
-91.446665
 30
0.0
 11
-3.25
 21
-91.791524
 31
0.0
  0
ELLIPSE
  5
3DF
100
AcDbEntity
  8
0
390
0
  6
Continuous
 62
     7
100
AcDbEllipse
 10
0.0
 20
-92.356805
 30
0.0
 11
48.048169288076927
 21
27.749077397704212
 31
0.0
210
0.0
220
0.0
230
1.0
 40
0.015115
 41
4.7713492312558943
 42
4.8172828919246662
  0
LINE
  5
3E0
100
AcDbEntity
  8
0
390
0
  6
Continuous
 62
     7
100
AcDbLine
 10
3.25
 20
-91.446665
 30
0.0
 11
3.25
 21
-91.791524
 31
0.0
  0
ELLIPSE
  5
3E1
100
AcDbEntity
  8
0
390
0
  6
Continuous
 62
     7
100
AcDbEllipse
 10
0.0
 20
-84.851252
 30
0.0
 11
48.048169288076927
 21
27.749077397704212
 31
0.0
210
0.0
220
0.0
230
1.0
 40
0.015115
 41
4.4993271339335612
 42
4.5457266415796411
  0
ELLIPSE
  5
3E2
100
AcDbEntity
  8
0
390
0
  6
Continuous
 62
     7
100
AcDbEllipse
 10
0.0
 20
-88.604028
 30
0.0
 11
-48.048169288076956
 21
27.749077397704241
 31
0.0
210
0.0
220
0.0
230
1.0
 40
0.015115
 41
1.6013158104292415
 42
1.6472151883828632
  0
ELLIPSE
  5
3E3
100
AcDbEntity
  8
0
390
0
  6
Continuous
 62
     7
100
AcDbEllipse
 10
0.0
 20
-84.851252
 30
0.0
 11
-48.048169288076963
 21
27.749077397704212
 31
0.0
210
0.0
220
0.0
230
1.0
 40
0.015115
 41
1.7374586655999451
 42
1.7838581732460266
  0
ELLIPSE
  5
3E4
100
AcDbEntity
  8
0
390
0
  6
Continuous
 62
     7
100
AcDbEllipse
 10
0.0
 20
-92.356805
 30
0.0
 11
-48.048169288076963
 21
27.749077397704212
 31
0.0
210
0.0
220
0.0
230
1.0
 40
0.015115
 41
1.46590241525492
 42
1.511836075923692
  0
LINE
  5
3E5
100
AcDbEntity
  8
0
390
0
  6
Continuous
 62
     7
100
AcDbLine
 10
23.907927
 20
-93.325748
 30
0.0
 11
23.5
 21
-93.090232
 31
0.0
  0
LINE
  5
3E6
100
AcDbEntity
  8
0
390
0
  6
Continuous
 62
     7
100
AcDbLine
 10
26.0
 20
-92.143526
 30
0.0
 11
26.0
 21
-91.646856
 31
0.0
  0
ELLIPSE
  5
3E7
100
AcDbEntity
  8
0
390
0
  6
Continuous
 62
     7
100
AcDbEllipse
 10
0.0
 20
-107.96907
 30
0.0
 11
48.048169288076927
 21
27.749077397704188
 31
0.0
210
0.0
220
0.0
230
1.0
 40
0.015115
 41
0.9903188416120606
 42
1.0412793829905398
  0
LINE
  5
3E8
100
AcDbEntity
  8
0
390
0
  6
Continuous
 62
     7
100
AcDbLine
 10
-28.046168
 20
-93.352251
 30
0.0
 11
-27.998214
 21
-93.324565
 31
0.0
  0
LINE
  5
3E9
100
AcDbEntity
  8
0
390
0
  6
Continuous
 62
     7
100
AcDbLine
 10
-28.046168
 20
-93.352251
 30
0.0
 11
-28.5
 21
-93.090232
 31
0.0
  0
LINE
  5
3EA
100
AcDbEntity
  8
0
390
0
  6
Continuous
 62
     7
100
AcDbLine
 10
-26.0
 20
-92.143526
 30
0.0
 11
-26.0
 21
-91.646856
 31
0.0
  0
ELLIPSE
  5
3EB
100
AcDbEntity
  8
0
390
0
  6
Continuous
 62
     7
100
AcDbEllipse
 10
0.0
 20
-77.946856
 30
0.0
 11
48.048169288076927
 21
27.749077397704159
 31
0.0
210
0.0
220
0.0
230
0.9999999999999999
 40
0.015115
 41
2.1338152012609712
 42
2.1841007453532195
  0
LINE
  5
3EC
100
AcDbEntity
  8
0
390
0
  6
Continuous
 62
     7
100
AcDbLine
 10
-13.0
 20
-92.025616
 30
0.0
 11
-13.0
 21
-91.646856
 31
0.0
  0
LINE
  5
3ED
100
AcDbEntity
  8
0
390
0
  6
Continuous
 62
     7
100
AcDbLine
 10
-10.81827
 20
-93.273985
 30
0.0
 11
-10.5
 21
-93.090232
 31
0.0
  0
ELLIPSE
  5
3EE
100
AcDbEntity
  8
0
390
0
  6
Continuous
 62
     7
100
AcDbEllipse
 10
0.0
 20
-100.463516
 30
0.0
 11
-48.048169288076963
 21
27.749077397704212
 31
0.0
210
0.0
220
0.0
230
1.0
 40
0.015115
 41
4.9482112696450535
 42
4.9950841450238821
  0
LINE
  5
3EF
100
AcDbEntity
  8
0
390
0
  6
Continuous
 62
     7
100
AcDbLine
 10
19.5
 20
-92.072834
 30
0.0
 11
19.5
 21
-91.646856
 31
0.0
  0
LINE
  5
3F0
100
AcDbEntity
  8
0
390
0
  6
Continuous
 62
     7
100
AcDbLine
 10
21.613623
 20
-93.313306
 30
0.0
 11
22.0
 21
-93.090232
 31
0.0
  0
ELLIPSE
  5
3F1
100
AcDbEntity
  8
0
390
0
  6
Continuous
 62
     7
100
AcDbEllipse
 10
0.0
 20
-81.699633
 30
0.0
 11
-48.048169288076963
 21
27.749077397704212
 31
0.0
210
0.0
220
0.0
230
1.0
 40
0.015115
 41
4.2545598035795553
 42
4.3032344850667723
  0
LINE
  5
3F2
100
AcDbEntity
  8
0
390
0
  6
Continuous
 62
     7
100
AcDbLine
 10
-23.907927
 20
-93.325748
 30
0.0
 11
-23.5
 21
-93.090232
 31
0.0
  0
ELLIPSE
  5
3F3
100
AcDbEntity
  8
0
390
0
  6
Continuous
 62
     7
100
AcDbEllipse
 10
0.0
 20
-107.96907
 30
0.0
 11
-48.048169288076956
 21
27.749077397704241
 31
0.0
210
0.0
220
0.0
230
1.0
 40
0.015115
 41
5.2419059241890453
 42
5.2928664655675259
  0
LINE
  5
3F4
100
AcDbEntity
  8
0
390
0
  6
Continuous
 62
     7
100
AcDbLine
 10
-21.613623
 20
-93.313306
 30
0.0
 11
-22.0
 21
-93.090232
 31
0.0
  0
LINE
  5
3F5
100
AcDbEntity
  8
0
390
0
  6
Continuous
 62
     7
100
AcDbLine
 10
-19.5
 20
-92.072834
 30
0.0
 11
-19.5
 21
-91.646856
 31
0.0
  0
ELLIPSE
  5
3F6
100
AcDbEntity
  8
0
390
0
  6
Continuous
 62
     7
100
AcDbEllipse
 10
0.0
 20
-81.699633
 30
0.0
 11
48.048169288076927
 21
27.749077397704159
 31
0.0
210
0.0
220
0.0
230
0.9999999999999999
 40
0.015115
 41
1.9799508221128137
 42
2.0286255036000314
  0
LINE
  5
3F7
100
AcDbEntity
  8
0
390
0
  6
Continuous
 62
     7
100
AcDbLine
 10
28.046168
 20
-93.352251
 30
0.0
 11
28.5
 21
-93.090232
 31
0.0
  0
LINE
  5
3F8
100
AcDbEntity
  8
0
390
0
  6
Continuous
 62
     7
100
AcDbLine
 10
27.998214
 20
-93.324565
 30
0.0
 11
28.046168
 21
-93.352251
 31
0.0
  0
ELLIPSE
  5
3F9
100
AcDbEntity
  8
0
390
0
  6
Continuous
 62
     7
100
AcDbEllipse
 10
0.0
 20
-77.946856
 30
0.0
 11
-48.048169288076963
 21
27.749077397704212
 31
0.0
210
0.0
220
0.0
230
1.0
 40
0.015115
 41
4.0990845618263672
 42
4.1493701059186154
  0
LINE
  5
3FA
100
AcDbEntity
  8
0
390
0
  6
Continuous
 62
     7
100
AcDbLine
 10
4.300101
 20
-93.263495
 30
0.0
 11
4.0
 21
-93.090232
 31
0.0
  0
LINE
  5
3FB
100
AcDbEntity
  8
0
390
0
  6
Continuous
 62
     7
100
AcDbLine
 10
6.5
 20
-91.998399
 30
0.0
 11
6.5
 21
-91.646856
 31
0.0
  0
ELLIPSE
  5
3FC
100
AcDbEntity
  8
0
390
0
  6
Continuous
 62
     7
100
AcDbEllipse
 10
0.0
 20
-96.71074
 30
0.0
 11
48.048169288076927
 21
27.749077397704188
 31
0.0
210
0.0
220
0.0
230
1.0
 40
0.015115
 41
1.4263752515780959
 42
1.4724549082959142
  0
LINE
  5
3FD
100
AcDbEntity
  8
0
390
0
  6
Continuous
 62
     7
100
AcDbLine
 10
17.353343
 20
-93.294235
 30
0.0
 11
17.0
 21
-93.090232
 31
0.0
  0
ELLIPSE
  5
3FE
100
AcDbEntity
  8
0
390
0
  6
Continuous
 62
     7
100
AcDbEllipse
 10
0.0
 20
-104.216293
 30
0.0
 11
48.048169288076927
 21
27.749077397704188
 31
0.0
210
0.0
220
0.0
230
1.0
 40
0.015115
 41
1.1441832207602178
 42
1.19256426856554
  0
LINE
  5
3FF
100
AcDbEntity
  8
0
390
0
  6
Continuous
 62
     7
100
AcDbLine
 10
-15.160423
 20
-93.286286
 30
0.0
 11
-15.5
 21
-93.090232
 31
0.0
  0
ELLIPSE
  5
400
100
AcDbEntity
  8
0
390
0
  6
Continuous
 62
     7
100
AcDbEllipse
 10
0.0
 20
-85.452409
 30
0.0
 11
48.048169288076927
 21
27.749077397704159
 31
0.0
210
0.0
220
0.0
230
0.9999999999999999
 40
0.015115
 41
1.8360328807173274
 42
1.8830647574150889
  0
LINE
  5
401
100
AcDbEntity
  8
0
390
0
  6
Continuous
 62
     7
100
AcDbLine
 10
32.5
 20
-92.170896
 30
0.0
 11
30.453832
 21
-93.352251
 31
0.0
  0
LINE
  5
402
100
AcDbEntity
  8
0
390
0
  6
Continuous
 62
     7
100
AcDbLine
 10
30.453832
 20
-93.352251
 30
0.0
 11
30.0
 21
-93.090232
 31
0.0
  0
LINE
  5
403
100
AcDbEntity
  8
0
390
0
  6
Continuous
 62
     7
100
AcDbLine
 10
32.5
 20
-92.170896
 30
0.0
 11
32.5
 21
-91.646856
 31
0.0
  0
LINE
  5
404
100
AcDbEntity
  8
0
390
0
  6
Continuous
 62
     7
100
AcDbLine
 10
-6.5
 20
-91.998399
 30
0.0
 11
-6.5
 21
-91.646856
 31
0.0
  0
LINE
  5
405
100
AcDbEntity
  8
0
390
0
  6
Continuous
 62
     7
100
AcDbLine
 10
-4.300102
 20
-93.263495
 30
0.0
 11
-4.0
 21
-93.090232
 31
0.0
  0
ELLIPSE
  5
406
100
AcDbEntity
  8
0
390
0
  6
Continuous
 62
     7
100
AcDbEllipse
 10
0.0
 20
-96.71074
 30
0.0
 11
-48.048169288076956
 21
27.749077397704241
 31
0.0
210
0.0
220
0.0
230
1.0
 40
0.015115
 41
4.8107303988836723
 42
4.8568100556014908
  0
LINE
  5
407
100
AcDbEntity
  8
0
390
0
  6
Continuous
 62
     7
100
AcDbLine
 10
-17.353344
 20
-93.294235
 30
0.0
 11
-17.0
 21
-93.090232
 31
0.0
  0
ELLIPSE
  5
408
100
AcDbEntity
  8
0
390
0
  6
Continuous
 62
     7
100
AcDbEllipse
 10
0.0
 20
-104.216293
 30
0.0
 11
-48.048169288076956
 21
27.749077397704241
 31
0.0
210
0.0
220
0.0
230
1.0
 40
0.015115
 41
5.0906210386140467
 42
5.1390020864193673
  0
LINE
  5
409
100
AcDbEntity
  8
0
390
0
  6
Continuous
 62
     7
100
AcDbLine
 10
13.0
 20
-92.025616
 30
0.0
 11
13.0
 21
-91.646856
 31
0.0
  0
LINE
  5
40A
100
AcDbEntity
  8
0
390
0
  6
Continuous
 62
     7
100
AcDbLine
 10
15.160423
 20
-93.286286
 30
0.0
 11
15.5
 21
-93.090232
 31
0.0
  0
ELLIPSE
  5
40B
100
AcDbEntity
  8
0
390
0
  6
Continuous
 62
     7
100
AcDbEllipse
 10
0.0
 20
-85.452409
 30
0.0
 11
-48.048169288076963
 21
27.749077397704212
 31
0.0
210
0.0
220
0.0
230
1.0
 40
0.015115
 41
4.4001205497644973
 42
4.4471524264622593
  0
LINE
  5
40C
100
AcDbEntity
  8
0
390
0
  6
Continuous
 62
     7
100
AcDbLine
 10
-8.689435
 20
-93.269536
 30
0.0
 11
-9.0
 21
-93.090232
 31
0.0
  0
ELLIPSE
  5
40D
100
AcDbEntity
  8
0
390
0
  6
Continuous
 62
     7
100
AcDbEllipse
 10
0.0
 20
-89.205186
 30
0.0
 11
48.048169288076927
 21
27.749077397704159
 31
0.0
210
0.0
220
0.0
230
0.9999999999999999
 40
0.015115
 41
1.6977587912949352
 42
1.74390903965619
  0
LINE
  5
40E
100
AcDbEntity
  8
0
390
0
  6
Continuous
 62
     7
100
AcDbLine
 10
34.546168
 20
-93.352251
 30
0.0
 11
32.5
 21
-92.170896
 31
0.0
  0
LINE
  5
40F
100
AcDbEntity
  8
0
390
0
  6
Continuous
 62
     7
100
AcDbLine
 10
34.546168
 20
-93.352251
 30
0.0
 11
35.0
 21
-93.090232
 31
0.0
  0
LINE
  5
410
100
AcDbEntity
  8
0
390
0
  6
Continuous
 62
     7
100
AcDbLine
 10
10.81827
 20
-93.273985
 30
0.0
 11
10.5
 21
-93.090232
 31
0.0
  0
ELLIPSE
  5
411
100
AcDbEntity
  8
0
390
0
  6
Continuous
 62
     7
100
AcDbEllipse
 10
0.0
 20
-100.463516
 30
0.0
 11
48.048169288076927
 21
27.749077397704159
 31
0.0
210
0.0
220
0.0
230
0.9999999999999999
 40
0.015115
 41
1.2881011621557046
 42
1.334974037534532
  0
LINE
  5
412
100
AcDbEntity
  8
0
390
0
  6
Continuous
 62
     7
100
AcDbLine
 10
-2.202383
 20
-93.262061
 30
0.0
 11
-2.5
 21
-93.090232
 31
0.0
  0
LINE
  5
413
100
AcDbEntity
  8
0
390
0
  6
Continuous
 62
     7
100
AcDbLine
 10
0.0
 20
-91.989497
 30
0.0
 11
0.0
 21
-91.646856
 31
0.0
  0
ELLIPSE
  5
414
100
AcDbEntity
  8
0
390
0
  6
Continuous
 62
     7
100
AcDbEllipse
 10
0.0
 20
-92.957963
 30
0.0
 11
48.048169288076927
 21
27.749077397704159
 31
0.0
210
0.0
220
0.0
230
0.9999999999999999
 40
0.015115
 41
1.562067021436516
 42
1.6079183075921035
  0
LINE
  5
415
100
AcDbEntity
  8
0
390
0
  6
Continuous
 62
     7
100
AcDbLine
 10
8.689435
 20
-93.269536
 30
0.0
 11
9.0
 21
-93.090232
 31
0.0
  0
ELLIPSE
  5
416
100
AcDbEntity
  8
0
390
0
  6
Continuous
 62
     7
100
AcDbEllipse
 10
0.0
 20
-89.205186
 30
0.0
 11
-48.048169288076963
 21
27.749077397704212
 31
0.0
210
0.0
220
0.0
230
1.0
 40
0.015115
 41
4.5392762675233964
 42
4.5854265158846514
  0
LINE
  5
417
100
AcDbEntity
  8
0
390
0
  6
Continuous
 62
     7
100
AcDbLine
 10
2.202382
 20
-93.262061
 30
0.0
 11
2.5
 21
-93.090232
 31
0.0
  0
ELLIPSE
  5
418
100
AcDbEntity
  8
0
390
0
  6
Continuous
 62
     7
100
AcDbEllipse
 10
0.0
 20
-92.957963
 30
0.0
 11
-48.048169288076963
 21
27.749077397704212
 31
0.0
210
0.0
220
0.0
230
1.0
 40
0.015115
 41
4.6752669995874827
 42
4.7211182857430707
  0
LINE
  5
419
100
AcDbEntity
  8
0
390
0
  6
Continuous
 62
     7
100
AcDbLine
 10
-32.5
 20
-92.170896
 30
0.0
 11
-34.546168
 21
-93.352251
 31
0.0
  0
LINE
  5
41A
100
AcDbEntity
  8
0
390
0
  6
Continuous
 62
     7
100
AcDbLine
 10
-34.546168
 20
-93.352251
 30
0.0
 11
-35.0
 21
-93.090232
 31
0.0
  0
LINE
  5
41B
100
AcDbEntity
  8
0
390
0
  6
Continuous
 62
     7
100
AcDbLine
 10
-32.5
 20
-92.170896
 30
0.0
 11
-32.5
 21
-91.646856
 31
0.0
  0
LINE
  5
41C
100
AcDbEntity
  8
0
390
0
  6
Continuous
 62
     7
100
AcDbLine
 10
-30.453832
 20
-93.352251
 30
0.0
 11
-32.5
 21
-92.170896
 31
0.0
  0
LINE
  5
41D
100
AcDbEntity
  8
0
390
0
  6
Continuous
 62
     7
100
AcDbLine
 10
-30.453832
 20
-93.352251
 30
0.0
 11
-30.0
 21
-93.090232
 31
0.0
  0
LINE
  5
41E
100
AcDbEntity
  8
0
390
0
  6
Continuous
 62
     7
100
AcDbLine
 10
-28.046168
 20
-93.775607
 30
0.0
 11
-28.046168
 21
-93.352251
 31
0.0
  0
LINE
  5
41F
100
AcDbEntity
  8
0
390
0
  6
Continuous
 62
     7
100
AcDbLine
 10
28.046168
 20
-93.352251
 30
0.0
 11
28.046168
 21
-93.775607
 31
0.0
  0
LINE
  5
420
100
AcDbEntity
  8
0
390
0
  6
Continuous
 62
     7
100
AcDbLine
 10
34.546168
 20
-93.775607
 30
0.0
 11
34.546168
 21
-93.352251
 31
0.0
  0
LINE
  5
421
100
AcDbEntity
  8
0
390
0
  6
Continuous
 62
     7
100
AcDbLine
 10
2.202382
 20
-93.262061
 30
0.0
 11
2.202382
 21
-93.775607
 31
0.0
  0
LINE
  5
422
100
AcDbEntity
  8
0
390
0
  6
Continuous
 62
     7
100
AcDbLine
 10
-17.353344
 20
-93.294235
 30
0.0
 11
-17.353344
 21
-93.775607
 31
0.0
  0
LINE
  5
423
100
AcDbEntity
  8
0
390
0
  6
Continuous
 62
     7
100
AcDbLine
 10
17.353343
 20
-93.775607
 30
0.0
 11
17.353343
 21
-93.294235
 31
0.0
  0
LINE
  5
424
100
AcDbEntity
  8
0
390
0
  6
Continuous
 62
     7
100
AcDbLine
 10
-2.202383
 20
-93.775607
 30
0.0
 11
-2.202383
 21
-93.262061
 31
0.0
  0
LINE
  5
425
100
AcDbEntity
  8
0
390
0
  6
Continuous
 62
     7
100
AcDbLine
 10
15.160423
 20
-93.286286
 30
0.0
 11
15.160423
 21
-93.775607
 31
0.0
  0
LINE
  5
426
100
AcDbEntity
  8
0
390
0
  6
Continuous
 62
     7
100
AcDbLine
 10
8.689435
 20
-93.269536
 30
0.0
 11
8.689435
 21
-93.775607
 31
0.0
  0
LINE
  5
427
100
AcDbEntity
  8
0
390
0
  6
Continuous
 62
     7
100
AcDbLine
 10
-15.160423
 20
-93.775607
 30
0.0
 11
-15.160423
 21
-93.286286
 31
0.0
  0
LINE
  5
428
100
AcDbEntity
  8
0
390
0
  6
Continuous
 62
     7
100
AcDbLine
 10
-23.907927
 20
-93.325748
 30
0.0
 11
-23.907927
 21
-93.775607
 31
0.0
  0
LINE
  5
429
100
AcDbEntity
  8
0
390
0
  6
Continuous
 62
     7
100
AcDbLine
 10
-8.689435
 20
-93.775607
 30
0.0
 11
-8.689435
 21
-93.269536
 31
0.0
  0
LINE
  5
42A
100
AcDbEntity
  8
0
390
0
  6
Continuous
 62
     7
100
AcDbLine
 10
10.81827
 20
-93.775607
 30
0.0
 11
10.81827
 21
-93.273985
 31
0.0
  0
LINE
  5
42B
100
AcDbEntity
  8
0
390
0
  6
Continuous
 62
     7
100
AcDbLine
 10
30.453832
 20
-93.352251
 30
0.0
 11
30.453832
 21
-93.775607
 31
0.0
  0
LINE
  5
42C
100
AcDbEntity
  8
0
390
0
  6
Continuous
 62
     7
100
AcDbLine
 10
21.613623
 20
-93.313306
 30
0.0
 11
21.613623
 21
-93.775607
 31
0.0
  0
LINE
  5
42D
100
AcDbEntity
  8
0
390
0
  6
Continuous
 62
     7
100
AcDbLine
 10
-21.613623
 20
-93.775607
 30
0.0
 11
-21.613623
 21
-93.313306
 31
0.0
  0
LINE
  5
42E
100
AcDbEntity
  8
0
390
0
  6
Continuous
 62
     7
100
AcDbLine
 10
-10.81827
 20
-93.273985
 30
0.0
 11
-10.81827
 21
-93.775607
 31
0.0
  0
LINE
  5
42F
100
AcDbEntity
  8
0
390
0
  6
Continuous
 62
     7
100
AcDbLine
 10
-4.300102
 20
-93.263495
 30
0.0
 11
-4.300102
 21
-93.775607
 31
0.0
  0
LINE
  5
430
100
AcDbEntity
  8
0
390
0
  6
Continuous
 62
     7
100
AcDbLine
 10
-34.546168
 20
-93.352251
 30
0.0
 11
-34.546168
 21
-93.775607
 31
0.0
  0
LINE
  5
431
100
AcDbEntity
  8
0
390
0
  6
Continuous
 62
     7
100
AcDbLine
 10
-30.453832
 20
-93.775607
 30
0.0
 11
-30.453832
 21
-93.352251
 31
0.0
  0
LINE
  5
432
100
AcDbEntity
  8
0
390
0
  6
Continuous
 62
     7
100
AcDbLine
 10
4.300101
 20
-93.775607
 30
0.0
 11
4.300101
 21
-93.263495
 31
0.0
  0
LINE
  5
433
100
AcDbEntity
  8
0
390
0
  6
Continuous
 62
     7
100
AcDbLine
 10
23.907927
 20
-93.775607
 30
0.0
 11
23.907927
 21
-93.325748
 31
0.0
  0
LINE
  5
434
100
AcDbEntity
  8
0
390
0
  6
Continuous
 62
     7
100
AcDbLine
 10
-4.049501
 20
-70.575607
 30
0.0
 11
-2.819519
 21
-70.575607
 31
0.0
  0
LINE
  5
435
100
AcDbEntity
  8
0
390
0
  6
Continuous
 62
     7
100
AcDbLine
 10
-2.819519
 20
-70.575607
 30
0.0
 11
-2.819519
 21
-70.775607
 31
0.0
  0
LINE
  5
436
100
AcDbEntity
  8
0
390
0
  6
Continuous
 62
     7
100
AcDbLine
 10
-1.657622
 20
-70.575607
 30
0.0
 11
-0.821505
 21
-70.575607
 31
0.0
  0
LINE
  5
437
100
AcDbEntity
  8
0
390
0
  6
Continuous
 62
     7
100
AcDbLine
 10
-0.821505
 20
-70.575607
 30
0.0
 11
-0.821505
 21
-70.775607
 31
0.0
  0
LINE
  5
438
100
AcDbEntity
  8
0
390
0
  6
Continuous
 62
     7
100
AcDbLine
 10
2.404897
 20
-70.575607
 30
0.0
 11
2.404897
 21
-70.775607
 31
0.0
  0
LINE
  5
439
100
AcDbEntity
  8
0
390
0
  6
Continuous
 62
     7
100
AcDbLine
 10
2.404897
 20
-70.575607
 30
0.0
 11
3.240983
 21
-70.575607
 31
0.0
  0
LINE
  5
43A
100
AcDbEntity
  8
0
390
0
  6
Continuous
 62
     7
100
AcDbLine
 10
4.819075
 20
-70.575607
 30
0.0
 11
4.819075
 21
-70.775607
 31
0.0
  0
LINE
  5
43B
100
AcDbEntity
  8
0
390
0
  6
Continuous
 62
     7
100
AcDbLine
 10
4.819075
 20
-70.575607
 30
0.0
 11
6.319075
 21
-70.575607
 31
0.0
  0
LINE
  5
43C
100
AcDbEntity
  8
0
390
0
  6
Continuous
 62
     7
100
AcDbLine
 10
6.319075
 20
-70.575607
 30
0.0
 11
6.319075
 21
-70.775607
 31
0.0
  0
LINE
  5
43D
100
AcDbEntity
  8
0
390
0
  6
Continuous
 62
     7
100
AcDbLine
 10
-5.191999
 20
-70.575607
 30
0.0
 11
-5.191999
 21
-70.775607
 31
0.0
  0
LINE
  5
43E
100
AcDbEntity
  8
0
390
0
  6
Continuous
 62
     7
100
AcDbLine
 10
-4.772085
 20
-70.575607
 30
0.0
 11
-4.772085
 21
-70.775607
 31
0.0
  0
LINE
  5
43F
100
AcDbEntity
  8
0
390
0
  6
Continuous
 62
     7
100
AcDbLine
 10
-5.191999
 20
-70.575607
 30
0.0
 11
-4.772085
 21
-70.575607
 31
0.0
  0
LINE
  5
440
100
AcDbEntity
  8
0
390
0
  6
Continuous
 62
     7
100
AcDbLine
 10
-2.819519
 20
-70.575607
 30
0.0
 11
-1.657622
 21
-70.575607
 31
0.0
  0
LINE
  5
441
100
AcDbEntity
  8
0
390
0
  6
Continuous
 62
     7
100
AcDbLine
 10
-1.657622
 20
-70.575607
 30
0.0
 11
-1.657622
 21
-70.775607
 31
0.0
  0
LINE
  5
442
100
AcDbEntity
  8
0
390
0
  6
Continuous
 62
     7
100
AcDbLine
 10
-6.35364
 20
-70.575607
 30
0.0
 11
-5.191999
 21
-70.575607
 31
0.0
  0
LINE
  5
443
100
AcDbEntity
  8
0
390
0
  6
Continuous
 62
     7
100
AcDbLine
 10
-6.35364
 20
-70.575607
 30
0.0
 11
-6.35364
 21
-70.775607
 31
0.0
  0
LINE
  5
444
100
AcDbEntity
  8
0
390
0
  6
Continuous
 62
     7
100
AcDbLine
 10
-0.821505
 20
-70.575607
 30
0.0
 11
0.340474
 21
-70.575607
 31
0.0
  0
LINE
  5
445
100
AcDbEntity
  8
0
390
0
  6
Continuous
 62
     7
100
AcDbLine
 10
0.340474
 20
-70.575607
 30
0.0
 11
0.340474
 21
-70.775607
 31
0.0
  0
LINE
  5
446
100
AcDbEntity
  8
0
390
0
  6
Continuous
 62
     7
100
AcDbLine
 10
3.240983
 20
-70.575607
 30
0.0
 11
3.240983
 21
-70.775607
 31
0.0
  0
LINE
  5
447
100
AcDbEntity
  8
0
390
0
  6
Continuous
 62
     7
100
AcDbLine
 10
3.240983
 20
-70.575607
 30
0.0
 11
4.819075
 21
-70.575607
 31
0.0
  0
LINE
  5
448
100
AcDbEntity
  8
0
390
0
  6
Continuous
 62
     7
100
AcDbLine
 10
1.176561
 20
-70.575607
 30
0.0
 11
1.176561
 21
-70.775607
 31
0.0
  0
LINE
  5
449
100
AcDbEntity
  8
0
390
0
  6
Continuous
 62
     7
100
AcDbLine
 10
0.340474
 20
-70.575607
 30
0.0
 11
1.176561
 21
-70.575607
 31
0.0
  0
LINE
  5
44A
100
AcDbEntity
  8
0
390
0
  6
Continuous
 62
     7
100
AcDbLine
 10
1.176561
 20
-70.575607
 30
0.0
 11
2.404897
 21
-70.575607
 31
0.0
  0
LINE
  5
44B
100
AcDbEntity
  8
0
390
0
  6
Continuous
 62
     7
100
AcDbLine
 10
-4.049501
 20
-70.575607
 30
0.0
 11
-4.049501
 21
-70.775607
 31
0.0
  0
LINE
  5
44C
100
AcDbEntity
  8
0
390
0
  6
Continuous
 62
     7
100
AcDbLine
 10
-4.772085
 20
-70.575607
 30
0.0
 11
-4.049501
 21
-70.575607
 31
0.0
  0
LINE
  5
44D
100
AcDbEntity
  8
0
390
0
  6
Continuous
 62
     7
100
AcDbLine
 10
-27.998214
 20
-84.484649
 30
0.0
 11
-27.998214
 21
-82.066565
 31
0.0
  0
LINE
  5
44E
100
AcDbEntity
  8
0
390
0
  6
Continuous
 62
     7
100
AcDbLine
 10
-27.998214
 20
-93.775607
 30
0.0
 11
-27.998214
 21
-93.324565
 31
0.0
  0
LINE
  5
44F
100
AcDbEntity
  8
0
390
0
  6
Continuous
 62
     7
100
AcDbLine
 10
-27.998214
 20
-73.226649
 30
0.0
 11
-27.998214
 21
-72.775607
 31
0.0
  0
LINE
  5
450
100
AcDbEntity
  8
0
390
0
  6
Continuous
 62
     7
100
AcDbLine
 10
27.998214
 20
-84.484649
 30
0.0
 11
27.998214
 21
-82.066565
 31
0.0
  0
LINE
  5
451
100
AcDbEntity
  8
0
390
0
  6
Continuous
 62
     7
100
AcDbLine
 10
27.998214
 20
-93.775607
 30
0.0
 11
27.998214
 21
-93.324565
 31
0.0
  0
LINE
  5
452
100
AcDbEntity
  8
0
390
0
  6
Continuous
 62
     7
100
AcDbLine
 10
27.998214
 20
-73.226649
 30
0.0
 11
27.998214
 21
-72.775607
 31
0.0
  0
LINE
  5
453
100
AcDbEntity
  8
0
390
0
  6
Continuous
 62
     7
100
AcDbLine
 10
-27.998214
 20
-90.544765
 30
0.0
 11
-27.998214
 21
-87.26478
 31
0.0
  0
LINE
  5
454
100
AcDbEntity
  8
0
390
0
  6
Continuous
 62
     7
100
AcDbLine
 10
-27.998214
 20
-79.286435
 30
0.0
 11
-27.998214
 21
-76.006449
 31
0.0
  0
LINE
  5
455
100
AcDbEntity
  8
0
390
0
  6
Continuous
 62
     7
100
AcDbLine
 10
27.998214
 20
-90.544765
 30
0.0
 11
27.998214
 21
-87.26478
 31
0.0
  0
LINE
  5
456
100
AcDbEntity
  8
0
390
0
  6
Continuous
 62
     7
100
AcDbLine
 10
27.998214
 20
-79.286435
 30
0.0
 11
27.998214
 21
-76.006449
 31
0.0
  0
POINT
  5
457
100
AcDbEntity
  8
0
390
0
 62
     7
100
AcDbPoint
 10
0.0
 20
0.0
 30
0.0
  0
ENDSEC
  0
SECTION
  2
OBJECTS
  0
DICTIONARY
  5
19
100
AcDbDictionary
280
     0
281
     1
  3
ACAD_GROUP
350
1A
  3
ACAD_MLINESTYLE
350
1B
  3
ACAD_LAYOUT
350
1E
  3
ACAD_PLOTSETTINGS
350
22
  3
ACAD_PLOTSTYLENAME
350
1F
  3
ACAD_WIPEOUT_VARS
350
23
  0
DICTIONARY
  5
1A
102
{ACAD_REACTORS
330
19
102
}
100
AcDbDictionary
280
     0
281
     1
  0
DICTIONARY
  5
1B
102
{ACAD_REACTORS
330
19
102
}
100
AcDbDictionary
280
     0
281
     1
  3
Standard
350
1C
  0
MLINESTYLE
  5
1C
102
{ACAD_REACTORS
330
1B
102
}
100
AcDbMlineStyle
  2
Standard
 70
     0
  3

 62
     0
 51
90.0
 52
90.0
 71
     2
 49
0.5
 62
   256
  6
ByLayer
 49
-0.5
 62
   256
  6
ByLayer
  0
ACDBDICTIONARYWDFLT
  5
1F
102
{ACAD_REACTORS
330
19
102
}
100
AcDbDictionary
281
     1
  3
Normal
350
1D
100
AcDbDictionaryWithDefault
340
1D
  0
ACDBPLACEHOLDER
  5
1D
102
{ACAD_REACTORS
330
1F
102
}
  0
LAYOUT
  5
20
102
{ACAD_REACTORS
330
1E
102
}
100
AcDbPlotSettings
  1

  2

  4

  6

 40
0.0
 41
0.0
 42
0.0
 43
0.0
 44
0.0
 45
0.0
 46
0.0
 47
0.0
 48
0.0
 49
0.0
140
0.0
141
0.0
142
1.0
143
1.0
 70
  1024
 72
     0
 73
     0
 74
     0
  7

 75
     0
147
1.0
148
0.0
149
0.0
100
AcDbLayout
  1
Model
 70
     0
 71
     1
 10
0.0
 20
0.0
 11
0.0
 21
0.0
 12
0.0
 22
0.0
 32
0.0
 14
0.0
 24
0.0
 34
0.0
 15
0.0
 25
0.0
 35
0.0
146
0.0
 13
0.0
 23
0.0
 33
0.0
 16
0.0
 26
0.0
 36
0.0
 17
0.0
 27
0.0
 37
0.0
 76
     0
330
A
331
0
345
0
346
0
  0
LAYOUT
  5
21
102
{ACAD_REACTORS
330
1E
102
}
100
AcDbPlotSettings
  1

  2

  4

  6

 40
0.0
 41
0.0
 42
0.0
 43
0.0
 44
0.0
 45
0.0
 46
0.0
 47
0.0
 48
0.0
 49
0.0
140
0.0
141
0.0
142
1.0
143
1.0
 70
     0
 72
     0
 73
     0
 74
     0
  7

 75
     0
147
1.0
148
0.0
149
0.0
100
AcDbLayout
  1
Layout1
 70
     0
 71
     2
 10
0.0
 20
0.0
 11
0.0
 21
0.0
 12
0.0
 22
0.0
 32
0.0
 14
0.0
 24
0.0
 34
0.0
 15
0.0
 25
0.0
 35
0.0
146
0.0
 13
0.0
 23
0.0
 33
0.0
 16
0.0
 26
0.0
 36
0.0
 17
0.0
 27
0.0
 37
0.0
 76
     0
330
B
331
0
345
0
346
0
  0
DICTIONARY
  5
1E
102
{ACAD_REACTORS
330
19
102
}
100
AcDbDictionary
280
     0
281
     1
  3
Layout1
350
21
  3
Model
350
20
  0
DICTIONARY
  5
22
102
{ACAD_REACTORS
330
19
102
}
100
AcDbDictionary
280
     0
281
     1
  0
WIPEOUTVARIABLES
  5
23
100
AcDbWipeoutVariables
 70
     1
  0
ENDSEC
  0
EOF
