  0
SECTION
  2
HEADER
  9
$ACADVER
  1
AC1015
  9
$ACADMAINTVER
 70
     6
  9
$DWGCODEPAGE
  3
DOS932
  9
$INSBASE
 10
0.0
 20
0.0
 30
0.0
  9
$EXTMIN
 10
-34.0
 20
-79.543521
 30
0.0
  9
$EXTMAX
 10
344.059595
 20
263.913919
 30
9.906
  9
$LIMMIN
 10
-34.0
 20
-79.543521
  9
$LIMMAX
 10
344.059595
 20
263.913919
  9
$ORTHOMODE
 70
     0
  9
$REGENMODE
 70
     1
  9
$FILLMODE
 70
     1
  9
$QTEXTMODE
 70
     0
  9
$MIRRTEXT
 70
     1
  9
$LTSCALE
 40
10.0
  9
$ATTMODE
 70
     1
  9
$TEXTSIZE
 40
0.2
  9
$TRACEWID
 40
0.05
  9
$TEXTSTYLE
  7
Standard
  9
$CLAYER
  8
0
  9
$CELTYPE
  6
Continuous
  9
$CECOLOR
 62
   256
  9
$CELTSCALE
 40
1.0
  9
$DISPSILH
 70
     0
  9
$DIMSCALE
 40
1.0
  9
$DIMASZ
 40
1.40208
  9
$DIMEXO
 40
1.40208
  9
$DIMDLI
 40
0.38
  9
$DIMRND
 40
0.0
  9
$DIMDLE
 40
0.0
  9
$DIMEXE
 40
1.05156
  9
$DIMTP
 40
0.0
  9
$DIMTM
 40
0.0
  9
$DIMTXT
 40
3.5052
  9
$DIMCEN
 40
0.09
  9
$DIMTSZ
 40
0.0
  9
$DIMTOL
 70
     0
  9
$DIMLIM
 70
     0
  9
$DIMTIH
 70
     0
  9
$DIMTOH
 70
     0
  9
$DIMSE1
 70
     0
  9
$DIMSE2
 70
     0
  9
$DIMTAD
 70
     1
  9
$DIMZIN
 70
     0
  9
$DIMBLK
  1

  9
$DIMASO
 70
     1
  9
$DIMSHO
 70
     1
  9
$DIMPOST
  1

  9
$DIMAPOST
  1

  9
$DIMALT
 70
     0
  9
$DIMALTD
 70
     2
  9
$DIMALTF
 40
25.4
  9
$DIMLFAC
 40
1.0
  9
$DIMTOFL
 70
     0
  9
$DIMTVP
 40
0.0
  9
$DIMTIX
 70
     0
  9
$DIMSOXD
 70
     0
  9
$DIMSAH
 70
     0
  9
$DIMBLK1
  1

  9
$DIMBLK2
  1

  9
$DIMSTYLE
  2
Standard
  9
$DIMCLRD
 70
     7
  9
$DIMCLRE
 70
     7
  9
$DIMCLRT
 70
     7
  9
$DIMTFAC
 40
0.5
  9
$DIMGAP
 40
1.7526
  9
$DIMJUST
 70
     0
  9
$DIMSD1
 70
     0
  9
$DIMSD2
 70
     0
  9
$DIMTOLJ
 70
     1
  9
$DIMTZIN
 70
     0
  9
$DIMALTZ
 70
     0
  9
$DIMALTTZ
 70
     0
  9
$DIMUPT
 70
     0
  9
$DIMDEC
 70
     2
  9
$DIMTDEC
 70
     4
  9
$DIMALTU
 70
     2
  9
$DIMALTTD
 70
     2
  9
$DIMTXSTY
  7
Standard
  9
$DIMAUNIT
 70
     0
  9
$DIMADEC
 70
     0
  9
$DIMALTRND
 40
0.0
  9
$DIMAZIN
 70
     0
  9
$DIMDSEP
 70
     0
  9
$DIMATFIT
 70
     3
  9
$DIMFRAC
 70
     0
  9
$DIMLDRBLK
  1

  9
$DIMLUNIT
 70
     2
  9
$DIMLWD
 70
     0
  9
$DIMLWE
 70
     0
  9
$DIMTMOVE
 70
     0
  9
$LUNITS
 70
     2
  9
$LUPREC
 70
     4
  9
$SKETCHINC
 40
0.1
  9
$FILLETRAD
 40
0.0
  9
$AUNITS
 70
     0
  9
$AUPREC
 70
     0
  9
$MENU
  1
acad
  9
$ELEVATION
 40
0.0
  9
$PELEVATION
 40
0.0
  9
$THICKNESS
 40
0.0
  9
$LIMCHECK
 70
     0
  9
$CHAMFERA
 40
0.0
  9
$CHAMFERB
 40
0.0
  9
$CHAMFERC
 40
0.0
  9
$CHAMFERD
 40
0.0
  9
$SKPOLY
 70
     0
  9
$TDCREATE
 40
2459781.441493056
  9
$TDUCREATE
 40
0.000000000
  9
$TDUPDATE
 40
2459781.066400463
  9
$TDUUPDATE
 40
0.000000000
  9
$TDINDWG
 40
0.0000000000
  9
$TDUSRTIMER
 40
0.0000000000
  9
$USRTIMER
 70
     1
  9
$ANGBASE
 50
0.0
  9
$ANGDIR
 70
     0
  9
$PDMODE
 70
     0
  9
$PDSIZE
 40
0.0
  9
$PLINEWID
 40
0.0
  9
$SPLFRAME
 70
     0
  9
$SPLINETYPE
 70
     6
  9
$SPLINESEGS
 70
     8
  9
$HANDSEED
  5
3A6
  9
$SURFTAB1
 70
     6
  9
$SURFTAB2
 70
     6
  9
$SURFTYPE
 70
     6
  9
$SURFU
 70
     6
  9
$SURFV
 70
     6
  9
$UCSBASE
  2

  9
$UCSNAME
  2

  9
$UCSORG
 10
0.0
 20
0.0
 30
0.0
  9
$UCSXDIR
 10
1.0
 20
0.0
 30
0.0
  9
$UCSYDIR
 10
0.0
 20
1.0
 30
0.0
  9
$UCSORTHOREF
  2

  9
$UCSORTHOVIEW
 70
     0
  9
$UCSORGTOP
 10
0.0
 20
0.0
 30
0.0
  9
$UCSORGBOTTOM
 10
0.0
 20
0.0
 30
0.0
  9
$UCSORGLEFT
 10
0.0
 20
0.0
 30
0.0
  9
$UCSORGRIGHT
 10
0.0
 20
0.0
 30
0.0
  9
$UCSORGFRONT
 10
0.0
 20
0.0
 30
0.0
  9
$UCSORGBACK
 10
0.0
 20
0.0
 30
0.0
  9
$PUCSBASE
  2

  9
$PUCSNAME
  2

  9
$PUCSORG
 10
0.0
 20
0.0
 30
0.0
  9
$PUCSXDIR
 10
1.0
 20
0.0
 30
0.0
  9
$PUCSYDIR
 10
0.0
 20
1.0
 30
0.0
  9
$PUCSORTHOREF
  2

  9
$PUCSORTHOVIEW
 70
     0
  9
$PUCSORGTOP
 10
0.0
 20
0.0
 30
0.0
  9
$PUCSORGBOTTOM
 10
0.0
 20
0.0
 30
0.0
  9
$PUCSORGLEFT
 10
0.0
 20
0.0
 30
0.0
  9
$PUCSORGRIGHT
 10
0.0
 20
0.0
 30
0.0
  9
$PUCSORGFRONT
 10
0.0
 20
0.0
 30
0.0
  9
$PUCSORGBACK
 10
0.0
 20
0.0
 30
0.0
  9
$USERI1
 70
     0
  9
$USERI2
 70
     0
  9
$USERI3
 70
     0
  9
$USERI4
 70
     0
  9
$USERI5
 70
     0
  9
$USERR1
 40
0.0
  9
$USERR2
 40
0.0
  9
$USERR3
 40
0.0
  9
$USERR4
 40
0.0
  9
$USERR5
 40
0.0
  9
$WORLDVIEW
 70
     1
  9
$SHADEDGE
 70
     3
  9
$SHADEDIF
 70
    70
  9
$TILEMODE
 70
     1
  9
$MAXACTVP
 70
    16
  9
$PINSBASE
 10
0.0
 20
0.0
 30
0.0
  9
$PLIMCHECK
 70
     0
  9
$PEXTMIN
 10
1.000000E+20
 20
1.000000E+20
 30
1.000000E+20
  9
$PEXTMAX
 10
-1.000000E+20
 20
-1.000000E+20
 30
-1.000000E+20
  9
$PLIMMIN
 10
0.0
 20
0.0
  9
$PLIMMAX
 10
12.0
 20
9.0
  9
$UNITMODE
 70
     0
  9
$VISRETAIN
 70
     0
  9
$PLINEGEN
 70
     1
  9
$PSLTSCALE
 70
     0
  9
$TREEDEPTH
 70
  3020
  9
$CMLSTYLE
  2
Standard
  9
$CMLJUST
 70
     0
  9
$CMLSCALE
 40
1.0
  9
$PROXYGRAPHICS
 70
     0
  9
$MEASUREMENT
 70
     0
  9
$CELWEIGHT
370
     0
  9
$ENDCAPS
280
     0
  9
$JOINSTYLE
280
     0
  9
$LWDISPLAY
290
     0
  9
$INSUNITS
 70
     0
  9
$HYPERLINKBASE
  1

  9
$STYLESHEET
  1

  9
$XEDIT
290
     1
  9
$CEPSNTYPE
380
     0
  9
$PSTYLEMODE
290
     1
  9
$FINGERPRINTGUID
  2

  9
$VERSIONGUID
  2

  9
$EXTNAMES
290
     1
  9
$PSVPSCALE
 40
0.0
  0
ENDSEC
  0
SECTION
  2
CLASSES
  0
CLASS
  1
LWPOLYLINE
  2
AcDbPolyline
  3
AutoCAD 2000
 90
        0
280
     0
281
     1
  0
CLASS
  1
IMAGE
  2
AcDbRasterImage
  3
ISM
 90
      127
280
     0
281
     1
  0
CLASS
  1
OLE2FRAME
  2
AcDbOle2Frame
  3
AutoCAD 2000
 90
        0
280
     0
281
     1
  0
CLASS
  1
HATCH
  2
AcDbHatch
  3
AutoCAD 2000
 90
        0
280
     0
281
     1
  0
CLASS
  1
DICTIONARYVAR
  2
AcDbDictionaryVar
  3
AutoCAD 2000
 90
        0
280
     0
281
     0
  0
CLASS
  1
RASTERVARIABLES
  2
AcDbRasterVariables
  3
ISM
 90
        0
280
     0
281
     0
  0
CLASS
  1
IMAGEDEF
  2
AcDbRasterImageDef
  3
ISM
 90
        0
280
     0
281
     0
  0
CLASS
  1
IMAGEDEF_REACTOR
  2
AcDbRasterImageDefReactor
  3
ISM
 90
        1
280
     0
281
     0
  0
CLASS
  1
IDBUFFER
  2
AcDbIdBuffer
  3
AutoCAD 2000
 90
        0
280
     0
281
     0
  0
CLASS
  1
SPATIAL_FILTER
  2
AcDbSpatialFilter
  3
AutoCAD 2000
 90
        0
280
     0
281
     0
  0
CLASS
  1
XRECORD
  2
AcDbXrecord
  3
AutoCAD 2000
 90
        0
280
     0
281
     0
  0
CLASS
  1
SORTENTSTABLE
  2
AcDbSortentsTable
  3
AutoCAD 2000
 90
        0
280
     0
281
     0
  0
CLASS
  1
LAYER_INDEX
  2
AcDbLayerIndex
  3
AutoCAD 2000
 90
        0
280
     0
281
     0
  0
CLASS
  1
SPATIAL_INDEX
  2
AcDbSpatialIndex
  3
AutoCAD 2000
 90
        0
280
     0
281
     0
  0
CLASS
  1
OBJECT_PTR
  2
CAseDLPNTableRecord
  3
"ASE-LPNTableRecord"
 90
        1
280
     0
281
     0
  0
CLASS
  1
LAYOUT
  2
AcDbLayout
  3
AutoCAD 2000
 90
        0
280
     0
281
     0
  0
CLASS
  1
PLOTSETTINGS
  2
AcDbPlotSettings
  3
AutoCAD 2000
 90
        0
280
     0
281
     0
  0
CLASS
  1
ACDBDICTIONARYWDFLT
  2
AcDbDictionaryWithDefault
  3
AutoCAD 2000
 90
        0
280
     0
281
     0
  0
CLASS
  1
ACDBPLACEHOLDER
  2
AcDbPlaceHolder
  3
AutoCAD 2000
 90
        0
280
     0
281
     0
  0
CLASS
  1
VBA_PROJECT
  2
AcDbVbaProject
  3
acadvba
 90
        0
280
     0
281
     0
  0
CLASS
  1
WIPEOUT
  2
AcDbWipeout
  3
WipeOut|AutoCAD Express Tool|expresstools@autodesk.com
 90
      127
280
     0
281
     1
  0
CLASS
  1
WIPEOUTVARIABLES
  2
AcDbWipeoutVariables
  3
WipeOut|AutoCAD Express Tool|expresstools@autodesk.com
 90
        0
280
     0
281
     0
  0
CLASS
  1
RTEXT
  2
RText
  3
RText|AutoCAD Express Tool|expresstools@autodesk.com
 90
        0
280
     0
281
     1
  0
CLASS
  1
ARCALIGNEDTEXT
  2
AcDbArcAlignedText
  3
ATEXT|AutoCAD Express Tool|expresstools@autodesk.com
 90
        0
280
     0
281
     1
  0
ENDSEC
  0
SECTION
  2
TABLES
  0
TABLE
  2
VPORT
  5
7
100
AcDbSymbolTable
 70
     1
  0
VPORT
  5
15
100
AcDbSymbolTableRecord
100
AcDbViewportTableRecord
  2
*ACTIVE
 70
     0
 10
0.0
 20
0.0
 11
1.0
 21
1.0
 12
6.591288
 22
4.579184
 13
0.0
 23
0.0
 14
1.0
 24
1.0
 15
0.0
 25
0.0
 16
0.0
 26
0.0
 36
1.0
 17
0.0
 27
0.0
 37
0.0
 40
9.158369
 41
0.688564
 42
50.0
 43
0.0
 44
0.0
 50
0.0
 51
0.0
 71
     0
 72
   100
 73
     1
 74
     1
 75
     0
 76
     0
 77
     0
 78
     0
281
     0
 65
     0
110
0.0
120
0.0
130
0.0
111
1.0
121
0.0
131
0.0
112
0.0
122
1.0
132
0.0
345
0
346
0
 79
     0
146
0.0
  0
ENDTAB
  0
TABLE
  2
LTYPE
  5
4
100
AcDbSymbolTable
 70
     3
  0
LTYPE
  5
11
100
AcDbSymbolTableRecord
100
AcDbLinetypeTableRecord
  2
ByBlock
 70
    64
  3

 72
    65
 73
     0
 40
0.0
  0
LTYPE
  5
12
100
AcDbSymbolTableRecord
100
AcDbLinetypeTableRecord
  2
ByLayer
 70
    64
  3

 72
    65
 73
     0
 40
0.0
  0
LTYPE
  5
13
100
AcDbSymbolTableRecord
100
AcDbLinetypeTableRecord
  2
Continuous
 70
    64
  3
Solid line
 72
    65
 73
     0
 40
0.0
  0
ENDTAB
  0
TABLE
  2
LAYER
  5
2
100
AcDbSymbolTable
 70
     1
  0
LAYER
  5
14
100
AcDbSymbolTableRecord
100
AcDbLayerTableRecord
  2
0
 70
     0
 62
     7
  6
Continuous
290
     1
370
    -3
390
1D
  0
ENDTAB
  0
TABLE
  2
STYLE
  5
3
100
AcDbSymbolTable
 70
     1
  0
STYLE
  5
17
100
AcDbSymbolTableRecord
100
AcDbTextStyleTableRecord
  2
Standard
 70
     0
 40
0.0
 41
1.0
 50
0.0
 71
     0
 42
0.0
  3
FG教科書体NT-M
  4

1001
ACAD
1000
FG教科書体NT-M
1071
        0
  0
ENDTAB
  0
TABLE
  2
VIEW
  5
5
100
AcDbSymbolTable
 70
     0
  0
ENDTAB
  0
TABLE
  2
UCS
  5
6
100
AcDbSymbolTable
 70
     0
  0
ENDTAB
  0
TABLE
  2
APPID
  5
8
100
AcDbSymbolTable
 70
     2
  0
APPID
  5
16
100
AcDbSymbolTableRecord
100
AcDbRegAppTableRecord
  2
ACAD
 70
     0
  0
APPID
  5
26
100
AcDbSymbolTableRecord
100
AcDbRegAppTableRecord
  2
TOPsolid_Design
 70
     0
  0
ENDTAB
  0
TABLE
  2
DIMSTYLE
  5
9
100
AcDbSymbolTable
 70
     1
100
AcDbDimStyleTable
 71
     0
  0
DIMSTYLE
105
18
100
AcDbSymbolTableRecord
100
AcDbDimStyleTableRecord
  2
Standard
 70
     0
  3

  4

 40
1.0
 41
1.40208
 42
1.40208
 43
0.38
 44
1.05156
 45
0.0
 46
0.0
 47
0.0
 48
0.0
 71
     0
 72
     0
 73
     0
 74
     0
 75
     0
 76
     0
 77
     1
 78
     0
 79
     0
140
3.5052
141
0.09
142
0.0
143
25.4
144
1.0
145
0.0
146
0.5
147
1.7526
148
0.0
170
     0
171
     2
172
     0
173
     0
174
     0
175
     0
176
     7
177
     7
178
     7
179
     0
271
     2
272
     4
273
     2
274
     2
275
     0
276
     0
277
     2
278
    46
279
     0
280
     0
281
     0
282
     0
283
     1
284
     0
285
     0
286
     0
288
     0
289
     3
340
17
341
0
342
0
343
0
344
0
371
    -2
372
    -2
  0
ENDTAB
  0
TABLE
  2
BLOCK_RECORD
  5
1
100
AcDbSymbolTable
 70
     0
  0
BLOCK_RECORD
  5
A
100
AcDbSymbolTableRecord
100
AcDbBlockTableRecord
  2
*MODEL_SPACE
340
20
  0
BLOCK_RECORD
  5
B
100
AcDbSymbolTableRecord
100
AcDbBlockTableRecord
  2
*PAPER_SPACE
340
21
  0
ENDTAB
  0
ENDSEC
  0
SECTION
  2
BLOCKS
  0
BLOCK
  5
D
100
AcDbEntity
  8
0
390
0
100
AcDbBlockBegin
  2
*MODEL_SPACE
 70
     0
 10
0.0
 20
0.0
 30
0.0
  3
*MODEL_SPACE
  1

  0
ENDBLK
  5
E
100
AcDbEntity
  8
0
390
0
100
AcDbBlockEnd
  0
BLOCK
  5
F
100
AcDbEntity
 67
     1
  8
0
390
0
100
AcDbBlockBegin
  2
*PAPER_SPACE
 70
     0
 10
0.0
 20
0.0
 30
0.0
  3
*PAPER_SPACE
  1

  0
ENDBLK
  5
10
100
AcDbEntity
 67
     1
  8
0
390
0
100
AcDbBlockEnd
  0
ENDSEC
  0
SECTION
  2
ENTITIES
  0
LINE
  5
27
100
AcDbEntity
  8
0
390
0
  6
Continuous
 62
     7
100
AcDbLine
 10
-5.191999
 20
7.75
 30
0.0
 11
-4.772085
 21
8.788568
 31
0.0
  0
LINE
  5
28
100
AcDbEntity
  8
0
390
0
  6
Continuous
 62
     7
100
AcDbLine
 10
-6.35364
 20
7.75
 30
0.0
 11
-5.191999
 21
7.75
 31
0.0
  0
LINE
  5
29
100
AcDbEntity
  8
0
390
0
  6
Continuous
 62
     7
100
AcDbLine
 10
-4.991636
 20
11.121513
 30
0.0
 11
-6.35364
 21
7.75
 31
0.0
  0
LINE
  5
2A
100
AcDbEntity
  8
0
390
0
  6
Continuous
 62
     7
100
AcDbLine
 10
-4.049501
 20
8.788568
 30
0.0
 11
-4.991636
 21
11.121513
 31
0.0
  0
LINE
  5
2B
100
AcDbEntity
  8
0
390
0
  6
Continuous
 62
     7
100
AcDbLine
 10
-4.772085
 20
8.788568
 30
0.0
 11
-4.049501
 21
8.788568
 31
0.0
  0
LINE
  5
2C
100
AcDbEntity
  8
0
390
0
  6
Continuous
 62
     7
100
AcDbLine
 10
-2.819519
 20
7.75
 30
0.0
 11
-1.657622
 21
7.75
 31
0.0
  0
LINE
  5
2D
100
AcDbEntity
  8
0
390
0
  6
Continuous
 62
     7
100
AcDbLine
 10
-4.636246
 20
12.246708
 30
0.0
 11
-2.819519
 21
7.75
 31
0.0
  0
LINE
  5
2E
100
AcDbEntity
  8
0
390
0
  6
Continuous
 62
     7
100
AcDbLine
 10
-3.474604
 20
12.246708
 30
0.0
 11
-4.636246
 21
12.246708
 31
0.0
  0
LINE
  5
2F
100
AcDbEntity
  8
0
390
0
  6
Continuous
 62
     7
100
AcDbLine
 10
-1.657622
 20
7.75
 30
0.0
 11
-3.474604
 21
12.246708
 31
0.0
  0
LINE
  5
30
100
AcDbEntity
  8
0
390
0
  6
Continuous
 62
     7
100
AcDbLine
 10
-0.821506
 20
7.75
 30
0.0
 11
0.340474
 21
7.75
 31
0.0
  0
LINE
  5
31
100
AcDbEntity
  8
0
390
0
  6
Continuous
 62
     7
100
AcDbLine
 10
-2.638488
 20
12.246708
 30
0.0
 11
-0.821506
 21
7.75
 31
0.0
  0
LINE
  5
32
100
AcDbEntity
  8
0
390
0
  6
Continuous
 62
     7
100
AcDbLine
 10
-1.476508
 20
12.246708
 30
0.0
 11
-2.638488
 21
12.246708
 31
0.0
  0
LINE
  5
33
100
AcDbEntity
  8
0
390
0
  6
Continuous
 62
     7
100
AcDbLine
 10
0.340474
 20
7.75
 30
0.0
 11
-1.476508
 21
12.246708
 31
0.0
  0
LINE
  5
34
100
AcDbEntity
  8
0
390
0
  6
Continuous
 62
     7
100
AcDbLine
 10
1.17656
 20
7.75
 30
0.0
 11
2.404897
 21
7.75
 31
0.0
  0
LINE
  5
35
100
AcDbEntity
  8
0
390
0
  6
Continuous
 62
     7
100
AcDbLine
 10
0.250796
 20
10.040947
 30
0.0
 11
1.17656
 21
7.75
 31
0.0
  0
LINE
  5
36
100
AcDbEntity
  8
0
390
0
  6
Continuous
 62
     7
100
AcDbLine
 10
0.831794
 20
11.479218
 30
0.0
 11
0.250796
 21
10.040947
 31
0.0
  0
LINE
  5
37
100
AcDbEntity
  8
0
390
0
  6
Continuous
 62
     7
100
AcDbLine
 10
1.790601
 20
9.106197
 30
0.0
 11
0.831794
 21
11.479218
 31
0.0
  0
LINE
  5
38
100
AcDbEntity
  8
0
390
0
  6
Continuous
 62
     7
100
AcDbLine
 10
3.059599
 20
12.246708
 30
0.0
 11
1.790601
 21
9.106197
 31
0.0
  0
LINE
  5
39
100
AcDbEntity
  8
0
390
0
  6
Continuous
 62
     7
100
AcDbLine
 10
4.221594
 20
12.246708
 30
0.0
 11
3.059599
 21
12.246708
 31
0.0
  0
LINE
  5
3A
100
AcDbEntity
  8
0
390
0
  6
Continuous
 62
     7
100
AcDbLine
 10
2.404897
 20
7.75
 30
0.0
 11
4.221594
 21
12.246708
 31
0.0
  0
LINE
  5
3B
100
AcDbEntity
  8
0
390
0
  6
Continuous
 62
     7
100
AcDbLine
 10
3.240983
 20
7.75
 30
0.0
 11
4.819075
 21
7.75
 31
0.0
  0
LINE
  5
3C
100
AcDbEntity
  8
0
390
0
  6
Continuous
 62
     7
100
AcDbLine
 10
3.505178
 20
8.403907
 30
0.0
 11
3.240983
 21
7.75
 31
0.0
  0
LINE
  5
3D
100
AcDbEntity
  8
0
390
0
  6
Continuous
 62
     7
100
AcDbLine
 10
4.143902
 20
8.403907
 30
0.0
 11
3.505178
 21
8.403907
 31
0.0
  0
ARC
  5
3E
100
AcDbEntity
  8
0
390
0
  6
Continuous
 62
     7
100
AcDbCircle
 10
4.143902
 20
9.403907
 30
0.0
 40
1.0
210
0.0
220
0.0
230
1.0
100
AcDbArc
 50
270.0
 51
360.0
  0
LINE
  5
3F
100
AcDbEntity
  8
0
390
0
  6
Continuous
 62
     7
100
AcDbLine
 10
5.143902
 20
12.246708
 30
0.0
 11
5.143902
 21
9.403907
 31
0.0
  0
LINE
  5
40
100
AcDbEntity
  8
0
390
0
  6
Continuous
 62
     7
100
AcDbLine
 10
6.319075
 20
12.246708
 30
0.0
 11
5.143902
 21
12.246708
 31
0.0
  0
LINE
  5
41
100
AcDbEntity
  8
0
390
0
  6
Continuous
 62
     7
100
AcDbLine
 10
6.319075
 20
9.25
 30
0.0
 11
6.319075
 21
12.246708
 31
0.0
  0
ARC
  5
42
100
AcDbEntity
  8
0
390
0
  6
Continuous
 62
     7
100
AcDbCircle
 10
4.819075
 20
9.25
 30
0.0
 40
1.5
210
0.0
220
0.0
230
1.0
100
AcDbArc
 50
270.0
 51
360.0
  0
LINE
  5
43
100
AcDbEntity
  8
0
390
0
  6
Continuous
 62
     7
100
AcDbLine
 10
29.0
 20
0.0
 30
0.0
 11
29.0
 21
26.5
 31
0.0
  0
LINE
  5
44
100
AcDbEntity
  8
0
390
0
  6
Continuous
 62
     7
100
AcDbLine
 10
34.0
 20
26.5
 30
0.0
 11
29.0
 21
26.5
 31
0.0
  0
LINE
  5
45
100
AcDbEntity
  8
0
390
0
  6
Continuous
 62
     7
100
AcDbLine
 10
34.0
 20
26.5
 30
0.0
 11
34.0
 21
0.0
 31
0.0
  0
LINE
  5
46
100
AcDbEntity
  8
0
390
0
  6
Continuous
 62
     7
100
AcDbLine
 10
34.0
 20
0.0
 30
0.0
 11
29.0
 21
0.0
 31
0.0
  0
LINE
  5
47
100
AcDbEntity
  8
0
390
0
  6
Continuous
 62
     7
100
AcDbLine
 10
29.0
 20
28.0
 30
0.0
 11
32.5
 21
28.0
 31
0.0
  0
ARC
  5
48
100
AcDbEntity
  8
0
390
0
  6
Continuous
 62
     7
100
AcDbCircle
 10
32.5
 20
26.5
 30
0.0
 40
1.5
210
0.0
220
0.0
230
1.0
100
AcDbArc
 50
0.0
 51
90.0
  0
LINE
  5
49
100
AcDbEntity
  8
0
390
0
  6
Continuous
 62
     7
100
AcDbLine
 10
29.0
 20
26.5
 30
0.0
 11
29.0
 21
28.0
 31
0.0
  0
ARC
  5
4A
100
AcDbEntity
  8
0
390
0
  6
Continuous
 62
     7
100
AcDbCircle
 10
-24.049948
 20
26.5
 30
0.0
 40
1.5
210
0.0
220
0.0
230
1.0
100
AcDbArc
 50
53.201514
 51
90.0
  0
LINE
  5
4B
100
AcDbEntity
  8
0
390
0
  6
Continuous
 62
     7
100
AcDbLine
 10
-24.049948
 20
26.5
 30
0.0
 11
-23.151445
 21
27.701121
 31
0.0
  0
LINE
  5
4C
100
AcDbEntity
  8
0
390
0
  6
Continuous
 62
     7
100
AcDbLine
 10
-24.049948
 20
26.5
 30
0.0
 11
-24.049948
 21
28.0
 31
0.0
  0
LINE
  5
4D
100
AcDbEntity
  8
0
390
0
  6
Continuous
 62
     7
100
AcDbLine
 10
29.0
 20
26.5
 30
0.0
 11
24.049948
 21
26.5
 31
0.0
  0
LINE
  5
4E
100
AcDbEntity
  8
0
390
0
  6
Continuous
 62
     7
100
AcDbLine
 10
24.049948
 20
26.5
 30
0.0
 11
24.049948
 21
28.0
 31
0.0
  0
LINE
  5
4F
100
AcDbEntity
  8
0
390
0
  6
Continuous
 62
     7
100
AcDbLine
 10
24.049948
 20
28.0
 30
0.0
 11
29.0
 21
28.0
 31
0.0
  0
LINE
  5
50
100
AcDbEntity
  8
0
390
0
  6
Continuous
 62
     7
100
AcDbLine
 10
-24.049948
 20
26.5
 30
0.0
 11
-29.0
 21
26.5
 31
0.0
  0
LINE
  5
51
100
AcDbEntity
  8
0
390
0
  6
Continuous
 62
     7
100
AcDbLine
 10
-29.0
 20
26.5
 30
0.0
 11
-29.0
 21
28.0
 31
0.0
  0
LINE
  5
52
100
AcDbEntity
  8
0
390
0
  6
Continuous
 62
     7
100
AcDbLine
 10
-29.0
 20
28.0
 30
0.0
 11
-24.049948
 21
28.0
 31
0.0
  0
ARC
  5
53
100
AcDbEntity
  8
0
390
0
  6
Continuous
 62
     7
100
AcDbCircle
 10
0.0
 20
58.65
 30
0.0
 40
40.15
210
0.0
220
0.0
230
1.0
100
AcDbArc
 50
233.201514
 51
306.798486
  0
ARC
  5
54
100
AcDbEntity
  8
0
390
0
  6
Continuous
 62
     7
100
AcDbCircle
 10
0.0
 20
58.65
 30
0.0
 40
38.65
210
0.0
220
0.0
230
1.0
100
AcDbArc
 50
233.201514
 51
306.798486
  0
LINE
  5
55
100
AcDbEntity
  8
0
390
0
  6
Continuous
 62
     7
100
AcDbLine
 10
24.049948
 20
26.5
 30
0.0
 11
23.151444
 21
27.701121
 31
0.0
  0
LINE
  5
56
100
AcDbEntity
  8
0
390
0
  6
Continuous
 62
     7
100
AcDbLine
 10
-29.0
 20
26.5
 30
0.0
 11
-34.0
 21
26.5
 31
0.0
  0
ARC
  5
57
100
AcDbEntity
  8
0
390
0
  6
Continuous
 62
     7
100
AcDbCircle
 10
-32.5
 20
26.5
 30
0.0
 40
1.5
210
0.0
220
0.0
230
1.0
100
AcDbArc
 50
90.0
 51
180.0
  0
LINE
  5
58
100
AcDbEntity
  8
0
390
0
  6
Continuous
 62
     7
100
AcDbLine
 10
-32.5
 20
28.0
 30
0.0
 11
-29.0
 21
28.0
 31
0.0
  0
ARC
  5
59
100
AcDbEntity
  8
0
390
0
  6
Continuous
 62
     7
100
AcDbCircle
 10
24.049948
 20
26.5
 30
0.0
 40
1.5
210
0.0
220
0.0
230
1.0
100
AcDbArc
 50
90.0
 51
126.798486
  0
LINE
  5
5A
100
AcDbEntity
  8
0
390
0
  6
Continuous
 62
     7
100
AcDbLine
 10
-34.0
 20
0.0
 30
0.0
 11
-34.0
 21
26.5
 31
0.0
  0
LINE
  5
5B
100
AcDbEntity
  8
0
390
0
  6
Continuous
 62
     7
100
AcDbLine
 10
-29.0
 20
26.5
 30
0.0
 11
-29.0
 21
0.0
 31
0.0
  0
LINE
  5
5C
100
AcDbEntity
  8
0
390
0
  6
Continuous
 62
     7
100
AcDbLine
 10
-29.0
 20
0.0
 30
0.0
 11
-34.0
 21
0.0
 31
0.0
  0
LINE
  5
5D
100
AcDbEntity
  8
0
390
0
  6
Continuous
 62
     7
100
AcDbLine
 10
-29.0
 20
0.0
 30
0.0
 11
29.0
 21
0.0
 31
0.0
  0
LINE
  5
5E
100
AcDbEntity
  8
0
390
0
  6
Continuous
 62
     7
100
AcDbLine
 10
114.104021
 20
26.5
 30
0.0
 11
114.104021
 21
0.0
 31
0.0
  0
LINE
  5
5F
100
AcDbEntity
  8
0
390
0
  6
Continuous
 62
     7
100
AcDbLine
 10
129.104021
 20
26.5
 30
0.0
 11
114.104021
 21
26.5
 31
0.0
  0
LINE
  5
60
100
AcDbEntity
  8
0
390
0
  6
Continuous
 62
     7
100
AcDbLine
 10
129.104021
 20
0.0
 30
0.0
 11
129.104021
 21
26.5
 31
0.0
  0
LINE
  5
61
100
AcDbEntity
  8
0
390
0
  6
Continuous
 62
     7
100
AcDbLine
 10
129.104021
 20
0.0
 30
0.0
 11
114.104021
 21
0.0
 31
0.0
  0
LINE
  5
62
100
AcDbEntity
  8
0
390
0
  6
Continuous
 62
     7
100
AcDbLine
 10
109.104021
 20
0.0
 30
0.0
 11
109.104021
 21
26.5
 31
0.0
  0
LINE
  5
63
100
AcDbEntity
  8
0
390
0
  6
Continuous
 62
     7
100
AcDbLine
 10
114.104021
 20
26.5
 30
0.0
 11
109.104021
 21
26.5
 31
0.0
  0
LINE
  5
64
100
AcDbEntity
  8
0
390
0
  6
Continuous
 62
     7
100
AcDbLine
 10
114.104021
 20
0.0
 30
0.0
 11
109.104021
 21
0.0
 31
0.0
  0
LINE
  5
65
100
AcDbEntity
  8
0
390
0
  6
Continuous
 62
     7
100
AcDbLine
 10
134.104021
 20
26.5
 30
0.0
 11
129.104021
 21
26.5
 31
0.0
  0
LINE
  5
66
100
AcDbEntity
  8
0
390
0
  6
Continuous
 62
     7
100
AcDbLine
 10
134.104021
 20
26.5
 30
0.0
 11
134.104021
 21
0.0
 31
0.0
  0
LINE
  5
67
100
AcDbEntity
  8
0
390
0
  6
Continuous
 62
     7
100
AcDbLine
 10
134.104021
 20
0.0
 30
0.0
 11
129.104021
 21
0.0
 31
0.0
  0
LINE
  5
68
100
AcDbEntity
  8
0
390
0
  6
Continuous
 62
     7
100
AcDbLine
 10
129.104021
 20
28.0
 30
0.0
 11
132.604021
 21
28.0
 31
0.0
  0
ARC
  5
69
100
AcDbEntity
  8
0
390
0
  6
Continuous
 62
     7
100
AcDbCircle
 10
132.604021
 20
26.5
 30
0.0
 40
1.5
210
0.0
220
0.0
230
1.0
100
AcDbArc
 50
0.0
 51
90.0
  0
LINE
  5
6A
100
AcDbEntity
  8
0
390
0
  6
Continuous
 62
     7
100
AcDbLine
 10
129.104021
 20
28.0
 30
0.0
 11
129.104021
 21
26.5
 31
0.0
  0
LINE
  5
6B
100
AcDbEntity
  8
0
390
0
  6
Continuous
 62
     7
100
AcDbLine
 10
114.104021
 20
28.0
 30
0.0
 11
129.104021
 21
28.0
 31
0.0
  0
LINE
  5
6C
100
AcDbEntity
  8
0
390
0
  6
Continuous
 62
     7
100
AcDbLine
 10
114.104021
 20
28.0
 30
0.0
 11
114.104021
 21
26.5
 31
0.0
  0
LINE
  5
6D
100
AcDbEntity
  8
0
390
0
  6
Continuous
 62
     7
100
AcDbLine
 10
110.604021
 20
28.0
 30
0.0
 11
114.104021
 21
28.0
 31
0.0
  0
ARC
  5
6E
100
AcDbEntity
  8
0
390
0
  6
Continuous
 62
     7
100
AcDbCircle
 10
110.604021
 20
26.5
 30
0.0
 40
1.5
210
0.0
220
0.0
230
1.0
100
AcDbArc
 50
90.0
 51
180.0
  0
LINE
  5
6F
100
AcDbEntity
  8
0
390
0
  6
Continuous
 62
     7
100
AcDbLine
 10
109.104021
 20
26.5
 30
0.0
 11
109.104021
 21
18.5
 31
0.0
  0
LINE
  5
70
100
AcDbEntity
  8
0
390
0
  6
Continuous
 62
     7
100
AcDbLine
 10
134.104021
 20
18.5
 30
0.0
 11
134.104021
 21
26.5
 31
0.0
  0
LINE
  5
71
100
AcDbEntity
  8
0
390
0
  6
Continuous
 62
     7
100
AcDbLine
 10
108.904021
 20
7.75
 30
0.0
 11
109.104021
 21
7.75
 31
0.0
  0
LINE
  5
72
100
AcDbEntity
  8
0
390
0
  6
Continuous
 62
     7
100
AcDbLine
 10
108.904021
 20
7.75
 30
0.0
 11
108.904021
 21
9.25
 31
0.0
  0
LINE
  5
73
100
AcDbEntity
  8
0
390
0
  6
Continuous
 62
     7
100
AcDbLine
 10
108.904021
 20
9.25
 30
0.0
 11
109.104021
 21
9.25
 31
0.0
  0
LINE
  5
74
100
AcDbEntity
  8
0
390
0
  6
Continuous
 62
     7
100
AcDbLine
 10
108.904021
 20
12.246708
 30
0.0
 11
109.104021
 21
12.246708
 31
0.0
  0
LINE
  5
75
100
AcDbEntity
  8
0
390
0
  6
Continuous
 62
     7
100
AcDbLine
 10
108.904021
 20
9.25
 30
0.0
 11
108.904021
 21
12.246708
 31
0.0
  0
ARC
  5
76
100
AcDbEntity
  8
0
390
0
  6
Continuous
 62
     7
100
AcDbCircle
 10
29.0
 20
-74.543521
 30
0.0
 40
5.0
210
0.0
220
0.0
230
1.0
100
AcDbArc
 50
270.0
 51
360.0
  0
LINE
  5
77
100
AcDbEntity
  8
0
390
0
  6
Continuous
 62
     7
100
AcDbLine
 10
-29.0
 20
-79.543521
 30
0.0
 11
29.0
 21
-79.543521
 31
0.0
  0
ARC
  5
78
100
AcDbEntity
  8
0
390
0
  6
Continuous
 62
     7
100
AcDbCircle
 10
-29.0
 20
-74.543521
 30
0.0
 40
5.0
210
0.0
220
0.0
230
1.0
100
AcDbArc
 50
180.0
 51
270.0
  0
LINE
  5
79
100
AcDbEntity
  8
0
390
0
  6
Continuous
 62
     7
100
AcDbLine
 10
-34.0
 20
-59.543521
 30
0.0
 11
-34.0
 21
-74.543521
 31
0.0
  0
ARC
  5
7A
100
AcDbEntity
  8
0
390
0
  6
Continuous
 62
     7
100
AcDbCircle
 10
-29.0
 20
-59.543521
 30
0.0
 40
5.0
210
0.0
220
0.0
230
1.0
100
AcDbArc
 50
90.0
 51
180.0
  0
LINE
  5
7B
100
AcDbEntity
  8
0
390
0
  6
Continuous
 62
     7
100
AcDbLine
 10
-29.0
 20
-54.543521
 30
0.0
 11
29.0
 21
-54.543521
 31
0.0
  0
ARC
  5
7C
100
AcDbEntity
  8
0
390
0
  6
Continuous
 62
     7
100
AcDbCircle
 10
29.0
 20
-59.543521
 30
0.0
 40
5.0
210
0.0
220
0.0
230
1.0
100
AcDbArc
 50
0.0
 51
90.0
  0
LINE
  5
7D
100
AcDbEntity
  8
0
390
0
  6
Continuous
 62
     7
100
AcDbLine
 10
34.0
 20
-74.543521
 30
0.0
 11
34.0
 21
-59.543521
 31
0.0
  0
LINE
  5
7E
100
AcDbEntity
  8
0
390
0
  6
Continuous
 62
     7
100
AcDbLine
 10
30.0
 20
-65.600145
 30
0.0
 11
30.0
 21
-68.486897
 31
0.0
  0
LINE
  5
7F
100
AcDbEntity
  8
0
390
0
  6
Continuous
 62
     7
100
AcDbLine
 10
30.0
 20
-68.486897
 30
0.0
 11
32.0
 21
-69.641597
 31
0.0
  0
LINE
  5
80
100
AcDbEntity
  8
0
390
0
  6
Continuous
 62
     7
100
AcDbLine
 10
32.0
 20
-64.445445
 30
0.0
 11
32.0
 21
-69.641597
 31
0.0
  0
LINE
  5
81
100
AcDbEntity
  8
0
390
0
  6
Continuous
 62
     7
100
AcDbLine
 10
32.0
 20
-64.445445
 30
0.0
 11
30.0
 21
-65.600145
 31
0.0
  0
LINE
  5
82
100
AcDbEntity
  8
0
390
0
  6
Continuous
 62
     7
100
AcDbLine
 10
-26.75
 20
-74.116062
 30
0.0
 11
-26.75
 21
-71.229311
 31
0.0
  0
LINE
  5
83
100
AcDbEntity
  8
0
390
0
  6
Continuous
 62
     7
100
AcDbLine
 10
-26.75
 20
-71.229311
 30
0.0
 11
-29.25
 21
-69.785935
 31
0.0
  0
LINE
  5
84
100
AcDbEntity
  8
0
390
0
  6
Continuous
 62
     7
100
AcDbLine
 10
-29.25
 20
-69.785935
 30
0.0
 11
-31.75
 21
-71.229311
 31
0.0
  0
LINE
  5
85
100
AcDbEntity
  8
0
390
0
  6
Continuous
 62
     7
100
AcDbLine
 10
-31.75
 20
-71.229311
 30
0.0
 11
-31.75
 21
-74.116062
 31
0.0
  0
LINE
  5
86
100
AcDbEntity
  8
0
390
0
  6
Continuous
 62
     7
100
AcDbLine
 10
-31.75
 20
-74.116062
 30
0.0
 11
-29.25
 21
-75.559438
 31
0.0
  0
LINE
  5
87
100
AcDbEntity
  8
0
390
0
  6
Continuous
 62
     7
100
AcDbLine
 10
-29.25
 20
-75.559438
 30
0.0
 11
-26.75
 21
-74.116062
 31
0.0
  0
LINE
  5
88
100
AcDbEntity
  8
0
390
0
  6
Continuous
 62
     7
100
AcDbLine
 10
-26.75
 20
-62.857732
 30
0.0
 11
-26.75
 21
-59.97098
 31
0.0
  0
LINE
  5
89
100
AcDbEntity
  8
0
390
0
  6
Continuous
 62
     7
100
AcDbLine
 10
-26.75
 20
-59.97098
 30
0.0
 11
-29.25
 21
-58.527605
 31
0.0
  0
LINE
  5
8A
100
AcDbEntity
  8
0
390
0
  6
Continuous
 62
     7
100
AcDbLine
 10
-29.25
 20
-58.527605
 30
0.0
 11
-31.75
 21
-59.97098
 31
0.0
  0
LINE
  5
8B
100
AcDbEntity
  8
0
390
0
  6
Continuous
 62
     7
100
AcDbLine
 10
-31.75
 20
-59.97098
 30
0.0
 11
-31.75
 21
-62.857732
 31
0.0
  0
LINE
  5
8C
100
AcDbEntity
  8
0
390
0
  6
Continuous
 62
     7
100
AcDbLine
 10
-31.75
 20
-62.857732
 30
0.0
 11
-29.25
 21
-64.301107
 31
0.0
  0
LINE
  5
8D
100
AcDbEntity
  8
0
390
0
  6
Continuous
 62
     7
100
AcDbLine
 10
-29.25
 20
-64.301107
 30
0.0
 11
-26.75
 21
-62.857732
 31
0.0
  0
LINE
  5
8E
100
AcDbEntity
  8
0
390
0
  6
Continuous
 62
     7
100
AcDbLine
 10
28.5
 20
-77.543521
 30
0.0
 11
28.5
 21
-76.858145
 31
0.0
  0
LINE
  5
8F
100
AcDbEntity
  8
0
390
0
  6
Continuous
 62
     7
100
AcDbLine
 10
28.5
 20
-76.858145
 30
0.0
 11
26.0
 21
-75.41477
 31
0.0
  0
LINE
  5
90
100
AcDbEntity
  8
0
390
0
  6
Continuous
 62
     7
100
AcDbLine
 10
26.0
 20
-75.41477
 30
0.0
 11
23.5
 21
-76.858145
 31
0.0
  0
LINE
  5
91
100
AcDbEntity
  8
0
390
0
  6
Continuous
 62
     7
100
AcDbLine
 10
23.5
 20
-76.858145
 30
0.0
 11
23.5
 21
-77.543521
 31
0.0
  0
LINE
  5
92
100
AcDbEntity
  8
0
390
0
  6
Continuous
 62
     7
100
AcDbLine
 10
23.5
 20
-77.543521
 30
0.0
 11
28.5
 21
-77.543521
 31
0.0
  0
LINE
  5
93
100
AcDbEntity
  8
0
390
0
  6
Continuous
 62
     7
100
AcDbLine
 10
22.0
 20
-77.543521
 30
0.0
 11
22.0
 21
-76.858145
 31
0.0
  0
LINE
  5
94
100
AcDbEntity
  8
0
390
0
  6
Continuous
 62
     7
100
AcDbLine
 10
22.0
 20
-76.858145
 30
0.0
 11
19.5
 21
-75.41477
 31
0.0
  0
LINE
  5
95
100
AcDbEntity
  8
0
390
0
  6
Continuous
 62
     7
100
AcDbLine
 10
19.5
 20
-75.41477
 30
0.0
 11
17.0
 21
-76.858145
 31
0.0
  0
LINE
  5
96
100
AcDbEntity
  8
0
390
0
  6
Continuous
 62
     7
100
AcDbLine
 10
17.0
 20
-76.858145
 30
0.0
 11
17.0
 21
-77.543521
 31
0.0
  0
LINE
  5
97
100
AcDbEntity
  8
0
390
0
  6
Continuous
 62
     7
100
AcDbLine
 10
17.0
 20
-77.543521
 30
0.0
 11
22.0
 21
-77.543521
 31
0.0
  0
LINE
  5
98
100
AcDbEntity
  8
0
390
0
  6
Continuous
 62
     7
100
AcDbLine
 10
15.5
 20
-77.543521
 30
0.0
 11
15.5
 21
-76.858145
 31
0.0
  0
LINE
  5
99
100
AcDbEntity
  8
0
390
0
  6
Continuous
 62
     7
100
AcDbLine
 10
15.5
 20
-76.858145
 30
0.0
 11
13.0
 21
-75.41477
 31
0.0
  0
LINE
  5
9A
100
AcDbEntity
  8
0
390
0
  6
Continuous
 62
     7
100
AcDbLine
 10
13.0
 20
-75.41477
 30
0.0
 11
10.5
 21
-76.858145
 31
0.0
  0
LINE
  5
9B
100
AcDbEntity
  8
0
390
0
  6
Continuous
 62
     7
100
AcDbLine
 10
10.5
 20
-76.858145
 30
0.0
 11
10.5
 21
-77.543521
 31
0.0
  0
LINE
  5
9C
100
AcDbEntity
  8
0
390
0
  6
Continuous
 62
     7
100
AcDbLine
 10
10.5
 20
-77.543521
 30
0.0
 11
15.5
 21
-77.543521
 31
0.0
  0
LINE
  5
9D
100
AcDbEntity
  8
0
390
0
  6
Continuous
 62
     7
100
AcDbLine
 10
9.0
 20
-77.543521
 30
0.0
 11
9.0
 21
-76.858145
 31
0.0
  0
LINE
  5
9E
100
AcDbEntity
  8
0
390
0
  6
Continuous
 62
     7
100
AcDbLine
 10
9.0
 20
-76.858145
 30
0.0
 11
6.5
 21
-75.41477
 31
0.0
  0
LINE
  5
9F
100
AcDbEntity
  8
0
390
0
  6
Continuous
 62
     7
100
AcDbLine
 10
6.5
 20
-75.41477
 30
0.0
 11
4.0
 21
-76.858145
 31
0.0
  0
LINE
  5
A0
100
AcDbEntity
  8
0
390
0
  6
Continuous
 62
     7
100
AcDbLine
 10
4.0
 20
-76.858145
 30
0.0
 11
4.0
 21
-77.543521
 31
0.0
  0
LINE
  5
A1
100
AcDbEntity
  8
0
390
0
  6
Continuous
 62
     7
100
AcDbLine
 10
4.0
 20
-77.543521
 30
0.0
 11
9.0
 21
-77.543521
 31
0.0
  0
LINE
  5
A2
100
AcDbEntity
  8
0
390
0
  6
Continuous
 62
     7
100
AcDbLine
 10
2.5
 20
-77.543521
 30
0.0
 11
2.5
 21
-76.858145
 31
0.0
  0
LINE
  5
A3
100
AcDbEntity
  8
0
390
0
  6
Continuous
 62
     7
100
AcDbLine
 10
2.5
 20
-76.858145
 30
0.0
 11
0.0
 21
-75.41477
 31
0.0
  0
LINE
  5
A4
100
AcDbEntity
  8
0
390
0
  6
Continuous
 62
     7
100
AcDbLine
 10
0.0
 20
-75.41477
 30
0.0
 11
-2.5
 21
-76.858145
 31
0.0
  0
LINE
  5
A5
100
AcDbEntity
  8
0
390
0
  6
Continuous
 62
     7
100
AcDbLine
 10
-2.5
 20
-76.858145
 30
0.0
 11
-2.5
 21
-77.543521
 31
0.0
  0
LINE
  5
A6
100
AcDbEntity
  8
0
390
0
  6
Continuous
 62
     7
100
AcDbLine
 10
-2.5
 20
-77.543521
 30
0.0
 11
2.5
 21
-77.543521
 31
0.0
  0
LINE
  5
A7
100
AcDbEntity
  8
0
390
0
  6
Continuous
 62
     7
100
AcDbLine
 10
-4.0
 20
-77.543521
 30
0.0
 11
-4.0
 21
-76.858145
 31
0.0
  0
LINE
  5
A8
100
AcDbEntity
  8
0
390
0
  6
Continuous
 62
     7
100
AcDbLine
 10
-4.0
 20
-76.858145
 30
0.0
 11
-6.5
 21
-75.41477
 31
0.0
  0
LINE
  5
A9
100
AcDbEntity
  8
0
390
0
  6
Continuous
 62
     7
100
AcDbLine
 10
-6.5
 20
-75.41477
 30
0.0
 11
-9.0
 21
-76.858145
 31
0.0
  0
LINE
  5
AA
100
AcDbEntity
  8
0
390
0
  6
Continuous
 62
     7
100
AcDbLine
 10
-9.0
 20
-76.858145
 30
0.0
 11
-9.0
 21
-77.543521
 31
0.0
  0
LINE
  5
AB
100
AcDbEntity
  8
0
390
0
  6
Continuous
 62
     7
100
AcDbLine
 10
-9.0
 20
-77.543521
 30
0.0
 11
-4.0
 21
-77.543521
 31
0.0
  0
LINE
  5
AC
100
AcDbEntity
  8
0
390
0
  6
Continuous
 62
     7
100
AcDbLine
 10
-10.5
 20
-77.543521
 30
0.0
 11
-10.5
 21
-76.858145
 31
0.0
  0
LINE
  5
AD
100
AcDbEntity
  8
0
390
0
  6
Continuous
 62
     7
100
AcDbLine
 10
-10.5
 20
-76.858145
 30
0.0
 11
-13.0
 21
-75.41477
 31
0.0
  0
LINE
  5
AE
100
AcDbEntity
  8
0
390
0
  6
Continuous
 62
     7
100
AcDbLine
 10
-13.0
 20
-75.41477
 30
0.0
 11
-15.5
 21
-76.858145
 31
0.0
  0
LINE
  5
AF
100
AcDbEntity
  8
0
390
0
  6
Continuous
 62
     7
100
AcDbLine
 10
-15.5
 20
-76.858145
 30
0.0
 11
-15.5
 21
-77.543521
 31
0.0
  0
LINE
  5
B0
100
AcDbEntity
  8
0
390
0
  6
Continuous
 62
     7
100
AcDbLine
 10
-15.5
 20
-77.543521
 30
0.0
 11
-10.5
 21
-77.543521
 31
0.0
  0
LINE
  5
B1
100
AcDbEntity
  8
0
390
0
  6
Continuous
 62
     7
100
AcDbLine
 10
-17.0
 20
-77.543521
 30
0.0
 11
-17.0
 21
-76.858145
 31
0.0
  0
LINE
  5
B2
100
AcDbEntity
  8
0
390
0
  6
Continuous
 62
     7
100
AcDbLine
 10
-17.0
 20
-76.858145
 30
0.0
 11
-19.5
 21
-75.41477
 31
0.0
  0
LINE
  5
B3
100
AcDbEntity
  8
0
390
0
  6
Continuous
 62
     7
100
AcDbLine
 10
-19.5
 20
-75.41477
 30
0.0
 11
-22.0
 21
-76.858145
 31
0.0
  0
LINE
  5
B4
100
AcDbEntity
  8
0
390
0
  6
Continuous
 62
     7
100
AcDbLine
 10
-22.0
 20
-76.858145
 30
0.0
 11
-22.0
 21
-77.543521
 31
0.0
  0
LINE
  5
B5
100
AcDbEntity
  8
0
390
0
  6
Continuous
 62
     7
100
AcDbLine
 10
-22.0
 20
-77.543521
 30
0.0
 11
-17.0
 21
-77.543521
 31
0.0
  0
LINE
  5
B6
100
AcDbEntity
  8
0
390
0
  6
Continuous
 62
     7
100
AcDbLine
 10
-23.5
 20
-77.543521
 30
0.0
 11
-23.5
 21
-76.858145
 31
0.0
  0
LINE
  5
B7
100
AcDbEntity
  8
0
390
0
  6
Continuous
 62
     7
100
AcDbLine
 10
-23.5
 20
-76.858145
 30
0.0
 11
-26.0
 21
-75.41477
 31
0.0
  0
LINE
  5
B8
100
AcDbEntity
  8
0
390
0
  6
Continuous
 62
     7
100
AcDbLine
 10
-26.0
 20
-75.41477
 30
0.0
 11
-28.5
 21
-76.858145
 31
0.0
  0
LINE
  5
B9
100
AcDbEntity
  8
0
390
0
  6
Continuous
 62
     7
100
AcDbLine
 10
-28.5
 20
-76.858145
 30
0.0
 11
-28.5
 21
-77.543521
 31
0.0
  0
LINE
  5
BA
100
AcDbEntity
  8
0
390
0
  6
Continuous
 62
     7
100
AcDbLine
 10
-28.5
 20
-77.543521
 30
0.0
 11
-23.5
 21
-77.543521
 31
0.0
  0
LINE
  5
BB
100
AcDbEntity
  8
0
390
0
  6
Continuous
 62
     7
100
AcDbLine
 10
23.5
 20
-57.228897
 30
0.0
 11
26.0
 21
-58.672272
 31
0.0
  0
LINE
  5
BC
100
AcDbEntity
  8
0
390
0
  6
Continuous
 62
     7
100
AcDbLine
 10
26.0
 20
-58.672272
 30
0.0
 11
28.5
 21
-57.228897
 31
0.0
  0
LINE
  5
BD
100
AcDbEntity
  8
0
390
0
  6
Continuous
 62
     7
100
AcDbLine
 10
28.5
 20
-57.228897
 30
0.0
 11
28.5
 21
-56.543521
 31
0.0
  0
LINE
  5
BE
100
AcDbEntity
  8
0
390
0
  6
Continuous
 62
     7
100
AcDbLine
 10
23.5
 20
-56.543521
 30
0.0
 11
28.5
 21
-56.543521
 31
0.0
  0
LINE
  5
BF
100
AcDbEntity
  8
0
390
0
  6
Continuous
 62
     7
100
AcDbLine
 10
23.5
 20
-56.543521
 30
0.0
 11
23.5
 21
-57.228897
 31
0.0
  0
LINE
  5
C0
100
AcDbEntity
  8
0
390
0
  6
Continuous
 62
     7
100
AcDbLine
 10
17.0
 20
-57.228897
 30
0.0
 11
19.5
 21
-58.672272
 31
0.0
  0
LINE
  5
C1
100
AcDbEntity
  8
0
390
0
  6
Continuous
 62
     7
100
AcDbLine
 10
19.5
 20
-58.672272
 30
0.0
 11
22.0
 21
-57.228897
 31
0.0
  0
LINE
  5
C2
100
AcDbEntity
  8
0
390
0
  6
Continuous
 62
     7
100
AcDbLine
 10
22.0
 20
-57.228897
 30
0.0
 11
22.0
 21
-56.543521
 31
0.0
  0
LINE
  5
C3
100
AcDbEntity
  8
0
390
0
  6
Continuous
 62
     7
100
AcDbLine
 10
17.0
 20
-56.543521
 30
0.0
 11
22.0
 21
-56.543521
 31
0.0
  0
LINE
  5
C4
100
AcDbEntity
  8
0
390
0
  6
Continuous
 62
     7
100
AcDbLine
 10
17.0
 20
-56.543521
 30
0.0
 11
17.0
 21
-57.228897
 31
0.0
  0
LINE
  5
C5
100
AcDbEntity
  8
0
390
0
  6
Continuous
 62
     7
100
AcDbLine
 10
10.5
 20
-57.228897
 30
0.0
 11
13.0
 21
-58.672272
 31
0.0
  0
LINE
  5
C6
100
AcDbEntity
  8
0
390
0
  6
Continuous
 62
     7
100
AcDbLine
 10
13.0
 20
-58.672272
 30
0.0
 11
15.5
 21
-57.228897
 31
0.0
  0
LINE
  5
C7
100
AcDbEntity
  8
0
390
0
  6
Continuous
 62
     7
100
AcDbLine
 10
15.5
 20
-57.228897
 30
0.0
 11
15.5
 21
-56.543521
 31
0.0
  0
LINE
  5
C8
100
AcDbEntity
  8
0
390
0
  6
Continuous
 62
     7
100
AcDbLine
 10
10.5
 20
-56.543521
 30
0.0
 11
15.5
 21
-56.543521
 31
0.0
  0
LINE
  5
C9
100
AcDbEntity
  8
0
390
0
  6
Continuous
 62
     7
100
AcDbLine
 10
10.5
 20
-56.543521
 30
0.0
 11
10.5
 21
-57.228897
 31
0.0
  0
LINE
  5
CA
100
AcDbEntity
  8
0
390
0
  6
Continuous
 62
     7
100
AcDbLine
 10
4.0
 20
-57.228897
 30
0.0
 11
6.5
 21
-58.672272
 31
0.0
  0
LINE
  5
CB
100
AcDbEntity
  8
0
390
0
  6
Continuous
 62
     7
100
AcDbLine
 10
6.5
 20
-58.672272
 30
0.0
 11
9.0
 21
-57.228897
 31
0.0
  0
LINE
  5
CC
100
AcDbEntity
  8
0
390
0
  6
Continuous
 62
     7
100
AcDbLine
 10
9.0
 20
-57.228897
 30
0.0
 11
9.0
 21
-56.543521
 31
0.0
  0
LINE
  5
CD
100
AcDbEntity
  8
0
390
0
  6
Continuous
 62
     7
100
AcDbLine
 10
4.0
 20
-56.543521
 30
0.0
 11
9.0
 21
-56.543521
 31
0.0
  0
LINE
  5
CE
100
AcDbEntity
  8
0
390
0
  6
Continuous
 62
     7
100
AcDbLine
 10
4.0
 20
-56.543521
 30
0.0
 11
4.0
 21
-57.228897
 31
0.0
  0
LINE
  5
CF
100
AcDbEntity
  8
0
390
0
  6
Continuous
 62
     7
100
AcDbLine
 10
-2.5
 20
-57.228897
 30
0.0
 11
0.0
 21
-58.672272
 31
0.0
  0
LINE
  5
D0
100
AcDbEntity
  8
0
390
0
  6
Continuous
 62
     7
100
AcDbLine
 10
0.0
 20
-58.672272
 30
0.0
 11
2.5
 21
-57.228897
 31
0.0
  0
LINE
  5
D1
100
AcDbEntity
  8
0
390
0
  6
Continuous
 62
     7
100
AcDbLine
 10
2.5
 20
-57.228897
 30
0.0
 11
2.5
 21
-56.543521
 31
0.0
  0
LINE
  5
D2
100
AcDbEntity
  8
0
390
0
  6
Continuous
 62
     7
100
AcDbLine
 10
-2.5
 20
-56.543521
 30
0.0
 11
2.5
 21
-56.543521
 31
0.0
  0
LINE
  5
D3
100
AcDbEntity
  8
0
390
0
  6
Continuous
 62
     7
100
AcDbLine
 10
-2.5
 20
-56.543521
 30
0.0
 11
-2.5
 21
-57.228897
 31
0.0
  0
LINE
  5
D4
100
AcDbEntity
  8
0
390
0
  6
Continuous
 62
     7
100
AcDbLine
 10
-9.0
 20
-57.228897
 30
0.0
 11
-6.5
 21
-58.672272
 31
0.0
  0
LINE
  5
D5
100
AcDbEntity
  8
0
390
0
  6
Continuous
 62
     7
100
AcDbLine
 10
-6.5
 20
-58.672272
 30
0.0
 11
-4.0
 21
-57.228897
 31
0.0
  0
LINE
  5
D6
100
AcDbEntity
  8
0
390
0
  6
Continuous
 62
     7
100
AcDbLine
 10
-4.0
 20
-57.228897
 30
0.0
 11
-4.0
 21
-56.543521
 31
0.0
  0
LINE
  5
D7
100
AcDbEntity
  8
0
390
0
  6
Continuous
 62
     7
100
AcDbLine
 10
-9.0
 20
-56.543521
 30
0.0
 11
-4.0
 21
-56.543521
 31
0.0
  0
LINE
  5
D8
100
AcDbEntity
  8
0
390
0
  6
Continuous
 62
     7
100
AcDbLine
 10
-9.0
 20
-56.543521
 30
0.0
 11
-9.0
 21
-57.228897
 31
0.0
  0
LINE
  5
D9
100
AcDbEntity
  8
0
390
0
  6
Continuous
 62
     7
100
AcDbLine
 10
-15.5
 20
-57.228897
 30
0.0
 11
-13.0
 21
-58.672272
 31
0.0
  0
LINE
  5
DA
100
AcDbEntity
  8
0
390
0
  6
Continuous
 62
     7
100
AcDbLine
 10
-13.0
 20
-58.672272
 30
0.0
 11
-10.5
 21
-57.228897
 31
0.0
  0
LINE
  5
DB
100
AcDbEntity
  8
0
390
0
  6
Continuous
 62
     7
100
AcDbLine
 10
-10.5
 20
-57.228897
 30
0.0
 11
-10.5
 21
-56.543521
 31
0.0
  0
LINE
  5
DC
100
AcDbEntity
  8
0
390
0
  6
Continuous
 62
     7
100
AcDbLine
 10
-15.5
 20
-56.543521
 30
0.0
 11
-10.5
 21
-56.543521
 31
0.0
  0
LINE
  5
DD
100
AcDbEntity
  8
0
390
0
  6
Continuous
 62
     7
100
AcDbLine
 10
-15.5
 20
-56.543521
 30
0.0
 11
-15.5
 21
-57.228897
 31
0.0
  0
LINE
  5
DE
100
AcDbEntity
  8
0
390
0
  6
Continuous
 62
     7
100
AcDbLine
 10
-22.0
 20
-57.228897
 30
0.0
 11
-19.5
 21
-58.672272
 31
0.0
  0
LINE
  5
DF
100
AcDbEntity
  8
0
390
0
  6
Continuous
 62
     7
100
AcDbLine
 10
-19.5
 20
-58.672272
 30
0.0
 11
-17.0
 21
-57.228897
 31
0.0
  0
LINE
  5
E0
100
AcDbEntity
  8
0
390
0
  6
Continuous
 62
     7
100
AcDbLine
 10
-17.0
 20
-57.228897
 30
0.0
 11
-17.0
 21
-56.543521
 31
0.0
  0
LINE
  5
E1
100
AcDbEntity
  8
0
390
0
  6
Continuous
 62
     7
100
AcDbLine
 10
-22.0
 20
-56.543521
 30
0.0
 11
-17.0
 21
-56.543521
 31
0.0
  0
LINE
  5
E2
100
AcDbEntity
  8
0
390
0
  6
Continuous
 62
     7
100
AcDbLine
 10
-22.0
 20
-56.543521
 30
0.0
 11
-22.0
 21
-57.228897
 31
0.0
  0
LINE
  5
E3
100
AcDbEntity
  8
0
390
0
  6
Continuous
 62
     7
100
AcDbLine
 10
-28.5
 20
-56.543521
 30
0.0
 11
-28.5
 21
-57.228897
 31
0.0
  0
LINE
  5
E4
100
AcDbEntity
  8
0
390
0
  6
Continuous
 62
     7
100
AcDbLine
 10
-28.5
 20
-57.228897
 30
0.0
 11
-26.0
 21
-58.672272
 31
0.0
  0
LINE
  5
E5
100
AcDbEntity
  8
0
390
0
  6
Continuous
 62
     7
100
AcDbLine
 10
-26.0
 20
-58.672272
 30
0.0
 11
-23.5
 21
-57.228897
 31
0.0
  0
LINE
  5
E6
100
AcDbEntity
  8
0
390
0
  6
Continuous
 62
     7
100
AcDbLine
 10
-23.5
 20
-57.228897
 30
0.0
 11
-23.5
 21
-56.543521
 31
0.0
  0
LINE
  5
E7
100
AcDbEntity
  8
0
390
0
  6
Continuous
 62
     7
100
AcDbLine
 10
-28.5
 20
-56.543521
 30
0.0
 11
-23.5
 21
-56.543521
 31
0.0
  0
LINE
  5
E8
100
AcDbEntity
  8
0
390
0
  6
Continuous
 62
     7
100
AcDbLine
 10
13.75
 20
-71.229311
 30
0.0
 11
16.25
 21
-69.785935
 31
0.0
  0
LINE
  5
E9
100
AcDbEntity
  8
0
390
0
  6
Continuous
 62
     7
100
AcDbLine
 10
13.75
 20
-74.116062
 30
0.0
 11
13.75
 21
-71.229311
 31
0.0
  0
LINE
  5
EA
100
AcDbEntity
  8
0
390
0
  6
Continuous
 62
     7
100
AcDbLine
 10
16.25
 20
-75.559438
 30
0.0
 11
13.75
 21
-74.116062
 31
0.0
  0
LINE
  5
EB
100
AcDbEntity
  8
0
390
0
  6
Continuous
 62
     7
100
AcDbLine
 10
18.75
 20
-74.116062
 30
0.0
 11
16.25
 21
-75.559438
 31
0.0
  0
LINE
  5
EC
100
AcDbEntity
  8
0
390
0
  6
Continuous
 62
     7
100
AcDbLine
 10
18.75
 20
-71.229311
 30
0.0
 11
18.75
 21
-74.116062
 31
0.0
  0
LINE
  5
ED
100
AcDbEntity
  8
0
390
0
  6
Continuous
 62
     7
100
AcDbLine
 10
16.25
 20
-69.785935
 30
0.0
 11
18.75
 21
-71.229311
 31
0.0
  0
LINE
  5
EE
100
AcDbEntity
  8
0
390
0
  6
Continuous
 62
     7
100
AcDbLine
 10
0.75
 20
-71.229311
 30
0.0
 11
3.25
 21
-69.785935
 31
0.0
  0
LINE
  5
EF
100
AcDbEntity
  8
0
390
0
  6
Continuous
 62
     7
100
AcDbLine
 10
0.75
 20
-74.116062
 30
0.0
 11
0.75
 21
-71.229311
 31
0.0
  0
LINE
  5
F0
100
AcDbEntity
  8
0
390
0
  6
Continuous
 62
     7
100
AcDbLine
 10
3.25
 20
-75.559438
 30
0.0
 11
0.75
 21
-74.116062
 31
0.0
  0
LINE
  5
F1
100
AcDbEntity
  8
0
390
0
  6
Continuous
 62
     7
100
AcDbLine
 10
5.75
 20
-74.116062
 30
0.0
 11
3.25
 21
-75.559438
 31
0.0
  0
LINE
  5
F2
100
AcDbEntity
  8
0
390
0
  6
Continuous
 62
     7
100
AcDbLine
 10
5.75
 20
-71.229311
 30
0.0
 11
5.75
 21
-74.116062
 31
0.0
  0
LINE
  5
F3
100
AcDbEntity
  8
0
390
0
  6
Continuous
 62
     7
100
AcDbLine
 10
3.25
 20
-69.785935
 30
0.0
 11
5.75
 21
-71.229311
 31
0.0
  0
LINE
  5
F4
100
AcDbEntity
  8
0
390
0
  6
Continuous
 62
     7
100
AcDbLine
 10
-12.25
 20
-71.229311
 30
0.0
 11
-9.75
 21
-69.785935
 31
0.0
  0
LINE
  5
F5
100
AcDbEntity
  8
0
390
0
  6
Continuous
 62
     7
100
AcDbLine
 10
-12.25
 20
-74.116062
 30
0.0
 11
-12.25
 21
-71.229311
 31
0.0
  0
LINE
  5
F6
100
AcDbEntity
  8
0
390
0
  6
Continuous
 62
     7
100
AcDbLine
 10
-9.75
 20
-75.559438
 30
0.0
 11
-12.25
 21
-74.116062
 31
0.0
  0
LINE
  5
F7
100
AcDbEntity
  8
0
390
0
  6
Continuous
 62
     7
100
AcDbLine
 10
-7.25
 20
-74.116062
 30
0.0
 11
-9.75
 21
-75.559438
 31
0.0
  0
LINE
  5
F8
100
AcDbEntity
  8
0
390
0
  6
Continuous
 62
     7
100
AcDbLine
 10
-7.25
 20
-71.229311
 30
0.0
 11
-7.25
 21
-74.116062
 31
0.0
  0
LINE
  5
F9
100
AcDbEntity
  8
0
390
0
  6
Continuous
 62
     7
100
AcDbLine
 10
-9.75
 20
-69.785935
 30
0.0
 11
-7.25
 21
-71.229311
 31
0.0
  0
LINE
  5
FA
100
AcDbEntity
  8
0
390
0
  6
Continuous
 62
     7
100
AcDbLine
 10
-25.25
 20
-71.229311
 30
0.0
 11
-22.75
 21
-69.785935
 31
0.0
  0
LINE
  5
FB
100
AcDbEntity
  8
0
390
0
  6
Continuous
 62
     7
100
AcDbLine
 10
-25.25
 20
-74.116062
 30
0.0
 11
-25.25
 21
-71.229311
 31
0.0
  0
LINE
  5
FC
100
AcDbEntity
  8
0
390
0
  6
Continuous
 62
     7
100
AcDbLine
 10
-22.75
 20
-75.559438
 30
0.0
 11
-25.25
 21
-74.116062
 31
0.0
  0
LINE
  5
FD
100
AcDbEntity
  8
0
390
0
  6
Continuous
 62
     7
100
AcDbLine
 10
-20.25
 20
-74.116062
 30
0.0
 11
-22.75
 21
-75.559438
 31
0.0
  0
LINE
  5
FE
100
AcDbEntity
  8
0
390
0
  6
Continuous
 62
     7
100
AcDbLine
 10
-20.25
 20
-71.229311
 30
0.0
 11
-20.25
 21
-74.116062
 31
0.0
  0
LINE
  5
FF
100
AcDbEntity
  8
0
390
0
  6
Continuous
 62
     7
100
AcDbLine
 10
-22.75
 20
-69.785935
 30
0.0
 11
-20.25
 21
-71.229311
 31
0.0
  0
LINE
  5
100
100
AcDbEntity
  8
0
390
0
  6
Continuous
 62
     7
100
AcDbLine
 10
-20.25
 20
-59.97098
 30
0.0
 11
-22.75
 21
-58.527605
 31
0.0
  0
LINE
  5
101
100
AcDbEntity
  8
0
390
0
  6
Continuous
 62
     7
100
AcDbLine
 10
-22.75
 20
-58.527605
 30
0.0
 11
-25.25
 21
-59.97098
 31
0.0
  0
LINE
  5
102
100
AcDbEntity
  8
0
390
0
  6
Continuous
 62
     7
100
AcDbLine
 10
-25.25
 20
-59.97098
 30
0.0
 11
-25.25
 21
-62.857732
 31
0.0
  0
LINE
  5
103
100
AcDbEntity
  8
0
390
0
  6
Continuous
 62
     7
100
AcDbLine
 10
-25.25
 20
-62.857732
 30
0.0
 11
-22.75
 21
-64.301107
 31
0.0
  0
LINE
  5
104
100
AcDbEntity
  8
0
390
0
  6
Continuous
 62
     7
100
AcDbLine
 10
-22.75
 20
-64.301107
 30
0.0
 11
-20.25
 21
-62.857732
 31
0.0
  0
LINE
  5
105
100
AcDbEntity
  8
0
390
0
  6
Continuous
 62
     7
100
AcDbLine
 10
-20.25
 20
-62.857732
 30
0.0
 11
-20.25
 21
-59.97098
 31
0.0
  0
LINE
  5
106
100
AcDbEntity
  8
0
390
0
  6
Continuous
 62
     7
100
AcDbLine
 10
-13.75
 20
-59.97098
 30
0.0
 11
-16.25
 21
-58.527605
 31
0.0
  0
LINE
  5
107
100
AcDbEntity
  8
0
390
0
  6
Continuous
 62
     7
100
AcDbLine
 10
-16.25
 20
-58.527605
 30
0.0
 11
-18.75
 21
-59.97098
 31
0.0
  0
LINE
  5
108
100
AcDbEntity
  8
0
390
0
  6
Continuous
 62
     7
100
AcDbLine
 10
-18.75
 20
-59.97098
 30
0.0
 11
-18.75
 21
-62.857732
 31
0.0
  0
LINE
  5
109
100
AcDbEntity
  8
0
390
0
  6
Continuous
 62
     7
100
AcDbLine
 10
-18.75
 20
-62.857732
 30
0.0
 11
-16.25
 21
-64.301107
 31
0.0
  0
LINE
  5
10A
100
AcDbEntity
  8
0
390
0
  6
Continuous
 62
     7
100
AcDbLine
 10
-16.25
 20
-64.301107
 30
0.0
 11
-13.75
 21
-62.857732
 31
0.0
  0
LINE
  5
10B
100
AcDbEntity
  8
0
390
0
  6
Continuous
 62
     7
100
AcDbLine
 10
-13.75
 20
-62.857732
 30
0.0
 11
-13.75
 21
-59.97098
 31
0.0
  0
LINE
  5
10C
100
AcDbEntity
  8
0
390
0
  6
Continuous
 62
     7
100
AcDbLine
 10
-7.25
 20
-59.97098
 30
0.0
 11
-9.75
 21
-58.527605
 31
0.0
  0
LINE
  5
10D
100
AcDbEntity
  8
0
390
0
  6
Continuous
 62
     7
100
AcDbLine
 10
-9.75
 20
-58.527605
 30
0.0
 11
-12.25
 21
-59.97098
 31
0.0
  0
LINE
  5
10E
100
AcDbEntity
  8
0
390
0
  6
Continuous
 62
     7
100
AcDbLine
 10
-12.25
 20
-59.97098
 30
0.0
 11
-12.25
 21
-62.857732
 31
0.0
  0
LINE
  5
10F
100
AcDbEntity
  8
0
390
0
  6
Continuous
 62
     7
100
AcDbLine
 10
-12.25
 20
-62.857732
 30
0.0
 11
-9.75
 21
-64.301107
 31
0.0
  0
LINE
  5
110
100
AcDbEntity
  8
0
390
0
  6
Continuous
 62
     7
100
AcDbLine
 10
-9.75
 20
-64.301107
 30
0.0
 11
-7.25
 21
-62.857732
 31
0.0
  0
LINE
  5
111
100
AcDbEntity
  8
0
390
0
  6
Continuous
 62
     7
100
AcDbLine
 10
-7.25
 20
-62.857732
 30
0.0
 11
-7.25
 21
-59.97098
 31
0.0
  0
LINE
  5
112
100
AcDbEntity
  8
0
390
0
  6
Continuous
 62
     7
100
AcDbLine
 10
-0.75
 20
-59.97098
 30
0.0
 11
-3.25
 21
-58.527605
 31
0.0
  0
LINE
  5
113
100
AcDbEntity
  8
0
390
0
  6
Continuous
 62
     7
100
AcDbLine
 10
-3.25
 20
-58.527605
 30
0.0
 11
-5.75
 21
-59.97098
 31
0.0
  0
LINE
  5
114
100
AcDbEntity
  8
0
390
0
  6
Continuous
 62
     7
100
AcDbLine
 10
-5.75
 20
-59.97098
 30
0.0
 11
-5.75
 21
-62.857732
 31
0.0
  0
LINE
  5
115
100
AcDbEntity
  8
0
390
0
  6
Continuous
 62
     7
100
AcDbLine
 10
-5.75
 20
-62.857732
 30
0.0
 11
-3.25
 21
-64.301107
 31
0.0
  0
LINE
  5
116
100
AcDbEntity
  8
0
390
0
  6
Continuous
 62
     7
100
AcDbLine
 10
-3.25
 20
-64.301107
 30
0.0
 11
-0.75
 21
-62.857732
 31
0.0
  0
LINE
  5
117
100
AcDbEntity
  8
0
390
0
  6
Continuous
 62
     7
100
AcDbLine
 10
-0.75
 20
-62.857732
 30
0.0
 11
-0.75
 21
-59.97098
 31
0.0
  0
LINE
  5
118
100
AcDbEntity
  8
0
390
0
  6
Continuous
 62
     7
100
AcDbLine
 10
25.25
 20
-59.97098
 30
0.0
 11
22.75
 21
-58.527605
 31
0.0
  0
LINE
  5
119
100
AcDbEntity
  8
0
390
0
  6
Continuous
 62
     7
100
AcDbLine
 10
22.75
 20
-58.527605
 30
0.0
 11
20.25
 21
-59.97098
 31
0.0
  0
LINE
  5
11A
100
AcDbEntity
  8
0
390
0
  6
Continuous
 62
     7
100
AcDbLine
 10
20.25
 20
-59.97098
 30
0.0
 11
20.25
 21
-62.857732
 31
0.0
  0
LINE
  5
11B
100
AcDbEntity
  8
0
390
0
  6
Continuous
 62
     7
100
AcDbLine
 10
20.25
 20
-62.857732
 30
0.0
 11
22.75
 21
-64.301107
 31
0.0
  0
LINE
  5
11C
100
AcDbEntity
  8
0
390
0
  6
Continuous
 62
     7
100
AcDbLine
 10
22.75
 20
-64.301107
 30
0.0
 11
25.25
 21
-62.857732
 31
0.0
  0
LINE
  5
11D
100
AcDbEntity
  8
0
390
0
  6
Continuous
 62
     7
100
AcDbLine
 10
25.25
 20
-62.857732
 30
0.0
 11
25.25
 21
-59.97098
 31
0.0
  0
LINE
  5
11E
100
AcDbEntity
  8
0
390
0
  6
Continuous
 62
     7
100
AcDbLine
 10
18.75
 20
-59.97098
 30
0.0
 11
16.25
 21
-58.527605
 31
0.0
  0
LINE
  5
11F
100
AcDbEntity
  8
0
390
0
  6
Continuous
 62
     7
100
AcDbLine
 10
16.25
 20
-58.527605
 30
0.0
 11
13.75
 21
-59.97098
 31
0.0
  0
LINE
  5
120
100
AcDbEntity
  8
0
390
0
  6
Continuous
 62
     7
100
AcDbLine
 10
13.75
 20
-59.97098
 30
0.0
 11
13.75
 21
-62.857732
 31
0.0
  0
LINE
  5
121
100
AcDbEntity
  8
0
390
0
  6
Continuous
 62
     7
100
AcDbLine
 10
13.75
 20
-62.857732
 30
0.0
 11
16.25
 21
-64.301107
 31
0.0
  0
LINE
  5
122
100
AcDbEntity
  8
0
390
0
  6
Continuous
 62
     7
100
AcDbLine
 10
16.25
 20
-64.301107
 30
0.0
 11
18.75
 21
-62.857732
 31
0.0
  0
LINE
  5
123
100
AcDbEntity
  8
0
390
0
  6
Continuous
 62
     7
100
AcDbLine
 10
18.75
 20
-62.857732
 30
0.0
 11
18.75
 21
-59.97098
 31
0.0
  0
LINE
  5
124
100
AcDbEntity
  8
0
390
0
  6
Continuous
 62
     7
100
AcDbLine
 10
12.25
 20
-59.97098
 30
0.0
 11
9.75
 21
-58.527605
 31
0.0
  0
LINE
  5
125
100
AcDbEntity
  8
0
390
0
  6
Continuous
 62
     7
100
AcDbLine
 10
9.75
 20
-58.527605
 30
0.0
 11
7.25
 21
-59.97098
 31
0.0
  0
LINE
  5
126
100
AcDbEntity
  8
0
390
0
  6
Continuous
 62
     7
100
AcDbLine
 10
7.25
 20
-59.97098
 30
0.0
 11
7.25
 21
-62.857732
 31
0.0
  0
LINE
  5
127
100
AcDbEntity
  8
0
390
0
  6
Continuous
 62
     7
100
AcDbLine
 10
7.25
 20
-62.857732
 30
0.0
 11
9.75
 21
-64.301107
 31
0.0
  0
LINE
  5
128
100
AcDbEntity
  8
0
390
0
  6
Continuous
 62
     7
100
AcDbLine
 10
9.75
 20
-64.301107
 30
0.0
 11
12.25
 21
-62.857732
 31
0.0
  0
LINE
  5
129
100
AcDbEntity
  8
0
390
0
  6
Continuous
 62
     7
100
AcDbLine
 10
12.25
 20
-62.857732
 30
0.0
 11
12.25
 21
-59.97098
 31
0.0
  0
LINE
  5
12A
100
AcDbEntity
  8
0
390
0
  6
Continuous
 62
     7
100
AcDbLine
 10
5.75
 20
-59.97098
 30
0.0
 11
3.25
 21
-58.527605
 31
0.0
  0
LINE
  5
12B
100
AcDbEntity
  8
0
390
0
  6
Continuous
 62
     7
100
AcDbLine
 10
3.25
 20
-58.527605
 30
0.0
 11
0.75
 21
-59.97098
 31
0.0
  0
LINE
  5
12C
100
AcDbEntity
  8
0
390
0
  6
Continuous
 62
     7
100
AcDbLine
 10
0.75
 20
-59.97098
 30
0.0
 11
0.75
 21
-62.857732
 31
0.0
  0
LINE
  5
12D
100
AcDbEntity
  8
0
390
0
  6
Continuous
 62
     7
100
AcDbLine
 10
0.75
 20
-62.857732
 30
0.0
 11
3.25
 21
-64.301107
 31
0.0
  0
LINE
  5
12E
100
AcDbEntity
  8
0
390
0
  6
Continuous
 62
     7
100
AcDbLine
 10
3.25
 20
-64.301107
 30
0.0
 11
5.75
 21
-62.857732
 31
0.0
  0
LINE
  5
12F
100
AcDbEntity
  8
0
390
0
  6
Continuous
 62
     7
100
AcDbLine
 10
5.75
 20
-62.857732
 30
0.0
 11
5.75
 21
-59.97098
 31
0.0
  0
LINE
  5
130
100
AcDbEntity
  8
0
390
0
  6
Continuous
 62
     7
100
AcDbLine
 10
-23.5
 20
-65.600145
 30
0.0
 11
-26.0
 21
-64.15677
 31
0.0
  0
LINE
  5
131
100
AcDbEntity
  8
0
390
0
  6
Continuous
 62
     7
100
AcDbLine
 10
-26.0
 20
-64.15677
 30
0.0
 11
-28.5
 21
-65.600145
 31
0.0
  0
LINE
  5
132
100
AcDbEntity
  8
0
390
0
  6
Continuous
 62
     7
100
AcDbLine
 10
-28.5
 20
-65.600145
 30
0.0
 11
-28.5
 21
-68.486897
 31
0.0
  0
LINE
  5
133
100
AcDbEntity
  8
0
390
0
  6
Continuous
 62
     7
100
AcDbLine
 10
-28.5
 20
-68.486897
 30
0.0
 11
-26.0
 21
-69.930272
 31
0.0
  0
LINE
  5
134
100
AcDbEntity
  8
0
390
0
  6
Continuous
 62
     7
100
AcDbLine
 10
-26.0
 20
-69.930272
 30
0.0
 11
-23.5
 21
-68.486897
 31
0.0
  0
LINE
  5
135
100
AcDbEntity
  8
0
390
0
  6
Continuous
 62
     7
100
AcDbLine
 10
-23.5
 20
-68.486897
 30
0.0
 11
-23.5
 21
-65.600145
 31
0.0
  0
LINE
  5
136
100
AcDbEntity
  8
0
390
0
  6
Continuous
 62
     7
100
AcDbLine
 10
-17.0
 20
-65.600145
 30
0.0
 11
-19.5
 21
-64.15677
 31
0.0
  0
LINE
  5
137
100
AcDbEntity
  8
0
390
0
  6
Continuous
 62
     7
100
AcDbLine
 10
-19.5
 20
-64.15677
 30
0.0
 11
-22.0
 21
-65.600145
 31
0.0
  0
LINE
  5
138
100
AcDbEntity
  8
0
390
0
  6
Continuous
 62
     7
100
AcDbLine
 10
-22.0
 20
-65.600145
 30
0.0
 11
-22.0
 21
-68.486897
 31
0.0
  0
LINE
  5
139
100
AcDbEntity
  8
0
390
0
  6
Continuous
 62
     7
100
AcDbLine
 10
-22.0
 20
-68.486897
 30
0.0
 11
-19.5
 21
-69.930272
 31
0.0
  0
LINE
  5
13A
100
AcDbEntity
  8
0
390
0
  6
Continuous
 62
     7
100
AcDbLine
 10
-19.5
 20
-69.930272
 30
0.0
 11
-17.0
 21
-68.486897
 31
0.0
  0
LINE
  5
13B
100
AcDbEntity
  8
0
390
0
  6
Continuous
 62
     7
100
AcDbLine
 10
-17.0
 20
-68.486897
 30
0.0
 11
-17.0
 21
-65.600145
 31
0.0
  0
LINE
  5
13C
100
AcDbEntity
  8
0
390
0
  6
Continuous
 62
     7
100
AcDbLine
 10
-10.5
 20
-65.600145
 30
0.0
 11
-13.0
 21
-64.15677
 31
0.0
  0
LINE
  5
13D
100
AcDbEntity
  8
0
390
0
  6
Continuous
 62
     7
100
AcDbLine
 10
-13.0
 20
-64.15677
 30
0.0
 11
-15.5
 21
-65.600145
 31
0.0
  0
LINE
  5
13E
100
AcDbEntity
  8
0
390
0
  6
Continuous
 62
     7
100
AcDbLine
 10
-15.5
 20
-65.600145
 30
0.0
 11
-15.5
 21
-68.486897
 31
0.0
  0
LINE
  5
13F
100
AcDbEntity
  8
0
390
0
  6
Continuous
 62
     7
100
AcDbLine
 10
-15.5
 20
-68.486897
 30
0.0
 11
-13.0
 21
-69.930272
 31
0.0
  0
LINE
  5
140
100
AcDbEntity
  8
0
390
0
  6
Continuous
 62
     7
100
AcDbLine
 10
-13.0
 20
-69.930272
 30
0.0
 11
-10.5
 21
-68.486897
 31
0.0
  0
LINE
  5
141
100
AcDbEntity
  8
0
390
0
  6
Continuous
 62
     7
100
AcDbLine
 10
-10.5
 20
-68.486897
 30
0.0
 11
-10.5
 21
-65.600145
 31
0.0
  0
LINE
  5
142
100
AcDbEntity
  8
0
390
0
  6
Continuous
 62
     7
100
AcDbLine
 10
-4.0
 20
-65.600145
 30
0.0
 11
-6.5
 21
-64.15677
 31
0.0
  0
LINE
  5
143
100
AcDbEntity
  8
0
390
0
  6
Continuous
 62
     7
100
AcDbLine
 10
-6.5
 20
-64.15677
 30
0.0
 11
-9.0
 21
-65.600145
 31
0.0
  0
LINE
  5
144
100
AcDbEntity
  8
0
390
0
  6
Continuous
 62
     7
100
AcDbLine
 10
-9.0
 20
-65.600145
 30
0.0
 11
-9.0
 21
-68.486897
 31
0.0
  0
LINE
  5
145
100
AcDbEntity
  8
0
390
0
  6
Continuous
 62
     7
100
AcDbLine
 10
-9.0
 20
-68.486897
 30
0.0
 11
-6.5
 21
-69.930272
 31
0.0
  0
LINE
  5
146
100
AcDbEntity
  8
0
390
0
  6
Continuous
 62
     7
100
AcDbLine
 10
-6.5
 20
-69.930272
 30
0.0
 11
-4.0
 21
-68.486897
 31
0.0
  0
LINE
  5
147
100
AcDbEntity
  8
0
390
0
  6
Continuous
 62
     7
100
AcDbLine
 10
-4.0
 20
-68.486897
 30
0.0
 11
-4.0
 21
-65.600145
 31
0.0
  0
LINE
  5
148
100
AcDbEntity
  8
0
390
0
  6
Continuous
 62
     7
100
AcDbLine
 10
28.5
 20
-65.600145
 30
0.0
 11
26.0
 21
-64.15677
 31
0.0
  0
LINE
  5
149
100
AcDbEntity
  8
0
390
0
  6
Continuous
 62
     7
100
AcDbLine
 10
26.0
 20
-64.15677
 30
0.0
 11
23.5
 21
-65.600145
 31
0.0
  0
LINE
  5
14A
100
AcDbEntity
  8
0
390
0
  6
Continuous
 62
     7
100
AcDbLine
 10
23.5
 20
-65.600145
 30
0.0
 11
23.5
 21
-68.486897
 31
0.0
  0
LINE
  5
14B
100
AcDbEntity
  8
0
390
0
  6
Continuous
 62
     7
100
AcDbLine
 10
23.5
 20
-68.486897
 30
0.0
 11
26.0
 21
-69.930272
 31
0.0
  0
LINE
  5
14C
100
AcDbEntity
  8
0
390
0
  6
Continuous
 62
     7
100
AcDbLine
 10
26.0
 20
-69.930272
 30
0.0
 11
28.5
 21
-68.486897
 31
0.0
  0
LINE
  5
14D
100
AcDbEntity
  8
0
390
0
  6
Continuous
 62
     7
100
AcDbLine
 10
28.5
 20
-68.486897
 30
0.0
 11
28.5
 21
-65.600145
 31
0.0
  0
LINE
  5
14E
100
AcDbEntity
  8
0
390
0
  6
Continuous
 62
     7
100
AcDbLine
 10
22.0
 20
-65.600145
 30
0.0
 11
19.5
 21
-64.15677
 31
0.0
  0
LINE
  5
14F
100
AcDbEntity
  8
0
390
0
  6
Continuous
 62
     7
100
AcDbLine
 10
19.5
 20
-64.15677
 30
0.0
 11
17.0
 21
-65.600145
 31
0.0
  0
LINE
  5
150
100
AcDbEntity
  8
0
390
0
  6
Continuous
 62
     7
100
AcDbLine
 10
17.0
 20
-65.600145
 30
0.0
 11
17.0
 21
-68.486897
 31
0.0
  0
LINE
  5
151
100
AcDbEntity
  8
0
390
0
  6
Continuous
 62
     7
100
AcDbLine
 10
17.0
 20
-68.486897
 30
0.0
 11
19.5
 21
-69.930272
 31
0.0
  0
LINE
  5
152
100
AcDbEntity
  8
0
390
0
  6
Continuous
 62
     7
100
AcDbLine
 10
19.5
 20
-69.930272
 30
0.0
 11
22.0
 21
-68.486897
 31
0.0
  0
LINE
  5
153
100
AcDbEntity
  8
0
390
0
  6
Continuous
 62
     7
100
AcDbLine
 10
22.0
 20
-68.486897
 30
0.0
 11
22.0
 21
-65.600145
 31
0.0
  0
LINE
  5
154
100
AcDbEntity
  8
0
390
0
  6
Continuous
 62
     7
100
AcDbLine
 10
15.5
 20
-65.600145
 30
0.0
 11
13.0
 21
-64.15677
 31
0.0
  0
LINE
  5
155
100
AcDbEntity
  8
0
390
0
  6
Continuous
 62
     7
100
AcDbLine
 10
13.0
 20
-64.15677
 30
0.0
 11
10.5
 21
-65.600145
 31
0.0
  0
LINE
  5
156
100
AcDbEntity
  8
0
390
0
  6
Continuous
 62
     7
100
AcDbLine
 10
10.5
 20
-65.600145
 30
0.0
 11
10.5
 21
-68.486897
 31
0.0
  0
LINE
  5
157
100
AcDbEntity
  8
0
390
0
  6
Continuous
 62
     7
100
AcDbLine
 10
10.5
 20
-68.486897
 30
0.0
 11
13.0
 21
-69.930272
 31
0.0
  0
LINE
  5
158
100
AcDbEntity
  8
0
390
0
  6
Continuous
 62
     7
100
AcDbLine
 10
13.0
 20
-69.930272
 30
0.0
 11
15.5
 21
-68.486897
 31
0.0
  0
LINE
  5
159
100
AcDbEntity
  8
0
390
0
  6
Continuous
 62
     7
100
AcDbLine
 10
15.5
 20
-68.486897
 30
0.0
 11
15.5
 21
-65.600145
 31
0.0
  0
LINE
  5
15A
100
AcDbEntity
  8
0
390
0
  6
Continuous
 62
     7
100
AcDbLine
 10
9.0
 20
-65.600145
 30
0.0
 11
6.5
 21
-64.15677
 31
0.0
  0
LINE
  5
15B
100
AcDbEntity
  8
0
390
0
  6
Continuous
 62
     7
100
AcDbLine
 10
6.5
 20
-64.15677
 30
0.0
 11
4.0
 21
-65.600145
 31
0.0
  0
LINE
  5
15C
100
AcDbEntity
  8
0
390
0
  6
Continuous
 62
     7
100
AcDbLine
 10
4.0
 20
-65.600145
 30
0.0
 11
4.0
 21
-68.486897
 31
0.0
  0
LINE
  5
15D
100
AcDbEntity
  8
0
390
0
  6
Continuous
 62
     7
100
AcDbLine
 10
4.0
 20
-68.486897
 30
0.0
 11
6.5
 21
-69.930272
 31
0.0
  0
LINE
  5
15E
100
AcDbEntity
  8
0
390
0
  6
Continuous
 62
     7
100
AcDbLine
 10
6.5
 20
-69.930272
 30
0.0
 11
9.0
 21
-68.486897
 31
0.0
  0
LINE
  5
15F
100
AcDbEntity
  8
0
390
0
  6
Continuous
 62
     7
100
AcDbLine
 10
9.0
 20
-68.486897
 30
0.0
 11
9.0
 21
-65.600145
 31
0.0
  0
LINE
  5
160
100
AcDbEntity
  8
0
390
0
  6
Continuous
 62
     7
100
AcDbLine
 10
2.5
 20
-65.600145
 30
0.0
 11
0.0
 21
-64.15677
 31
0.0
  0
LINE
  5
161
100
AcDbEntity
  8
0
390
0
  6
Continuous
 62
     7
100
AcDbLine
 10
0.0
 20
-64.15677
 30
0.0
 11
-2.5
 21
-65.600145
 31
0.0
  0
LINE
  5
162
100
AcDbEntity
  8
0
390
0
  6
Continuous
 62
     7
100
AcDbLine
 10
-2.5
 20
-65.600145
 30
0.0
 11
-2.5
 21
-68.486897
 31
0.0
  0
LINE
  5
163
100
AcDbEntity
  8
0
390
0
  6
Continuous
 62
     7
100
AcDbLine
 10
-2.5
 20
-68.486897
 30
0.0
 11
0.0
 21
-69.930272
 31
0.0
  0
LINE
  5
164
100
AcDbEntity
  8
0
390
0
  6
Continuous
 62
     7
100
AcDbLine
 10
0.0
 20
-69.930272
 30
0.0
 11
2.5
 21
-68.486897
 31
0.0
  0
LINE
  5
165
100
AcDbEntity
  8
0
390
0
  6
Continuous
 62
     7
100
AcDbLine
 10
2.5
 20
-68.486897
 30
0.0
 11
2.5
 21
-65.600145
 31
0.0
  0
LINE
  5
166
100
AcDbEntity
  8
0
390
0
  6
Continuous
 62
     7
100
AcDbLine
 10
-18.75
 20
-71.229311
 30
0.0
 11
-16.25
 21
-69.785935
 31
0.0
  0
LINE
  5
167
100
AcDbEntity
  8
0
390
0
  6
Continuous
 62
     7
100
AcDbLine
 10
-18.75
 20
-74.116062
 30
0.0
 11
-18.75
 21
-71.229311
 31
0.0
  0
LINE
  5
168
100
AcDbEntity
  8
0
390
0
  6
Continuous
 62
     7
100
AcDbLine
 10
-16.25
 20
-75.559438
 30
0.0
 11
-18.75
 21
-74.116062
 31
0.0
  0
LINE
  5
169
100
AcDbEntity
  8
0
390
0
  6
Continuous
 62
     7
100
AcDbLine
 10
-13.75
 20
-74.116062
 30
0.0
 11
-16.25
 21
-75.559438
 31
0.0
  0
LINE
  5
16A
100
AcDbEntity
  8
0
390
0
  6
Continuous
 62
     7
100
AcDbLine
 10
-13.75
 20
-71.229311
 30
0.0
 11
-13.75
 21
-74.116062
 31
0.0
  0
LINE
  5
16B
100
AcDbEntity
  8
0
390
0
  6
Continuous
 62
     7
100
AcDbLine
 10
-16.25
 20
-69.785935
 30
0.0
 11
-13.75
 21
-71.229311
 31
0.0
  0
LINE
  5
16C
100
AcDbEntity
  8
0
390
0
  6
Continuous
 62
     7
100
AcDbLine
 10
-5.75
 20
-71.229311
 30
0.0
 11
-3.25
 21
-69.785935
 31
0.0
  0
LINE
  5
16D
100
AcDbEntity
  8
0
390
0
  6
Continuous
 62
     7
100
AcDbLine
 10
-5.75
 20
-74.116062
 30
0.0
 11
-5.75
 21
-71.229311
 31
0.0
  0
LINE
  5
16E
100
AcDbEntity
  8
0
390
0
  6
Continuous
 62
     7
100
AcDbLine
 10
-3.25
 20
-75.559438
 30
0.0
 11
-5.75
 21
-74.116062
 31
0.0
  0
LINE
  5
16F
100
AcDbEntity
  8
0
390
0
  6
Continuous
 62
     7
100
AcDbLine
 10
-0.75
 20
-74.116062
 30
0.0
 11
-3.25
 21
-75.559438
 31
0.0
  0
LINE
  5
170
100
AcDbEntity
  8
0
390
0
  6
Continuous
 62
     7
100
AcDbLine
 10
-0.75
 20
-71.229311
 30
0.0
 11
-0.75
 21
-74.116062
 31
0.0
  0
LINE
  5
171
100
AcDbEntity
  8
0
390
0
  6
Continuous
 62
     7
100
AcDbLine
 10
-3.25
 20
-69.785935
 30
0.0
 11
-0.75
 21
-71.229311
 31
0.0
  0
LINE
  5
172
100
AcDbEntity
  8
0
390
0
  6
Continuous
 62
     7
100
AcDbLine
 10
7.25
 20
-71.229311
 30
0.0
 11
9.75
 21
-69.785935
 31
0.0
  0
LINE
  5
173
100
AcDbEntity
  8
0
390
0
  6
Continuous
 62
     7
100
AcDbLine
 10
7.25
 20
-74.116062
 30
0.0
 11
7.25
 21
-71.229311
 31
0.0
  0
LINE
  5
174
100
AcDbEntity
  8
0
390
0
  6
Continuous
 62
     7
100
AcDbLine
 10
9.75
 20
-75.559438
 30
0.0
 11
7.25
 21
-74.116062
 31
0.0
  0
LINE
  5
175
100
AcDbEntity
  8
0
390
0
  6
Continuous
 62
     7
100
AcDbLine
 10
12.25
 20
-74.116062
 30
0.0
 11
9.75
 21
-75.559438
 31
0.0
  0
LINE
  5
176
100
AcDbEntity
  8
0
390
0
  6
Continuous
 62
     7
100
AcDbLine
 10
12.25
 20
-71.229311
 30
0.0
 11
12.25
 21
-74.116062
 31
0.0
  0
LINE
  5
177
100
AcDbEntity
  8
0
390
0
  6
Continuous
 62
     7
100
AcDbLine
 10
9.75
 20
-69.785935
 30
0.0
 11
12.25
 21
-71.229311
 31
0.0
  0
LINE
  5
178
100
AcDbEntity
  8
0
390
0
  6
Continuous
 62
     7
100
AcDbLine
 10
20.25
 20
-71.229311
 30
0.0
 11
22.75
 21
-69.785935
 31
0.0
  0
LINE
  5
179
100
AcDbEntity
  8
0
390
0
  6
Continuous
 62
     7
100
AcDbLine
 10
20.25
 20
-74.116062
 30
0.0
 11
20.25
 21
-71.229311
 31
0.0
  0
LINE
  5
17A
100
AcDbEntity
  8
0
390
0
  6
Continuous
 62
     7
100
AcDbLine
 10
22.75
 20
-75.559438
 30
0.0
 11
20.25
 21
-74.116062
 31
0.0
  0
LINE
  5
17B
100
AcDbEntity
  8
0
390
0
  6
Continuous
 62
     7
100
AcDbLine
 10
25.25
 20
-74.116062
 30
0.0
 11
22.75
 21
-75.559438
 31
0.0
  0
LINE
  5
17C
100
AcDbEntity
  8
0
390
0
  6
Continuous
 62
     7
100
AcDbLine
 10
25.25
 20
-71.229311
 30
0.0
 11
25.25
 21
-74.116062
 31
0.0
  0
LINE
  5
17D
100
AcDbEntity
  8
0
390
0
  6
Continuous
 62
     7
100
AcDbLine
 10
22.75
 20
-69.785935
 30
0.0
 11
25.25
 21
-71.229311
 31
0.0
  0
LINE
  5
17E
100
AcDbEntity
  8
0
390
0
  6
Continuous
 62
     7
100
AcDbLine
 10
31.75
 20
-74.116062
 30
0.0
 11
31.75
 21
-71.229311
 31
0.0
  0
LINE
  5
17F
100
AcDbEntity
  8
0
390
0
  6
Continuous
 62
     7
100
AcDbLine
 10
31.75
 20
-71.229311
 30
0.0
 11
29.25
 21
-69.785935
 31
0.0
  0
LINE
  5
180
100
AcDbEntity
  8
0
390
0
  6
Continuous
 62
     7
100
AcDbLine
 10
29.25
 20
-69.785935
 30
0.0
 11
26.75
 21
-71.229311
 31
0.0
  0
LINE
  5
181
100
AcDbEntity
  8
0
390
0
  6
Continuous
 62
     7
100
AcDbLine
 10
26.75
 20
-71.229311
 30
0.0
 11
26.75
 21
-74.116062
 31
0.0
  0
LINE
  5
182
100
AcDbEntity
  8
0
390
0
  6
Continuous
 62
     7
100
AcDbLine
 10
26.75
 20
-74.116062
 30
0.0
 11
29.25
 21
-75.559438
 31
0.0
  0
LINE
  5
183
100
AcDbEntity
  8
0
390
0
  6
Continuous
 62
     7
100
AcDbLine
 10
29.25
 20
-75.559438
 30
0.0
 11
31.75
 21
-74.116062
 31
0.0
  0
LINE
  5
184
100
AcDbEntity
  8
0
390
0
  6
Continuous
 62
     7
100
AcDbLine
 10
31.75
 20
-62.857732
 30
0.0
 11
31.75
 21
-59.97098
 31
0.0
  0
LINE
  5
185
100
AcDbEntity
  8
0
390
0
  6
Continuous
 62
     7
100
AcDbLine
 10
31.75
 20
-59.97098
 30
0.0
 11
29.25
 21
-58.527605
 31
0.0
  0
LINE
  5
186
100
AcDbEntity
  8
0
390
0
  6
Continuous
 62
     7
100
AcDbLine
 10
29.25
 20
-58.527605
 30
0.0
 11
26.75
 21
-59.97098
 31
0.0
  0
LINE
  5
187
100
AcDbEntity
  8
0
390
0
  6
Continuous
 62
     7
100
AcDbLine
 10
26.75
 20
-59.97098
 30
0.0
 11
26.75
 21
-62.857732
 31
0.0
  0
LINE
  5
188
100
AcDbEntity
  8
0
390
0
  6
Continuous
 62
     7
100
AcDbLine
 10
26.75
 20
-62.857732
 30
0.0
 11
29.25
 21
-64.301107
 31
0.0
  0
LINE
  5
189
100
AcDbEntity
  8
0
390
0
  6
Continuous
 62
     7
100
AcDbLine
 10
29.25
 20
-64.301107
 30
0.0
 11
31.75
 21
-62.857732
 31
0.0
  0
LINE
  5
18A
100
AcDbEntity
  8
0
390
0
  6
Continuous
 62
     7
100
AcDbLine
 10
-30.0
 20
-68.486897
 30
0.0
 11
-30.0
 21
-65.600145
 31
0.0
  0
LINE
  5
18B
100
AcDbEntity
  8
0
390
0
  6
Continuous
 62
     7
100
AcDbLine
 10
-30.0
 20
-65.600145
 30
0.0
 11
-32.0
 21
-64.445445
 31
0.0
  0
LINE
  5
18C
100
AcDbEntity
  8
0
390
0
  6
Continuous
 62
     7
100
AcDbLine
 10
-32.0
 20
-69.641597
 30
0.0
 11
-32.0
 21
-64.445445
 31
0.0
  0
LINE
  5
18D
100
AcDbEntity
  8
0
390
0
  6
Continuous
 62
     7
100
AcDbLine
 10
-32.0
 20
-69.641597
 30
0.0
 11
-30.0
 21
-68.486897
 31
0.0
  0
LINE
  5
18E
100
AcDbEntity
  8
0
390
0
  6
Continuous
 62
     7
100
AcDbLine
 10
-17.362921
 20
-57.019365
 30
0.0
 11
-17.0
 21
-57.228897
 31
0.0
  0
LINE
  5
18F
100
AcDbEntity
  8
0
390
0
  6
Continuous
 62
     7
100
AcDbLine
 10
-17.362921
 20
-56.543521
 30
0.0
 11
-17.362921
 21
-57.019365
 31
0.0
  0
LINE
  5
190
100
AcDbEntity
  8
0
390
0
  6
Continuous
 62
     7
100
AcDbLine
 10
-10.821705
 20
-57.043161
 30
0.0
 11
-10.5
 21
-57.228897
 31
0.0
  0
LINE
  5
191
100
AcDbEntity
  8
0
390
0
  6
Continuous
 62
     7
100
AcDbLine
 10
-10.821705
 20
-56.543521
 30
0.0
 11
-10.821705
 21
-57.043161
 31
0.0
  0
LINE
  5
192
100
AcDbEntity
  8
0
390
0
  6
Continuous
 62
     7
100
AcDbLine
 10
-21.59788
 20
-56.996733
 30
0.0
 11
-22.0
 21
-57.228897
 31
0.0
  0
LINE
  5
193
100
AcDbEntity
  8
0
390
0
  6
Continuous
 62
     7
100
AcDbLine
 10
-21.59788
 20
-56.996733
 30
0.0
 11
-21.59788
 21
-56.543521
 31
0.0
  0
LINE
  5
194
100
AcDbEntity
  8
0
390
0
  6
Continuous
 62
     7
100
AcDbLine
 10
-8.687274
 20
-57.048344
 30
0.0
 11
-8.687274
 21
-56.543521
 31
0.0
  0
LINE
  5
195
100
AcDbEntity
  8
0
390
0
  6
Continuous
 62
     7
100
AcDbLine
 10
-8.687274
 20
-57.048344
 30
0.0
 11
-9.0
 21
-57.228897
 31
0.0
  0
LINE
  5
196
100
AcDbEntity
  8
0
390
0
  6
Continuous
 62
     7
100
AcDbLine
 10
2.202247
 20
-57.056989
 30
0.0
 11
2.5
 21
-57.228897
 31
0.0
  0
LINE
  5
197
100
AcDbEntity
  8
0
390
0
  6
Continuous
 62
     7
100
AcDbLine
 10
2.202247
 20
-56.543521
 30
0.0
 11
2.202247
 21
-57.056989
 31
0.0
  0
LINE
  5
198
100
AcDbEntity
  8
0
390
0
  6
Continuous
 62
     7
100
AcDbLine
 10
-2.202247
 20
-57.056989
 30
0.0
 11
-2.202247
 21
-56.543521
 31
0.0
  0
LINE
  5
199
100
AcDbEntity
  8
0
390
0
  6
Continuous
 62
     7
100
AcDbLine
 10
-2.202247
 20
-57.056989
 30
0.0
 11
-2.5
 21
-57.228897
 31
0.0
  0
LINE
  5
19A
100
AcDbEntity
  8
0
390
0
  6
Continuous
 62
     7
100
AcDbLine
 10
10.821704
 20
-57.043161
 30
0.0
 11
10.821704
 21
-56.543521
 31
0.0
  0
LINE
  5
19B
100
AcDbEntity
  8
0
390
0
  6
Continuous
 62
     7
100
AcDbLine
 10
10.821704
 20
-57.043161
 30
0.0
 11
10.5
 21
-57.228897
 31
0.0
  0
LINE
  5
19C
100
AcDbEntity
  8
0
390
0
  6
Continuous
 62
     7
100
AcDbLine
 10
8.687274
 20
-57.048344
 30
0.0
 11
9.0
 21
-57.228897
 31
0.0
  0
LINE
  5
19D
100
AcDbEntity
  8
0
390
0
  6
Continuous
 62
     7
100
AcDbLine
 10
8.687274
 20
-56.543521
 30
0.0
 11
8.687274
 21
-57.048344
 31
0.0
  0
LINE
  5
19E
100
AcDbEntity
  8
0
390
0
  6
Continuous
 62
     7
100
AcDbLine
 10
4.300622
 20
-57.055333
 30
0.0
 11
4.300622
 21
-56.543521
 31
0.0
  0
LINE
  5
19F
100
AcDbEntity
  8
0
390
0
  6
Continuous
 62
     7
100
AcDbLine
 10
4.300622
 20
-57.055333
 30
0.0
 11
4.0
 21
-57.228897
 31
0.0
  0
LINE
  5
1A0
100
AcDbEntity
  8
0
390
0
  6
Continuous
 62
     7
100
AcDbLine
 10
-15.15344
 20
-57.02881
 30
0.0
 11
-15.15344
 21
-56.543521
 31
0.0
  0
LINE
  5
1A1
100
AcDbEntity
  8
0
390
0
  6
Continuous
 62
     7
100
AcDbLine
 10
-15.15344
 20
-57.02881
 30
0.0
 11
-15.5
 21
-57.228897
 31
0.0
  0
LINE
  5
1A2
100
AcDbEntity
  8
0
390
0
  6
Continuous
 62
     7
100
AcDbLine
 10
17.36292
 20
-57.019365
 30
0.0
 11
17.36292
 21
-56.543521
 31
0.0
  0
LINE
  5
1A3
100
AcDbEntity
  8
0
390
0
  6
Continuous
 62
     7
100
AcDbLine
 10
17.36292
 20
-57.019365
 30
0.0
 11
17.0
 21
-57.228897
 31
0.0
  0
LINE
  5
1A4
100
AcDbEntity
  8
0
390
0
  6
Continuous
 62
     7
100
AcDbLine
 10
15.153439
 20
-57.02881
 30
0.0
 11
15.5
 21
-57.228897
 31
0.0
  0
LINE
  5
1A5
100
AcDbEntity
  8
0
390
0
  6
Continuous
 62
     7
100
AcDbLine
 10
15.153439
 20
-56.543521
 30
0.0
 11
15.153439
 21
-57.02881
 31
0.0
  0
LINE
  5
1A6
100
AcDbEntity
  8
0
390
0
  6
Continuous
 62
     7
100
AcDbLine
 10
23.928693
 20
-56.981391
 30
0.0
 11
23.928693
 21
-56.543521
 31
0.0
  0
LINE
  5
1A7
100
AcDbEntity
  8
0
390
0
  6
Continuous
 62
     7
100
AcDbLine
 10
23.928693
 20
-56.981391
 30
0.0
 11
23.5
 21
-57.228897
 31
0.0
  0
LINE
  5
1A8
100
AcDbEntity
  8
0
390
0
  6
Continuous
 62
     7
100
AcDbLine
 10
-28.063624
 20
-56.976955
 30
0.0
 11
-28.5
 21
-57.228897
 31
0.0
  0
LINE
  5
1A9
100
AcDbEntity
  8
0
390
0
  6
Continuous
 62
     7
100
AcDbLine
 10
-28.063624
 20
-56.976955
 30
0.0
 11
-28.063624
 21
-56.543521
 31
0.0
  0
LINE
  5
1AA
100
AcDbEntity
  8
0
390
0
  6
Continuous
 62
     7
100
AcDbLine
 10
21.59788
 20
-56.996733
 30
0.0
 11
22.0
 21
-57.228897
 31
0.0
  0
LINE
  5
1AB
100
AcDbEntity
  8
0
390
0
  6
Continuous
 62
     7
100
AcDbLine
 10
21.59788
 20
-56.543521
 30
0.0
 11
21.59788
 21
-56.996733
 31
0.0
  0
LINE
  5
1AC
100
AcDbEntity
  8
0
390
0
  6
Continuous
 62
     7
100
AcDbLine
 10
-23.928694
 20
-56.981391
 30
0.0
 11
-23.5
 21
-57.228897
 31
0.0
  0
LINE
  5
1AD
100
AcDbEntity
  8
0
390
0
  6
Continuous
 62
     7
100
AcDbLine
 10
-23.928694
 20
-56.543521
 30
0.0
 11
-23.928694
 21
-56.981391
 31
0.0
  0
LINE
  5
1AE
100
AcDbEntity
  8
0
390
0
  6
Continuous
 62
     7
100
AcDbLine
 10
-4.300622
 20
-57.055333
 30
0.0
 11
-4.0
 21
-57.228897
 31
0.0
  0
LINE
  5
1AF
100
AcDbEntity
  8
0
390
0
  6
Continuous
 62
     7
100
AcDbLine
 10
-4.300622
 20
-56.543521
 30
0.0
 11
-4.300622
 21
-57.055333
 31
0.0
  0
LINE
  5
1B0
100
AcDbEntity
  8
0
390
0
  6
Continuous
 62
     7
100
AcDbLine
 10
28.063623
 20
-56.976955
 30
0.0
 11
28.5
 21
-57.228897
 31
0.0
  0
LINE
  5
1B1
100
AcDbEntity
  8
0
390
0
  6
Continuous
 62
     7
100
AcDbLine
 10
28.063623
 20
-56.543521
 30
0.0
 11
28.063623
 21
-56.976955
 31
0.0
  0
LINE
  5
1B2
100
AcDbEntity
  8
0
390
0
  6
Continuous
 62
     7
100
AcDbLine
 10
26.0
 20
-58.168388
 30
0.0
 11
26.0
 21
-58.672272
 31
0.0
  0
LINE
  5
1B3
100
AcDbEntity
  8
0
390
0
  6
Continuous
 62
     7
100
AcDbLine
 10
28.063623
 20
-56.976955
 30
0.0
 11
26.0
 21
-58.168388
 31
0.0
  0
LINE
  5
1B4
100
AcDbEntity
  8
0
390
0
  6
Continuous
 62
     7
100
AcDbLine
 10
19.5
 20
-58.231941
 30
0.0
 11
19.5
 21
-58.672272
 31
0.0
  0
ELLIPSE
  5
1B5
100
AcDbEntity
  8
0
390
0
  6
Continuous
 62
     7
100
AcDbEllipse
 10
0.0
 20
-68.74849
 30
0.0
 11
41.648413128999003
 21
24.053050439425157
 31
0.0
210
0.0
220
0.0
230
1.0
 40
0.015115
 41
5.1908978811232771
 42
5.2488215884746419
  0
LINE
  5
1B6
100
AcDbEntity
  8
0
390
0
  6
Continuous
 62
     7
100
AcDbLine
 10
-26.0
 20
-58.168388
 30
0.0
 11
-26.0
 21
-58.672272
 31
0.0
  0
LINE
  5
1B7
100
AcDbEntity
  8
0
390
0
  6
Continuous
 62
     7
100
AcDbLine
 10
-24.543839
 20
-57.327673
 30
0.0
 11
-26.0
 21
-58.168388
 31
0.0
  0
ELLIPSE
  5
1B8
100
AcDbEntity
  8
0
390
0
  6
Continuous
 62
     7
100
AcDbEllipse
 10
0.0
 20
-42.479053
 30
0.0
 11
41.648413128999003
 21
24.05305043942516
 31
0.0
210
0.0
220
0.0
230
1.0
 40
0.015115
 41
4.0734825939700139
 42
4.0916439906687323
  0
LINE
  5
1B9
100
AcDbEntity
  8
0
390
0
  6
Continuous
 62
     7
100
AcDbLine
 10
26.0
 20
-58.168388
 30
0.0
 11
24.543838
 21
-57.327673
 31
0.0
  0
ELLIPSE
  5
1BA
100
AcDbEntity
  8
0
390
0
  6
Continuous
 62
     7
100
AcDbEllipse
 10
0.0
 20
-42.479053
 30
0.0
 11
-41.648413128999039
 21
24.053050439425185
 31
0.0
210
0.0
220
0.0
230
1.0
 40
0.015115
 41
2.1915413165108548
 42
2.2097027132095737
  0
LINE
  5
1BB
100
AcDbEntity
  8
0
390
0
  6
Continuous
 62
     7
100
AcDbLine
 10
-19.5
 20
-58.231941
 30
0.0
 11
-19.5
 21
-58.672272
 31
0.0
  0
ELLIPSE
  5
1BC
100
AcDbEntity
  8
0
390
0
  6
Continuous
 62
     7
100
AcDbEllipse
 10
0.0
 20
-68.74849
 30
0.0
 11
-41.648413128999039
 21
24.053050439425185
 31
0.0
210
0.0
220
0.0
230
1.0
 40
0.015115
 41
1.0343637187049448
 42
1.0922874260563107
  0
LINE
  5
1BD
100
AcDbEntity
  8
0
390
0
  6
Continuous
 62
     7
100
AcDbLine
 10
-26.0
 20
-58.168388
 30
0.0
 11
-28.063624
 21
-56.976955
 31
0.0
  0
ELLIPSE
  5
1BE
100
AcDbEntity
  8
0
390
0
  6
Continuous
 62
     7
100
AcDbEllipse
 10
0.0
 20
-46.23183
 30
0.0
 11
-41.648413128999039
 21
24.053050439425185
 31
0.0
210
0.0
220
0.0
230
1.0
 40
0.015115
 41
2.0095322729487068
 42
2.0667638382502442
  0
LINE
  5
1BF
100
AcDbEntity
  8
0
390
0
  6
Continuous
 62
     7
100
AcDbLine
 10
13.0
 20
-58.287692
 30
0.0
 11
13.0
 21
-58.672272
 31
0.0
  0
ELLIPSE
  5
1C0
100
AcDbEntity
  8
0
390
0
  6
Continuous
 62
     7
100
AcDbEllipse
 10
0.0
 20
-49.984606
 30
0.0
 11
-41.648413128999039
 21
24.053050439425185
 31
0.0
210
0.0
220
0.0
230
1.0
 40
0.015115
 41
1.8423664383642748
 42
1.8969544327339931
  0
LINE
  5
1C1
100
AcDbEntity
  8
0
390
0
  6
Continuous
 62
     7
100
AcDbLine
 10
0.0
 20
-58.329631
 30
0.0
 11
0.0
 21
-58.672272
 31
0.0
  0
ELLIPSE
  5
1C2
100
AcDbEntity
  8
0
390
0
  6
Continuous
 62
     7
100
AcDbEllipse
 10
0.0
 20
-57.49016
 30
0.0
 11
-41.648413128999039
 21
24.053050439425185
 31
0.0
210
0.0
220
0.0
230
1.0
 40
0.015115
 41
1.5266258872910492
 42
1.5795256321532773
  0
LINE
  5
1C3
100
AcDbEntity
  8
0
390
0
  6
Continuous
 62
     7
100
AcDbLine
 10
-6.5
 20
-58.319345
 30
0.0
 11
-6.5
 21
-58.672272
 31
0.0
  0
ELLIPSE
  5
1C4
100
AcDbEntity
  8
0
390
0
  6
Continuous
 62
     7
100
AcDbEllipse
 10
0.0
 20
-61.242937
 30
0.0
 11
-41.648413128999039
 21
24.053050439425185
 31
0.0
210
0.0
220
0.0
230
1.0
 40
0.015115
 41
1.3694048705274391
 42
1.4228226658436127
  0
ELLIPSE
  5
1C5
100
AcDbEntity
  8
0
390
0
  6
Continuous
 62
     7
100
AcDbEllipse
 10
0.0
 20
-64.995713
 30
0.0
 11
41.648413128999003
 21
24.053050439425157
 31
0.0
210
0.0
220
0.0
230
1.0
 40
0.015115
 41
5.0210884756070255
 42
5.0760340227415623
  0
LINE
  5
1C6
100
AcDbEntity
  8
0
390
0
  6
Continuous
 62
     7
100
AcDbLine
 10
6.5
 20
-58.319345
 30
0.0
 11
6.5
 21
-58.672272
 31
0.0
  0
ELLIPSE
  5
1C7
100
AcDbEntity
  8
0
390
0
  6
Continuous
 62
     7
100
AcDbEllipse
 10
0.0
 20
-61.242937
 30
0.0
 11
41.648413128999003
 21
24.053050439425157
 31
0.0
210
0.0
220
0.0
230
1.0
 40
0.015115
 41
4.860362641335974
 42
4.9137804366521474
  0
LINE
  5
1C8
100
AcDbEntity
  8
0
390
0
  6
Continuous
 62
     7
100
AcDbLine
 10
-13.0
 20
-58.287692
 30
0.0
 11
-13.0
 21
-58.672272
 31
0.0
  0
ELLIPSE
  5
1C9
100
AcDbEntity
  8
0
390
0
  6
Continuous
 62
     7
100
AcDbEllipse
 10
0.0
 20
-49.984606
 30
0.0
 11
41.648413128999003
 21
24.05305043942516
 31
0.0
210
0.0
220
0.0
230
1.0
 40
0.015115
 41
4.3862308744455945
 42
4.4408188688153123
  0
ELLIPSE
  5
1CA
100
AcDbEntity
  8
0
390
0
  6
Continuous
 62
     7
100
AcDbEllipse
 10
0.0
 20
-57.49016
 30
0.0
 11
41.648413128999003
 21
24.053050439425157
 31
0.0
210
0.0
220
0.0
230
1.0
 40
0.015115
 41
4.7036596750263096
 42
4.7565594198885384
  0
ELLIPSE
  5
1CB
100
AcDbEntity
  8
0
390
0
  6
Continuous
 62
     7
100
AcDbEllipse
 10
0.0
 20
-53.737383
 30
0.0
 11
41.648413128999003
 21
24.05305043942516
 31
0.0
210
0.0
220
0.0
230
1.0
 40
0.015115
 41
4.5469567087166443
 42
4.6002190726790975
  0
ELLIPSE
  5
1CC
100
AcDbEntity
  8
0
390
0
  6
Continuous
 62
     7
100
AcDbEllipse
 10
0.0
 20
-53.737383
 30
0.0
 11
-41.648413128999039
 21
24.053050439425185
 31
0.0
210
0.0
220
0.0
230
1.0
 40
0.015115
 41
1.6829662345004885
 42
1.736228598462942
  0
ELLIPSE
  5
1CD
100
AcDbEntity
  8
0
390
0
  6
Continuous
 62
     7
100
AcDbEllipse
 10
0.0
 20
-46.23183
 30
0.0
 11
41.648413128999003
 21
24.05305043942516
 31
0.0
210
0.0
220
0.0
230
1.0
 40
0.015115
 41
4.2164214689293429
 42
4.2736530342308798
  0
ELLIPSE
  5
1CE
100
AcDbEntity
  8
0
390
0
  6
Continuous
 62
     7
100
AcDbEllipse
 10
0.0
 20
-64.995713
 30
0.0
 11
-41.648413128999039
 21
24.053050439425185
 31
0.0
210
0.0
220
0.0
230
1.0
 40
0.015115
 41
1.2071512844380263
 42
1.262096831572562
  0
LINE
  5
1CF
100
AcDbEntity
  8
0
390
0
  6
Continuous
 62
     7
100
AcDbLine
 10
-22.75
 20
-59.00654
 30
0.0
 11
-22.75
 21
-58.527605
 31
0.0
  0
LINE
  5
1D0
100
AcDbEntity
  8
0
390
0
  6
Continuous
 62
     7
100
AcDbLine
 10
-20.642306
 20
-60.197478
 30
0.0
 11
-20.25
 21
-59.97098
 31
0.0
  0
ELLIPSE
  5
1D1
100
AcDbEntity
  8
0
390
0
  6
Continuous
 62
     7
100
AcDbEllipse
 10
0.0
 20
-72.844436
 30
0.0
 11
-41.648413128999039
 21
24.053050439425185
 31
0.0
210
0.0
220
0.0
230
1.0
 40
0.015115
 41
5.2396594249925386
 42
5.2989613741111441
  0
LINE
  5
1D2
100
AcDbEntity
  8
0
390
0
  6
Continuous
 62
     7
100
AcDbLine
 10
1.046966
 20
-60.142434
 30
0.0
 11
0.75
 21
-59.97098
 31
0.0
  0
LINE
  5
1D3
100
AcDbEntity
  8
0
390
0
  6
Continuous
 62
     7
100
AcDbLine
 10
3.25
 20
-58.872806
 30
0.0
 11
3.25
 21
-58.527605
 31
0.0
  0
ELLIPSE
  5
1D4
100
AcDbEntity
  8
0
390
0
  6
Continuous
 62
     7
100
AcDbEllipse
 10
0.0
 20
-61.586106
 30
0.0
 11
41.64841312899906
 21
24.053050439425185
 31
0.0
210
0.0
220
0.0
230
1.0
 40
0.015115
 41
1.4839564042038194
 42
1.5369271385870455
  0
LINE
  5
1D5
100
AcDbEntity
  8
0
390
0
  6
Continuous
 62
     7
100
AcDbLine
 10
-27.186377
 20
-60.222922
 30
0.0
 11
-29.25
 21
-59.031489
 31
0.0
  0
LINE
  5
1D6
100
AcDbEntity
  8
0
390
0
  6
Continuous
 62
     7
100
AcDbLine
 10
-29.25
 20
-59.031489
 30
0.0
 11
-29.25
 21
-58.527605
 31
0.0
  0
LINE
  5
1D7
100
AcDbEntity
  8
0
390
0
  6
Continuous
 62
     7
100
AcDbLine
 10
-27.186377
 20
-60.222922
 30
0.0
 11
-26.75
 21
-59.97098
 31
0.0
  0
LINE
  5
1D8
100
AcDbEntity
  8
0
390
0
  6
Continuous
 62
     7
100
AcDbLine
 10
29.25
 20
-59.031489
 30
0.0
 11
27.186376
 21
-60.222922
 31
0.0
  0
LINE
  5
1D9
100
AcDbEntity
  8
0
390
0
  6
Continuous
 62
     7
100
AcDbLine
 10
27.186376
 20
-60.222922
 30
0.0
 11
26.75
 21
-59.97098
 31
0.0
  0
LINE
  5
1DA
100
AcDbEntity
  8
0
390
0
  6
Continuous
 62
     7
100
AcDbLine
 10
29.25
 20
-59.031489
 30
0.0
 11
29.25
 21
-58.527605
 31
0.0
  0
LINE
  5
1DB
100
AcDbEntity
  8
0
390
0
  6
Continuous
 62
     7
100
AcDbLine
 10
5.44702
 20
-60.145906
 30
0.0
 11
5.75
 21
-59.97098
 31
0.0
  0
ELLIPSE
  5
1DC
100
AcDbEntity
  8
0
390
0
  6
Continuous
 62
     7
100
AcDbEllipse
 10
0.0
 20
-57.833329
 30
0.0
 11
-41.648413128999039
 21
24.053050439425185
 31
0.0
210
0.0
220
0.0
230
1.0
 40
0.015115
 41
4.5899617931633436
 42
4.6430076685103741
  0
LINE
  5
1DD
100
AcDbEntity
  8
0
390
0
  6
Continuous
 62
     7
100
AcDbLine
 10
-29.25
 20
-59.031489
 30
0.0
 11
-31.313624
 21
-60.222922
 31
0.0
  0
LINE
  5
1DE
100
AcDbEntity
  8
0
390
0
  6
Continuous
 62
     7
100
AcDbLine
 10
-31.313624
 20
-60.222922
 30
0.0
 11
-31.75
 21
-59.97098
 31
0.0
  0
LINE
  5
1DF
100
AcDbEntity
  8
0
390
0
  6
Continuous
 62
     7
100
AcDbLine
 10
-24.813624
 20
-60.222922
 30
0.0
 11
-25.25
 21
-59.97098
 31
0.0
  0
ELLIPSE
  5
1E0
100
AcDbEntity
  8
0
390
0
  6
Continuous
 62
     7
100
AcDbEllipse
 10
0.0
 20
-46.574999
 30
0.0
 11
41.64841312899906
 21
24.053050439425185
 31
0.0
210
0.0
220
0.0
230
1.0
 40
0.015115
 41
2.1399101098045907
 42
2.1922441024928121
  0
LINE
  5
1E1
100
AcDbEntity
  8
0
390
0
  6
Continuous
 62
     7
100
AcDbLine
 10
-24.813624
 20
-60.222922
 30
0.0
 11
-24.543839
 21
-60.067162
 31
0.0
  0
LINE
  5
1E2
100
AcDbEntity
  8
0
390
0
  6
Continuous
 62
     7
100
AcDbLine
 10
31.313623
 20
-60.222922
 30
0.0
 11
29.25
 21
-59.031489
 31
0.0
  0
LINE
  5
1E3
100
AcDbEntity
  8
0
390
0
  6
Continuous
 62
     7
100
AcDbLine
 10
31.313623
 20
-60.222922
 30
0.0
 11
31.75
 21
-59.97098
 31
0.0
  0
LINE
  5
1E4
100
AcDbEntity
  8
0
390
0
  6
Continuous
 62
     7
100
AcDbLine
 10
-11.92284
 20
-60.159866
 30
0.0
 11
-12.25
 21
-59.97098
 31
0.0
  0
LINE
  5
1E5
100
AcDbEntity
  8
0
390
0
  6
Continuous
 62
     7
100
AcDbLine
 10
-9.75
 20
-58.893571
 30
0.0
 11
-9.75
 21
-58.527605
 31
0.0
  0
ELLIPSE
  5
1E6
100
AcDbEntity
  8
0
390
0
  6
Continuous
 62
     7
100
AcDbEllipse
 10
0.0
 20
-54.080552
 30
0.0
 11
41.64841312899906
 21
24.053050439425185
 31
0.0
210
0.0
220
0.0
230
1.0
 40
0.015115
 41
1.7983532182879183
 42
1.8523909962354654
  0
LINE
  5
1E7
100
AcDbEntity
  8
0
390
0
  6
Continuous
 62
     7
100
AcDbLine
 10
16.25
 20
-58.936775
 30
0.0
 11
16.25
 21
-58.527605
 31
0.0
  0
LINE
  5
1E8
100
AcDbEntity
  8
0
390
0
  6
Continuous
 62
     7
100
AcDbLine
 10
18.378657
 20
-60.185375
 30
0.0
 11
18.75
 21
-59.97098
 31
0.0
  0
ELLIPSE
  5
1E9
100
AcDbEntity
  8
0
390
0
  6
Continuous
 62
     7
100
AcDbEllipse
 10
0.0
 20
-50.327775
 30
0.0
 11
-41.648413128999039
 21
24.053050439425185
 31
0.0
210
0.0
220
0.0
230
1.0
 40
0.015115
 41
4.2641112514578294
 42
4.3203172040002418
  0
LINE
  5
1EA
100
AcDbEntity
  8
0
390
0
  6
Continuous
 62
     7
100
AcDbLine
 10
20.642305
 20
-60.197478
 30
0.0
 11
20.25
 21
-59.97098
 31
0.0
  0
LINE
  5
1EB
100
AcDbEntity
  8
0
390
0
  6
Continuous
 62
     7
100
AcDbLine
 10
22.75
 20
-59.00654
 30
0.0
 11
22.75
 21
-58.527605
 31
0.0
  0
ELLIPSE
  5
1EC
100
AcDbEntity
  8
0
390
0
  6
Continuous
 62
     7
100
AcDbEllipse
 10
0.0
 20
-72.844436
 30
0.0
 11
41.64841312899906
 21
24.053050439425185
 31
0.0
210
0.0
220
0.0
230
1.0
 40
0.015115
 41
0.984223933068442
 42
1.043525882187047
  0
ELLIPSE
  5
1ED
100
AcDbEntity
  8
0
390
0
  6
Continuous
 62
     7
100
AcDbEllipse
 10
0.0
 20
-46.574999
 30
0.0
 11
-41.648413128999039
 21
24.053050439425185
 31
0.0
210
0.0
220
0.0
230
1.0
 40
0.015115
 41
4.0909412046867741
 42
4.1432751973749964
  0
LINE
  5
1EE
100
AcDbEntity
  8
0
390
0
  6
Continuous
 62
     7
100
AcDbLine
 10
24.813623
 20
-60.222922
 30
0.0
 11
25.25
 21
-59.97098
 31
0.0
  0
LINE
  5
1EF
100
AcDbEntity
  8
0
390
0
  6
Continuous
 62
     7
100
AcDbLine
 10
24.543838
 20
-60.067162
 30
0.0
 11
24.813623
 21
-60.222922
 31
0.0
  0
LINE
  5
1F0
100
AcDbEntity
  8
0
390
0
  6
Continuous
 62
     7
100
AcDbLine
 10
14.089597
 20
-60.167047
 30
0.0
 11
13.75
 21
-59.97098
 31
0.0
  0
ELLIPSE
  5
1F1
100
AcDbEntity
  8
0
390
0
  6
Continuous
 62
     7
100
AcDbEllipse
 10
0.0
 20
-69.091659
 30
0.0
 11
41.64841312899906
 21
24.053050439425185
 31
0.0
210
0.0
220
0.0
230
1.0
 40
0.015115
 41
1.1612659396936875
 42
1.2169724663846448
  0
LINE
  5
1F2
100
AcDbEntity
  8
0
390
0
  6
Continuous
 62
     7
100
AcDbLine
 10
-3.25
 20
-58.872806
 30
0.0
 11
-3.25
 21
-58.527605
 31
0.0
  0
LINE
  5
1F3
100
AcDbEntity
  8
0
390
0
  6
Continuous
 62
     7
100
AcDbLine
 10
-1.046966
 20
-60.142434
 30
0.0
 11
-0.75
 21
-59.97098
 31
0.0
  0
ELLIPSE
  5
1F4
100
AcDbEntity
  8
0
390
0
  6
Continuous
 62
     7
100
AcDbEllipse
 10
0.0
 20
-61.586106
 30
0.0
 11
-41.648413128999039
 21
24.053050439425185
 31
0.0
210
0.0
220
0.0
230
1.0
 40
0.015115
 41
4.7462581685925418
 42
4.7992289029757673
  0
LINE
  5
1F5
100
AcDbEntity
  8
0
390
0
  6
Continuous
 62
     7
100
AcDbLine
 10
7.558809
 20
-60.149271
 30
0.0
 11
7.25
 21
-59.97098
 31
0.0
  0
LINE
  5
1F6
100
AcDbEntity
  8
0
390
0
  6
Continuous
 62
     7
100
AcDbLine
 10
9.75
 20
-58.893571
 30
0.0
 11
9.75
 21
-58.527605
 31
0.0
  0
ELLIPSE
  5
1F7
100
AcDbEntity
  8
0
390
0
  6
Continuous
 62
     7
100
AcDbEllipse
 10
0.0
 20
-65.338882
 30
0.0
 11
41.64841312899906
 21
24.053050439425185
 31
0.0
210
0.0
220
0.0
230
1.0
 40
0.015115
 41
1.3257808245851137
 42
1.3795717152529661
  0
LINE
  5
1F8
100
AcDbEntity
  8
0
390
0
  6
Continuous
 62
     7
100
AcDbLine
 10
11.922839
 20
-60.159866
 30
0.0
 11
12.25
 21
-59.97098
 31
0.0
  0
ELLIPSE
  5
1F9
100
AcDbEntity
  8
0
390
0
  6
Continuous
 62
     7
100
AcDbEllipse
 10
0.0
 20
-54.080552
 30
0.0
 11
-41.648413128999039
 21
24.053050439425185
 31
0.0
210
0.0
220
0.0
230
1.0
 40
0.015115
 41
4.4307943109441217
 42
4.4848320888916691
  0
LINE
  5
1FA
100
AcDbEntity
  8
0
390
0
  6
Continuous
 62
     7
100
AcDbLine
 10
-5.44702
 20
-60.145906
 30
0.0
 11
-5.75
 21
-59.97098
 31
0.0
  0
ELLIPSE
  5
1FB
100
AcDbEntity
  8
0
390
0
  6
Continuous
 62
     7
100
AcDbEllipse
 10
0.0
 20
-57.833329
 30
0.0
 11
41.64841312899906
 21
24.053050439425185
 31
0.0
210
0.0
220
0.0
230
1.0
 40
0.015115
 41
1.6401776386692126
 42
1.6932235140162419
  0
LINE
  5
1FC
100
AcDbEntity
  8
0
390
0
  6
Continuous
 62
     7
100
AcDbLine
 10
-16.25
 20
-58.936775
 30
0.0
 11
-16.25
 21
-58.527605
 31
0.0
  0
LINE
  5
1FD
100
AcDbEntity
  8
0
390
0
  6
Continuous
 62
     7
100
AcDbLine
 10
-14.089598
 20
-60.167047
 30
0.0
 11
-13.75
 21
-59.97098
 31
0.0
  0
ELLIPSE
  5
1FE
100
AcDbEntity
  8
0
390
0
  6
Continuous
 62
     7
100
AcDbEllipse
 10
0.0
 20
-69.091659
 30
0.0
 11
-41.648413128999039
 21
24.053050439425185
 31
0.0
210
0.0
220
0.0
230
1.0
 40
0.015115
 41
5.0662128407949405
 42
5.1219193674858987
  0
LINE
  5
1FF
100
AcDbEntity
  8
0
390
0
  6
Continuous
 62
     7
100
AcDbLine
 10
-7.558809
 20
-60.149271
 30
0.0
 11
-7.25
 21
-59.97098
 31
0.0
  0
ELLIPSE
  5
200
100
AcDbEntity
  8
0
390
0
  6
Continuous
 62
     7
100
AcDbEllipse
 10
0.0
 20
-65.338882
 30
0.0
 11
-41.648413128999039
 21
24.053050439425185
 31
0.0
210
0.0
220
0.0
230
1.0
 40
0.015115
 41
4.9036135919266206
 42
4.9574044825944723
  0
LINE
  5
201
100
AcDbEntity
  8
0
390
0
  6
Continuous
 62
     7
100
AcDbLine
 10
-18.378657
 20
-60.185375
 30
0.0
 11
-18.75
 21
-59.97098
 31
0.0
  0
ELLIPSE
  5
202
100
AcDbEntity
  8
0
390
0
  6
Continuous
 62
     7
100
AcDbEllipse
 10
0.0
 20
-50.327775
 30
0.0
 11
41.64841312899906
 21
24.053050439425185
 31
0.0
210
0.0
220
0.0
230
1.0
 40
0.015115
 41
1.9628681031793445
 42
2.0190740557217577
  0
LINE
  5
203
100
AcDbEntity
  8
0
390
0
  6
Continuous
 62
     7
100
AcDbLine
 10
5.44702
 20
-62.682806
 30
0.0
 11
5.75
 21
-62.857732
 31
0.0
  0
LINE
  5
204
100
AcDbEntity
  8
0
390
0
  6
Continuous
 62
     7
100
AcDbLine
 10
5.44702
 20
-60.145906
 30
0.0
 11
5.44702
 21
-62.682806
 31
0.0
  0
LINE
  5
205
100
AcDbEntity
  8
0
390
0
  6
Continuous
 62
     7
100
AcDbLine
 10
18.378657
 20
-62.643337
 30
0.0
 11
18.75
 21
-62.857732
 31
0.0
  0
LINE
  5
206
100
AcDbEntity
  8
0
390
0
  6
Continuous
 62
     7
100
AcDbLine
 10
18.378657
 20
-60.185375
 30
0.0
 11
18.378657
 21
-62.643337
 31
0.0
  0
LINE
  5
207
100
AcDbEntity
  8
0
390
0
  6
Continuous
 62
     7
100
AcDbLine
 10
14.089597
 20
-62.661665
 30
0.0
 11
13.75
 21
-62.857732
 31
0.0
  0
LINE
  5
208
100
AcDbEntity
  8
0
390
0
  6
Continuous
 62
     7
100
AcDbLine
 10
14.089597
 20
-62.661665
 30
0.0
 11
14.089597
 21
-60.167047
 31
0.0
  0
LINE
  5
209
100
AcDbEntity
  8
0
390
0
  6
Continuous
 62
     7
100
AcDbLine
 10
24.813623
 20
-62.605789
 30
0.0
 11
25.25
 21
-62.857732
 31
0.0
  0
LINE
  5
20A
100
AcDbEntity
  8
0
390
0
  6
Continuous
 62
     7
100
AcDbLine
 10
24.813623
 20
-60.222922
 30
0.0
 11
24.813623
 21
-62.605789
 31
0.0
  0
LINE
  5
20B
100
AcDbEntity
  8
0
390
0
  6
Continuous
 62
     7
100
AcDbLine
 10
-18.378657
 20
-62.643337
 30
0.0
 11
-18.75
 21
-62.857732
 31
0.0
  0
LINE
  5
20C
100
AcDbEntity
  8
0
390
0
  6
Continuous
 62
     7
100
AcDbLine
 10
-18.378657
 20
-62.643337
 30
0.0
 11
-18.378657
 21
-60.185375
 31
0.0
  0
LINE
  5
20D
100
AcDbEntity
  8
0
390
0
  6
Continuous
 62
     7
100
AcDbLine
 10
-1.046966
 20
-62.686278
 30
0.0
 11
-0.75
 21
-62.857732
 31
0.0
  0
LINE
  5
20E
100
AcDbEntity
  8
0
390
0
  6
Continuous
 62
     7
100
AcDbLine
 10
-1.046966
 20
-60.142434
 30
0.0
 11
-1.046966
 21
-62.686278
 31
0.0
  0
LINE
  5
20F
100
AcDbEntity
  8
0
390
0
  6
Continuous
 62
     7
100
AcDbLine
 10
31.313623
 20
-62.605789
 30
0.0
 11
31.313623
 21
-60.222922
 31
0.0
  0
LINE
  5
210
100
AcDbEntity
  8
0
390
0
  6
Continuous
 62
     7
100
AcDbLine
 10
31.313623
 20
-62.605789
 30
0.0
 11
31.75
 21
-62.857732
 31
0.0
  0
LINE
  5
211
100
AcDbEntity
  8
0
390
0
  6
Continuous
 62
     7
100
AcDbLine
 10
7.558809
 20
-62.679441
 30
0.0
 11
7.25
 21
-62.857732
 31
0.0
  0
LINE
  5
212
100
AcDbEntity
  8
0
390
0
  6
Continuous
 62
     7
100
AcDbLine
 10
7.558809
 20
-62.679441
 30
0.0
 11
7.558809
 21
-60.149271
 31
0.0
  0
LINE
  5
213
100
AcDbEntity
  8
0
390
0
  6
Continuous
 62
     7
100
AcDbLine
 10
-5.44702
 20
-62.682806
 30
0.0
 11
-5.75
 21
-62.857732
 31
0.0
  0
LINE
  5
214
100
AcDbEntity
  8
0
390
0
  6
Continuous
 62
     7
100
AcDbLine
 10
-5.44702
 20
-62.682806
 30
0.0
 11
-5.44702
 21
-60.145906
 31
0.0
  0
LINE
  5
215
100
AcDbEntity
  8
0
390
0
  6
Continuous
 62
     7
100
AcDbLine
 10
-31.313624
 20
-60.222922
 30
0.0
 11
-31.313624
 21
-62.605789
 31
0.0
  0
LINE
  5
216
100
AcDbEntity
  8
0
390
0
  6
Continuous
 62
     7
100
AcDbLine
 10
-31.313624
 20
-62.605789
 30
0.0
 11
-31.75
 21
-62.857732
 31
0.0
  0
LINE
  5
217
100
AcDbEntity
  8
0
390
0
  6
Continuous
 62
     7
100
AcDbLine
 10
-20.642306
 20
-62.631234
 30
0.0
 11
-20.25
 21
-62.857732
 31
0.0
  0
LINE
  5
218
100
AcDbEntity
  8
0
390
0
  6
Continuous
 62
     7
100
AcDbLine
 10
-20.642306
 20
-60.197478
 30
0.0
 11
-20.642306
 21
-62.631234
 31
0.0
  0
LINE
  5
219
100
AcDbEntity
  8
0
390
0
  6
Continuous
 62
     7
100
AcDbLine
 10
11.922839
 20
-62.668846
 30
0.0
 11
12.25
 21
-62.857732
 31
0.0
  0
LINE
  5
21A
100
AcDbEntity
  8
0
390
0
  6
Continuous
 62
     7
100
AcDbLine
 10
11.922839
 20
-60.159866
 30
0.0
 11
11.922839
 21
-62.668846
 31
0.0
  0
LINE
  5
21B
100
AcDbEntity
  8
0
390
0
  6
Continuous
 62
     7
100
AcDbLine
 10
1.046966
 20
-62.686278
 30
0.0
 11
0.75
 21
-62.857732
 31
0.0
  0
LINE
  5
21C
100
AcDbEntity
  8
0
390
0
  6
Continuous
 62
     7
100
AcDbLine
 10
1.046966
 20
-62.686278
 30
0.0
 11
1.046966
 21
-60.142434
 31
0.0
  0
LINE
  5
21D
100
AcDbEntity
  8
0
390
0
  6
Continuous
 62
     7
100
AcDbLine
 10
-24.813624
 20
-62.605789
 30
0.0
 11
-25.25
 21
-62.857732
 31
0.0
  0
LINE
  5
21E
100
AcDbEntity
  8
0
390
0
  6
Continuous
 62
     7
100
AcDbLine
 10
-24.813624
 20
-62.605789
 30
0.0
 11
-24.813624
 21
-60.222922
 31
0.0
  0
LINE
  5
21F
100
AcDbEntity
  8
0
390
0
  6
Continuous
 62
     7
100
AcDbLine
 10
20.642305
 20
-62.631234
 30
0.0
 11
20.25
 21
-62.857732
 31
0.0
  0
LINE
  5
220
100
AcDbEntity
  8
0
390
0
  6
Continuous
 62
     7
100
AcDbLine
 10
20.642305
 20
-62.631234
 30
0.0
 11
20.642305
 21
-60.197478
 31
0.0
  0
LINE
  5
221
100
AcDbEntity
  8
0
390
0
  6
Continuous
 62
     7
100
AcDbLine
 10
-11.92284
 20
-62.668846
 30
0.0
 11
-12.25
 21
-62.857732
 31
0.0
  0
LINE
  5
222
100
AcDbEntity
  8
0
390
0
  6
Continuous
 62
     7
100
AcDbLine
 10
-11.92284
 20
-62.668846
 30
0.0
 11
-11.92284
 21
-60.159866
 31
0.0
  0
LINE
  5
223
100
AcDbEntity
  8
0
390
0
  6
Continuous
 62
     7
100
AcDbLine
 10
-14.089598
 20
-62.661665
 30
0.0
 11
-13.75
 21
-62.857732
 31
0.0
  0
LINE
  5
224
100
AcDbEntity
  8
0
390
0
  6
Continuous
 62
     7
100
AcDbLine
 10
-14.089598
 20
-60.167047
 30
0.0
 11
-14.089598
 21
-62.661665
 31
0.0
  0
LINE
  5
225
100
AcDbEntity
  8
0
390
0
  6
Continuous
 62
     7
100
AcDbLine
 10
27.186376
 20
-60.222922
 30
0.0
 11
27.186376
 21
-62.605789
 31
0.0
  0
LINE
  5
226
100
AcDbEntity
  8
0
390
0
  6
Continuous
 62
     7
100
AcDbLine
 10
27.186376
 20
-62.605789
 30
0.0
 11
26.75
 21
-62.857732
 31
0.0
  0
LINE
  5
227
100
AcDbEntity
  8
0
390
0
  6
Continuous
 62
     7
100
AcDbLine
 10
-27.186377
 20
-62.605789
 30
0.0
 11
-27.186377
 21
-60.222922
 31
0.0
  0
LINE
  5
228
100
AcDbEntity
  8
0
390
0
  6
Continuous
 62
     7
100
AcDbLine
 10
-27.186377
 20
-62.605789
 30
0.0
 11
-26.75
 21
-62.857732
 31
0.0
  0
LINE
  5
229
100
AcDbEntity
  8
0
390
0
  6
Continuous
 62
     7
100
AcDbLine
 10
-7.558809
 20
-62.679441
 30
0.0
 11
-7.25
 21
-62.857732
 31
0.0
  0
LINE
  5
22A
100
AcDbEntity
  8
0
390
0
  6
Continuous
 62
     7
100
AcDbLine
 10
-7.558809
 20
-60.149271
 30
0.0
 11
-7.558809
 21
-62.679441
 31
0.0
  0
LINE
  5
22B
100
AcDbEntity
  8
0
390
0
  6
Continuous
 62
     7
100
AcDbLine
 10
22.75
 20
-63.822172
 30
0.0
 11
22.75
 21
-64.301107
 31
0.0
  0
ELLIPSE
  5
22C
100
AcDbEntity
  8
0
390
0
  6
Continuous
 62
     7
100
AcDbEllipse
 10
0.0
 20
-76.253713
 30
0.0
 11
41.648413128999003
 21
24.053050439425157
 31
0.0
210
0.0
220
0.0
230
1.0
 40
0.015115
 41
5.281502763394383
 42
5.3338367560826061
  0
LINE
  5
22D
100
AcDbEntity
  8
0
390
0
  6
Continuous
 62
     7
100
AcDbLine
 10
24.813623
 20
-62.605789
 30
0.0
 11
24.543838
 21
-62.76155
 31
0.0
  0
LINE
  5
22E
100
AcDbEntity
  8
0
390
0
  6
Continuous
 62
     7
100
AcDbLine
 10
16.25
 20
-63.891937
 30
0.0
 11
16.25
 21
-64.301107
 31
0.0
  0
ELLIPSE
  5
22F
100
AcDbEntity
  8
0
390
0
  6
Continuous
 62
     7
100
AcDbEllipse
 10
0.0
 20
-72.500937
 30
0.0
 11
41.648413128999003
 21
24.053050439425157
 31
0.0
210
0.0
220
0.0
230
1.0
 40
0.015115
 41
5.1044607567691376
 42
5.1606667093115517
  0
LINE
  5
230
100
AcDbEntity
  8
0
390
0
  6
Continuous
 62
     7
100
AcDbLine
 10
-22.75
 20
-63.822172
 30
0.0
 11
-22.75
 21
-64.301107
 31
0.0
  0
ELLIPSE
  5
231
100
AcDbEntity
  8
0
390
0
  6
Continuous
 62
     7
100
AcDbEllipse
 10
0.0
 20
-49.984276
 30
0.0
 11
41.648413128999003
 21
24.05305043942516
 31
0.0
210
0.0
220
0.0
230
1.0
 40
0.015115
 41
4.1258165866582353
 42
4.1851185357768408
  0
LINE
  5
232
100
AcDbEntity
  8
0
390
0
  6
Continuous
 62
     7
100
AcDbLine
 10
-31.313624
 20
-62.605789
 30
0.0
 11
-29.25
 21
-63.797223
 31
0.0
  0
LINE
  5
233
100
AcDbEntity
  8
0
390
0
  6
Continuous
 62
     7
100
AcDbLine
 10
-29.25
 20
-63.797223
 30
0.0
 11
-29.25
 21
-64.301107
 31
0.0
  0
ELLIPSE
  5
234
100
AcDbEntity
  8
0
390
0
  6
Continuous
 62
     7
100
AcDbEllipse
 10
0.0
 20
-49.984276
 30
0.0
 11
-41.648413128999039
 21
24.053050439425185
 31
0.0
210
0.0
220
0.0
230
1.0
 40
0.015115
 41
2.0980667714027468
 42
2.1573687205213523
  0
LINE
  5
235
100
AcDbEntity
  8
0
390
0
  6
Continuous
 62
     7
100
AcDbLine
 10
29.25
 20
-63.797223
 30
0.0
 11
31.313623
 21
-62.605789
 31
0.0
  0
LINE
  5
236
100
AcDbEntity
  8
0
390
0
  6
Continuous
 62
     7
100
AcDbLine
 10
29.25
 20
-63.797223
 30
0.0
 11
29.25
 21
-64.301107
 31
0.0
  0
LINE
  5
237
100
AcDbEntity
  8
0
390
0
  6
Continuous
 62
     7
100
AcDbLine
 10
-16.25
 20
-63.891937
 30
0.0
 11
-16.25
 21
-64.301107
 31
0.0
  0
ELLIPSE
  5
238
100
AcDbEntity
  8
0
390
0
  6
Continuous
 62
     7
100
AcDbEllipse
 10
0.0
 20
-72.500937
 30
0.0
 11
-41.648413128999039
 21
24.053050439425185
 31
0.0
210
0.0
220
0.0
230
1.0
 40
0.015115
 41
1.122518597868037
 42
1.1787245504104487
  0
LINE
  5
239
100
AcDbEntity
  8
0
390
0
  6
Continuous
 62
     7
100
AcDbLine
 10
27.186376
 20
-62.605789
 30
0.0
 11
29.25
 21
-63.797223
 31
0.0
  0
ELLIPSE
  5
23A
100
AcDbEntity
  8
0
390
0
  6
Continuous
 62
     7
100
AcDbEllipse
 10
0.0
 20
-76.253713
 30
0.0
 11
-41.648413128999039
 21
24.053050439425185
 31
0.0
210
0.0
220
0.0
230
1.0
 40
0.015115
 41
0.949348551096981
 42
1.0016825437852033
  0
LINE
  5
23B
100
AcDbEntity
  8
0
390
0
  6
Continuous
 62
     7
100
AcDbLine
 10
-24.543839
 20
-62.76155
 30
0.0
 11
-24.813624
 21
-62.605789
 31
0.0
  0
LINE
  5
23C
100
AcDbEntity
  8
0
390
0
  6
Continuous
 62
     7
100
AcDbLine
 10
-29.25
 20
-63.797223
 30
0.0
 11
-27.186377
 21
-62.605789
 31
0.0
  0
ELLIPSE
  5
23D
100
AcDbEntity
  8
0
390
0
  6
Continuous
 62
     7
100
AcDbEllipse
 10
0.0
 20
-53.737053
 30
0.0
 11
41.648413128999003
 21
24.05305043942516
 31
0.0
210
0.0
220
0.0
230
1.0
 40
0.015115
 41
4.3028585932834806
 42
4.3585651199744389
  0
LINE
  5
23E
100
AcDbEntity
  8
0
390
0
  6
Continuous
 62
     7
100
AcDbLine
 10
9.75
 20
-63.93514
 30
0.0
 11
9.75
 21
-64.301107
 31
0.0
  0
ELLIPSE
  5
23F
100
AcDbEntity
  8
0
390
0
  6
Continuous
 62
     7
100
AcDbEllipse
 10
0.0
 20
-68.74816
 30
0.0
 11
41.648413128999003
 21
24.053050439425157
 31
0.0
210
0.0
220
0.0
230
1.0
 40
0.015115
 41
4.9399458718777112
 42
4.9939836498252586
  0
LINE
  5
240
100
AcDbEntity
  8
0
390
0
  6
Continuous
 62
     7
100
AcDbLine
 10
3.25
 20
-63.955906
 30
0.0
 11
3.25
 21
-64.301107
 31
0.0
  0
ELLIPSE
  5
241
100
AcDbEntity
  8
0
390
0
  6
Continuous
 62
     7
100
AcDbEllipse
 10
0.0
 20
-61.242606
 30
0.0
 11
-41.648413128999039
 21
24.053050439425185
 31
0.0
210
0.0
220
0.0
230
1.0
 40
0.015115
 41
1.6046655150027473
 42
1.657636249385974
  0
ELLIPSE
  5
242
100
AcDbEntity
  8
0
390
0
  6
Continuous
 62
     7
100
AcDbEllipse
 10
0.0
 20
-53.737053
 30
0.0
 11
-41.648413128999039
 21
24.053050439425185
 31
0.0
210
0.0
220
0.0
230
1.0
 40
0.015115
 41
1.9246201872051483
 42
1.980326713896106
  0
LINE
  5
243
100
AcDbEntity
  8
0
390
0
  6
Continuous
 62
     7
100
AcDbLine
 10
-9.75
 20
-63.93514
 30
0.0
 11
-9.75
 21
-64.301107
 31
0.0
  0
ELLIPSE
  5
244
100
AcDbEntity
  8
0
390
0
  6
Continuous
 62
     7
100
AcDbEllipse
 10
0.0
 20
-57.48983
 30
0.0
 11
41.648413128999003
 21
24.053050439425157
 31
0.0
210
0.0
220
0.0
230
1.0
 40
0.015115
 41
4.467373478174907
 42
4.5211643688427587
  0
ELLIPSE
  5
245
100
AcDbEntity
  8
0
390
0
  6
Continuous
 62
     7
100
AcDbEllipse
 10
0.0
 20
-57.48983
 30
0.0
 11
-41.648413128999039
 21
24.053050439425185
 31
0.0
210
0.0
220
0.0
230
1.0
 40
0.015115
 41
1.7620209383368275
 42
1.8158118290046805
  0
ELLIPSE
  5
246
100
AcDbEntity
  8
0
390
0
  6
Continuous
 62
     7
100
AcDbEllipse
 10
0.0
 20
-64.995383
 30
0.0
 11
41.648413128999003
 21
24.053050439425157
 31
0.0
210
0.0
220
0.0
230
1.0
 40
0.015115
 41
4.7817702922590071
 42
4.8348161676060366
  0
LINE
  5
247
100
AcDbEntity
  8
0
390
0
  6
Continuous
 62
     7
100
AcDbLine
 10
-3.25
 20
-63.955906
 30
0.0
 11
-3.25
 21
-64.301107
 31
0.0
  0
ELLIPSE
  5
248
100
AcDbEntity
  8
0
390
0
  6
Continuous
 62
     7
100
AcDbEllipse
 10
0.0
 20
-64.995383
 30
0.0
 11
-41.648413128999039
 21
24.053050439425185
 31
0.0
210
0.0
220
0.0
230
1.0
 40
0.015115
 41
1.4483691395735514
 42
1.5014150149205807
  0
ELLIPSE
  5
249
100
AcDbEntity
  8
0
390
0
  6
Continuous
 62
     7
100
AcDbEllipse
 10
0.0
 20
-68.74816
 30
0.0
 11
-41.648413128999039
 21
24.053050439425185
 31
0.0
210
0.0
220
0.0
230
1.0
 40
0.015115
 41
1.2892016573543292
 42
1.3432394353018751
  0
ELLIPSE
  5
24A
100
AcDbEntity
  8
0
390
0
  6
Continuous
 62
     7
100
AcDbEllipse
 10
0.0
 20
-61.242606
 30
0.0
 11
41.648413128999003
 21
24.053050439425157
 31
0.0
210
0.0
220
0.0
230
1.0
 40
0.015115
 41
4.6255490577936129
 42
4.6785197921768393
  0
LINE
  5
24B
100
AcDbEntity
  8
0
390
0
  6
Continuous
 62
     7
100
AcDbLine
 10
-26.0
 20
-64.660654
 30
0.0
 11
-26.0
 21
-64.15677
 31
0.0
  0
LINE
  5
24C
100
AcDbEntity
  8
0
390
0
  6
Continuous
 62
     7
100
AcDbLine
 10
-23.928694
 20
-65.847652
 30
0.0
 11
-23.5
 21
-65.600145
 31
0.0
  0
ELLIPSE
  5
24D
100
AcDbEntity
  8
0
390
0
  6
Continuous
 62
     7
100
AcDbEllipse
 10
0.0
 20
-80.349989
 30
0.0
 11
-41.648413128999039
 21
24.053050439425185
 31
0.0
210
0.0
220
0.0
230
1.0
 40
0.015115
 41
5.333133970100647
 42
5.3512953667993663
  0
LINE
  5
24E
100
AcDbEntity
  8
0
390
0
  6
Continuous
 62
     7
100
AcDbLine
 10
-26.0
 20
-64.660654
 30
0.0
 11
-24.543839
 21
-65.501369
 31
0.0
  0
LINE
  5
24F
100
AcDbEntity
  8
0
390
0
  6
Continuous
 62
     7
100
AcDbLine
 10
4.300622
 20
-65.77371
 30
0.0
 11
4.0
 21
-65.600145
 31
0.0
  0
LINE
  5
250
100
AcDbEntity
  8
0
390
0
  6
Continuous
 62
     7
100
AcDbLine
 10
6.5
 20
-64.509697
 30
0.0
 11
6.5
 21
-64.15677
 31
0.0
  0
ELLIPSE
  5
251
100
AcDbEntity
  8
0
390
0
  6
Continuous
 62
     7
100
AcDbEllipse
 10
0.0
 20
-69.091659
 30
0.0
 11
41.648413128999003
 21
24.053050439425157
 31
0.0
210
0.0
220
0.0
230
1.0
 40
0.015115
 41
1.4053640551268511
 42
1.4586264190893048
  0
LINE
  5
252
100
AcDbEntity
  8
0
390
0
  6
Continuous
 62
     7
100
AcDbLine
 10
-15.15344
 20
-65.800232
 30
0.0
 11
-15.5
 21
-65.600145
 31
0.0
  0
LINE
  5
253
100
AcDbEntity
  8
0
390
0
  6
Continuous
 62
     7
100
AcDbLine
 10
-13.0
 20
-64.54135
 30
0.0
 11
-13.0
 21
-64.15677
 31
0.0
  0
ELLIPSE
  5
254
100
AcDbEntity
  8
0
390
0
  6
Continuous
 62
     7
100
AcDbEllipse
 10
0.0
 20
-57.833329
 30
0.0
 11
41.648413128999003
 21
24.053050439425157
 31
0.0
210
0.0
220
0.0
230
1.0
 40
0.015115
 41
1.8794958220172318
 42
1.9344413691517679
  0
LINE
  5
255
100
AcDbEntity
  8
0
390
0
  6
Continuous
 62
     7
100
AcDbLine
 10
10.821704
 20
-65.785882
 30
0.0
 11
10.5
 21
-65.600145
 31
0.0
  0
LINE
  5
256
100
AcDbEntity
  8
0
390
0
  6
Continuous
 62
     7
100
AcDbLine
 10
13.0
 20
-64.54135
 30
0.0
 11
13.0
 21
-64.15677
 31
0.0
  0
ELLIPSE
  5
257
100
AcDbEntity
  8
0
390
0
  6
Continuous
 62
     7
100
AcDbEllipse
 10
0.0
 20
-72.844436
 30
0.0
 11
41.648413128999003
 21
24.053050439425157
 31
0.0
210
0.0
220
0.0
230
1.0
 40
0.015115
 41
1.2446382208558009
 42
1.2992262152255183
  0
LINE
  5
258
100
AcDbEntity
  8
0
390
0
  6
Continuous
 62
     7
100
AcDbLine
 10
8.687274
 20
-65.780698
 30
0.0
 11
9.0
 21
-65.600145
 31
0.0
  0
ELLIPSE
  5
259
100
AcDbEntity
  8
0
390
0
  6
Continuous
 62
     7
100
AcDbEllipse
 10
0.0
 20
-61.586106
 30
0.0
 11
-41.648413128999039
 21
24.053050439425185
 31
0.0
210
0.0
220
0.0
230
1.0
 40
0.015115
 41
4.510997524117232
 42
4.5644153194334054
  0
LINE
  5
25A
100
AcDbEntity
  8
0
390
0
  6
Continuous
 62
     7
100
AcDbLine
 10
17.36292
 20
-65.809678
 30
0.0
 11
17.0
 21
-65.600145
 31
0.0
  0
LINE
  5
25B
100
AcDbEntity
  8
0
390
0
  6
Continuous
 62
     7
100
AcDbLine
 10
19.5
 20
-64.597101
 30
0.0
 11
19.5
 21
-64.15677
 31
0.0
  0
ELLIPSE
  5
25C
100
AcDbEntity
  8
0
390
0
  6
Continuous
 62
     7
100
AcDbEllipse
 10
0.0
 20
-76.597213
 30
0.0
 11
41.648413128999003
 21
24.053050439425157
 31
0.0
210
0.0
220
0.0
230
1.0
 40
0.015115
 41
1.0748288153395493
 42
1.1320603806410863
  0
LINE
  5
25D
100
AcDbEntity
  8
0
390
0
  6
Continuous
 62
     7
100
AcDbLine
 10
-10.821705
 20
-65.785882
 30
0.0
 11
-10.5
 21
-65.600145
 31
0.0
  0
ELLIPSE
  5
25E
100
AcDbEntity
  8
0
390
0
  6
Continuous
 62
     7
100
AcDbEllipse
 10
0.0
 20
-72.844436
 30
0.0
 11
-41.648413128999039
 21
24.053050439425185
 31
0.0
210
0.0
220
0.0
230
1.0
 40
0.015115
 41
4.9839590919540671
 42
5.0385470863237858
  0
LINE
  5
25F
100
AcDbEntity
  8
0
390
0
  6
Continuous
 62
     7
100
AcDbLine
 10
21.59788
 20
-65.83231
 30
0.0
 11
22.0
 21
-65.600145
 31
0.0
  0
ELLIPSE
  5
260
100
AcDbEntity
  8
0
390
0
  6
Continuous
 62
     7
100
AcDbEllipse
 10
0.0
 20
-54.080552
 30
0.0
 11
-41.648413128999039
 21
24.053050439425185
 31
0.0
210
0.0
220
0.0
230
1.0
 40
0.015115
 41
4.1759563722947384
 42
4.233880079646104
  0
LINE
  5
261
100
AcDbEntity
  8
0
390
0
  6
Continuous
 62
     7
100
AcDbLine
 10
-21.59788
 20
-65.83231
 30
0.0
 11
-22.0
 21
-65.600145
 31
0.0
  0
LINE
  5
262
100
AcDbEntity
  8
0
390
0
  6
Continuous
 62
     7
100
AcDbLine
 10
-19.5
 20
-64.597101
 30
0.0
 11
-19.5
 21
-64.15677
 31
0.0
  0
ELLIPSE
  5
263
100
AcDbEntity
  8
0
390
0
  6
Continuous
 62
     7
100
AcDbEllipse
 10
0.0
 20
-54.080552
 30
0.0
 11
41.648413128999003
 21
24.05305043942516
 31
0.0
210
0.0
220
0.0
230
1.0
 40
0.015115
 41
2.0493052275334831
 42
2.1072289348848483
  0
LINE
  5
264
100
AcDbEntity
  8
0
390
0
  6
Continuous
 62
     7
100
AcDbLine
 10
-6.5
 20
-64.509697
 30
0.0
 11
-6.5
 21
-64.15677
 31
0.0
  0
LINE
  5
265
100
AcDbEntity
  8
0
390
0
  6
Continuous
 62
     7
100
AcDbLine
 10
-4.300622
 20
-65.77371
 30
0.0
 11
-4.0
 21
-65.600145
 31
0.0
  0
ELLIPSE
  5
266
100
AcDbEntity
  8
0
390
0
  6
Continuous
 62
     7
100
AcDbEllipse
 10
0.0
 20
-69.091659
 30
0.0
 11
-41.648413128999039
 21
24.053050439425185
 31
0.0
210
0.0
220
0.0
230
1.0
 40
0.015115
 41
4.824558888090281
 42
4.8778212520527351
  0
LINE
  5
267
100
AcDbEntity
  8
0
390
0
  6
Continuous
 62
     7
100
AcDbLine
 10
-8.687274
 20
-65.780698
 30
0.0
 11
-9.0
 21
-65.600145
 31
0.0
  0
ELLIPSE
  5
268
100
AcDbEntity
  8
0
390
0
  6
Continuous
 62
     7
100
AcDbEllipse
 10
0.0
 20
-61.586106
 30
0.0
 11
41.648413128999003
 21
24.053050439425157
 31
0.0
210
0.0
220
0.0
230
1.0
 40
0.015115
 41
1.7187699877461806
 42
1.772187783062354
  0
LINE
  5
269
100
AcDbEntity
  8
0
390
0
  6
Continuous
 62
     7
100
AcDbLine
 10
-28.063624
 20
-65.852088
 30
0.0
 11
-28.5
 21
-65.600145
 31
0.0
  0
LINE
  5
26A
100
AcDbEntity
  8
0
390
0
  6
Continuous
 62
     7
100
AcDbLine
 10
-28.063624
 20
-65.852088
 30
0.0
 11
-26.0
 21
-64.660654
 31
0.0
  0
LINE
  5
26B
100
AcDbEntity
  8
0
390
0
  6
Continuous
 62
     7
100
AcDbLine
 10
-2.202247
 20
-65.772053
 30
0.0
 11
-2.5
 21
-65.600145
 31
0.0
  0
LINE
  5
26C
100
AcDbEntity
  8
0
390
0
  6
Continuous
 62
     7
100
AcDbLine
 10
0.0
 20
-64.499411
 30
0.0
 11
0.0
 21
-64.15677
 31
0.0
  0
ELLIPSE
  5
26D
100
AcDbEntity
  8
0
390
0
  6
Continuous
 62
     7
100
AcDbEllipse
 10
0.0
 20
-65.338882
 30
0.0
 11
41.648413128999003
 21
24.053050439425157
 31
0.0
210
0.0
220
0.0
230
1.0
 40
0.015115
 41
1.562067021436516
 42
1.6149667662987441
  0
LINE
  5
26E
100
AcDbEntity
  8
0
390
0
  6
Continuous
 62
     7
100
AcDbLine
 10
-17.362921
 20
-65.809678
 30
0.0
 11
-17.0
 21
-65.600145
 31
0.0
  0
ELLIPSE
  5
26F
100
AcDbEntity
  8
0
390
0
  6
Continuous
 62
     7
100
AcDbEllipse
 10
0.0
 20
-76.597213
 30
0.0
 11
-41.648413128999039
 21
24.053050439425185
 31
0.0
210
0.0
220
0.0
230
1.0
 40
0.015115
 41
5.1511249265385004
 42
5.2083564918400365
  0
ELLIPSE
  5
270
100
AcDbEntity
  8
0
390
0
  6
Continuous
 62
     7
100
AcDbEllipse
 10
0.0
 20
-80.349989
 30
0.0
 11
41.648413128999003
 21
24.053050439425157
 31
0.0
210
0.0
220
0.0
230
1.0
 40
0.015115
 41
0.9318899403802199
 42
0.9500513370789383
  0
LINE
  5
271
100
AcDbEntity
  8
0
390
0
  6
Continuous
 62
     7
100
AcDbLine
 10
23.928693
 20
-65.847652
 30
0.0
 11
23.5
 21
-65.600145
 31
0.0
  0
LINE
  5
272
100
AcDbEntity
  8
0
390
0
  6
Continuous
 62
     7
100
AcDbLine
 10
26.0
 20
-64.660654
 30
0.0
 11
26.0
 21
-64.15677
 31
0.0
  0
LINE
  5
273
100
AcDbEntity
  8
0
390
0
  6
Continuous
 62
     7
100
AcDbLine
 10
24.543838
 20
-65.501369
 30
0.0
 11
26.0
 21
-64.660654
 31
0.0
  0
LINE
  5
274
100
AcDbEntity
  8
0
390
0
  6
Continuous
 62
     7
100
AcDbLine
 10
28.063623
 20
-65.852088
 30
0.0
 11
28.5
 21
-65.600145
 31
0.0
  0
LINE
  5
275
100
AcDbEntity
  8
0
390
0
  6
Continuous
 62
     7
100
AcDbLine
 10
26.0
 20
-64.660654
 30
0.0
 11
28.063623
 21
-65.852088
 31
0.0
  0
LINE
  5
276
100
AcDbEntity
  8
0
390
0
  6
Continuous
 62
     7
100
AcDbLine
 10
2.202247
 20
-65.772053
 30
0.0
 11
2.5
 21
-65.600145
 31
0.0
  0
ELLIPSE
  5
277
100
AcDbEntity
  8
0
390
0
  6
Continuous
 62
     7
100
AcDbEllipse
 10
0.0
 20
-65.338882
 30
0.0
 11
-41.648413128999039
 21
24.053050439425185
 31
0.0
210
0.0
220
0.0
230
1.0
 40
0.015115
 41
4.668218540880841
 42
4.7211182857430707
  0
LINE
  5
278
100
AcDbEntity
  8
0
390
0
  6
Continuous
 62
     7
100
AcDbLine
 10
15.153439
 20
-65.800232
 30
0.0
 11
15.5
 21
-65.600145
 31
0.0
  0
ELLIPSE
  5
279
100
AcDbEntity
  8
0
390
0
  6
Continuous
 62
     7
100
AcDbEllipse
 10
0.0
 20
-57.833329
 30
0.0
 11
-41.648413128999039
 21
24.053050439425185
 31
0.0
210
0.0
220
0.0
230
1.0
 40
0.015115
 41
4.3487439380278188
 42
4.4036894851623556
  0
LINE
  5
27A
100
AcDbEntity
  8
0
390
0
  6
Continuous
 62
     7
100
AcDbLine
 10
-30.436377
 20
-65.852088
 30
0.0
 11
-32.0
 21
-64.949329
 31
0.0
  0
LINE
  5
27B
100
AcDbEntity
  8
0
390
0
  6
Continuous
 62
     7
100
AcDbLine
 10
-30.436377
 20
-65.852088
 30
0.0
 11
-30.0
 21
-65.600145
 31
0.0
  0
LINE
  5
27C
100
AcDbEntity
  8
0
390
0
  6
Continuous
 62
     7
100
AcDbLine
 10
32.0
 20
-64.949329
 30
0.0
 11
30.436376
 21
-65.852088
 31
0.0
  0
LINE
  5
27D
100
AcDbEntity
  8
0
390
0
  6
Continuous
 62
     7
100
AcDbLine
 10
30.436376
 20
-65.852088
 30
0.0
 11
30.0
 21
-65.600145
 31
0.0
  0
LINE
  5
27E
100
AcDbEntity
  8
0
390
0
  6
Continuous
 62
     7
100
AcDbLine
 10
8.687274
 20
-68.306344
 30
0.0
 11
9.0
 21
-68.486897
 31
0.0
  0
LINE
  5
27F
100
AcDbEntity
  8
0
390
0
  6
Continuous
 62
     7
100
AcDbLine
 10
8.687274
 20
-65.780698
 30
0.0
 11
8.687274
 21
-68.306344
 31
0.0
  0
LINE
  5
280
100
AcDbEntity
  8
0
390
0
  6
Continuous
 62
     7
100
AcDbLine
 10
21.59788
 20
-68.254733
 30
0.0
 11
22.0
 21
-68.486897
 31
0.0
  0
LINE
  5
281
100
AcDbEntity
  8
0
390
0
  6
Continuous
 62
     7
100
AcDbLine
 10
21.59788
 20
-65.83231
 30
0.0
 11
21.59788
 21
-68.254733
 31
0.0
  0
LINE
  5
282
100
AcDbEntity
  8
0
390
0
  6
Continuous
 62
     7
100
AcDbLine
 10
-4.300622
 20
-68.313333
 30
0.0
 11
-4.0
 21
-68.486897
 31
0.0
  0
LINE
  5
283
100
AcDbEntity
  8
0
390
0
  6
Continuous
 62
     7
100
AcDbLine
 10
-4.300622
 20
-65.77371
 30
0.0
 11
-4.300622
 21
-68.313333
 31
0.0
  0
LINE
  5
284
100
AcDbEntity
  8
0
390
0
  6
Continuous
 62
     7
100
AcDbLine
 10
28.063623
 20
-68.234955
 30
0.0
 11
28.5
 21
-68.486897
 31
0.0
  0
LINE
  5
285
100
AcDbEntity
  8
0
390
0
  6
Continuous
 62
     7
100
AcDbLine
 10
28.063623
 20
-65.852088
 30
0.0
 11
28.063623
 21
-68.234955
 31
0.0
  0
LINE
  5
286
100
AcDbEntity
  8
0
390
0
  6
Continuous
 62
     7
100
AcDbLine
 10
17.36292
 20
-68.277365
 30
0.0
 11
17.0
 21
-68.486897
 31
0.0
  0
LINE
  5
287
100
AcDbEntity
  8
0
390
0
  6
Continuous
 62
     7
100
AcDbLine
 10
17.36292
 20
-68.277365
 30
0.0
 11
17.36292
 21
-65.809678
 31
0.0
  0
LINE
  5
288
100
AcDbEntity
  8
0
390
0
  6
Continuous
 62
     7
100
AcDbLine
 10
10.821704
 20
-68.301161
 30
0.0
 11
10.5
 21
-68.486897
 31
0.0
  0
LINE
  5
289
100
AcDbEntity
  8
0
390
0
  6
Continuous
 62
     7
100
AcDbLine
 10
10.821704
 20
-68.301161
 30
0.0
 11
10.821704
 21
-65.785882
 31
0.0
  0
LINE
  5
28A
100
AcDbEntity
  8
0
390
0
  6
Continuous
 62
     7
100
AcDbLine
 10
-17.362921
 20
-68.277365
 30
0.0
 11
-17.0
 21
-68.486897
 31
0.0
  0
LINE
  5
28B
100
AcDbEntity
  8
0
390
0
  6
Continuous
 62
     7
100
AcDbLine
 10
-17.362921
 20
-65.809678
 30
0.0
 11
-17.362921
 21
-68.277365
 31
0.0
  0
LINE
  5
28C
100
AcDbEntity
  8
0
390
0
  6
Continuous
 62
     7
100
AcDbLine
 10
-8.687274
 20
-68.306344
 30
0.0
 11
-9.0
 21
-68.486897
 31
0.0
  0
LINE
  5
28D
100
AcDbEntity
  8
0
390
0
  6
Continuous
 62
     7
100
AcDbLine
 10
-8.687274
 20
-68.306344
 30
0.0
 11
-8.687274
 21
-65.780698
 31
0.0
  0
LINE
  5
28E
100
AcDbEntity
  8
0
390
0
  6
Continuous
 62
     7
100
AcDbLine
 10
-30.436377
 20
-68.234955
 30
0.0
 11
-30.436377
 21
-65.852088
 31
0.0
  0
LINE
  5
28F
100
AcDbEntity
  8
0
390
0
  6
Continuous
 62
     7
100
AcDbLine
 10
-30.436377
 20
-68.234955
 30
0.0
 11
-30.0
 21
-68.486897
 31
0.0
  0
LINE
  5
290
100
AcDbEntity
  8
0
390
0
  6
Continuous
 62
     7
100
AcDbLine
 10
-21.59788
 20
-68.254733
 30
0.0
 11
-22.0
 21
-68.486897
 31
0.0
  0
LINE
  5
291
100
AcDbEntity
  8
0
390
0
  6
Continuous
 62
     7
100
AcDbLine
 10
-21.59788
 20
-68.254733
 30
0.0
 11
-21.59788
 21
-65.83231
 31
0.0
  0
LINE
  5
292
100
AcDbEntity
  8
0
390
0
  6
Continuous
 62
     7
100
AcDbLine
 10
2.202247
 20
-68.314989
 30
0.0
 11
2.5
 21
-68.486897
 31
0.0
  0
LINE
  5
293
100
AcDbEntity
  8
0
390
0
  6
Continuous
 62
     7
100
AcDbLine
 10
2.202247
 20
-65.772053
 30
0.0
 11
2.202247
 21
-68.314989
 31
0.0
  0
LINE
  5
294
100
AcDbEntity
  8
0
390
0
  6
Continuous
 62
     7
100
AcDbLine
 10
-10.821705
 20
-68.301161
 30
0.0
 11
-10.5
 21
-68.486897
 31
0.0
  0
LINE
  5
295
100
AcDbEntity
  8
0
390
0
  6
Continuous
 62
     7
100
AcDbLine
 10
-10.821705
 20
-65.785882
 30
0.0
 11
-10.821705
 21
-68.301161
 31
0.0
  0
LINE
  5
296
100
AcDbEntity
  8
0
390
0
  6
Continuous
 62
     7
100
AcDbLine
 10
-23.928694
 20
-68.239391
 30
0.0
 11
-23.5
 21
-68.486897
 31
0.0
  0
LINE
  5
297
100
AcDbEntity
  8
0
390
0
  6
Continuous
 62
     7
100
AcDbLine
 10
-23.928694
 20
-65.847652
 30
0.0
 11
-23.928694
 21
-68.239391
 31
0.0
  0
LINE
  5
298
100
AcDbEntity
  8
0
390
0
  6
Continuous
 62
     7
100
AcDbLine
 10
30.436376
 20
-65.852088
 30
0.0
 11
30.436376
 21
-68.234955
 31
0.0
  0
LINE
  5
299
100
AcDbEntity
  8
0
390
0
  6
Continuous
 62
     7
100
AcDbLine
 10
30.436376
 20
-68.234955
 30
0.0
 11
30.0
 21
-68.486897
 31
0.0
  0
LINE
  5
29A
100
AcDbEntity
  8
0
390
0
  6
Continuous
 62
     7
100
AcDbLine
 10
-2.202247
 20
-68.314989
 30
0.0
 11
-2.5
 21
-68.486897
 31
0.0
  0
LINE
  5
29B
100
AcDbEntity
  8
0
390
0
  6
Continuous
 62
     7
100
AcDbLine
 10
-2.202247
 20
-68.314989
 30
0.0
 11
-2.202247
 21
-65.772053
 31
0.0
  0
LINE
  5
29C
100
AcDbEntity
  8
0
390
0
  6
Continuous
 62
     7
100
AcDbLine
 10
15.153439
 20
-68.28681
 30
0.0
 11
15.5
 21
-68.486897
 31
0.0
  0
LINE
  5
29D
100
AcDbEntity
  8
0
390
0
  6
Continuous
 62
     7
100
AcDbLine
 10
15.153439
 20
-65.800232
 30
0.0
 11
15.153439
 21
-68.28681
 31
0.0
  0
LINE
  5
29E
100
AcDbEntity
  8
0
390
0
  6
Continuous
 62
     7
100
AcDbLine
 10
4.300622
 20
-68.313333
 30
0.0
 11
4.0
 21
-68.486897
 31
0.0
  0
LINE
  5
29F
100
AcDbEntity
  8
0
390
0
  6
Continuous
 62
     7
100
AcDbLine
 10
4.300622
 20
-68.313333
 30
0.0
 11
4.300622
 21
-65.77371
 31
0.0
  0
LINE
  5
2A0
100
AcDbEntity
  8
0
390
0
  6
Continuous
 62
     7
100
AcDbLine
 10
23.928693
 20
-68.239391
 30
0.0
 11
23.5
 21
-68.486897
 31
0.0
  0
LINE
  5
2A1
100
AcDbEntity
  8
0
390
0
  6
Continuous
 62
     7
100
AcDbLine
 10
23.928693
 20
-68.239391
 30
0.0
 11
23.928693
 21
-65.847652
 31
0.0
  0
LINE
  5
2A2
100
AcDbEntity
  8
0
390
0
  6
Continuous
 62
     7
100
AcDbLine
 10
-28.063624
 20
-68.234955
 30
0.0
 11
-28.5
 21
-68.486897
 31
0.0
  0
LINE
  5
2A3
100
AcDbEntity
  8
0
390
0
  6
Continuous
 62
     7
100
AcDbLine
 10
-28.063624
 20
-68.234955
 30
0.0
 11
-28.063624
 21
-65.852088
 31
0.0
  0
LINE
  5
2A4
100
AcDbEntity
  8
0
390
0
  6
Continuous
 62
     7
100
AcDbLine
 10
-15.15344
 20
-68.28681
 30
0.0
 11
-15.5
 21
-68.486897
 31
0.0
  0
LINE
  5
2A5
100
AcDbEntity
  8
0
390
0
  6
Continuous
 62
     7
100
AcDbLine
 10
-15.15344
 20
-68.28681
 30
0.0
 11
-15.15344
 21
-65.800232
 31
0.0
  0
LINE
  5
2A6
100
AcDbEntity
  8
0
390
0
  6
Continuous
 62
     7
100
AcDbLine
 10
26.0
 20
-69.426388
 30
0.0
 11
26.0
 21
-69.930272
 31
0.0
  0
LINE
  5
2A7
100
AcDbEntity
  8
0
390
0
  6
Continuous
 62
     7
100
AcDbLine
 10
28.063623
 20
-68.234955
 30
0.0
 11
26.0
 21
-69.426388
 31
0.0
  0
LINE
  5
2A8
100
AcDbEntity
  8
0
390
0
  6
Continuous
 62
     7
100
AcDbLine
 10
19.5
 20
-69.489941
 30
0.0
 11
19.5
 21
-69.930272
 31
0.0
  0
ELLIPSE
  5
2A9
100
AcDbEntity
  8
0
390
0
  6
Continuous
 62
     7
100
AcDbEllipse
 10
0.0
 20
-80.00649
 30
0.0
 11
41.648413128999003
 21
24.053050439425157
 31
0.0
210
0.0
220
0.0
230
1.0
 40
0.015115
 41
5.1908978811232771
 42
5.2488215884746419
  0
ELLIPSE
  5
2AA
100
AcDbEntity
  8
0
390
0
  6
Continuous
 62
     7
100
AcDbEllipse
 10
0.0
 20
-53.737053
 30
0.0
 11
41.648413128999003
 21
24.05305043942516
 31
0.0
210
0.0
220
0.0
230
1.0
 40
0.015115
 41
4.0734825939700139
 42
4.0916439906687323
  0
LINE
  5
2AB
100
AcDbEntity
  8
0
390
0
  6
Continuous
 62
     7
100
AcDbLine
 10
-26.0
 20
-69.426388
 30
0.0
 11
-26.0
 21
-69.930272
 31
0.0
  0
LINE
  5
2AC
100
AcDbEntity
  8
0
390
0
  6
Continuous
 62
     7
100
AcDbLine
 10
-24.543839
 20
-68.585673
 30
0.0
 11
-26.0
 21
-69.426388
 31
0.0
  0
LINE
  5
2AD
100
AcDbEntity
  8
0
390
0
  6
Continuous
 62
     7
100
AcDbLine
 10
-19.5
 20
-69.489941
 30
0.0
 11
-19.5
 21
-69.930272
 31
0.0
  0
ELLIPSE
  5
2AE
100
AcDbEntity
  8
0
390
0
  6
Continuous
 62
     7
100
AcDbEllipse
 10
0.0
 20
-57.48983
 30
0.0
 11
41.648413128999003
 21
24.053050439425157
 31
0.0
210
0.0
220
0.0
230
1.0
 40
0.015115
 41
4.216421468929342
 42
4.2736530342308789
  0
ELLIPSE
  5
2AF
100
AcDbEntity
  8
0
390
0
  6
Continuous
 62
     7
100
AcDbEllipse
 10
0.0
 20
-57.48983
 30
0.0
 11
-41.648413128999039
 21
24.053050439425185
 31
0.0
210
0.0
220
0.0
230
1.0
 40
0.015115
 41
2.0095322729487077
 42
2.0667638382502442
  0
LINE
  5
2B0
100
AcDbEntity
  8
0
390
0
  6
Continuous
 62
     7
100
AcDbLine
 10
30.436376
 20
-68.234955
 30
0.0
 11
32.0
 21
-69.137713
 31
0.0
  0
ELLIPSE
  5
2B1
100
AcDbEntity
  8
0
390
0
  6
Continuous
 62
     7
100
AcDbEllipse
 10
0.0
 20
-53.737053
 30
0.0
 11
-41.648413128999039
 21
24.053050439425185
 31
0.0
210
0.0
220
0.0
230
1.0
 40
0.015115
 41
2.1915413165108548
 42
2.2097027132095737
  0
LINE
  5
2B2
100
AcDbEntity
  8
0
390
0
  6
Continuous
 62
     7
100
AcDbLine
 10
26.0
 20
-69.426388
 30
0.0
 11
24.543838
 21
-68.585673
 31
0.0
  0
LINE
  5
2B3
100
AcDbEntity
  8
0
390
0
  6
Continuous
 62
     7
100
AcDbLine
 10
-26.0
 20
-69.426388
 30
0.0
 11
-28.063624
 21
-68.234955
 31
0.0
  0
LINE
  5
2B4
100
AcDbEntity
  8
0
390
0
  6
Continuous
 62
     7
100
AcDbLine
 10
13.0
 20
-69.545692
 30
0.0
 11
13.0
 21
-69.930272
 31
0.0
  0
ELLIPSE
  5
2B5
100
AcDbEntity
  8
0
390
0
  6
Continuous
 62
     7
100
AcDbEllipse
 10
0.0
 20
-76.253713
 30
0.0
 11
41.648413128999003
 21
24.053050439425157
 31
0.0
210
0.0
220
0.0
230
1.0
 40
0.015115
 41
5.0210884756070255
 42
5.0760340227415623
  0
LINE
  5
2B6
100
AcDbEntity
  8
0
390
0
  6
Continuous
 62
     7
100
AcDbLine
 10
-13.0
 20
-69.545692
 30
0.0
 11
-13.0
 21
-69.930272
 31
0.0
  0
ELLIPSE
  5
2B7
100
AcDbEntity
  8
0
390
0
  6
Continuous
 62
     7
100
AcDbEllipse
 10
0.0
 20
-76.253713
 30
0.0
 11
-41.648413128999039
 21
24.053050439425185
 31
0.0
210
0.0
220
0.0
230
1.0
 40
0.015115
 41
1.2071512844380263
 42
1.262096831572562
  0
ELLIPSE
  5
2B8
100
AcDbEntity
  8
0
390
0
  6
Continuous
 62
     7
100
AcDbEllipse
 10
0.0
 20
-80.00649
 30
0.0
 11
-41.648413128999039
 21
24.053050439425185
 31
0.0
210
0.0
220
0.0
230
1.0
 40
0.015115
 41
1.0343637187049457
 42
1.0922874260563107
  0
LINE
  5
2B9
100
AcDbEntity
  8
0
390
0
  6
Continuous
 62
     7
100
AcDbLine
 10
-32.0
 20
-69.137713
 30
0.0
 11
-30.436377
 21
-68.234955
 31
0.0
  0
LINE
  5
2BA
100
AcDbEntity
  8
0
390
0
  6
Continuous
 62
     7
100
AcDbLine
 10
0.0
 20
-69.587631
 30
0.0
 11
0.0
 21
-69.930272
 31
0.0
  0
ELLIPSE
  5
2BB
100
AcDbEntity
  8
0
390
0
  6
Continuous
 62
     7
100
AcDbEllipse
 10
0.0
 20
-68.74816
 30
0.0
 11
41.648413128999003
 21
24.053050439425157
 31
0.0
210
0.0
220
0.0
230
1.0
 40
0.015115
 41
4.7036596750263096
 42
4.7565594198885384
  0
ELLIPSE
  5
2BC
100
AcDbEntity
  8
0
390
0
  6
Continuous
 62
     7
100
AcDbEllipse
 10
0.0
 20
-61.242606
 30
0.0
 11
41.648413128999003
 21
24.053050439425157
 31
0.0
210
0.0
220
0.0
230
1.0
 40
0.015115
 41
4.3862308744455945
 42
4.4408188688153123
  0
ELLIPSE
  5
2BD
100
AcDbEntity
  8
0
390
0
  6
Continuous
 62
     7
100
AcDbEllipse
 10
0.0
 20
-68.74816
 30
0.0
 11
-41.648413128999039
 21
24.053050439425185
 31
0.0
210
0.0
220
0.0
230
1.0
 40
0.015115
 41
1.5266258872910492
 42
1.5795256321532773
  0
LINE
  5
2BE
100
AcDbEntity
  8
0
390
0
  6
Continuous
 62
     7
100
AcDbLine
 10
6.5
 20
-69.577345
 30
0.0
 11
6.5
 21
-69.930272
 31
0.0
  0
ELLIPSE
  5
2BF
100
AcDbEntity
  8
0
390
0
  6
Continuous
 62
     7
100
AcDbEllipse
 10
0.0
 20
-64.995383
 30
0.0
 11
-41.648413128999039
 21
24.053050439425185
 31
0.0
210
0.0
220
0.0
230
1.0
 40
0.015115
 41
1.6829662345004885
 42
1.736228598462942
  0
ELLIPSE
  5
2C0
100
AcDbEntity
  8
0
390
0
  6
Continuous
 62
     7
100
AcDbEllipse
 10
0.0
 20
-72.500937
 30
0.0
 11
41.648413128999003
 21
24.053050439425157
 31
0.0
210
0.0
220
0.0
230
1.0
 40
0.015115
 41
4.860362641335974
 42
4.9137804366521483
  0
ELLIPSE
  5
2C1
100
AcDbEntity
  8
0
390
0
  6
Continuous
 62
     7
100
AcDbEllipse
 10
0.0
 20
-61.242606
 30
0.0
 11
-41.648413128999039
 21
24.053050439425185
 31
0.0
210
0.0
220
0.0
230
1.0
 40
0.015115
 41
1.8423664383642748
 42
1.8969544327339931
  0
LINE
  5
2C2
100
AcDbEntity
  8
0
390
0
  6
Continuous
 62
     7
100
AcDbLine
 10
-6.5
 20
-69.577345
 30
0.0
 11
-6.5
 21
-69.930272
 31
0.0
  0
ELLIPSE
  5
2C3
100
AcDbEntity
  8
0
390
0
  6
Continuous
 62
     7
100
AcDbEllipse
 10
0.0
 20
-64.995383
 30
0.0
 11
41.648413128999003
 21
24.053050439425157
 31
0.0
210
0.0
220
0.0
230
1.0
 40
0.015115
 41
4.5469567087166443
 42
4.6002190726790975
  0
ELLIPSE
  5
2C4
100
AcDbEntity
  8
0
390
0
  6
Continuous
 62
     7
100
AcDbEllipse
 10
0.0
 20
-72.500937
 30
0.0
 11
-41.648413128999039
 21
24.053050439425185
 31
0.0
210
0.0
220
0.0
230
1.0
 40
0.015115
 41
1.3694048705274391
 42
1.4228226658436127
  0
LINE
  5
2C5
100
AcDbEntity
  8
0
390
0
  6
Continuous
 62
     7
100
AcDbLine
 10
-27.186377
 20
-71.481253
 30
0.0
 11
-29.25
 21
-70.289819
 31
0.0
  0
LINE
  5
2C6
100
AcDbEntity
  8
0
390
0
  6
Continuous
 62
     7
100
AcDbLine
 10
-29.25
 20
-70.289819
 30
0.0
 11
-29.25
 21
-69.785935
 31
0.0
  0
LINE
  5
2C7
100
AcDbEntity
  8
0
390
0
  6
Continuous
 62
     7
100
AcDbLine
 10
-27.186377
 20
-71.481253
 30
0.0
 11
-26.75
 21
-71.229311
 31
0.0
  0
LINE
  5
2C8
100
AcDbEntity
  8
0
390
0
  6
Continuous
 62
     7
100
AcDbLine
 10
-24.543839
 20
-71.325492
 30
0.0
 11
-24.813624
 21
-71.481253
 31
0.0
  0
LINE
  5
2C9
100
AcDbEntity
  8
0
390
0
  6
Continuous
 62
     7
100
AcDbLine
 10
-24.813624
 20
-71.481253
 30
0.0
 11
-25.25
 21
-71.229311
 31
0.0
  0
LINE
  5
2CA
100
AcDbEntity
  8
0
390
0
  6
Continuous
 62
     7
100
AcDbLine
 10
-22.75
 20
-70.26487
 30
0.0
 11
-22.75
 21
-69.785935
 31
0.0
  0
ELLIPSE
  5
2CB
100
AcDbEntity
  8
0
390
0
  6
Continuous
 62
     7
100
AcDbEllipse
 10
0.0
 20
-57.833329
 30
0.0
 11
41.648413128999003
 21
24.053050439425157
 31
0.0
210
0.0
220
0.0
230
1.0
 40
0.015115
 41
2.1399101098045898
 42
2.1922441024928121
  0
ELLIPSE
  5
2CC
100
AcDbEntity
  8
0
390
0
  6
Continuous
 62
     7
100
AcDbEllipse
 10
0.0
 20
-84.102766
 30
0.0
 11
-41.648413128999039
 21
24.053050439425185
 31
0.0
210
0.0
220
0.0
230
1.0
 40
0.015115
 41
5.2396594249925386
 42
5.2989613741111441
  0
LINE
  5
2CD
100
AcDbEntity
  8
0
390
0
  6
Continuous
 62
     7
100
AcDbLine
 10
-20.642306
 20
-71.455808
 30
0.0
 11
-20.25
 21
-71.229311
 31
0.0
  0
ELLIPSE
  5
2CE
100
AcDbEntity
  8
0
390
0
  6
Continuous
 62
     7
100
AcDbEllipse
 10
0.0
 20
-72.844436
 30
0.0
 11
41.648413128999003
 21
24.053050439425157
 31
0.0
210
0.0
220
0.0
230
1.0
 40
0.015115
 41
1.4839564042038194
 42
1.536927138587046
  0
LINE
  5
2CF
100
AcDbEntity
  8
0
390
0
  6
Continuous
 62
     7
100
AcDbLine
 10
1.046966
 20
-71.400764
 30
0.0
 11
0.75
 21
-71.229311
 31
0.0
  0
LINE
  5
2D0
100
AcDbEntity
  8
0
390
0
  6
Continuous
 62
     7
100
AcDbLine
 10
3.25
 20
-70.131136
 30
0.0
 11
3.25
 21
-69.785935
 31
0.0
  0
LINE
  5
2D1
100
AcDbEntity
  8
0
390
0
  6
Continuous
 62
     7
100
AcDbLine
 10
31.313623
 20
-71.481253
 30
0.0
 11
29.25
 21
-70.289819
 31
0.0
  0
LINE
  5
2D2
100
AcDbEntity
  8
0
390
0
  6
Continuous
 62
     7
100
AcDbLine
 10
29.25
 20
-70.289819
 30
0.0
 11
29.25
 21
-69.785935
 31
0.0
  0
LINE
  5
2D3
100
AcDbEntity
  8
0
390
0
  6
Continuous
 62
     7
100
AcDbLine
 10
31.313623
 20
-71.481253
 30
0.0
 11
31.75
 21
-71.229311
 31
0.0
  0
ELLIPSE
  5
2D4
100
AcDbEntity
  8
0
390
0
  6
Continuous
 62
     7
100
AcDbEllipse
 10
0.0
 20
-69.091659
 30
0.0
 11
-41.648413128999039
 21
24.053050439425185
 31
0.0
210
0.0
220
0.0
230
1.0
 40
0.015115
 41
4.5899617931633445
 42
4.6430076685103741
  0
LINE
  5
2D5
100
AcDbEntity
  8
0
390
0
  6
Continuous
 62
     7
100
AcDbLine
 10
5.44702
 20
-71.404236
 30
0.0
 11
5.75
 21
-71.229311
 31
0.0
  0
ELLIPSE
  5
2D6
100
AcDbEntity
  8
0
390
0
  6
Continuous
 62
     7
100
AcDbEllipse
 10
0.0
 20
-65.338882
 30
0.0
 11
41.648413128999003
 21
24.053050439425157
 31
0.0
210
0.0
220
0.0
230
1.0
 40
0.015115
 41
1.7983532182879183
 42
1.8523909962354652
  0
LINE
  5
2D7
100
AcDbEntity
  8
0
390
0
  6
Continuous
 62
     7
100
AcDbLine
 10
-11.92284
 20
-71.418197
 30
0.0
 11
-12.25
 21
-71.229311
 31
0.0
  0
LINE
  5
2D8
100
AcDbEntity
  8
0
390
0
  6
Continuous
 62
     7
100
AcDbLine
 10
-9.75
 20
-70.151902
 30
0.0
 11
-9.75
 21
-69.785935
 31
0.0
  0
LINE
  5
2D9
100
AcDbEntity
  8
0
390
0
  6
Continuous
 62
     7
100
AcDbLine
 10
-29.25
 20
-70.289819
 30
0.0
 11
-31.313624
 21
-71.481253
 31
0.0
  0
LINE
  5
2DA
100
AcDbEntity
  8
0
390
0
  6
Continuous
 62
     7
100
AcDbLine
 10
-31.313624
 20
-71.481253
 30
0.0
 11
-31.75
 21
-71.229311
 31
0.0
  0
ELLIPSE
  5
2DB
100
AcDbEntity
  8
0
390
0
  6
Continuous
 62
     7
100
AcDbEllipse
 10
0.0
 20
-72.844436
 30
0.0
 11
-41.648413128999039
 21
24.053050439425185
 31
0.0
210
0.0
220
0.0
230
1.0
 40
0.015115
 41
4.7462581685925418
 42
4.7992289029757673
  0
LINE
  5
2DC
100
AcDbEntity
  8
0
390
0
  6
Continuous
 62
     7
100
AcDbLine
 10
-3.25
 20
-70.131136
 30
0.0
 11
-3.25
 21
-69.785935
 31
0.0
  0
LINE
  5
2DD
100
AcDbEntity
  8
0
390
0
  6
Continuous
 62
     7
100
AcDbLine
 10
-1.046966
 20
-71.400764
 30
0.0
 11
-0.75
 21
-71.229311
 31
0.0
  0
ELLIPSE
  5
2DE
100
AcDbEntity
  8
0
390
0
  6
Continuous
 62
     7
100
AcDbEllipse
 10
0.0
 20
-69.091659
 30
0.0
 11
41.648413128999003
 21
24.053050439425157
 31
0.0
210
0.0
220
0.0
230
1.0
 40
0.015115
 41
1.6401776386692124
 42
1.6932235140162426
  0
LINE
  5
2DF
100
AcDbEntity
  8
0
390
0
  6
Continuous
 62
     7
100
AcDbLine
 10
-5.44702
 20
-71.404236
 30
0.0
 11
-5.75
 21
-71.229311
 31
0.0
  0
ELLIPSE
  5
2E0
100
AcDbEntity
  8
0
390
0
  6
Continuous
 62
     7
100
AcDbEllipse
 10
0.0
 20
-80.349989
 30
0.0
 11
41.648413128999003
 21
24.053050439425157
 31
0.0
210
0.0
220
0.0
230
1.0
 40
0.015115
 41
1.1612659396936875
 42
1.2169724663846448
  0
LINE
  5
2E1
100
AcDbEntity
  8
0
390
0
  6
Continuous
 62
     7
100
AcDbLine
 10
14.089597
 20
-71.425377
 30
0.0
 11
13.75
 21
-71.229311
 31
0.0
  0
LINE
  5
2E2
100
AcDbEntity
  8
0
390
0
  6
Continuous
 62
     7
100
AcDbLine
 10
16.25
 20
-70.195105
 30
0.0
 11
16.25
 21
-69.785935
 31
0.0
  0
ELLIPSE
  5
2E3
100
AcDbEntity
  8
0
390
0
  6
Continuous
 62
     7
100
AcDbEllipse
 10
0.0
 20
-76.597213
 30
0.0
 11
41.648413128999003
 21
24.053050439425157
 31
0.0
210
0.0
220
0.0
230
1.0
 40
0.015115
 41
1.3257808245851133
 42
1.3795717152529654
  0
LINE
  5
2E4
100
AcDbEntity
  8
0
390
0
  6
Continuous
 62
     7
100
AcDbLine
 10
7.558809
 20
-71.407601
 30
0.0
 11
7.25
 21
-71.229311
 31
0.0
  0
LINE
  5
2E5
100
AcDbEntity
  8
0
390
0
  6
Continuous
 62
     7
100
AcDbLine
 10
9.75
 20
-70.151902
 30
0.0
 11
9.75
 21
-69.785935
 31
0.0
  0
LINE
  5
2E6
100
AcDbEntity
  8
0
390
0
  6
Continuous
 62
     7
100
AcDbLine
 10
29.25
 20
-70.289819
 30
0.0
 11
27.186376
 21
-71.481253
 31
0.0
  0
LINE
  5
2E7
100
AcDbEntity
  8
0
390
0
  6
Continuous
 62
     7
100
AcDbLine
 10
27.186376
 20
-71.481253
 30
0.0
 11
26.75
 21
-71.229311
 31
0.0
  0
ELLIPSE
  5
2E8
100
AcDbEntity
  8
0
390
0
  6
Continuous
 62
     7
100
AcDbEllipse
 10
0.0
 20
-84.102766
 30
0.0
 11
41.648413128999003
 21
24.053050439425157
 31
0.0
210
0.0
220
0.0
230
1.0
 40
0.015115
 41
0.984223933068442
 42
1.0435258821870477
  0
LINE
  5
2E9
100
AcDbEntity
  8
0
390
0
  6
Continuous
 62
     7
100
AcDbLine
 10
20.642305
 20
-71.455808
 30
0.0
 11
20.25
 21
-71.229311
 31
0.0
  0
LINE
  5
2EA
100
AcDbEntity
  8
0
390
0
  6
Continuous
 62
     7
100
AcDbLine
 10
22.75
 20
-70.26487
 30
0.0
 11
22.75
 21
-69.785935
 31
0.0
  0
ELLIPSE
  5
2EB
100
AcDbEntity
  8
0
390
0
  6
Continuous
 62
     7
100
AcDbEllipse
 10
0.0
 20
-61.586106
 30
0.0
 11
-41.648413128999039
 21
24.053050439425185
 31
0.0
210
0.0
220
0.0
230
1.0
 40
0.015115
 41
4.2641112514578285
 42
4.3203172040002418
  0
LINE
  5
2EC
100
AcDbEntity
  8
0
390
0
  6
Continuous
 62
     7
100
AcDbLine
 10
18.378657
 20
-71.443706
 30
0.0
 11
18.75
 21
-71.229311
 31
0.0
  0
ELLIPSE
  5
2ED
100
AcDbEntity
  8
0
390
0
  6
Continuous
 62
     7
100
AcDbEllipse
 10
0.0
 20
-80.349989
 30
0.0
 11
-41.648413128999039
 21
24.053050439425185
 31
0.0
210
0.0
220
0.0
230
1.0
 40
0.015115
 41
5.0662128407949423
 42
5.1219193674858987
  0
LINE
  5
2EE
100
AcDbEntity
  8
0
390
0
  6
Continuous
 62
     7
100
AcDbLine
 10
-16.25
 20
-70.195105
 30
0.0
 11
-16.25
 21
-69.785935
 31
0.0
  0
LINE
  5
2EF
100
AcDbEntity
  8
0
390
0
  6
Continuous
 62
     7
100
AcDbLine
 10
-14.089598
 20
-71.425377
 30
0.0
 11
-13.75
 21
-71.229311
 31
0.0
  0
ELLIPSE
  5
2F0
100
AcDbEntity
  8
0
390
0
  6
Continuous
 62
     7
100
AcDbEllipse
 10
0.0
 20
-61.586106
 30
0.0
 11
41.648413128999003
 21
24.053050439425157
 31
0.0
210
0.0
220
0.0
230
1.0
 40
0.015115
 41
1.962868103179344
 42
2.0190740557217568
  0
LINE
  5
2F1
100
AcDbEntity
  8
0
390
0
  6
Continuous
 62
     7
100
AcDbLine
 10
-18.378657
 20
-71.443706
 30
0.0
 11
-18.75
 21
-71.229311
 31
0.0
  0
ELLIPSE
  5
2F2
100
AcDbEntity
  8
0
390
0
  6
Continuous
 62
     7
100
AcDbEllipse
 10
0.0
 20
-57.833329
 30
0.0
 11
-41.648413128999039
 21
24.053050439425185
 31
0.0
210
0.0
220
0.0
230
1.0
 40
0.015115
 41
4.0909412046867732
 42
4.1432751973749955
  0
LINE
  5
2F3
100
AcDbEntity
  8
0
390
0
  6
Continuous
 62
     7
100
AcDbLine
 10
24.813623
 20
-71.481253
 30
0.0
 11
25.25
 21
-71.229311
 31
0.0
  0
LINE
  5
2F4
100
AcDbEntity
  8
0
390
0
  6
Continuous
 62
     7
100
AcDbLine
 10
24.813623
 20
-71.481253
 30
0.0
 11
24.543838
 21
-71.325492
 31
0.0
  0
ELLIPSE
  5
2F5
100
AcDbEntity
  8
0
390
0
  6
Continuous
 62
     7
100
AcDbEllipse
 10
0.0
 20
-76.597213
 30
0.0
 11
-41.648413128999039
 21
24.053050439425185
 31
0.0
210
0.0
220
0.0
230
1.0
 40
0.015115
 41
4.9036135919266206
 42
4.9574044825944723
  0
LINE
  5
2F6
100
AcDbEntity
  8
0
390
0
  6
Continuous
 62
     7
100
AcDbLine
 10
-7.558809
 20
-71.407601
 30
0.0
 11
-7.25
 21
-71.229311
 31
0.0
  0
ELLIPSE
  5
2F7
100
AcDbEntity
  8
0
390
0
  6
Continuous
 62
     7
100
AcDbEllipse
 10
0.0
 20
-65.338882
 30
0.0
 11
-41.648413128999039
 21
24.053050439425185
 31
0.0
210
0.0
220
0.0
230
1.0
 40
0.015115
 41
4.4307943109441208
 42
4.4848320888916691
  0
LINE
  5
2F8
100
AcDbEntity
  8
0
390
0
  6
Continuous
 62
     7
100
AcDbLine
 10
11.922839
 20
-71.418197
 30
0.0
 11
12.25
 21
-71.229311
 31
0.0
  0
LINE
  5
2F9
100
AcDbEntity
  8
0
390
0
  6
Continuous
 62
     7
100
AcDbLine
 10
18.378657
 20
-73.901667
 30
0.0
 11
18.378657
 21
-71.443706
 31
0.0
  0
LINE
  5
2FA
100
AcDbEntity
  8
0
390
0
  6
Continuous
 62
     7
100
AcDbLine
 10
18.378657
 20
-73.901667
 30
0.0
 11
18.75
 21
-74.116062
 31
0.0
  0
LINE
  5
2FB
100
AcDbEntity
  8
0
390
0
  6
Continuous
 62
     7
100
AcDbLine
 10
-27.186377
 20
-73.86412
 30
0.0
 11
-27.186377
 21
-71.481253
 31
0.0
  0
LINE
  5
2FC
100
AcDbEntity
  8
0
390
0
  6
Continuous
 62
     7
100
AcDbLine
 10
-27.186377
 20
-73.86412
 30
0.0
 11
-26.75
 21
-74.116062
 31
0.0
  0
LINE
  5
2FD
100
AcDbEntity
  8
0
390
0
  6
Continuous
 62
     7
100
AcDbLine
 10
-24.813624
 20
-71.481253
 30
0.0
 11
-24.813624
 21
-73.86412
 31
0.0
  0
LINE
  5
2FE
100
AcDbEntity
  8
0
390
0
  6
Continuous
 62
     7
100
AcDbLine
 10
-24.813624
 20
-73.86412
 30
0.0
 11
-25.25
 21
-74.116062
 31
0.0
  0
LINE
  5
2FF
100
AcDbEntity
  8
0
390
0
  6
Continuous
 62
     7
100
AcDbLine
 10
14.089597
 20
-71.425377
 30
0.0
 11
14.089597
 21
-73.919995
 31
0.0
  0
LINE
  5
300
100
AcDbEntity
  8
0
390
0
  6
Continuous
 62
     7
100
AcDbLine
 10
14.089597
 20
-73.919995
 30
0.0
 11
13.75
 21
-74.116062
 31
0.0
  0
LINE
  5
301
100
AcDbEntity
  8
0
390
0
  6
Continuous
 62
     7
100
AcDbLine
 10
24.813623
 20
-73.86412
 30
0.0
 11
24.813623
 21
-71.481253
 31
0.0
  0
LINE
  5
302
100
AcDbEntity
  8
0
390
0
  6
Continuous
 62
     7
100
AcDbLine
 10
24.813623
 20
-73.86412
 30
0.0
 11
25.25
 21
-74.116062
 31
0.0
  0
LINE
  5
303
100
AcDbEntity
  8
0
390
0
  6
Continuous
 62
     7
100
AcDbLine
 10
1.046966
 20
-71.400764
 30
0.0
 11
1.046966
 21
-73.944609
 31
0.0
  0
LINE
  5
304
100
AcDbEntity
  8
0
390
0
  6
Continuous
 62
     7
100
AcDbLine
 10
1.046966
 20
-73.944609
 30
0.0
 11
0.75
 21
-74.116062
 31
0.0
  0
LINE
  5
305
100
AcDbEntity
  8
0
390
0
  6
Continuous
 62
     7
100
AcDbLine
 10
-20.642306
 20
-73.889564
 30
0.0
 11
-20.642306
 21
-71.455808
 31
0.0
  0
LINE
  5
306
100
AcDbEntity
  8
0
390
0
  6
Continuous
 62
     7
100
AcDbLine
 10
-20.642306
 20
-73.889564
 30
0.0
 11
-20.25
 21
-74.116062
 31
0.0
  0
LINE
  5
307
100
AcDbEntity
  8
0
390
0
  6
Continuous
 62
     7
100
AcDbLine
 10
31.313623
 20
-73.86412
 30
0.0
 11
31.313623
 21
-71.481253
 31
0.0
  0
LINE
  5
308
100
AcDbEntity
  8
0
390
0
  6
Continuous
 62
     7
100
AcDbLine
 10
31.313623
 20
-73.86412
 30
0.0
 11
31.75
 21
-74.116062
 31
0.0
  0
LINE
  5
309
100
AcDbEntity
  8
0
390
0
  6
Continuous
 62
     7
100
AcDbLine
 10
27.186376
 20
-71.481253
 30
0.0
 11
27.186376
 21
-73.86412
 31
0.0
  0
LINE
  5
30A
100
AcDbEntity
  8
0
390
0
  6
Continuous
 62
     7
100
AcDbLine
 10
27.186376
 20
-73.86412
 30
0.0
 11
26.75
 21
-74.116062
 31
0.0
  0
LINE
  5
30B
100
AcDbEntity
  8
0
390
0
  6
Continuous
 62
     7
100
AcDbLine
 10
20.642305
 20
-71.455808
 30
0.0
 11
20.642305
 21
-73.889564
 31
0.0
  0
LINE
  5
30C
100
AcDbEntity
  8
0
390
0
  6
Continuous
 62
     7
100
AcDbLine
 10
20.642305
 20
-73.889564
 30
0.0
 11
20.25
 21
-74.116062
 31
0.0
  0
LINE
  5
30D
100
AcDbEntity
  8
0
390
0
  6
Continuous
 62
     7
100
AcDbLine
 10
7.558809
 20
-71.407601
 30
0.0
 11
7.558809
 21
-73.937771
 31
0.0
  0
LINE
  5
30E
100
AcDbEntity
  8
0
390
0
  6
Continuous
 62
     7
100
AcDbLine
 10
7.558809
 20
-73.937771
 30
0.0
 11
7.25
 21
-74.116062
 31
0.0
  0
LINE
  5
30F
100
AcDbEntity
  8
0
390
0
  6
Continuous
 62
     7
100
AcDbLine
 10
-11.92284
 20
-71.418197
 30
0.0
 11
-11.92284
 21
-73.927176
 31
0.0
  0
LINE
  5
310
100
AcDbEntity
  8
0
390
0
  6
Continuous
 62
     7
100
AcDbLine
 10
-11.92284
 20
-73.927176
 30
0.0
 11
-12.25
 21
-74.116062
 31
0.0
  0
LINE
  5
311
100
AcDbEntity
  8
0
390
0
  6
Continuous
 62
     7
100
AcDbLine
 10
-14.089598
 20
-73.919995
 30
0.0
 11
-14.089598
 21
-71.425377
 31
0.0
  0
LINE
  5
312
100
AcDbEntity
  8
0
390
0
  6
Continuous
 62
     7
100
AcDbLine
 10
-14.089598
 20
-73.919995
 30
0.0
 11
-13.75
 21
-74.116062
 31
0.0
  0
LINE
  5
313
100
AcDbEntity
  8
0
390
0
  6
Continuous
 62
     7
100
AcDbLine
 10
-31.313624
 20
-71.481253
 30
0.0
 11
-31.313624
 21
-73.86412
 31
0.0
  0
LINE
  5
314
100
AcDbEntity
  8
0
390
0
  6
Continuous
 62
     7
100
AcDbLine
 10
-31.313624
 20
-73.86412
 30
0.0
 11
-31.75
 21
-74.116062
 31
0.0
  0
LINE
  5
315
100
AcDbEntity
  8
0
390
0
  6
Continuous
 62
     7
100
AcDbLine
 10
-5.44702
 20
-71.404236
 30
0.0
 11
-5.44702
 21
-73.941136
 31
0.0
  0
LINE
  5
316
100
AcDbEntity
  8
0
390
0
  6
Continuous
 62
     7
100
AcDbLine
 10
-5.44702
 20
-73.941136
 30
0.0
 11
-5.75
 21
-74.116062
 31
0.0
  0
LINE
  5
317
100
AcDbEntity
  8
0
390
0
  6
Continuous
 62
     7
100
AcDbLine
 10
-18.378657
 20
-71.443706
 30
0.0
 11
-18.378657
 21
-73.901667
 31
0.0
  0
LINE
  5
318
100
AcDbEntity
  8
0
390
0
  6
Continuous
 62
     7
100
AcDbLine
 10
-18.378657
 20
-73.901667
 30
0.0
 11
-18.75
 21
-74.116062
 31
0.0
  0
LINE
  5
319
100
AcDbEntity
  8
0
390
0
  6
Continuous
 62
     7
100
AcDbLine
 10
-7.558809
 20
-73.937771
 30
0.0
 11
-7.558809
 21
-71.407601
 31
0.0
  0
LINE
  5
31A
100
AcDbEntity
  8
0
390
0
  6
Continuous
 62
     7
100
AcDbLine
 10
-7.558809
 20
-73.937771
 30
0.0
 11
-7.25
 21
-74.116062
 31
0.0
  0
LINE
  5
31B
100
AcDbEntity
  8
0
390
0
  6
Continuous
 62
     7
100
AcDbLine
 10
-1.046966
 20
-73.944609
 30
0.0
 11
-1.046966
 21
-71.400764
 31
0.0
  0
LINE
  5
31C
100
AcDbEntity
  8
0
390
0
  6
Continuous
 62
     7
100
AcDbLine
 10
-1.046966
 20
-73.944609
 30
0.0
 11
-0.75
 21
-74.116062
 31
0.0
  0
LINE
  5
31D
100
AcDbEntity
  8
0
390
0
  6
Continuous
 62
     7
100
AcDbLine
 10
5.44702
 20
-73.941136
 30
0.0
 11
5.44702
 21
-71.404236
 31
0.0
  0
LINE
  5
31E
100
AcDbEntity
  8
0
390
0
  6
Continuous
 62
     7
100
AcDbLine
 10
5.44702
 20
-73.941136
 30
0.0
 11
5.75
 21
-74.116062
 31
0.0
  0
LINE
  5
31F
100
AcDbEntity
  8
0
390
0
  6
Continuous
 62
     7
100
AcDbLine
 10
11.922839
 20
-73.927176
 30
0.0
 11
11.922839
 21
-71.418197
 31
0.0
  0
LINE
  5
320
100
AcDbEntity
  8
0
390
0
  6
Continuous
 62
     7
100
AcDbLine
 10
11.922839
 20
-73.927176
 30
0.0
 11
12.25
 21
-74.116062
 31
0.0
  0
ELLIPSE
  5
321
100
AcDbEntity
  8
0
390
0
  6
Continuous
 62
     7
100
AcDbEllipse
 10
0.0
 20
-61.242606
 30
0.0
 11
41.64841312899906
 21
24.053050439425185
 31
0.0
210
0.0
220
0.0
230
1.0
 40
0.015115
 41
4.1258165866582353
 42
4.1851185357768408
  0
LINE
  5
322
100
AcDbEntity
  8
0
390
0
  6
Continuous
 62
     7
100
AcDbLine
 10
-22.75
 20
-75.080502
 30
0.0
 11
-22.75
 21
-75.559438
 31
0.0
  0
ELLIPSE
  5
323
100
AcDbEntity
  8
0
390
0
  6
Continuous
 62
     7
100
AcDbEllipse
 10
0.0
 20
-64.995383
 30
0.0
 11
41.64841312899906
 21
24.053050439425185
 31
0.0
210
0.0
220
0.0
230
1.0
 40
0.015115
 41
4.3028585932834806
 42
4.358565119974438
  0
LINE
  5
324
100
AcDbEntity
  8
0
390
0
  6
Continuous
 62
     7
100
AcDbLine
 10
-16.25
 20
-75.150267
 30
0.0
 11
-16.25
 21
-75.559438
 31
0.0
  0
ELLIPSE
  5
325
100
AcDbEntity
  8
0
390
0
  6
Continuous
 62
     7
100
AcDbEllipse
 10
0.0
 20
-83.759267
 30
0.0
 11
41.64841312899906
 21
24.053050439425185
 31
0.0
210
0.0
220
0.0
230
1.0
 40
0.015115
 41
5.1044607567691376
 42
5.1606667093115517
  0
LINE
  5
326
100
AcDbEntity
  8
0
390
0
  6
Continuous
 62
     7
100
AcDbLine
 10
16.25
 20
-75.150267
 30
0.0
 11
16.25
 21
-75.559438
 31
0.0
  0
LINE
  5
327
100
AcDbEntity
  8
0
390
0
  6
Continuous
 62
     7
100
AcDbLine
 10
-31.313624
 20
-73.86412
 30
0.0
 11
-29.25
 21
-75.055553
 31
0.0
  0
LINE
  5
328
100
AcDbEntity
  8
0
390
0
  6
Continuous
 62
     7
100
AcDbLine
 10
-29.25
 20
-75.055553
 30
0.0
 11
-29.25
 21
-75.559438
 31
0.0
  0
LINE
  5
329
100
AcDbEntity
  8
0
390
0
  6
Continuous
 62
     7
100
AcDbLine
 10
-24.813624
 20
-73.86412
 30
0.0
 11
-24.543839
 21
-74.01988
 31
0.0
  0
ELLIPSE
  5
32A
100
AcDbEntity
  8
0
390
0
  6
Continuous
 62
     7
100
AcDbEllipse
 10
0.0
 20
-87.512044
 30
0.0
 11
-41.648413128999039
 21
24.053050439425185
 31
0.0
210
0.0
220
0.0
230
1.0
 40
0.015115
 41
0.9493485510969811
 42
1.0016825437852033
  0
ELLIPSE
  5
32B
100
AcDbEntity
  8
0
390
0
  6
Continuous
 62
     7
100
AcDbEllipse
 10
0.0
 20
-87.512044
 30
0.0
 11
41.64841312899906
 21
24.053050439425185
 31
0.0
210
0.0
220
0.0
230
1.0
 40
0.015115
 41
5.281502763394383
 42
5.3338367560826061
  0
LINE
  5
32C
100
AcDbEntity
  8
0
390
0
  6
Continuous
 62
     7
100
AcDbLine
 10
24.543838
 20
-74.01988
 30
0.0
 11
24.813623
 21
-73.86412
 31
0.0
  0
LINE
  5
32D
100
AcDbEntity
  8
0
390
0
  6
Continuous
 62
     7
100
AcDbLine
 10
22.75
 20
-75.080502
 30
0.0
 11
22.75
 21
-75.559438
 31
0.0
  0
ELLIPSE
  5
32E
100
AcDbEntity
  8
0
390
0
  6
Continuous
 62
     7
100
AcDbEllipse
 10
0.0
 20
-80.00649
 30
0.0
 11
-41.648413128999039
 21
24.053050439425185
 31
0.0
210
0.0
220
0.0
230
1.0
 40
0.015115
 41
1.2892016573543283
 42
1.3432394353018751
  0
LINE
  5
32F
100
AcDbEntity
  8
0
390
0
  6
Continuous
 62
     7
100
AcDbLine
 10
-9.75
 20
-75.193471
 30
0.0
 11
-9.75
 21
-75.559438
 31
0.0
  0
LINE
  5
330
100
AcDbEntity
  8
0
390
0
  6
Continuous
 62
     7
100
AcDbLine
 10
27.186376
 20
-73.86412
 30
0.0
 11
29.25
 21
-75.055553
 31
0.0
  0
LINE
  5
331
100
AcDbEntity
  8
0
390
0
  6
Continuous
 62
     7
100
AcDbLine
 10
29.25
 20
-75.055553
 30
0.0
 11
29.25
 21
-75.559438
 31
0.0
  0
ELLIPSE
  5
332
100
AcDbEntity
  8
0
390
0
  6
Continuous
 62
     7
100
AcDbEllipse
 10
0.0
 20
-80.00649
 30
0.0
 11
41.64841312899906
 21
24.053050439425185
 31
0.0
210
0.0
220
0.0
230
1.0
 40
0.015115
 41
4.9399458718777112
 42
4.9939836498252586
  0
LINE
  5
333
100
AcDbEntity
  8
0
390
0
  6
Continuous
 62
     7
100
AcDbLine
 10
9.75
 20
-75.193471
 30
0.0
 11
9.75
 21
-75.559438
 31
0.0
  0
LINE
  5
334
100
AcDbEntity
  8
0
390
0
  6
Continuous
 62
     7
100
AcDbLine
 10
-29.25
 20
-75.055553
 30
0.0
 11
-27.186377
 21
-73.86412
 31
0.0
  0
ELLIPSE
  5
335
100
AcDbEntity
  8
0
390
0
  6
Continuous
 62
     7
100
AcDbEllipse
 10
0.0
 20
-64.995383
 30
0.0
 11
-41.648413128999032
 21
24.05305043942521
 31
0.0
210
0.0
220
0.0
230
1.0
 40
0.015115
 41
1.9246201872051483
 42
1.980326713896106
  0
LINE
  5
336
100
AcDbEntity
  8
0
390
0
  6
Continuous
 62
     7
100
AcDbLine
 10
29.25
 20
-75.055553
 30
0.0
 11
31.313623
 21
-73.86412
 31
0.0
  0
ELLIPSE
  5
337
100
AcDbEntity
  8
0
390
0
  6
Continuous
 62
     7
100
AcDbEllipse
 10
0.0
 20
-83.759267
 30
0.0
 11
-41.648413128999032
 21
24.05305043942521
 31
0.0
210
0.0
220
0.0
230
1.0
 40
0.015115
 41
1.1225185978680365
 42
1.1787245504104493
  0
ELLIPSE
  5
338
100
AcDbEntity
  8
0
390
0
  6
Continuous
 62
     7
100
AcDbEllipse
 10
0.0
 20
-61.242606
 30
0.0
 11
-41.648413128999032
 21
24.05305043942521
 31
0.0
210
0.0
220
0.0
230
1.0
 40
0.015115
 41
2.0980667714027454
 42
2.1573687205213514
  0
ELLIPSE
  5
339
100
AcDbEntity
  8
0
390
0
  6
Continuous
 62
     7
100
AcDbEllipse
 10
0.0
 20
-68.74816
 30
0.0
 11
41.64841312899906
 21
24.053050439425185
 31
0.0
210
0.0
220
0.0
230
1.0
 40
0.015115
 41
4.467373478174907
 42
4.5211643688427587
  0
ELLIPSE
  5
33A
100
AcDbEntity
  8
0
390
0
  6
Continuous
 62
     7
100
AcDbEllipse
 10
0.0
 20
-76.253713
 30
0.0
 11
41.64841312899906
 21
24.053050439425185
 31
0.0
210
0.0
220
0.0
230
1.0
 40
0.015115
 41
4.7817702922590071
 42
4.8348161676060348
  0
LINE
  5
33B
100
AcDbEntity
  8
0
390
0
  6
Continuous
 62
     7
100
AcDbLine
 10
3.25
 20
-75.214237
 30
0.0
 11
3.25
 21
-75.559438
 31
0.0
  0
ELLIPSE
  5
33C
100
AcDbEntity
  8
0
390
0
  6
Continuous
 62
     7
100
AcDbEllipse
 10
0.0
 20
-72.500937
 30
0.0
 11
41.64841312899906
 21
24.053050439425185
 31
0.0
210
0.0
220
0.0
230
1.0
 40
0.015115
 41
4.6255490577936129
 42
4.6785197921768393
  0
LINE
  5
33D
100
AcDbEntity
  8
0
390
0
  6
Continuous
 62
     7
100
AcDbLine
 10
-3.25
 20
-75.214237
 30
0.0
 11
-3.25
 21
-75.559438
 31
0.0
  0
ELLIPSE
  5
33E
100
AcDbEntity
  8
0
390
0
  6
Continuous
 62
     7
100
AcDbEllipse
 10
0.0
 20
-68.74816
 30
0.0
 11
-41.648413128999032
 21
24.05305043942521
 31
0.0
210
0.0
220
0.0
230
1.0
 40
0.015115
 41
1.7620209383368279
 42
1.8158118290046801
  0
ELLIPSE
  5
33F
100
AcDbEntity
  8
0
390
0
  6
Continuous
 62
     7
100
AcDbEllipse
 10
0.0
 20
-76.253713
 30
0.0
 11
-41.648413128999032
 21
24.05305043942521
 31
0.0
210
0.0
220
0.0
230
1.0
 40
0.015115
 41
1.448369139573551
 42
1.5014150149205809
  0
ELLIPSE
  5
340
100
AcDbEntity
  8
0
390
0
  6
Continuous
 62
     7
100
AcDbEllipse
 10
0.0
 20
-72.500937
 30
0.0
 11
-41.648413128999032
 21
24.05305043942521
 31
0.0
210
0.0
220
0.0
230
1.0
 40
0.015115
 41
1.6046655150027473
 42
1.657636249385974
  0
LINE
  5
341
100
AcDbEntity
  8
0
390
0
  6
Continuous
 62
     7
100
AcDbLine
 10
-21.59788
 20
-77.09031
 30
0.0
 11
-22.0
 21
-76.858145
 31
0.0
  0
LINE
  5
342
100
AcDbEntity
  8
0
390
0
  6
Continuous
 62
     7
100
AcDbLine
 10
-19.5
 20
-75.855101
 30
0.0
 11
-19.5
 21
-75.41477
 31
0.0
  0
ELLIPSE
  5
343
100
AcDbEntity
  8
0
390
0
  6
Continuous
 62
     7
100
AcDbEllipse
 10
0.0
 20
-65.338552
 30
0.0
 11
41.648413128999003
 21
24.053050439425157
 31
0.0
210
0.0
220
0.0
230
1.0
 40
0.015115
 41
2.0493052275334831
 42
2.1072289348848483
  0
LINE
  5
344
100
AcDbEntity
  8
0
390
0
  6
Continuous
 62
     7
100
AcDbLine
 10
-6.5
 20
-75.767697
 30
0.0
 11
-6.5
 21
-75.41477
 31
0.0
  0
LINE
  5
345
100
AcDbEntity
  8
0
390
0
  6
Continuous
 62
     7
100
AcDbLine
 10
-4.300622
 20
-77.03171
 30
0.0
 11
-4.0
 21
-76.858145
 31
0.0
  0
ELLIPSE
  5
346
100
AcDbEntity
  8
0
390
0
  6
Continuous
 62
     7
100
AcDbEllipse
 10
0.0
 20
-80.349659
 30
0.0
 11
-41.648413128999039
 21
24.053050439425185
 31
0.0
210
0.0
220
0.0
230
1.0
 40
0.015115
 41
4.824558888090281
 42
4.8778212520527351
  0
LINE
  5
347
100
AcDbEntity
  8
0
390
0
  6
Continuous
 62
     7
100
AcDbLine
 10
-8.687274
 20
-77.038698
 30
0.0
 11
-9.0
 21
-76.858145
 31
0.0
  0
ELLIPSE
  5
348
100
AcDbEntity
  8
0
390
0
  6
Continuous
 62
     7
100
AcDbEllipse
 10
0.0
 20
-72.844106
 30
0.0
 11
41.648413128999003
 21
24.053050439425157
 31
0.0
210
0.0
220
0.0
230
1.0
 40
0.015115
 41
1.7187699877461806
 42
1.772187783062354
  0
LINE
  5
349
100
AcDbEntity
  8
0
390
0
  6
Continuous
 62
     7
100
AcDbLine
 10
6.5
 20
-75.767697
 30
0.0
 11
6.5
 21
-75.41477
 31
0.0
  0
LINE
  5
34A
100
AcDbEntity
  8
0
390
0
  6
Continuous
 62
     7
100
AcDbLine
 10
8.687274
 20
-77.038698
 30
0.0
 11
9.0
 21
-76.858145
 31
0.0
  0
ELLIPSE
  5
34B
100
AcDbEntity
  8
0
390
0
  6
Continuous
 62
     7
100
AcDbEllipse
 10
0.0
 20
-72.844106
 30
0.0
 11
-41.648413128999039
 21
24.053050439425185
 31
0.0
210
0.0
220
0.0
230
1.0
 40
0.015115
 41
4.510997524117232
 42
4.5644153194334054
  0
LINE
  5
34C
100
AcDbEntity
  8
0
390
0
  6
Continuous
 62
     7
100
AcDbLine
 10
-26.0
 20
-75.918654
 30
0.0
 11
-24.543839
 21
-76.759369
 31
0.0
  0
LINE
  5
34D
100
AcDbEntity
  8
0
390
0
  6
Continuous
 62
     7
100
AcDbLine
 10
-26.0
 20
-75.918654
 30
0.0
 11
-26.0
 21
-75.41477
 31
0.0
  0
LINE
  5
34E
100
AcDbEntity
  8
0
390
0
  6
Continuous
 62
     7
100
AcDbLine
 10
-23.928694
 20
-77.105652
 30
0.0
 11
-23.5
 21
-76.858145
 31
0.0
  0
ELLIPSE
  5
34F
100
AcDbEntity
  8
0
390
0
  6
Continuous
 62
     7
100
AcDbEllipse
 10
0.0
 20
-91.607989
 30
0.0
 11
-41.648413128999039
 21
24.053050439425185
 31
0.0
210
0.0
220
0.0
230
1.0
 40
0.015115
 41
5.333133970100647
 42
5.3512953667993663
  0
LINE
  5
350
100
AcDbEntity
  8
0
390
0
  6
Continuous
 62
     7
100
AcDbLine
 10
-28.063624
 20
-77.110088
 30
0.0
 11
-28.5
 21
-76.858145
 31
0.0
  0
LINE
  5
351
100
AcDbEntity
  8
0
390
0
  6
Continuous
 62
     7
100
AcDbLine
 10
-28.063624
 20
-77.110088
 30
0.0
 11
-26.0
 21
-75.918654
 31
0.0
  0
LINE
  5
352
100
AcDbEntity
  8
0
390
0
  6
Continuous
 62
     7
100
AcDbLine
 10
17.36292
 20
-77.067678
 30
0.0
 11
17.0
 21
-76.858145
 31
0.0
  0
LINE
  5
353
100
AcDbEntity
  8
0
390
0
  6
Continuous
 62
     7
100
AcDbLine
 10
19.5
 20
-75.855101
 30
0.0
 11
19.5
 21
-75.41477
 31
0.0
  0
ELLIPSE
  5
354
100
AcDbEntity
  8
0
390
0
  6
Continuous
 62
     7
100
AcDbEllipse
 10
0.0
 20
-87.855213
 30
0.0
 11
41.648413128999003
 21
24.053050439425157
 31
0.0
210
0.0
220
0.0
230
1.0
 40
0.015115
 41
1.0748288153395484
 42
1.1320603806410863
  0
LINE
  5
355
100
AcDbEntity
  8
0
390
0
  6
Continuous
 62
     7
100
AcDbLine
 10
13.0
 20
-75.79935
 30
0.0
 11
13.0
 21
-75.41477
 31
0.0
  0
LINE
  5
356
100
AcDbEntity
  8
0
390
0
  6
Continuous
 62
     7
100
AcDbLine
 10
15.153439
 20
-77.058232
 30
0.0
 11
15.5
 21
-76.858145
 31
0.0
  0
ELLIPSE
  5
357
100
AcDbEntity
  8
0
390
0
  6
Continuous
 62
     7
100
AcDbEllipse
 10
0.0
 20
-69.091329
 30
0.0
 11
-41.648413128999039
 21
24.053050439425185
 31
0.0
210
0.0
220
0.0
230
1.0
 40
0.015115
 41
4.3487439380278188
 42
4.4036894851623556
  0
LINE
  5
358
100
AcDbEntity
  8
0
390
0
  6
Continuous
 62
     7
100
AcDbLine
 10
-13.0
 20
-75.79935
 30
0.0
 11
-13.0
 21
-75.41477
 31
0.0
  0
LINE
  5
359
100
AcDbEntity
  8
0
390
0
  6
Continuous
 62
     7
100
AcDbLine
 10
-10.821705
 20
-77.043882
 30
0.0
 11
-10.5
 21
-76.858145
 31
0.0
  0
ELLIPSE
  5
35A
100
AcDbEntity
  8
0
390
0
  6
Continuous
 62
     7
100
AcDbEllipse
 10
0.0
 20
-84.102436
 30
0.0
 11
-41.648413128999039
 21
24.053050439425185
 31
0.0
210
0.0
220
0.0
230
1.0
 40
0.015115
 41
4.9839590919540671
 42
5.0385470863237858
  0
LINE
  5
35B
100
AcDbEntity
  8
0
390
0
  6
Continuous
 62
     7
100
AcDbLine
 10
26.0
 20
-75.918654
 30
0.0
 11
26.0
 21
-75.41477
 31
0.0
  0
LINE
  5
35C
100
AcDbEntity
  8
0
390
0
  6
Continuous
 62
     7
100
AcDbLine
 10
28.063623
 20
-77.110088
 30
0.0
 11
28.5
 21
-76.858145
 31
0.0
  0
LINE
  5
35D
100
AcDbEntity
  8
0
390
0
  6
Continuous
 62
     7
100
AcDbLine
 10
26.0
 20
-75.918654
 30
0.0
 11
28.063623
 21
-77.110088
 31
0.0
  0
LINE
  5
35E
100
AcDbEntity
  8
0
390
0
  6
Continuous
 62
     7
100
AcDbLine
 10
0.0
 20
-75.757411
 30
0.0
 11
0.0
 21
-75.41477
 31
0.0
  0
LINE
  5
35F
100
AcDbEntity
  8
0
390
0
  6
Continuous
 62
     7
100
AcDbLine
 10
2.202247
 20
-77.030053
 30
0.0
 11
2.5
 21
-76.858145
 31
0.0
  0
ELLIPSE
  5
360
100
AcDbEntity
  8
0
390
0
  6
Continuous
 62
     7
100
AcDbEllipse
 10
0.0
 20
-76.596882
 30
0.0
 11
-41.648413128999039
 21
24.053050439425185
 31
0.0
210
0.0
220
0.0
230
1.0
 40
0.015115
 41
4.668218540880841
 42
4.7211182857430707
  0
LINE
  5
361
100
AcDbEntity
  8
0
390
0
  6
Continuous
 62
     7
100
AcDbLine
 10
21.59788
 20
-77.09031
 30
0.0
 11
22.0
 21
-76.858145
 31
0.0
  0
ELLIPSE
  5
362
100
AcDbEntity
  8
0
390
0
  6
Continuous
 62
     7
100
AcDbEllipse
 10
0.0
 20
-65.338552
 30
0.0
 11
-41.648413128999039
 21
24.053050439425185
 31
0.0
210
0.0
220
0.0
230
1.0
 40
0.015115
 41
4.1759563722947384
 42
4.2338800796461031
  0
LINE
  5
363
100
AcDbEntity
  8
0
390
0
  6
Continuous
 62
     7
100
AcDbLine
 10
-2.202247
 20
-77.030053
 30
0.0
 11
-2.5
 21
-76.858145
 31
0.0
  0
ELLIPSE
  5
364
100
AcDbEntity
  8
0
390
0
  6
Continuous
 62
     7
100
AcDbEllipse
 10
0.0
 20
-76.596882
 30
0.0
 11
41.648413128999003
 21
24.053050439425157
 31
0.0
210
0.0
220
0.0
230
1.0
 40
0.015115
 41
1.562067021436516
 42
1.6149667662987441
  0
LINE
  5
365
100
AcDbEntity
  8
0
390
0
  6
Continuous
 62
     7
100
AcDbLine
 10
23.928693
 20
-77.105652
 30
0.0
 11
23.5
 21
-76.858145
 31
0.0
  0
LINE
  5
366
100
AcDbEntity
  8
0
390
0
  6
Continuous
 62
     7
100
AcDbLine
 10
24.543838
 20
-76.759369
 30
0.0
 11
26.0
 21
-75.918654
 31
0.0
  0
ELLIPSE
  5
367
100
AcDbEntity
  8
0
390
0
  6
Continuous
 62
     7
100
AcDbEllipse
 10
0.0
 20
-91.607989
 30
0.0
 11
41.648413128999003
 21
24.053050439425157
 31
0.0
210
0.0
220
0.0
230
1.0
 40
0.015115
 41
0.9318899403802199
 42
0.9500513370789383
  0
LINE
  5
368
100
AcDbEntity
  8
0
390
0
  6
Continuous
 62
     7
100
AcDbLine
 10
10.821704
 20
-77.043882
 30
0.0
 11
10.5
 21
-76.858145
 31
0.0
  0
ELLIPSE
  5
369
100
AcDbEntity
  8
0
390
0
  6
Continuous
 62
     7
100
AcDbEllipse
 10
0.0
 20
-84.102436
 30
0.0
 11
41.648413128999003
 21
24.053050439425157
 31
0.0
210
0.0
220
0.0
230
1.0
 40
0.015115
 41
1.2446382208558009
 42
1.2992262152255183
  0
LINE
  5
36A
100
AcDbEntity
  8
0
390
0
  6
Continuous
 62
     7
100
AcDbLine
 10
-17.362921
 20
-77.067678
 30
0.0
 11
-17.0
 21
-76.858145
 31
0.0
  0
ELLIPSE
  5
36B
100
AcDbEntity
  8
0
390
0
  6
Continuous
 62
     7
100
AcDbEllipse
 10
0.0
 20
-87.855213
 30
0.0
 11
-41.648413128999039
 21
24.053050439425185
 31
0.0
210
0.0
220
0.0
230
1.0
 40
0.015115
 41
5.1511249265385004
 42
5.2083564918400365
  0
LINE
  5
36C
100
AcDbEntity
  8
0
390
0
  6
Continuous
 62
     7
100
AcDbLine
 10
4.300622
 20
-77.03171
 30
0.0
 11
4.0
 21
-76.858145
 31
0.0
  0
ELLIPSE
  5
36D
100
AcDbEntity
  8
0
390
0
  6
Continuous
 62
     7
100
AcDbEllipse
 10
0.0
 20
-80.349659
 30
0.0
 11
41.648413128999003
 21
24.053050439425157
 31
0.0
210
0.0
220
0.0
230
1.0
 40
0.015115
 41
1.4053640551268511
 42
1.4586264190893048
  0
LINE
  5
36E
100
AcDbEntity
  8
0
390
0
  6
Continuous
 62
     7
100
AcDbLine
 10
-15.15344
 20
-77.058232
 30
0.0
 11
-15.5
 21
-76.858145
 31
0.0
  0
ELLIPSE
  5
36F
100
AcDbEntity
  8
0
390
0
  6
Continuous
 62
     7
100
AcDbEllipse
 10
0.0
 20
-69.091329
 30
0.0
 11
41.648413128999003
 21
24.053050439425157
 31
0.0
210
0.0
220
0.0
230
1.0
 40
0.015115
 41
1.8794958220172318
 42
1.9344413691517677
  0
LINE
  5
370
100
AcDbEntity
  8
0
390
0
  6
Continuous
 62
     7
100
AcDbLine
 10
2.202247
 20
-77.030053
 30
0.0
 11
2.202247
 21
-77.543521
 31
0.0
  0
LINE
  5
371
100
AcDbEntity
  8
0
390
0
  6
Continuous
 62
     7
100
AcDbLine
 10
17.36292
 20
-77.543521
 30
0.0
 11
17.36292
 21
-77.067678
 31
0.0
  0
LINE
  5
372
100
AcDbEntity
  8
0
390
0
  6
Continuous
 62
     7
100
AcDbLine
 10
8.687274
 20
-77.038698
 30
0.0
 11
8.687274
 21
-77.543521
 31
0.0
  0
LINE
  5
373
100
AcDbEntity
  8
0
390
0
  6
Continuous
 62
     7
100
AcDbLine
 10
21.59788
 20
-77.09031
 30
0.0
 11
21.59788
 21
-77.543521
 31
0.0
  0
LINE
  5
374
100
AcDbEntity
  8
0
390
0
  6
Continuous
 62
     7
100
AcDbLine
 10
-2.202247
 20
-77.543521
 30
0.0
 11
-2.202247
 21
-77.030053
 31
0.0
  0
LINE
  5
375
100
AcDbEntity
  8
0
390
0
  6
Continuous
 62
     7
100
AcDbLine
 10
-17.362921
 20
-77.067678
 30
0.0
 11
-17.362921
 21
-77.543521
 31
0.0
  0
LINE
  5
376
100
AcDbEntity
  8
0
390
0
  6
Continuous
 62
     7
100
AcDbLine
 10
-4.300622
 20
-77.03171
 30
0.0
 11
-4.300622
 21
-77.543521
 31
0.0
  0
LINE
  5
377
100
AcDbEntity
  8
0
390
0
  6
Continuous
 62
     7
100
AcDbLine
 10
-21.59788
 20
-77.543521
 30
0.0
 11
-21.59788
 21
-77.09031
 31
0.0
  0
LINE
  5
378
100
AcDbEntity
  8
0
390
0
  6
Continuous
 62
     7
100
AcDbLine
 10
-8.687274
 20
-77.543521
 30
0.0
 11
-8.687274
 21
-77.038698
 31
0.0
  0
LINE
  5
379
100
AcDbEntity
  8
0
390
0
  6
Continuous
 62
     7
100
AcDbLine
 10
10.821704
 20
-77.543521
 30
0.0
 11
10.821704
 21
-77.043882
 31
0.0
  0
LINE
  5
37A
100
AcDbEntity
  8
0
390
0
  6
Continuous
 62
     7
100
AcDbLine
 10
-28.063624
 20
-77.543521
 30
0.0
 11
-28.063624
 21
-77.110088
 31
0.0
  0
LINE
  5
37B
100
AcDbEntity
  8
0
390
0
  6
Continuous
 62
     7
100
AcDbLine
 10
-15.15344
 20
-77.543521
 30
0.0
 11
-15.15344
 21
-77.058232
 31
0.0
  0
LINE
  5
37C
100
AcDbEntity
  8
0
390
0
  6
Continuous
 62
     7
100
AcDbLine
 10
-23.928694
 20
-77.105652
 30
0.0
 11
-23.928694
 21
-77.543521
 31
0.0
  0
LINE
  5
37D
100
AcDbEntity
  8
0
390
0
  6
Continuous
 62
     7
100
AcDbLine
 10
23.928693
 20
-77.543521
 30
0.0
 11
23.928693
 21
-77.105652
 31
0.0
  0
LINE
  5
37E
100
AcDbEntity
  8
0
390
0
  6
Continuous
 62
     7
100
AcDbLine
 10
28.063623
 20
-77.110088
 30
0.0
 11
28.063623
 21
-77.543521
 31
0.0
  0
LINE
  5
37F
100
AcDbEntity
  8
0
390
0
  6
Continuous
 62
     7
100
AcDbLine
 10
15.153439
 20
-77.058232
 30
0.0
 11
15.153439
 21
-77.543521
 31
0.0
  0
LINE
  5
380
100
AcDbEntity
  8
0
390
0
  6
Continuous
 62
     7
100
AcDbLine
 10
4.300622
 20
-77.543521
 30
0.0
 11
4.300622
 21
-77.03171
 31
0.0
  0
LINE
  5
381
100
AcDbEntity
  8
0
390
0
  6
Continuous
 62
     7
100
AcDbLine
 10
-10.821705
 20
-77.043882
 30
0.0
 11
-10.821705
 21
-77.543521
 31
0.0
  0
LINE
  5
382
100
AcDbEntity
  8
0
390
0
  6
Continuous
 62
     7
100
AcDbLine
 10
-5.191999
 20
-54.343521
 30
0.0
 11
-5.191999
 21
-54.543521
 31
0.0
  0
LINE
  5
383
100
AcDbEntity
  8
0
390
0
  6
Continuous
 62
     7
100
AcDbLine
 10
-4.772085
 20
-54.343521
 30
0.0
 11
-4.772085
 21
-54.543521
 31
0.0
  0
LINE
  5
384
100
AcDbEntity
  8
0
390
0
  6
Continuous
 62
     7
100
AcDbLine
 10
-5.191999
 20
-54.343521
 30
0.0
 11
-4.772085
 21
-54.343521
 31
0.0
  0
LINE
  5
385
100
AcDbEntity
  8
0
390
0
  6
Continuous
 62
     7
100
AcDbLine
 10
-1.657622
 20
-54.343521
 30
0.0
 11
-0.821506
 21
-54.343521
 31
0.0
  0
LINE
  5
386
100
AcDbEntity
  8
0
390
0
  6
Continuous
 62
     7
100
AcDbLine
 10
-0.821506
 20
-54.343521
 30
0.0
 11
-0.821506
 21
-54.543521
 31
0.0
  0
LINE
  5
387
100
AcDbEntity
  8
0
390
0
  6
Continuous
 62
     7
100
AcDbLine
 10
-0.821506
 20
-54.343521
 30
0.0
 11
0.340474
 21
-54.343521
 31
0.0
  0
LINE
  5
388
100
AcDbEntity
  8
0
390
0
  6
Continuous
 62
     7
100
AcDbLine
 10
0.340474
 20
-54.343521
 30
0.0
 11
0.340474
 21
-54.543521
 31
0.0
  0
LINE
  5
389
100
AcDbEntity
  8
0
390
0
  6
Continuous
 62
     7
100
AcDbLine
 10
-6.35364
 20
-54.343521
 30
0.0
 11
-6.35364
 21
-54.543521
 31
0.0
  0
LINE
  5
38A
100
AcDbEntity
  8
0
390
0
  6
Continuous
 62
     7
100
AcDbLine
 10
-6.35364
 20
-54.343521
 30
0.0
 11
-5.191999
 21
-54.343521
 31
0.0
  0
LINE
  5
38B
100
AcDbEntity
  8
0
390
0
  6
Continuous
 62
     7
100
AcDbLine
 10
2.404897
 20
-54.343521
 30
0.0
 11
2.404897
 21
-54.543521
 31
0.0
  0
LINE
  5
38C
100
AcDbEntity
  8
0
390
0
  6
Continuous
 62
     7
100
AcDbLine
 10
2.404897
 20
-54.343521
 30
0.0
 11
3.240983
 21
-54.343521
 31
0.0
  0
LINE
  5
38D
100
AcDbEntity
  8
0
390
0
  6
Continuous
 62
     7
100
AcDbLine
 10
3.240983
 20
-54.343521
 30
0.0
 11
3.240983
 21
-54.543521
 31
0.0
  0
LINE
  5
38E
100
AcDbEntity
  8
0
390
0
  6
Continuous
 62
     7
100
AcDbLine
 10
3.240983
 20
-54.343521
 30
0.0
 11
4.819075
 21
-54.343521
 31
0.0
  0
LINE
  5
38F
100
AcDbEntity
  8
0
390
0
  6
Continuous
 62
     7
100
AcDbLine
 10
4.819075
 20
-54.343521
 30
0.0
 11
4.819075
 21
-54.543521
 31
0.0
  0
LINE
  5
390
100
AcDbEntity
  8
0
390
0
  6
Continuous
 62
     7
100
AcDbLine
 10
1.17656
 20
-54.343521
 30
0.0
 11
1.17656
 21
-54.543521
 31
0.0
  0
LINE
  5
391
100
AcDbEntity
  8
0
390
0
  6
Continuous
 62
     7
100
AcDbLine
 10
1.17656
 20
-54.343521
 30
0.0
 11
2.404897
 21
-54.343521
 31
0.0
  0
LINE
  5
392
100
AcDbEntity
  8
0
390
0
  6
Continuous
 62
     7
100
AcDbLine
 10
-4.049501
 20
-54.343521
 30
0.0
 11
-2.819519
 21
-54.343521
 31
0.0
  0
LINE
  5
393
100
AcDbEntity
  8
0
390
0
  6
Continuous
 62
     7
100
AcDbLine
 10
-2.819519
 20
-54.343521
 30
0.0
 11
-2.819519
 21
-54.543521
 31
0.0
  0
LINE
  5
394
100
AcDbEntity
  8
0
390
0
  6
Continuous
 62
     7
100
AcDbLine
 10
0.340474
 20
-54.343521
 30
0.0
 11
1.17656
 21
-54.343521
 31
0.0
  0
LINE
  5
395
100
AcDbEntity
  8
0
390
0
  6
Continuous
 62
     7
100
AcDbLine
 10
4.819075
 20
-54.343521
 30
0.0
 11
6.319075
 21
-54.343521
 31
0.0
  0
LINE
  5
396
100
AcDbEntity
  8
0
390
0
  6
Continuous
 62
     7
100
AcDbLine
 10
6.319075
 20
-54.343521
 30
0.0
 11
6.319075
 21
-54.543521
 31
0.0
  0
LINE
  5
397
100
AcDbEntity
  8
0
390
0
  6
Continuous
 62
     7
100
AcDbLine
 10
-2.819519
 20
-54.343521
 30
0.0
 11
-1.657622
 21
-54.343521
 31
0.0
  0
LINE
  5
398
100
AcDbEntity
  8
0
390
0
  6
Continuous
 62
     7
100
AcDbLine
 10
-1.657622
 20
-54.343521
 30
0.0
 11
-1.657622
 21
-54.543521
 31
0.0
  0
LINE
  5
399
100
AcDbEntity
  8
0
390
0
  6
Continuous
 62
     7
100
AcDbLine
 10
-4.049501
 20
-54.343521
 30
0.0
 11
-4.049501
 21
-54.543521
 31
0.0
  0
LINE
  5
39A
100
AcDbEntity
  8
0
390
0
  6
Continuous
 62
     7
100
AcDbLine
 10
-4.772085
 20
-54.343521
 30
0.0
 11
-4.049501
 21
-54.343521
 31
0.0
  0
LINE
  5
39B
100
AcDbEntity
  8
0
390
0
  6
Continuous
 62
     7
100
AcDbLine
 10
-24.543839
 20
-74.01988
 30
0.0
 11
-24.543839
 21
-71.325492
 31
0.0
  0
LINE
  5
39C
100
AcDbEntity
  8
0
390
0
  6
Continuous
 62
     7
100
AcDbLine
 10
-24.543839
 20
-62.76155
 30
0.0
 11
-24.543839
 21
-60.067162
 31
0.0
  0
LINE
  5
39D
100
AcDbEntity
  8
0
390
0
  6
Continuous
 62
     7
100
AcDbLine
 10
24.543838
 20
-74.01988
 30
0.0
 11
24.543838
 21
-71.325492
 31
0.0
  0
LINE
  5
39E
100
AcDbEntity
  8
0
390
0
  6
Continuous
 62
     7
100
AcDbLine
 10
24.543838
 20
-62.76155
 30
0.0
 11
24.543838
 21
-60.067162
 31
0.0
  0
LINE
  5
39F
100
AcDbEntity
  8
0
390
0
  6
Continuous
 62
     7
100
AcDbLine
 10
-24.543839
 20
-57.327673
 30
0.0
 11
-24.543839
 21
-56.543521
 31
0.0
  0
LINE
  5
3A0
100
AcDbEntity
  8
0
390
0
  6
Continuous
 62
     7
100
AcDbLine
 10
-24.543839
 20
-77.543521
 30
0.0
 11
-24.543839
 21
-76.759369
 31
0.0
  0
LINE
  5
3A1
100
AcDbEntity
  8
0
390
0
  6
Continuous
 62
     7
100
AcDbLine
 10
-24.543839
 20
-68.585673
 30
0.0
 11
-24.543839
 21
-65.501369
 31
0.0
  0
LINE
  5
3A2
100
AcDbEntity
  8
0
390
0
  6
Continuous
 62
     7
100
AcDbLine
 10
24.543838
 20
-68.585673
 30
0.0
 11
24.543838
 21
-65.501369
 31
0.0
  0
LINE
  5
3A3
100
AcDbEntity
  8
0
390
0
  6
Continuous
 62
     7
100
AcDbLine
 10
24.543838
 20
-77.543521
 30
0.0
 11
24.543838
 21
-76.759369
 31
0.0
  0
LINE
  5
3A4
100
AcDbEntity
  8
0
390
0
  6
Continuous
 62
     7
100
AcDbLine
 10
24.543838
 20
-57.327673
 30
0.0
 11
24.543838
 21
-56.543521
 31
0.0
  0
POINT
  5
3A5
100
AcDbEntity
  8
0
390
0
 62
     7
100
AcDbPoint
 10
0.0
 20
0.0
 30
0.0
  0
ENDSEC
  0
SECTION
  2
OBJECTS
  0
DICTIONARY
  5
19
100
AcDbDictionary
280
     0
281
     1
  3
ACAD_GROUP
350
1A
  3
ACAD_MLINESTYLE
350
1B
  3
ACAD_LAYOUT
350
1E
  3
ACAD_PLOTSETTINGS
350
22
  3
ACAD_PLOTSTYLENAME
350
1F
  3
ACAD_WIPEOUT_VARS
350
23
  0
DICTIONARY
  5
1A
102
{ACAD_REACTORS
330
19
102
}
100
AcDbDictionary
280
     0
281
     1
  0
DICTIONARY
  5
1B
102
{ACAD_REACTORS
330
19
102
}
100
AcDbDictionary
280
     0
281
     1
  3
Standard
350
1C
  0
MLINESTYLE
  5
1C
102
{ACAD_REACTORS
330
1B
102
}
100
AcDbMlineStyle
  2
Standard
 70
     0
  3

 62
     0
 51
90.0
 52
90.0
 71
     2
 49
0.5
 62
   256
  6
ByLayer
 49
-0.5
 62
   256
  6
ByLayer
  0
ACDBDICTIONARYWDFLT
  5
1F
102
{ACAD_REACTORS
330
19
102
}
100
AcDbDictionary
281
     1
  3
Normal
350
1D
100
AcDbDictionaryWithDefault
340
1D
  0
ACDBPLACEHOLDER
  5
1D
102
{ACAD_REACTORS
330
1F
102
}
  0
LAYOUT
  5
20
102
{ACAD_REACTORS
330
1E
102
}
100
AcDbPlotSettings
  1

  2

  4

  6

 40
0.0
 41
0.0
 42
0.0
 43
0.0
 44
0.0
 45
0.0
 46
0.0
 47
0.0
 48
0.0
 49
0.0
140
0.0
141
0.0
142
1.0
143
1.0
 70
  1024
 72
     0
 73
     0
 74
     0
  7

 75
     0
147
1.0
148
0.0
149
0.0
100
AcDbLayout
  1
Model
 70
     0
 71
     1
 10
0.0
 20
0.0
 11
0.0
 21
0.0
 12
0.0
 22
0.0
 32
0.0
 14
0.0
 24
0.0
 34
0.0
 15
0.0
 25
0.0
 35
0.0
146
0.0
 13
0.0
 23
0.0
 33
0.0
 16
0.0
 26
0.0
 36
0.0
 17
0.0
 27
0.0
 37
0.0
 76
     0
330
A
331
0
345
0
346
0
  0
LAYOUT
  5
21
102
{ACAD_REACTORS
330
1E
102
}
100
AcDbPlotSettings
  1

  2

  4

  6

 40
0.0
 41
0.0
 42
0.0
 43
0.0
 44
0.0
 45
0.0
 46
0.0
 47
0.0
 48
0.0
 49
0.0
140
0.0
141
0.0
142
1.0
143
1.0
 70
     0
 72
     0
 73
     0
 74
     0
  7

 75
     0
147
1.0
148
0.0
149
0.0
100
AcDbLayout
  1
Layout1
 70
     0
 71
     2
 10
0.0
 20
0.0
 11
0.0
 21
0.0
 12
0.0
 22
0.0
 32
0.0
 14
0.0
 24
0.0
 34
0.0
 15
0.0
 25
0.0
 35
0.0
146
0.0
 13
0.0
 23
0.0
 33
0.0
 16
0.0
 26
0.0
 36
0.0
 17
0.0
 27
0.0
 37
0.0
 76
     0
330
B
331
0
345
0
346
0
  0
DICTIONARY
  5
1E
102
{ACAD_REACTORS
330
19
102
}
100
AcDbDictionary
280
     0
281
     1
  3
Layout1
350
21
  3
Model
350
20
  0
DICTIONARY
  5
22
102
{ACAD_REACTORS
330
19
102
}
100
AcDbDictionary
280
     0
281
     1
  0
WIPEOUTVARIABLES
  5
23
100
AcDbWipeoutVariables
 70
     1
  0
ENDSEC
  0
EOF
