  0
SECTION
  2
HEADER
  9
$ACADVER
  1
AC1015
  9
$ACADMAINTVER
 70
     6
  9
$DWGCODEPAGE
  3
DOS932
  9
$INSBASE
 10
0.0
 20
0.0
 30
0.0
  9
$EXTMIN
 10
-52.0
 20
-71.389236
 30
0.0
  9
$EXTMAX
 10
345.443922
 20
260.999441
 30
9.906
  9
$LIMMIN
 10
-52.0
 20
-71.389236
  9
$LIMMAX
 10
345.443922
 20
260.999441
  9
$ORTHOMODE
 70
     0
  9
$REGENMODE
 70
     1
  9
$FILLMODE
 70
     1
  9
$QTEXTMODE
 70
     0
  9
$MIRRTEXT
 70
     1
  9
$LTSCALE
 40
10.0
  9
$ATTMODE
 70
     1
  9
$TEXTSIZE
 40
0.2
  9
$TRACEWID
 40
0.05
  9
$TEXTSTYLE
  7
Standard
  9
$CLAYER
  8
0
  9
$CELTYPE
  6
Continuous
  9
$CECOLOR
 62
   256
  9
$CELTSCALE
 40
1.0
  9
$DISPSILH
 70
     0
  9
$DIMSCALE
 40
1.0
  9
$DIMASZ
 40
1.40208
  9
$DIMEXO
 40
1.40208
  9
$DIMDLI
 40
0.38
  9
$DIMRND
 40
0.0
  9
$DIMDLE
 40
0.0
  9
$DIMEXE
 40
1.05156
  9
$DIMTP
 40
0.0
  9
$DIMTM
 40
0.0
  9
$DIMTXT
 40
3.5052
  9
$DIMCEN
 40
0.09
  9
$DIMTSZ
 40
0.0
  9
$DIMTOL
 70
     0
  9
$DIMLIM
 70
     0
  9
$DIMTIH
 70
     0
  9
$DIMTOH
 70
     0
  9
$DIMSE1
 70
     0
  9
$DIMSE2
 70
     0
  9
$DIMTAD
 70
     1
  9
$DIMZIN
 70
     0
  9
$DIMBLK
  1

  9
$DIMASO
 70
     1
  9
$DIMSHO
 70
     1
  9
$DIMPOST
  1

  9
$DIMAPOST
  1

  9
$DIMALT
 70
     0
  9
$DIMALTD
 70
     2
  9
$DIMALTF
 40
25.4
  9
$DIMLFAC
 40
1.0
  9
$DIMTOFL
 70
     0
  9
$DIMTVP
 40
0.0
  9
$DIMTIX
 70
     0
  9
$DIMSOXD
 70
     0
  9
$DIMSAH
 70
     0
  9
$DIMBLK1
  1

  9
$DIMBLK2
  1

  9
$DIMSTYLE
  2
Standard
  9
$DIMCLRD
 70
     7
  9
$DIMCLRE
 70
     7
  9
$DIMCLRT
 70
     7
  9
$DIMTFAC
 40
0.5
  9
$DIMGAP
 40
1.7526
  9
$DIMJUST
 70
     0
  9
$DIMSD1
 70
     0
  9
$DIMSD2
 70
     0
  9
$DIMTOLJ
 70
     1
  9
$DIMTZIN
 70
     0
  9
$DIMALTZ
 70
     0
  9
$DIMALTTZ
 70
     0
  9
$DIMUPT
 70
     0
  9
$DIMDEC
 70
     2
  9
$DIMTDEC
 70
     4
  9
$DIMALTU
 70
     2
  9
$DIMALTTD
 70
     2
  9
$DIMTXSTY
  7
Standard
  9
$DIMAUNIT
 70
     0
  9
$DIMADEC
 70
     0
  9
$DIMALTRND
 40
0.0
  9
$DIMAZIN
 70
     0
  9
$DIMDSEP
 70
     0
  9
$DIMATFIT
 70
     3
  9
$DIMFRAC
 70
     0
  9
$DIMLDRBLK
  1

  9
$DIMLUNIT
 70
     2
  9
$DIMLWD
 70
     0
  9
$DIMLWE
 70
     0
  9
$DIMTMOVE
 70
     0
  9
$LUNITS
 70
     2
  9
$LUPREC
 70
     4
  9
$SKETCHINC
 40
0.1
  9
$FILLETRAD
 40
0.0
  9
$AUNITS
 70
     0
  9
$AUPREC
 70
     0
  9
$MENU
  1
acad
  9
$ELEVATION
 40
0.0
  9
$PELEVATION
 40
0.0
  9
$THICKNESS
 40
0.0
  9
$LIMCHECK
 70
     0
  9
$CHAMFERA
 40
0.0
  9
$CHAMFERB
 40
0.0
  9
$CHAMFERC
 40
0.0
  9
$CHAMFERD
 40
0.0
  9
$SKPOLY
 70
     0
  9
$TDCREATE
 40
2459780.630486111
  9
$TDUCREATE
 40
0.000000000
  9
$TDUPDATE
 40
2459780.255439815
  9
$TDUUPDATE
 40
0.000000000
  9
$TDINDWG
 40
0.0000000000
  9
$TDUSRTIMER
 40
0.0000000000
  9
$USRTIMER
 70
     1
  9
$ANGBASE
 50
0.0
  9
$ANGDIR
 70
     0
  9
$PDMODE
 70
     0
  9
$PDSIZE
 40
0.0
  9
$PLINEWID
 40
0.0
  9
$SPLFRAME
 70
     0
  9
$SPLINETYPE
 70
     6
  9
$SPLINESEGS
 70
     8
  9
$HANDSEED
  5
314
  9
$SURFTAB1
 70
     6
  9
$SURFTAB2
 70
     6
  9
$SURFTYPE
 70
     6
  9
$SURFU
 70
     6
  9
$SURFV
 70
     6
  9
$UCSBASE
  2

  9
$UCSNAME
  2

  9
$UCSORG
 10
0.0
 20
0.0
 30
0.0
  9
$UCSXDIR
 10
1.0
 20
0.0
 30
0.0
  9
$UCSYDIR
 10
0.0
 20
1.0
 30
0.0
  9
$UCSORTHOREF
  2

  9
$UCSORTHOVIEW
 70
     0
  9
$UCSORGTOP
 10
0.0
 20
0.0
 30
0.0
  9
$UCSORGBOTTOM
 10
0.0
 20
0.0
 30
0.0
  9
$UCSORGLEFT
 10
0.0
 20
0.0
 30
0.0
  9
$UCSORGRIGHT
 10
0.0
 20
0.0
 30
0.0
  9
$UCSORGFRONT
 10
0.0
 20
0.0
 30
0.0
  9
$UCSORGBACK
 10
0.0
 20
0.0
 30
0.0
  9
$PUCSBASE
  2

  9
$PUCSNAME
  2

  9
$PUCSORG
 10
0.0
 20
0.0
 30
0.0
  9
$PUCSXDIR
 10
1.0
 20
0.0
 30
0.0
  9
$PUCSYDIR
 10
0.0
 20
1.0
 30
0.0
  9
$PUCSORTHOREF
  2

  9
$PUCSORTHOVIEW
 70
     0
  9
$PUCSORGTOP
 10
0.0
 20
0.0
 30
0.0
  9
$PUCSORGBOTTOM
 10
0.0
 20
0.0
 30
0.0
  9
$PUCSORGLEFT
 10
0.0
 20
0.0
 30
0.0
  9
$PUCSORGRIGHT
 10
0.0
 20
0.0
 30
0.0
  9
$PUCSORGFRONT
 10
0.0
 20
0.0
 30
0.0
  9
$PUCSORGBACK
 10
0.0
 20
0.0
 30
0.0
  9
$USERI1
 70
     0
  9
$USERI2
 70
     0
  9
$USERI3
 70
     0
  9
$USERI4
 70
     0
  9
$USERI5
 70
     0
  9
$USERR1
 40
0.0
  9
$USERR2
 40
0.0
  9
$USERR3
 40
0.0
  9
$USERR4
 40
0.0
  9
$USERR5
 40
0.0
  9
$WORLDVIEW
 70
     1
  9
$SHADEDGE
 70
     3
  9
$SHADEDIF
 70
    70
  9
$TILEMODE
 70
     1
  9
$MAXACTVP
 70
    16
  9
$PINSBASE
 10
0.0
 20
0.0
 30
0.0
  9
$PLIMCHECK
 70
     0
  9
$PEXTMIN
 10
1.000000E+20
 20
1.000000E+20
 30
1.000000E+20
  9
$PEXTMAX
 10
-1.000000E+20
 20
-1.000000E+20
 30
-1.000000E+20
  9
$PLIMMIN
 10
0.0
 20
0.0
  9
$PLIMMAX
 10
12.0
 20
9.0
  9
$UNITMODE
 70
     0
  9
$VISRETAIN
 70
     0
  9
$PLINEGEN
 70
     1
  9
$PSLTSCALE
 70
     0
  9
$TREEDEPTH
 70
  3020
  9
$CMLSTYLE
  2
Standard
  9
$CMLJUST
 70
     0
  9
$CMLSCALE
 40
1.0
  9
$PROXYGRAPHICS
 70
     0
  9
$MEASUREMENT
 70
     0
  9
$CELWEIGHT
370
     0
  9
$ENDCAPS
280
     0
  9
$JOINSTYLE
280
     0
  9
$LWDISPLAY
290
     0
  9
$INSUNITS
 70
     0
  9
$HYPERLINKBASE
  1

  9
$STYLESHEET
  1

  9
$XEDIT
290
     1
  9
$CEPSNTYPE
380
     0
  9
$PSTYLEMODE
290
     1
  9
$FINGERPRINTGUID
  2

  9
$VERSIONGUID
  2

  9
$EXTNAMES
290
     1
  9
$PSVPSCALE
 40
0.0
  0
ENDSEC
  0
SECTION
  2
CLASSES
  0
CLASS
  1
LWPOLYLINE
  2
AcDbPolyline
  3
AutoCAD 2000
 90
        0
280
     0
281
     1
  0
CLASS
  1
IMAGE
  2
AcDbRasterImage
  3
ISM
 90
      127
280
     0
281
     1
  0
CLASS
  1
OLE2FRAME
  2
AcDbOle2Frame
  3
AutoCAD 2000
 90
        0
280
     0
281
     1
  0
CLASS
  1
HATCH
  2
AcDbHatch
  3
AutoCAD 2000
 90
        0
280
     0
281
     1
  0
CLASS
  1
DICTIONARYVAR
  2
AcDbDictionaryVar
  3
AutoCAD 2000
 90
        0
280
     0
281
     0
  0
CLASS
  1
RASTERVARIABLES
  2
AcDbRasterVariables
  3
ISM
 90
        0
280
     0
281
     0
  0
CLASS
  1
IMAGEDEF
  2
AcDbRasterImageDef
  3
ISM
 90
        0
280
     0
281
     0
  0
CLASS
  1
IMAGEDEF_REACTOR
  2
AcDbRasterImageDefReactor
  3
ISM
 90
        1
280
     0
281
     0
  0
CLASS
  1
IDBUFFER
  2
AcDbIdBuffer
  3
AutoCAD 2000
 90
        0
280
     0
281
     0
  0
CLASS
  1
SPATIAL_FILTER
  2
AcDbSpatialFilter
  3
AutoCAD 2000
 90
        0
280
     0
281
     0
  0
CLASS
  1
XRECORD
  2
AcDbXrecord
  3
AutoCAD 2000
 90
        0
280
     0
281
     0
  0
CLASS
  1
SORTENTSTABLE
  2
AcDbSortentsTable
  3
AutoCAD 2000
 90
        0
280
     0
281
     0
  0
CLASS
  1
LAYER_INDEX
  2
AcDbLayerIndex
  3
AutoCAD 2000
 90
        0
280
     0
281
     0
  0
CLASS
  1
SPATIAL_INDEX
  2
AcDbSpatialIndex
  3
AutoCAD 2000
 90
        0
280
     0
281
     0
  0
CLASS
  1
OBJECT_PTR
  2
CAseDLPNTableRecord
  3
"ASE-LPNTableRecord"
 90
        1
280
     0
281
     0
  0
CLASS
  1
LAYOUT
  2
AcDbLayout
  3
AutoCAD 2000
 90
        0
280
     0
281
     0
  0
CLASS
  1
PLOTSETTINGS
  2
AcDbPlotSettings
  3
AutoCAD 2000
 90
        0
280
     0
281
     0
  0
CLASS
  1
ACDBDICTIONARYWDFLT
  2
AcDbDictionaryWithDefault
  3
AutoCAD 2000
 90
        0
280
     0
281
     0
  0
CLASS
  1
ACDBPLACEHOLDER
  2
AcDbPlaceHolder
  3
AutoCAD 2000
 90
        0
280
     0
281
     0
  0
CLASS
  1
VBA_PROJECT
  2
AcDbVbaProject
  3
acadvba
 90
        0
280
     0
281
     0
  0
CLASS
  1
WIPEOUT
  2
AcDbWipeout
  3
WipeOut|AutoCAD Express Tool|expresstools@autodesk.com
 90
      127
280
     0
281
     1
  0
CLASS
  1
WIPEOUTVARIABLES
  2
AcDbWipeoutVariables
  3
WipeOut|AutoCAD Express Tool|expresstools@autodesk.com
 90
        0
280
     0
281
     0
  0
CLASS
  1
RTEXT
  2
RText
  3
RText|AutoCAD Express Tool|expresstools@autodesk.com
 90
        0
280
     0
281
     1
  0
CLASS
  1
ARCALIGNEDTEXT
  2
AcDbArcAlignedText
  3
ATEXT|AutoCAD Express Tool|expresstools@autodesk.com
 90
        0
280
     0
281
     1
  0
ENDSEC
  0
SECTION
  2
TABLES
  0
TABLE
  2
VPORT
  5
7
100
AcDbSymbolTable
 70
     1
  0
VPORT
  5
15
100
AcDbSymbolTableRecord
100
AcDbViewportTableRecord
  2
*ACTIVE
 70
     0
 10
0.0
 20
0.0
 11
1.0
 21
1.0
 12
6.591288
 22
4.579184
 13
0.0
 23
0.0
 14
1.0
 24
1.0
 15
0.0
 25
0.0
 16
0.0
 26
0.0
 36
1.0
 17
0.0
 27
0.0
 37
0.0
 40
9.158369
 41
0.688564
 42
50.0
 43
0.0
 44
0.0
 50
0.0
 51
0.0
 71
     0
 72
   100
 73
     1
 74
     1
 75
     0
 76
     0
 77
     0
 78
     0
281
     0
 65
     0
110
0.0
120
0.0
130
0.0
111
1.0
121
0.0
131
0.0
112
0.0
122
1.0
132
0.0
345
0
346
0
 79
     0
146
0.0
  0
ENDTAB
  0
TABLE
  2
LTYPE
  5
4
100
AcDbSymbolTable
 70
     3
  0
LTYPE
  5
11
100
AcDbSymbolTableRecord
100
AcDbLinetypeTableRecord
  2
ByBlock
 70
    64
  3

 72
    65
 73
     0
 40
0.0
  0
LTYPE
  5
12
100
AcDbSymbolTableRecord
100
AcDbLinetypeTableRecord
  2
ByLayer
 70
    64
  3

 72
    65
 73
     0
 40
0.0
  0
LTYPE
  5
13
100
AcDbSymbolTableRecord
100
AcDbLinetypeTableRecord
  2
Continuous
 70
    64
  3
Solid line
 72
    65
 73
     0
 40
0.0
  0
ENDTAB
  0
TABLE
  2
LAYER
  5
2
100
AcDbSymbolTable
 70
     1
  0
LAYER
  5
14
100
AcDbSymbolTableRecord
100
AcDbLayerTableRecord
  2
0
 70
     0
 62
     7
  6
Continuous
290
     1
370
    -3
390
1D
  0
ENDTAB
  0
TABLE
  2
STYLE
  5
3
100
AcDbSymbolTable
 70
     1
  0
STYLE
  5
17
100
AcDbSymbolTableRecord
100
AcDbTextStyleTableRecord
  2
Standard
 70
     0
 40
0.0
 41
1.0
 50
0.0
 71
     0
 42
0.0
  3
FG教科書体NT-M
  4

1001
ACAD
1000
FG教科書体NT-M
1071
        0
  0
ENDTAB
  0
TABLE
  2
VIEW
  5
5
100
AcDbSymbolTable
 70
     0
  0
ENDTAB
  0
TABLE
  2
UCS
  5
6
100
AcDbSymbolTable
 70
     0
  0
ENDTAB
  0
TABLE
  2
APPID
  5
8
100
AcDbSymbolTable
 70
     2
  0
APPID
  5
16
100
AcDbSymbolTableRecord
100
AcDbRegAppTableRecord
  2
ACAD
 70
     0
  0
APPID
  5
26
100
AcDbSymbolTableRecord
100
AcDbRegAppTableRecord
  2
TOPsolid_Design
 70
     0
  0
ENDTAB
  0
TABLE
  2
DIMSTYLE
  5
9
100
AcDbSymbolTable
 70
     1
100
AcDbDimStyleTable
 71
     0
  0
DIMSTYLE
105
18
100
AcDbSymbolTableRecord
100
AcDbDimStyleTableRecord
  2
Standard
 70
     0
  3

  4

 40
1.0
 41
1.40208
 42
1.40208
 43
0.38
 44
1.05156
 45
0.0
 46
0.0
 47
0.0
 48
0.0
 71
     0
 72
     0
 73
     0
 74
     0
 75
     0
 76
     0
 77
     1
 78
     0
 79
     0
140
3.5052
141
0.09
142
0.0
143
25.4
144
1.0
145
0.0
146
0.5
147
1.7526
148
0.0
170
     0
171
     2
172
     0
173
     0
174
     0
175
     0
176
     7
177
     7
178
     7
179
     0
271
     2
272
     4
273
     2
274
     2
275
     0
276
     0
277
     2
278
    46
279
     0
280
     0
281
     0
282
     0
283
     1
284
     0
285
     0
286
     0
288
     0
289
     3
340
17
341
0
342
0
343
0
344
0
371
    -2
372
    -2
  0
ENDTAB
  0
TABLE
  2
BLOCK_RECORD
  5
1
100
AcDbSymbolTable
 70
     0
  0
BLOCK_RECORD
  5
A
100
AcDbSymbolTableRecord
100
AcDbBlockTableRecord
  2
*MODEL_SPACE
340
20
  0
BLOCK_RECORD
  5
B
100
AcDbSymbolTableRecord
100
AcDbBlockTableRecord
  2
*PAPER_SPACE
340
21
  0
ENDTAB
  0
ENDSEC
  0
SECTION
  2
BLOCKS
  0
BLOCK
  5
D
100
AcDbEntity
  8
0
390
0
100
AcDbBlockBegin
  2
*MODEL_SPACE
 70
     0
 10
0.0
 20
0.0
 30
0.0
  3
*MODEL_SPACE
  1

  0
ENDBLK
  5
E
100
AcDbEntity
  8
0
390
0
100
AcDbBlockEnd
  0
BLOCK
  5
F
100
AcDbEntity
 67
     1
  8
0
390
0
100
AcDbBlockBegin
  2
*PAPER_SPACE
 70
     0
 10
0.0
 20
0.0
 30
0.0
  3
*PAPER_SPACE
  1

  0
ENDBLK
  5
10
100
AcDbEntity
 67
     1
  8
0
390
0
100
AcDbBlockEnd
  0
ENDSEC
  0
SECTION
  2
ENTITIES
  0
LINE
  5
27
100
AcDbEntity
  8
0
390
0
  6
Continuous
 62
     7
100
AcDbLine
 10
-1.657622
 20
8.0
 30
0.0
 11
-3.474604
 21
12.496708
 31
0.0
  0
LINE
  5
28
100
AcDbEntity
  8
0
390
0
  6
Continuous
 62
     7
100
AcDbLine
 10
-2.819519
 20
8.0
 30
0.0
 11
-1.657622
 21
8.0
 31
0.0
  0
LINE
  5
29
100
AcDbEntity
  8
0
390
0
  6
Continuous
 62
     7
100
AcDbLine
 10
-4.636245
 20
12.496708
 30
0.0
 11
-2.819519
 21
8.0
 31
0.0
  0
LINE
  5
2A
100
AcDbEntity
  8
0
390
0
  6
Continuous
 62
     7
100
AcDbLine
 10
-3.474604
 20
12.496708
 30
0.0
 11
-4.636245
 21
12.496708
 31
0.0
  0
LINE
  5
2B
100
AcDbEntity
  8
0
390
0
  6
Continuous
 62
     7
100
AcDbLine
 10
-0.821505
 20
8.0
 30
0.0
 11
0.340474
 21
8.0
 31
0.0
  0
LINE
  5
2C
100
AcDbEntity
  8
0
390
0
  6
Continuous
 62
     7
100
AcDbLine
 10
-2.638488
 20
12.496708
 30
0.0
 11
-0.821505
 21
8.0
 31
0.0
  0
LINE
  5
2D
100
AcDbEntity
  8
0
390
0
  6
Continuous
 62
     7
100
AcDbLine
 10
-1.476508
 20
12.496708
 30
0.0
 11
-2.638488
 21
12.496708
 31
0.0
  0
LINE
  5
2E
100
AcDbEntity
  8
0
390
0
  6
Continuous
 62
     7
100
AcDbLine
 10
0.340474
 20
8.0
 30
0.0
 11
-1.476508
 21
12.496708
 31
0.0
  0
LINE
  5
2F
100
AcDbEntity
  8
0
390
0
  6
Continuous
 62
     7
100
AcDbLine
 10
1.176561
 20
8.0
 30
0.0
 11
2.404897
 21
8.0
 31
0.0
  0
LINE
  5
30
100
AcDbEntity
  8
0
390
0
  6
Continuous
 62
     7
100
AcDbLine
 10
0.250797
 20
10.290947
 30
0.0
 11
1.176561
 21
8.0
 31
0.0
  0
LINE
  5
31
100
AcDbEntity
  8
0
390
0
  6
Continuous
 62
     7
100
AcDbLine
 10
0.831794
 20
11.729218
 30
0.0
 11
0.250797
 21
10.290947
 31
0.0
  0
LINE
  5
32
100
AcDbEntity
  8
0
390
0
  6
Continuous
 62
     7
100
AcDbLine
 10
1.790601
 20
9.356197
 30
0.0
 11
0.831794
 21
11.729218
 31
0.0
  0
LINE
  5
33
100
AcDbEntity
  8
0
390
0
  6
Continuous
 62
     7
100
AcDbLine
 10
3.059599
 20
12.496708
 30
0.0
 11
1.790601
 21
9.356197
 31
0.0
  0
LINE
  5
34
100
AcDbEntity
  8
0
390
0
  6
Continuous
 62
     7
100
AcDbLine
 10
4.221594
 20
12.496708
 30
0.0
 11
3.059599
 21
12.496708
 31
0.0
  0
LINE
  5
35
100
AcDbEntity
  8
0
390
0
  6
Continuous
 62
     7
100
AcDbLine
 10
2.404897
 20
8.0
 30
0.0
 11
4.221594
 21
12.496708
 31
0.0
  0
LINE
  5
36
100
AcDbEntity
  8
0
390
0
  6
Continuous
 62
     7
100
AcDbLine
 10
3.240983
 20
8.0
 30
0.0
 11
4.819075
 21
8.0
 31
0.0
  0
LINE
  5
37
100
AcDbEntity
  8
0
390
0
  6
Continuous
 62
     7
100
AcDbLine
 10
3.505179
 20
8.653907
 30
0.0
 11
3.240983
 21
8.0
 31
0.0
  0
LINE
  5
38
100
AcDbEntity
  8
0
390
0
  6
Continuous
 62
     7
100
AcDbLine
 10
4.143902
 20
8.653907
 30
0.0
 11
3.505179
 21
8.653907
 31
0.0
  0
ARC
  5
39
100
AcDbEntity
  8
0
390
0
  6
Continuous
 62
     7
100
AcDbCircle
 10
4.143902
 20
9.653907
 30
0.0
 40
1.0
210
0.0
220
0.0
230
1.0
100
AcDbArc
 50
270.0
 51
360.0
  0
LINE
  5
3A
100
AcDbEntity
  8
0
390
0
  6
Continuous
 62
     7
100
AcDbLine
 10
5.143902
 20
12.496708
 30
0.0
 11
5.143902
 21
9.653907
 31
0.0
  0
LINE
  5
3B
100
AcDbEntity
  8
0
390
0
  6
Continuous
 62
     7
100
AcDbLine
 10
6.319075
 20
12.496708
 30
0.0
 11
5.143902
 21
12.496708
 31
0.0
  0
LINE
  5
3C
100
AcDbEntity
  8
0
390
0
  6
Continuous
 62
     7
100
AcDbLine
 10
6.319075
 20
9.5
 30
0.0
 11
6.319075
 21
12.496708
 31
0.0
  0
ARC
  5
3D
100
AcDbEntity
  8
0
390
0
  6
Continuous
 62
     7
100
AcDbCircle
 10
4.819075
 20
9.5
 30
0.0
 40
1.5
210
0.0
220
0.0
230
1.0
100
AcDbArc
 50
270.0
 51
360.0
  0
LINE
  5
3E
100
AcDbEntity
  8
0
390
0
  6
Continuous
 62
     7
100
AcDbLine
 10
-6.35364
 20
8.0
 30
0.0
 11
-5.191998
 21
8.0
 31
0.0
  0
LINE
  5
3F
100
AcDbEntity
  8
0
390
0
  6
Continuous
 62
     7
100
AcDbLine
 10
-4.991636
 20
11.371513
 30
0.0
 11
-6.35364
 21
8.0
 31
0.0
  0
LINE
  5
40
100
AcDbEntity
  8
0
390
0
  6
Continuous
 62
     7
100
AcDbLine
 10
-4.0495
 20
9.038568
 30
0.0
 11
-4.991636
 21
11.371513
 31
0.0
  0
LINE
  5
41
100
AcDbEntity
  8
0
390
0
  6
Continuous
 62
     7
100
AcDbLine
 10
-4.772084
 20
9.038568
 30
0.0
 11
-4.0495
 21
9.038568
 31
0.0
  0
LINE
  5
42
100
AcDbEntity
  8
0
390
0
  6
Continuous
 62
     7
100
AcDbLine
 10
-5.191998
 20
8.0
 30
0.0
 11
-4.772084
 21
9.038568
 31
0.0
  0
LINE
  5
43
100
AcDbEntity
  8
0
390
0
  6
Continuous
 62
     7
100
AcDbLine
 10
39.5
 20
0.0
 30
0.0
 11
39.5
 21
2.0
 31
0.0
  0
LINE
  5
44
100
AcDbEntity
  8
0
390
0
  6
Continuous
 62
     7
100
AcDbLine
 10
39.5
 20
2.0
 30
0.0
 11
52.0
 21
2.0
 31
0.0
  0
LINE
  5
45
100
AcDbEntity
  8
0
390
0
  6
Continuous
 62
     7
100
AcDbLine
 10
52.0
 20
0.0
 30
0.0
 11
52.0
 21
2.0
 31
0.0
  0
LINE
  5
46
100
AcDbEntity
  8
0
390
0
  6
Continuous
 62
     7
100
AcDbLine
 10
52.0
 20
0.0
 30
0.0
 11
39.5
 21
0.0
 31
0.0
  0
LINE
  5
47
100
AcDbEntity
  8
0
390
0
  6
Continuous
 62
     7
100
AcDbLine
 10
-39.5
 20
2.0
 30
0.0
 11
-39.5
 21
0.0
 31
0.0
  0
LINE
  5
48
100
AcDbEntity
  8
0
390
0
  6
Continuous
 62
     7
100
AcDbLine
 10
-52.0
 20
2.0
 30
0.0
 11
-52.0
 21
0.0
 31
0.0
  0
LINE
  5
49
100
AcDbEntity
  8
0
390
0
  6
Continuous
 62
     7
100
AcDbLine
 10
-39.5
 20
0.0
 30
0.0
 11
-52.0
 21
0.0
 31
0.0
  0
LINE
  5
4A
100
AcDbEntity
  8
0
390
0
  6
Continuous
 62
     7
100
AcDbLine
 10
-52.0
 20
2.0
 30
0.0
 11
-39.5
 21
2.0
 31
0.0
  0
LINE
  5
4B
100
AcDbEntity
  8
0
390
0
  6
Continuous
 62
     7
100
AcDbLine
 10
22.0
 20
2.0
 30
0.0
 11
22.0
 21
25.5
 31
0.0
  0
LINE
  5
4C
100
AcDbEntity
  8
0
390
0
  6
Continuous
 62
     7
100
AcDbLine
 10
27.0
 20
25.5
 30
0.0
 11
22.0
 21
25.5
 31
0.0
  0
LINE
  5
4D
100
AcDbEntity
  8
0
390
0
  6
Continuous
 62
     7
100
AcDbLine
 10
27.0
 20
25.5
 30
0.0
 11
27.0
 21
2.0
 31
0.0
  0
LINE
  5
4E
100
AcDbEntity
  8
0
390
0
  6
Continuous
 62
     7
100
AcDbLine
 10
22.0
 20
25.5
 30
0.0
 11
19.974984
 21
25.5
 31
0.0
  0
LINE
  5
4F
100
AcDbEntity
  8
0
390
0
  6
Continuous
 62
     7
100
AcDbLine
 10
19.974984
 20
25.5
 30
0.0
 11
19.974984
 21
27.0
 31
0.0
  0
LINE
  5
50
100
AcDbEntity
  8
0
390
0
  6
Continuous
 62
     7
100
AcDbLine
 10
19.974984
 20
27.0
 30
0.0
 11
22.0
 21
27.0
 31
0.0
  0
LINE
  5
51
100
AcDbEntity
  8
0
390
0
  6
Continuous
 62
     7
100
AcDbLine
 10
22.0
 20
25.5
 30
0.0
 11
22.0
 21
27.0
 31
0.0
  0
LINE
  5
52
100
AcDbEntity
  8
0
390
0
  6
Continuous
 62
     7
100
AcDbLine
 10
-27.0
 20
2.0
 30
0.0
 11
-27.0
 21
25.5
 31
0.0
  0
LINE
  5
53
100
AcDbEntity
  8
0
390
0
  6
Continuous
 62
     7
100
AcDbLine
 10
-22.0
 20
25.5
 30
0.0
 11
-27.0
 21
25.5
 31
0.0
  0
LINE
  5
54
100
AcDbEntity
  8
0
390
0
  6
Continuous
 62
     7
100
AcDbLine
 10
-22.0
 20
25.5
 30
0.0
 11
-22.0
 21
2.0
 31
0.0
  0
LINE
  5
55
100
AcDbEntity
  8
0
390
0
  6
Continuous
 62
     7
100
AcDbLine
 10
22.0
 20
27.0
 30
0.0
 11
25.5
 21
27.0
 31
0.0
  0
ARC
  5
56
100
AcDbEntity
  8
0
390
0
  6
Continuous
 62
     7
100
AcDbCircle
 10
25.5
 20
25.5
 30
0.0
 40
1.5
210
0.0
220
0.0
230
1.0
100
AcDbArc
 50
0.0
 51
90.0
  0
ARC
  5
57
100
AcDbEntity
  8
0
390
0
  6
Continuous
 62
     7
100
AcDbCircle
 10
-25.5
 20
25.5
 30
0.0
 40
1.5
210
0.0
220
0.0
230
1.0
100
AcDbArc
 50
90.0
 51
180.0
  0
LINE
  5
58
100
AcDbEntity
  8
0
390
0
  6
Continuous
 62
     7
100
AcDbLine
 10
-25.5
 20
27.0
 30
0.0
 11
-22.0
 21
27.0
 31
0.0
  0
LINE
  5
59
100
AcDbEntity
  8
0
390
0
  6
Continuous
 62
     7
100
AcDbLine
 10
-22.0
 20
25.5
 30
0.0
 11
-22.0
 21
27.0
 31
0.0
  0
ARC
  5
5A
100
AcDbEntity
  8
0
390
0
  6
Continuous
 62
     7
100
AcDbCircle
 10
0.0
 20
50.5
 30
0.0
 40
32.0
210
0.0
220
0.0
230
1.0
100
AcDbArc
 50
231.375167
 51
308.624833
  0
LINE
  5
5B
100
AcDbEntity
  8
0
390
0
  6
Continuous
 62
     7
100
AcDbLine
 10
-19.974984
 20
25.5
 30
0.0
 11
-19.038657
 21
26.671875
 31
0.0
  0
ARC
  5
5C
100
AcDbEntity
  8
0
390
0
  6
Continuous
 62
     7
100
AcDbCircle
 10
0.0
 20
50.5
 30
0.0
 40
30.5
210
0.0
220
0.0
230
1.0
100
AcDbArc
 50
231.375167
 51
308.624833
  0
LINE
  5
5D
100
AcDbEntity
  8
0
390
0
  6
Continuous
 62
     7
100
AcDbLine
 10
19.974984
 20
25.5
 30
0.0
 11
19.038657
 21
26.671875
 31
0.0
  0
ARC
  5
5E
100
AcDbEntity
  8
0
390
0
  6
Continuous
 62
     7
100
AcDbCircle
 10
-19.974984
 20
25.5
 30
0.0
 40
1.5
210
0.0
220
0.0
230
1.0
100
AcDbArc
 50
51.375167
 51
90.0
  0
LINE
  5
5F
100
AcDbEntity
  8
0
390
0
  6
Continuous
 62
     7
100
AcDbLine
 10
-19.974984
 20
25.5
 30
0.0
 11
-19.974984
 21
27.0
 31
0.0
  0
LINE
  5
60
100
AcDbEntity
  8
0
390
0
  6
Continuous
 62
     7
100
AcDbLine
 10
-19.974984
 20
25.5
 30
0.0
 11
-22.0
 21
25.5
 31
0.0
  0
LINE
  5
61
100
AcDbEntity
  8
0
390
0
  6
Continuous
 62
     7
100
AcDbLine
 10
-22.0
 20
27.0
 30
0.0
 11
-19.974984
 21
27.0
 31
0.0
  0
ARC
  5
62
100
AcDbEntity
  8
0
390
0
  6
Continuous
 62
     7
100
AcDbCircle
 10
19.974984
 20
25.5
 30
0.0
 40
1.5
210
0.0
220
0.0
230
1.0
100
AcDbArc
 50
90.0
 51
128.624833
  0
LINE
  5
63
100
AcDbEntity
  8
0
390
0
  6
Continuous
 62
     7
100
AcDbLine
 10
39.5
 20
2.0
 30
0.0
 11
22.0
 21
2.0
 31
0.0
  0
LINE
  5
64
100
AcDbEntity
  8
0
390
0
  6
Continuous
 62
     7
100
AcDbLine
 10
-39.5
 20
0.0
 30
0.0
 11
39.5
 21
0.0
 31
0.0
  0
LINE
  5
65
100
AcDbEntity
  8
0
390
0
  6
Continuous
 62
     7
100
AcDbLine
 10
-22.0
 20
2.0
 30
0.0
 11
-39.5
 21
2.0
 31
0.0
  0
LINE
  5
66
100
AcDbEntity
  8
0
390
0
  6
Continuous
 62
     7
100
AcDbLine
 10
110.94667
 20
0.0
 30
0.0
 11
110.94667
 21
2.0
 31
0.0
  0
LINE
  5
67
100
AcDbEntity
  8
0
390
0
  6
Continuous
 62
     7
100
AcDbLine
 10
123.44667
 20
0.0
 30
0.0
 11
123.44667
 21
2.0
 31
0.0
  0
LINE
  5
68
100
AcDbEntity
  8
0
390
0
  6
Continuous
 62
     7
100
AcDbLine
 10
123.44667
 20
0.0
 30
0.0
 11
110.94667
 21
0.0
 31
0.0
  0
LINE
  5
69
100
AcDbEntity
  8
0
390
0
  6
Continuous
 62
     7
100
AcDbLine
 10
110.94667
 20
2.0
 30
0.0
 11
123.44667
 21
2.0
 31
0.0
  0
LINE
  5
6A
100
AcDbEntity
  8
0
390
0
  6
Continuous
 62
     7
100
AcDbLine
 10
135.94667
 20
2.0
 30
0.0
 11
135.94667
 21
0.0
 31
0.0
  0
LINE
  5
6B
100
AcDbEntity
  8
0
390
0
  6
Continuous
 62
     7
100
AcDbLine
 10
135.94667
 20
0.0
 30
0.0
 11
123.44667
 21
0.0
 31
0.0
  0
LINE
  5
6C
100
AcDbEntity
  8
0
390
0
  6
Continuous
 62
     7
100
AcDbLine
 10
123.44667
 20
2.0
 30
0.0
 11
135.94667
 21
2.0
 31
0.0
  0
LINE
  5
6D
100
AcDbEntity
  8
0
390
0
  6
Continuous
 62
     7
100
AcDbLine
 10
115.94667
 20
27.0
 30
0.0
 11
130.94667
 21
27.0
 31
0.0
  0
LINE
  5
6E
100
AcDbEntity
  8
0
390
0
  6
Continuous
 62
     7
100
AcDbLine
 10
130.94667
 20
27.0
 30
0.0
 11
130.94667
 21
25.5
 31
0.0
  0
LINE
  5
6F
100
AcDbEntity
  8
0
390
0
  6
Continuous
 62
     7
100
AcDbLine
 10
130.94667
 20
25.5
 30
0.0
 11
115.94667
 21
25.5
 31
0.0
  0
LINE
  5
70
100
AcDbEntity
  8
0
390
0
  6
Continuous
 62
     7
100
AcDbLine
 10
115.94667
 20
27.0
 30
0.0
 11
115.94667
 21
25.5
 31
0.0
  0
LINE
  5
71
100
AcDbEntity
  8
0
390
0
  6
Continuous
 62
     7
100
AcDbLine
 10
115.94667
 20
25.5
 30
0.0
 11
110.94667
 21
25.5
 31
0.0
  0
LINE
  5
72
100
AcDbEntity
  8
0
390
0
  6
Continuous
 62
     7
100
AcDbLine
 10
115.94667
 20
25.5
 30
0.0
 11
115.94667
 21
2.0
 31
0.0
  0
LINE
  5
73
100
AcDbEntity
  8
0
390
0
  6
Continuous
 62
     7
100
AcDbLine
 10
110.94667
 20
2.0
 30
0.0
 11
110.94667
 21
25.5
 31
0.0
  0
LINE
  5
74
100
AcDbEntity
  8
0
390
0
  6
Continuous
 62
     7
100
AcDbLine
 10
112.44667
 20
27.0
 30
0.0
 11
115.94667
 21
27.0
 31
0.0
  0
ARC
  5
75
100
AcDbEntity
  8
0
390
0
  6
Continuous
 62
     7
100
AcDbCircle
 10
112.44667
 20
25.5
 30
0.0
 40
1.5
210
0.0
220
0.0
230
1.0
100
AcDbArc
 50
90.0
 51
180.0
  0
LINE
  5
76
100
AcDbEntity
  8
0
390
0
  6
Continuous
 62
     7
100
AcDbLine
 10
130.94667
 20
2.0
 30
0.0
 11
130.94667
 21
25.5
 31
0.0
  0
LINE
  5
77
100
AcDbEntity
  8
0
390
0
  6
Continuous
 62
     7
100
AcDbLine
 10
130.94667
 20
27.0
 30
0.0
 11
134.44667
 21
27.0
 31
0.0
  0
ARC
  5
78
100
AcDbEntity
  8
0
390
0
  6
Continuous
 62
     7
100
AcDbCircle
 10
134.44667
 20
25.5
 30
0.0
 40
1.5
210
0.0
220
0.0
230
1.0
100
AcDbArc
 50
0.0
 51
90.0
  0
LINE
  5
79
100
AcDbEntity
  8
0
390
0
  6
Continuous
 62
     7
100
AcDbLine
 10
135.94667
 20
25.5
 30
0.0
 11
130.94667
 21
25.5
 31
0.0
  0
LINE
  5
7A
100
AcDbEntity
  8
0
390
0
  6
Continuous
 62
     7
100
AcDbLine
 10
135.94667
 20
25.5
 30
0.0
 11
135.94667
 21
2.0
 31
0.0
  0
LINE
  5
7B
100
AcDbEntity
  8
0
390
0
  6
Continuous
 62
     7
100
AcDbLine
 10
110.94667
 20
25.5
 30
0.0
 11
110.94667
 21
18.5
 31
0.0
  0
LINE
  5
7C
100
AcDbEntity
  8
0
390
0
  6
Continuous
 62
     7
100
AcDbLine
 10
135.94667
 20
18.5
 30
0.0
 11
135.94667
 21
25.5
 31
0.0
  0
LINE
  5
7D
100
AcDbEntity
  8
0
390
0
  6
Continuous
 62
     7
100
AcDbLine
 10
110.74667
 20
8.0
 30
0.0
 11
110.94667
 21
8.0
 31
0.0
  0
LINE
  5
7E
100
AcDbEntity
  8
0
390
0
  6
Continuous
 62
     7
100
AcDbLine
 10
110.74667
 20
9.5
 30
0.0
 11
110.94667
 21
9.5
 31
0.0
  0
LINE
  5
7F
100
AcDbEntity
  8
0
390
0
  6
Continuous
 62
     7
100
AcDbLine
 10
110.74667
 20
8.0
 30
0.0
 11
110.74667
 21
9.5
 31
0.0
  0
LINE
  5
80
100
AcDbEntity
  8
0
390
0
  6
Continuous
 62
     7
100
AcDbLine
 10
110.74667
 20
12.496708
 30
0.0
 11
110.94667
 21
12.496708
 31
0.0
  0
LINE
  5
81
100
AcDbEntity
  8
0
390
0
  6
Continuous
 62
     7
100
AcDbLine
 10
110.74667
 20
9.5
 30
0.0
 11
110.74667
 21
12.496708
 31
0.0
  0
LINE
  5
82
100
AcDbEntity
  8
0
390
0
  6
Continuous
 62
     7
100
AcDbLine
 10
7.25
 20
-63.075026
 30
0.0
 11
9.75
 21
-61.63165
 31
0.0
  0
LINE
  5
83
100
AcDbEntity
  8
0
390
0
  6
Continuous
 62
     7
100
AcDbLine
 10
7.25
 20
-65.961777
 30
0.0
 11
7.25
 21
-63.075026
 31
0.0
  0
LINE
  5
84
100
AcDbEntity
  8
0
390
0
  6
Continuous
 62
     7
100
AcDbLine
 10
9.75
 20
-67.405153
 30
0.0
 11
7.25
 21
-65.961777
 31
0.0
  0
LINE
  5
85
100
AcDbEntity
  8
0
390
0
  6
Continuous
 62
     7
100
AcDbLine
 10
12.25
 20
-65.961777
 30
0.0
 11
9.75
 21
-67.405153
 31
0.0
  0
LINE
  5
86
100
AcDbEntity
  8
0
390
0
  6
Continuous
 62
     7
100
AcDbLine
 10
12.25
 20
-63.075026
 30
0.0
 11
12.25
 21
-65.961777
 31
0.0
  0
LINE
  5
87
100
AcDbEntity
  8
0
390
0
  6
Continuous
 62
     7
100
AcDbLine
 10
9.75
 20
-61.63165
 30
0.0
 11
12.25
 21
-63.075026
 31
0.0
  0
LINE
  5
88
100
AcDbEntity
  8
0
390
0
  6
Continuous
 62
     7
100
AcDbLine
 10
-5.75
 20
-63.075026
 30
0.0
 11
-3.25
 21
-61.63165
 31
0.0
  0
LINE
  5
89
100
AcDbEntity
  8
0
390
0
  6
Continuous
 62
     7
100
AcDbLine
 10
-5.75
 20
-65.961777
 30
0.0
 11
-5.75
 21
-63.075026
 31
0.0
  0
LINE
  5
8A
100
AcDbEntity
  8
0
390
0
  6
Continuous
 62
     7
100
AcDbLine
 10
-3.25
 20
-67.405153
 30
0.0
 11
-5.75
 21
-65.961777
 31
0.0
  0
LINE
  5
8B
100
AcDbEntity
  8
0
390
0
  6
Continuous
 62
     7
100
AcDbLine
 10
-0.75
 20
-65.961777
 30
0.0
 11
-3.25
 21
-67.405153
 31
0.0
  0
LINE
  5
8C
100
AcDbEntity
  8
0
390
0
  6
Continuous
 62
     7
100
AcDbLine
 10
-0.75
 20
-63.075026
 30
0.0
 11
-0.75
 21
-65.961777
 31
0.0
  0
LINE
  5
8D
100
AcDbEntity
  8
0
390
0
  6
Continuous
 62
     7
100
AcDbLine
 10
-3.25
 20
-61.63165
 30
0.0
 11
-0.75
 21
-63.075026
 31
0.0
  0
LINE
  5
8E
100
AcDbEntity
  8
0
390
0
  6
Continuous
 62
     7
100
AcDbLine
 10
-18.75
 20
-63.075026
 30
0.0
 11
-16.25
 21
-61.63165
 31
0.0
  0
LINE
  5
8F
100
AcDbEntity
  8
0
390
0
  6
Continuous
 62
     7
100
AcDbLine
 10
-18.75
 20
-65.961777
 30
0.0
 11
-18.75
 21
-63.075026
 31
0.0
  0
LINE
  5
90
100
AcDbEntity
  8
0
390
0
  6
Continuous
 62
     7
100
AcDbLine
 10
-16.25
 20
-67.405153
 30
0.0
 11
-18.75
 21
-65.961777
 31
0.0
  0
LINE
  5
91
100
AcDbEntity
  8
0
390
0
  6
Continuous
 62
     7
100
AcDbLine
 10
-13.75
 20
-65.961777
 30
0.0
 11
-16.25
 21
-67.405153
 31
0.0
  0
LINE
  5
92
100
AcDbEntity
  8
0
390
0
  6
Continuous
 62
     7
100
AcDbLine
 10
-13.75
 20
-63.075026
 30
0.0
 11
-13.75
 21
-65.961777
 31
0.0
  0
LINE
  5
93
100
AcDbEntity
  8
0
390
0
  6
Continuous
 62
     7
100
AcDbLine
 10
-16.25
 20
-61.63165
 30
0.0
 11
-13.75
 21
-63.075026
 31
0.0
  0
LINE
  5
94
100
AcDbEntity
  8
0
390
0
  6
Continuous
 62
     7
100
AcDbLine
 10
2.5
 20
-57.445861
 30
0.0
 11
0.0
 21
-56.002485
 31
0.0
  0
LINE
  5
95
100
AcDbEntity
  8
0
390
0
  6
Continuous
 62
     7
100
AcDbLine
 10
0.0
 20
-56.002485
 30
0.0
 11
-2.5
 21
-57.445861
 31
0.0
  0
LINE
  5
96
100
AcDbEntity
  8
0
390
0
  6
Continuous
 62
     7
100
AcDbLine
 10
-2.5
 20
-57.445861
 30
0.0
 11
-2.5
 21
-60.332612
 31
0.0
  0
LINE
  5
97
100
AcDbEntity
  8
0
390
0
  6
Continuous
 62
     7
100
AcDbLine
 10
-2.5
 20
-60.332612
 30
0.0
 11
0.0
 21
-61.775988
 31
0.0
  0
LINE
  5
98
100
AcDbEntity
  8
0
390
0
  6
Continuous
 62
     7
100
AcDbLine
 10
0.0
 20
-61.775988
 30
0.0
 11
2.5
 21
-60.332612
 31
0.0
  0
LINE
  5
99
100
AcDbEntity
  8
0
390
0
  6
Continuous
 62
     7
100
AcDbLine
 10
2.5
 20
-60.332612
 30
0.0
 11
2.5
 21
-57.445861
 31
0.0
  0
LINE
  5
9A
100
AcDbEntity
  8
0
390
0
  6
Continuous
 62
     7
100
AcDbLine
 10
9.0
 20
-57.445861
 30
0.0
 11
6.5
 21
-56.002485
 31
0.0
  0
LINE
  5
9B
100
AcDbEntity
  8
0
390
0
  6
Continuous
 62
     7
100
AcDbLine
 10
6.5
 20
-56.002485
 30
0.0
 11
4.0
 21
-57.445861
 31
0.0
  0
LINE
  5
9C
100
AcDbEntity
  8
0
390
0
  6
Continuous
 62
     7
100
AcDbLine
 10
4.0
 20
-57.445861
 30
0.0
 11
4.0
 21
-60.332612
 31
0.0
  0
LINE
  5
9D
100
AcDbEntity
  8
0
390
0
  6
Continuous
 62
     7
100
AcDbLine
 10
4.0
 20
-60.332612
 30
0.0
 11
6.5
 21
-61.775988
 31
0.0
  0
LINE
  5
9E
100
AcDbEntity
  8
0
390
0
  6
Continuous
 62
     7
100
AcDbLine
 10
6.5
 20
-61.775988
 30
0.0
 11
9.0
 21
-60.332612
 31
0.0
  0
LINE
  5
9F
100
AcDbEntity
  8
0
390
0
  6
Continuous
 62
     7
100
AcDbLine
 10
9.0
 20
-60.332612
 30
0.0
 11
9.0
 21
-57.445861
 31
0.0
  0
LINE
  5
A0
100
AcDbEntity
  8
0
390
0
  6
Continuous
 62
     7
100
AcDbLine
 10
15.5
 20
-57.445861
 30
0.0
 11
13.0
 21
-56.002485
 31
0.0
  0
LINE
  5
A1
100
AcDbEntity
  8
0
390
0
  6
Continuous
 62
     7
100
AcDbLine
 10
13.0
 20
-56.002485
 30
0.0
 11
10.5
 21
-57.445861
 31
0.0
  0
LINE
  5
A2
100
AcDbEntity
  8
0
390
0
  6
Continuous
 62
     7
100
AcDbLine
 10
10.5
 20
-57.445861
 30
0.0
 11
10.5
 21
-60.332612
 31
0.0
  0
LINE
  5
A3
100
AcDbEntity
  8
0
390
0
  6
Continuous
 62
     7
100
AcDbLine
 10
10.5
 20
-60.332612
 30
0.0
 11
13.0
 21
-61.775988
 31
0.0
  0
LINE
  5
A4
100
AcDbEntity
  8
0
390
0
  6
Continuous
 62
     7
100
AcDbLine
 10
13.0
 20
-61.775988
 30
0.0
 11
15.5
 21
-60.332612
 31
0.0
  0
LINE
  5
A5
100
AcDbEntity
  8
0
390
0
  6
Continuous
 62
     7
100
AcDbLine
 10
15.5
 20
-60.332612
 30
0.0
 11
15.5
 21
-57.445861
 31
0.0
  0
LINE
  5
A6
100
AcDbEntity
  8
0
390
0
  6
Continuous
 62
     7
100
AcDbLine
 10
22.0
 20
-57.445861
 30
0.0
 11
19.5
 21
-56.002485
 31
0.0
  0
LINE
  5
A7
100
AcDbEntity
  8
0
390
0
  6
Continuous
 62
     7
100
AcDbLine
 10
19.5
 20
-56.002485
 30
0.0
 11
17.0
 21
-57.445861
 31
0.0
  0
LINE
  5
A8
100
AcDbEntity
  8
0
390
0
  6
Continuous
 62
     7
100
AcDbLine
 10
17.0
 20
-57.445861
 30
0.0
 11
17.0
 21
-60.332612
 31
0.0
  0
LINE
  5
A9
100
AcDbEntity
  8
0
390
0
  6
Continuous
 62
     7
100
AcDbLine
 10
17.0
 20
-60.332612
 30
0.0
 11
19.5
 21
-61.775988
 31
0.0
  0
LINE
  5
AA
100
AcDbEntity
  8
0
390
0
  6
Continuous
 62
     7
100
AcDbLine
 10
19.5
 20
-61.775988
 30
0.0
 11
22.0
 21
-60.332612
 31
0.0
  0
LINE
  5
AB
100
AcDbEntity
  8
0
390
0
  6
Continuous
 62
     7
100
AcDbLine
 10
22.0
 20
-60.332612
 30
0.0
 11
22.0
 21
-57.445861
 31
0.0
  0
LINE
  5
AC
100
AcDbEntity
  8
0
390
0
  6
Continuous
 62
     7
100
AcDbLine
 10
-4.0
 20
-57.445861
 30
0.0
 11
-6.5
 21
-56.002485
 31
0.0
  0
LINE
  5
AD
100
AcDbEntity
  8
0
390
0
  6
Continuous
 62
     7
100
AcDbLine
 10
-6.5
 20
-56.002485
 30
0.0
 11
-9.0
 21
-57.445861
 31
0.0
  0
LINE
  5
AE
100
AcDbEntity
  8
0
390
0
  6
Continuous
 62
     7
100
AcDbLine
 10
-9.0
 20
-57.445861
 30
0.0
 11
-9.0
 21
-60.332612
 31
0.0
  0
LINE
  5
AF
100
AcDbEntity
  8
0
390
0
  6
Continuous
 62
     7
100
AcDbLine
 10
-9.0
 20
-60.332612
 30
0.0
 11
-6.5
 21
-61.775988
 31
0.0
  0
LINE
  5
B0
100
AcDbEntity
  8
0
390
0
  6
Continuous
 62
     7
100
AcDbLine
 10
-6.5
 20
-61.775988
 30
0.0
 11
-4.0
 21
-60.332612
 31
0.0
  0
LINE
  5
B1
100
AcDbEntity
  8
0
390
0
  6
Continuous
 62
     7
100
AcDbLine
 10
-4.0
 20
-60.332612
 30
0.0
 11
-4.0
 21
-57.445861
 31
0.0
  0
LINE
  5
B2
100
AcDbEntity
  8
0
390
0
  6
Continuous
 62
     7
100
AcDbLine
 10
-10.5
 20
-57.445861
 30
0.0
 11
-13.0
 21
-56.002485
 31
0.0
  0
LINE
  5
B3
100
AcDbEntity
  8
0
390
0
  6
Continuous
 62
     7
100
AcDbLine
 10
-13.0
 20
-56.002485
 30
0.0
 11
-15.5
 21
-57.445861
 31
0.0
  0
LINE
  5
B4
100
AcDbEntity
  8
0
390
0
  6
Continuous
 62
     7
100
AcDbLine
 10
-15.5
 20
-57.445861
 30
0.0
 11
-15.5
 21
-60.332612
 31
0.0
  0
LINE
  5
B5
100
AcDbEntity
  8
0
390
0
  6
Continuous
 62
     7
100
AcDbLine
 10
-15.5
 20
-60.332612
 30
0.0
 11
-13.0
 21
-61.775988
 31
0.0
  0
LINE
  5
B6
100
AcDbEntity
  8
0
390
0
  6
Continuous
 62
     7
100
AcDbLine
 10
-13.0
 20
-61.775988
 30
0.0
 11
-10.5
 21
-60.332612
 31
0.0
  0
LINE
  5
B7
100
AcDbEntity
  8
0
390
0
  6
Continuous
 62
     7
100
AcDbLine
 10
-10.5
 20
-60.332612
 30
0.0
 11
-10.5
 21
-57.445861
 31
0.0
  0
LINE
  5
B8
100
AcDbEntity
  8
0
390
0
  6
Continuous
 62
     7
100
AcDbLine
 10
-17.0
 20
-57.445861
 30
0.0
 11
-19.5
 21
-56.002485
 31
0.0
  0
LINE
  5
B9
100
AcDbEntity
  8
0
390
0
  6
Continuous
 62
     7
100
AcDbLine
 10
-19.5
 20
-56.002485
 30
0.0
 11
-22.0
 21
-57.445861
 31
0.0
  0
LINE
  5
BA
100
AcDbEntity
  8
0
390
0
  6
Continuous
 62
     7
100
AcDbLine
 10
-22.0
 20
-57.445861
 30
0.0
 11
-22.0
 21
-60.332612
 31
0.0
  0
LINE
  5
BB
100
AcDbEntity
  8
0
390
0
  6
Continuous
 62
     7
100
AcDbLine
 10
-22.0
 20
-60.332612
 30
0.0
 11
-19.5
 21
-61.775988
 31
0.0
  0
LINE
  5
BC
100
AcDbEntity
  8
0
390
0
  6
Continuous
 62
     7
100
AcDbLine
 10
-19.5
 20
-61.775988
 30
0.0
 11
-17.0
 21
-60.332612
 31
0.0
  0
LINE
  5
BD
100
AcDbEntity
  8
0
390
0
  6
Continuous
 62
     7
100
AcDbLine
 10
-17.0
 20
-60.332612
 30
0.0
 11
-17.0
 21
-57.445861
 31
0.0
  0
LINE
  5
BE
100
AcDbEntity
  8
0
390
0
  6
Continuous
 62
     7
100
AcDbLine
 10
5.75
 20
-51.816695
 30
0.0
 11
3.25
 21
-50.37332
 31
0.0
  0
LINE
  5
BF
100
AcDbEntity
  8
0
390
0
  6
Continuous
 62
     7
100
AcDbLine
 10
3.25
 20
-50.37332
 30
0.0
 11
0.75
 21
-51.816695
 31
0.0
  0
LINE
  5
C0
100
AcDbEntity
  8
0
390
0
  6
Continuous
 62
     7
100
AcDbLine
 10
0.75
 20
-51.816695
 30
0.0
 11
0.75
 21
-54.703447
 31
0.0
  0
LINE
  5
C1
100
AcDbEntity
  8
0
390
0
  6
Continuous
 62
     7
100
AcDbLine
 10
0.75
 20
-54.703447
 30
0.0
 11
3.25
 21
-56.146822
 31
0.0
  0
LINE
  5
C2
100
AcDbEntity
  8
0
390
0
  6
Continuous
 62
     7
100
AcDbLine
 10
3.25
 20
-56.146822
 30
0.0
 11
5.75
 21
-54.703447
 31
0.0
  0
LINE
  5
C3
100
AcDbEntity
  8
0
390
0
  6
Continuous
 62
     7
100
AcDbLine
 10
5.75
 20
-54.703447
 30
0.0
 11
5.75
 21
-51.816695
 31
0.0
  0
LINE
  5
C4
100
AcDbEntity
  8
0
390
0
  6
Continuous
 62
     7
100
AcDbLine
 10
12.25
 20
-51.816695
 30
0.0
 11
9.75
 21
-50.37332
 31
0.0
  0
LINE
  5
C5
100
AcDbEntity
  8
0
390
0
  6
Continuous
 62
     7
100
AcDbLine
 10
9.75
 20
-50.37332
 30
0.0
 11
7.25
 21
-51.816695
 31
0.0
  0
LINE
  5
C6
100
AcDbEntity
  8
0
390
0
  6
Continuous
 62
     7
100
AcDbLine
 10
7.25
 20
-51.816695
 30
0.0
 11
7.25
 21
-54.703447
 31
0.0
  0
LINE
  5
C7
100
AcDbEntity
  8
0
390
0
  6
Continuous
 62
     7
100
AcDbLine
 10
7.25
 20
-54.703447
 30
0.0
 11
9.75
 21
-56.146822
 31
0.0
  0
LINE
  5
C8
100
AcDbEntity
  8
0
390
0
  6
Continuous
 62
     7
100
AcDbLine
 10
9.75
 20
-56.146822
 30
0.0
 11
12.25
 21
-54.703447
 31
0.0
  0
LINE
  5
C9
100
AcDbEntity
  8
0
390
0
  6
Continuous
 62
     7
100
AcDbLine
 10
12.25
 20
-54.703447
 30
0.0
 11
12.25
 21
-51.816695
 31
0.0
  0
LINE
  5
CA
100
AcDbEntity
  8
0
390
0
  6
Continuous
 62
     7
100
AcDbLine
 10
18.75
 20
-51.816695
 30
0.0
 11
16.25
 21
-50.37332
 31
0.0
  0
LINE
  5
CB
100
AcDbEntity
  8
0
390
0
  6
Continuous
 62
     7
100
AcDbLine
 10
16.25
 20
-50.37332
 30
0.0
 11
13.75
 21
-51.816695
 31
0.0
  0
LINE
  5
CC
100
AcDbEntity
  8
0
390
0
  6
Continuous
 62
     7
100
AcDbLine
 10
13.75
 20
-51.816695
 30
0.0
 11
13.75
 21
-54.703447
 31
0.0
  0
LINE
  5
CD
100
AcDbEntity
  8
0
390
0
  6
Continuous
 62
     7
100
AcDbLine
 10
13.75
 20
-54.703447
 30
0.0
 11
16.25
 21
-56.146822
 31
0.0
  0
LINE
  5
CE
100
AcDbEntity
  8
0
390
0
  6
Continuous
 62
     7
100
AcDbLine
 10
16.25
 20
-56.146822
 30
0.0
 11
18.75
 21
-54.703447
 31
0.0
  0
LINE
  5
CF
100
AcDbEntity
  8
0
390
0
  6
Continuous
 62
     7
100
AcDbLine
 10
18.75
 20
-54.703447
 30
0.0
 11
18.75
 21
-51.816695
 31
0.0
  0
LINE
  5
D0
100
AcDbEntity
  8
0
390
0
  6
Continuous
 62
     7
100
AcDbLine
 10
-0.75
 20
-51.816695
 30
0.0
 11
-3.25
 21
-50.37332
 31
0.0
  0
LINE
  5
D1
100
AcDbEntity
  8
0
390
0
  6
Continuous
 62
     7
100
AcDbLine
 10
-3.25
 20
-50.37332
 30
0.0
 11
-5.75
 21
-51.816695
 31
0.0
  0
LINE
  5
D2
100
AcDbEntity
  8
0
390
0
  6
Continuous
 62
     7
100
AcDbLine
 10
-5.75
 20
-51.816695
 30
0.0
 11
-5.75
 21
-54.703447
 31
0.0
  0
LINE
  5
D3
100
AcDbEntity
  8
0
390
0
  6
Continuous
 62
     7
100
AcDbLine
 10
-5.75
 20
-54.703447
 30
0.0
 11
-3.25
 21
-56.146822
 31
0.0
  0
LINE
  5
D4
100
AcDbEntity
  8
0
390
0
  6
Continuous
 62
     7
100
AcDbLine
 10
-3.25
 20
-56.146822
 30
0.0
 11
-0.75
 21
-54.703447
 31
0.0
  0
LINE
  5
D5
100
AcDbEntity
  8
0
390
0
  6
Continuous
 62
     7
100
AcDbLine
 10
-0.75
 20
-54.703447
 30
0.0
 11
-0.75
 21
-51.816695
 31
0.0
  0
LINE
  5
D6
100
AcDbEntity
  8
0
390
0
  6
Continuous
 62
     7
100
AcDbLine
 10
-7.25
 20
-51.816695
 30
0.0
 11
-9.75
 21
-50.37332
 31
0.0
  0
LINE
  5
D7
100
AcDbEntity
  8
0
390
0
  6
Continuous
 62
     7
100
AcDbLine
 10
-9.75
 20
-50.37332
 30
0.0
 11
-12.25
 21
-51.816695
 31
0.0
  0
LINE
  5
D8
100
AcDbEntity
  8
0
390
0
  6
Continuous
 62
     7
100
AcDbLine
 10
-12.25
 20
-51.816695
 30
0.0
 11
-12.25
 21
-54.703447
 31
0.0
  0
LINE
  5
D9
100
AcDbEntity
  8
0
390
0
  6
Continuous
 62
     7
100
AcDbLine
 10
-12.25
 20
-54.703447
 30
0.0
 11
-9.75
 21
-56.146822
 31
0.0
  0
LINE
  5
DA
100
AcDbEntity
  8
0
390
0
  6
Continuous
 62
     7
100
AcDbLine
 10
-9.75
 20
-56.146822
 30
0.0
 11
-7.25
 21
-54.703447
 31
0.0
  0
LINE
  5
DB
100
AcDbEntity
  8
0
390
0
  6
Continuous
 62
     7
100
AcDbLine
 10
-7.25
 20
-54.703447
 30
0.0
 11
-7.25
 21
-51.816695
 31
0.0
  0
LINE
  5
DC
100
AcDbEntity
  8
0
390
0
  6
Continuous
 62
     7
100
AcDbLine
 10
-13.75
 20
-51.816695
 30
0.0
 11
-16.25
 21
-50.37332
 31
0.0
  0
LINE
  5
DD
100
AcDbEntity
  8
0
390
0
  6
Continuous
 62
     7
100
AcDbLine
 10
-16.25
 20
-50.37332
 30
0.0
 11
-18.75
 21
-51.816695
 31
0.0
  0
LINE
  5
DE
100
AcDbEntity
  8
0
390
0
  6
Continuous
 62
     7
100
AcDbLine
 10
-18.75
 20
-51.816695
 30
0.0
 11
-18.75
 21
-54.703447
 31
0.0
  0
LINE
  5
DF
100
AcDbEntity
  8
0
390
0
  6
Continuous
 62
     7
100
AcDbLine
 10
-18.75
 20
-54.703447
 30
0.0
 11
-16.25
 21
-56.146822
 31
0.0
  0
LINE
  5
E0
100
AcDbEntity
  8
0
390
0
  6
Continuous
 62
     7
100
AcDbLine
 10
-16.25
 20
-56.146822
 30
0.0
 11
-13.75
 21
-54.703447
 31
0.0
  0
LINE
  5
E1
100
AcDbEntity
  8
0
390
0
  6
Continuous
 62
     7
100
AcDbLine
 10
-13.75
 20
-54.703447
 30
0.0
 11
-13.75
 21
-51.816695
 31
0.0
  0
LINE
  5
E2
100
AcDbEntity
  8
0
390
0
  6
Continuous
 62
     7
100
AcDbLine
 10
-12.25
 20
-63.075026
 30
0.0
 11
-9.75
 21
-61.63165
 31
0.0
  0
LINE
  5
E3
100
AcDbEntity
  8
0
390
0
  6
Continuous
 62
     7
100
AcDbLine
 10
-12.25
 20
-65.961777
 30
0.0
 11
-12.25
 21
-63.075026
 31
0.0
  0
LINE
  5
E4
100
AcDbEntity
  8
0
390
0
  6
Continuous
 62
     7
100
AcDbLine
 10
-9.75
 20
-67.405153
 30
0.0
 11
-12.25
 21
-65.961777
 31
0.0
  0
LINE
  5
E5
100
AcDbEntity
  8
0
390
0
  6
Continuous
 62
     7
100
AcDbLine
 10
-7.25
 20
-65.961777
 30
0.0
 11
-9.75
 21
-67.405153
 31
0.0
  0
LINE
  5
E6
100
AcDbEntity
  8
0
390
0
  6
Continuous
 62
     7
100
AcDbLine
 10
-7.25
 20
-63.075026
 30
0.0
 11
-7.25
 21
-65.961777
 31
0.0
  0
LINE
  5
E7
100
AcDbEntity
  8
0
390
0
  6
Continuous
 62
     7
100
AcDbLine
 10
-9.75
 20
-61.63165
 30
0.0
 11
-7.25
 21
-63.075026
 31
0.0
  0
LINE
  5
E8
100
AcDbEntity
  8
0
390
0
  6
Continuous
 62
     7
100
AcDbLine
 10
0.75
 20
-63.075026
 30
0.0
 11
3.25
 21
-61.63165
 31
0.0
  0
LINE
  5
E9
100
AcDbEntity
  8
0
390
0
  6
Continuous
 62
     7
100
AcDbLine
 10
0.75
 20
-65.961777
 30
0.0
 11
0.75
 21
-63.075026
 31
0.0
  0
LINE
  5
EA
100
AcDbEntity
  8
0
390
0
  6
Continuous
 62
     7
100
AcDbLine
 10
3.25
 20
-67.405153
 30
0.0
 11
0.75
 21
-65.961777
 31
0.0
  0
LINE
  5
EB
100
AcDbEntity
  8
0
390
0
  6
Continuous
 62
     7
100
AcDbLine
 10
5.75
 20
-65.961777
 30
0.0
 11
3.25
 21
-67.405153
 31
0.0
  0
LINE
  5
EC
100
AcDbEntity
  8
0
390
0
  6
Continuous
 62
     7
100
AcDbLine
 10
5.75
 20
-63.075026
 30
0.0
 11
5.75
 21
-65.961777
 31
0.0
  0
LINE
  5
ED
100
AcDbEntity
  8
0
390
0
  6
Continuous
 62
     7
100
AcDbLine
 10
3.25
 20
-61.63165
 30
0.0
 11
5.75
 21
-63.075026
 31
0.0
  0
LINE
  5
EE
100
AcDbEntity
  8
0
390
0
  6
Continuous
 62
     7
100
AcDbLine
 10
13.75
 20
-63.075026
 30
0.0
 11
16.25
 21
-61.63165
 31
0.0
  0
LINE
  5
EF
100
AcDbEntity
  8
0
390
0
  6
Continuous
 62
     7
100
AcDbLine
 10
13.75
 20
-65.961777
 30
0.0
 11
13.75
 21
-63.075026
 31
0.0
  0
LINE
  5
F0
100
AcDbEntity
  8
0
390
0
  6
Continuous
 62
     7
100
AcDbLine
 10
16.25
 20
-67.405153
 30
0.0
 11
13.75
 21
-65.961777
 31
0.0
  0
LINE
  5
F1
100
AcDbEntity
  8
0
390
0
  6
Continuous
 62
     7
100
AcDbLine
 10
18.75
 20
-65.961777
 30
0.0
 11
16.25
 21
-67.405153
 31
0.0
  0
LINE
  5
F2
100
AcDbEntity
  8
0
390
0
  6
Continuous
 62
     7
100
AcDbLine
 10
18.75
 20
-63.075026
 30
0.0
 11
18.75
 21
-65.961777
 31
0.0
  0
LINE
  5
F3
100
AcDbEntity
  8
0
390
0
  6
Continuous
 62
     7
100
AcDbLine
 10
16.25
 20
-61.63165
 30
0.0
 11
18.75
 21
-63.075026
 31
0.0
  0
ARC
  5
F4
100
AcDbEntity
  8
0
390
0
  6
Continuous
 62
     7
100
AcDbCircle
 10
39.0
 20
-58.889236
 30
0.0
 40
5.5
210
0.0
220
0.0
230
1.0
100
AcDbArc
 50
270.0
 51
360.0
  0
ARC
  5
F5
100
AcDbEntity
  8
0
390
0
  6
Continuous
 62
     7
100
AcDbCircle
 10
39.0
 20
-58.889236
 30
0.0
 40
5.5
210
0.0
220
0.0
230
1.0
100
AcDbArc
 50
0.0
 51
90.0
  0
LINE
  5
F6
100
AcDbEntity
  8
0
390
0
  6
Continuous
 62
     7
100
AcDbLine
 10
39.0
 20
-53.389236
 30
0.0
 11
35.0
 21
-53.389236
 31
0.0
  0
ARC
  5
F7
100
AcDbEntity
  8
0
390
0
  6
Continuous
 62
     7
100
AcDbCircle
 10
35.0
 20
-58.889236
 30
0.0
 40
5.5
210
0.0
220
0.0
230
1.0
100
AcDbArc
 50
90.0
 51
180.0
  0
ARC
  5
F8
100
AcDbEntity
  8
0
390
0
  6
Continuous
 62
     7
100
AcDbCircle
 10
35.0
 20
-58.889236
 30
0.0
 40
5.5
210
0.0
220
0.0
230
1.0
100
AcDbArc
 50
180.0
 51
270.0
  0
LINE
  5
F9
100
AcDbEntity
  8
0
390
0
  6
Continuous
 62
     7
100
AcDbLine
 10
35.0
 20
-64.389236
 30
0.0
 11
39.0
 21
-64.389236
 31
0.0
  0
ARC
  5
FA
100
AcDbEntity
  8
0
390
0
  6
Continuous
 62
     7
100
AcDbCircle
 10
39.5
 20
-58.889236
 30
0.0
 40
12.5
210
0.0
220
0.0
230
1.0
100
AcDbArc
 50
0.0
 51
90.0
  0
ARC
  5
FB
100
AcDbEntity
  8
0
390
0
  6
Continuous
 62
     7
100
AcDbCircle
 10
39.5
 20
-58.889236
 30
0.0
 40
12.5
210
0.0
220
0.0
230
1.0
100
AcDbArc
 50
270.0
 51
360.0
  0
LINE
  5
FC
100
AcDbEntity
  8
0
390
0
  6
Continuous
 62
     7
100
AcDbLine
 10
-39.5
 20
-71.389236
 30
0.0
 11
39.5
 21
-71.389236
 31
0.0
  0
ARC
  5
FD
100
AcDbEntity
  8
0
390
0
  6
Continuous
 62
     7
100
AcDbCircle
 10
-39.5
 20
-58.889236
 30
0.0
 40
12.5
210
0.0
220
0.0
230
1.0
100
AcDbArc
 50
180.0
 51
270.0
  0
ARC
  5
FE
100
AcDbEntity
  8
0
390
0
  6
Continuous
 62
     7
100
AcDbCircle
 10
-39.5
 20
-58.889236
 30
0.0
 40
12.5
210
0.0
220
0.0
230
1.0
100
AcDbArc
 50
90.0
 51
180.0
  0
LINE
  5
FF
100
AcDbEntity
  8
0
390
0
  6
Continuous
 62
     7
100
AcDbLine
 10
-39.5
 20
-46.389236
 30
0.0
 11
39.5
 21
-46.389236
 31
0.0
  0
LINE
  5
100
100
AcDbEntity
  8
0
390
0
  6
Continuous
 62
     7
100
AcDbLine
 10
-22.0
 20
-48.389236
 30
0.0
 11
-22.0
 21
-49.074612
 31
0.0
  0
LINE
  5
101
100
AcDbEntity
  8
0
390
0
  6
Continuous
 62
     7
100
AcDbLine
 10
-22.0
 20
-49.074612
 30
0.0
 11
-19.5
 21
-50.517988
 31
0.0
  0
LINE
  5
102
100
AcDbEntity
  8
0
390
0
  6
Continuous
 62
     7
100
AcDbLine
 10
-19.5
 20
-50.517988
 30
0.0
 11
-17.0
 21
-49.074612
 31
0.0
  0
LINE
  5
103
100
AcDbEntity
  8
0
390
0
  6
Continuous
 62
     7
100
AcDbLine
 10
-17.0
 20
-49.074612
 30
0.0
 11
-17.0
 21
-48.389236
 31
0.0
  0
LINE
  5
104
100
AcDbEntity
  8
0
390
0
  6
Continuous
 62
     7
100
AcDbLine
 10
-22.0
 20
-48.389236
 30
0.0
 11
-17.0
 21
-48.389236
 31
0.0
  0
ARC
  5
105
100
AcDbEntity
  8
0
390
0
  6
Continuous
 62
     7
100
AcDbCircle
 10
-35.0
 20
-58.889236
 30
0.0
 40
5.5
210
0.0
220
0.0
230
1.0
100
AcDbArc
 50
270.0
 51
360.0
  0
ARC
  5
106
100
AcDbEntity
  8
0
390
0
  6
Continuous
 62
     7
100
AcDbCircle
 10
-35.0
 20
-58.889236
 30
0.0
 40
5.5
210
0.0
220
0.0
230
1.0
100
AcDbArc
 50
0.0
 51
90.0
  0
LINE
  5
107
100
AcDbEntity
  8
0
390
0
  6
Continuous
 62
     7
100
AcDbLine
 10
-35.0
 20
-53.389236
 30
0.0
 11
-39.0
 21
-53.389236
 31
0.0
  0
ARC
  5
108
100
AcDbEntity
  8
0
390
0
  6
Continuous
 62
     7
100
AcDbCircle
 10
-39.0
 20
-58.889236
 30
0.0
 40
5.5
210
0.0
220
0.0
230
1.0
100
AcDbArc
 50
90.0
 51
180.0
  0
ARC
  5
109
100
AcDbEntity
  8
0
390
0
  6
Continuous
 62
     7
100
AcDbCircle
 10
-39.0
 20
-58.889236
 30
0.0
 40
5.5
210
0.0
220
0.0
230
1.0
100
AcDbArc
 50
180.0
 51
270.0
  0
LINE
  5
10A
100
AcDbEntity
  8
0
390
0
  6
Continuous
 62
     7
100
AcDbLine
 10
-39.0
 20
-64.389236
 30
0.0
 11
-35.0
 21
-64.389236
 31
0.0
  0
LINE
  5
10B
100
AcDbEntity
  8
0
390
0
  6
Continuous
 62
     7
100
AcDbLine
 10
-15.5
 20
-49.074612
 30
0.0
 11
-13.0
 21
-50.517988
 31
0.0
  0
LINE
  5
10C
100
AcDbEntity
  8
0
390
0
  6
Continuous
 62
     7
100
AcDbLine
 10
-13.0
 20
-50.517988
 30
0.0
 11
-10.5
 21
-49.074612
 31
0.0
  0
LINE
  5
10D
100
AcDbEntity
  8
0
390
0
  6
Continuous
 62
     7
100
AcDbLine
 10
-10.5
 20
-49.074612
 30
0.0
 11
-10.5
 21
-48.389236
 31
0.0
  0
LINE
  5
10E
100
AcDbEntity
  8
0
390
0
  6
Continuous
 62
     7
100
AcDbLine
 10
-15.5
 20
-48.389236
 30
0.0
 11
-10.5
 21
-48.389236
 31
0.0
  0
LINE
  5
10F
100
AcDbEntity
  8
0
390
0
  6
Continuous
 62
     7
100
AcDbLine
 10
-15.5
 20
-48.389236
 30
0.0
 11
-15.5
 21
-49.074612
 31
0.0
  0
LINE
  5
110
100
AcDbEntity
  8
0
390
0
  6
Continuous
 62
     7
100
AcDbLine
 10
-9.0
 20
-49.074612
 30
0.0
 11
-6.5
 21
-50.517988
 31
0.0
  0
LINE
  5
111
100
AcDbEntity
  8
0
390
0
  6
Continuous
 62
     7
100
AcDbLine
 10
-6.5
 20
-50.517988
 30
0.0
 11
-4.0
 21
-49.074612
 31
0.0
  0
LINE
  5
112
100
AcDbEntity
  8
0
390
0
  6
Continuous
 62
     7
100
AcDbLine
 10
-4.0
 20
-49.074612
 30
0.0
 11
-4.0
 21
-48.389236
 31
0.0
  0
LINE
  5
113
100
AcDbEntity
  8
0
390
0
  6
Continuous
 62
     7
100
AcDbLine
 10
-9.0
 20
-48.389236
 30
0.0
 11
-4.0
 21
-48.389236
 31
0.0
  0
LINE
  5
114
100
AcDbEntity
  8
0
390
0
  6
Continuous
 62
     7
100
AcDbLine
 10
-9.0
 20
-48.389236
 30
0.0
 11
-9.0
 21
-49.074612
 31
0.0
  0
LINE
  5
115
100
AcDbEntity
  8
0
390
0
  6
Continuous
 62
     7
100
AcDbLine
 10
-2.5
 20
-49.074612
 30
0.0
 11
0.0
 21
-50.517988
 31
0.0
  0
LINE
  5
116
100
AcDbEntity
  8
0
390
0
  6
Continuous
 62
     7
100
AcDbLine
 10
0.0
 20
-50.517988
 30
0.0
 11
2.5
 21
-49.074612
 31
0.0
  0
LINE
  5
117
100
AcDbEntity
  8
0
390
0
  6
Continuous
 62
     7
100
AcDbLine
 10
2.5
 20
-49.074612
 30
0.0
 11
2.5
 21
-48.389236
 31
0.0
  0
LINE
  5
118
100
AcDbEntity
  8
0
390
0
  6
Continuous
 62
     7
100
AcDbLine
 10
-2.5
 20
-48.389236
 30
0.0
 11
2.5
 21
-48.389236
 31
0.0
  0
LINE
  5
119
100
AcDbEntity
  8
0
390
0
  6
Continuous
 62
     7
100
AcDbLine
 10
-2.5
 20
-48.389236
 30
0.0
 11
-2.5
 21
-49.074612
 31
0.0
  0
LINE
  5
11A
100
AcDbEntity
  8
0
390
0
  6
Continuous
 62
     7
100
AcDbLine
 10
4.0
 20
-49.074612
 30
0.0
 11
6.5
 21
-50.517988
 31
0.0
  0
LINE
  5
11B
100
AcDbEntity
  8
0
390
0
  6
Continuous
 62
     7
100
AcDbLine
 10
6.5
 20
-50.517988
 30
0.0
 11
9.0
 21
-49.074612
 31
0.0
  0
LINE
  5
11C
100
AcDbEntity
  8
0
390
0
  6
Continuous
 62
     7
100
AcDbLine
 10
9.0
 20
-49.074612
 30
0.0
 11
9.0
 21
-48.389236
 31
0.0
  0
LINE
  5
11D
100
AcDbEntity
  8
0
390
0
  6
Continuous
 62
     7
100
AcDbLine
 10
4.0
 20
-48.389236
 30
0.0
 11
9.0
 21
-48.389236
 31
0.0
  0
LINE
  5
11E
100
AcDbEntity
  8
0
390
0
  6
Continuous
 62
     7
100
AcDbLine
 10
4.0
 20
-48.389236
 30
0.0
 11
4.0
 21
-49.074612
 31
0.0
  0
LINE
  5
11F
100
AcDbEntity
  8
0
390
0
  6
Continuous
 62
     7
100
AcDbLine
 10
10.5
 20
-49.074612
 30
0.0
 11
13.0
 21
-50.517988
 31
0.0
  0
LINE
  5
120
100
AcDbEntity
  8
0
390
0
  6
Continuous
 62
     7
100
AcDbLine
 10
13.0
 20
-50.517988
 30
0.0
 11
15.5
 21
-49.074612
 31
0.0
  0
LINE
  5
121
100
AcDbEntity
  8
0
390
0
  6
Continuous
 62
     7
100
AcDbLine
 10
15.5
 20
-49.074612
 30
0.0
 11
15.5
 21
-48.389236
 31
0.0
  0
LINE
  5
122
100
AcDbEntity
  8
0
390
0
  6
Continuous
 62
     7
100
AcDbLine
 10
10.5
 20
-48.389236
 30
0.0
 11
15.5
 21
-48.389236
 31
0.0
  0
LINE
  5
123
100
AcDbEntity
  8
0
390
0
  6
Continuous
 62
     7
100
AcDbLine
 10
10.5
 20
-48.389236
 30
0.0
 11
10.5
 21
-49.074612
 31
0.0
  0
LINE
  5
124
100
AcDbEntity
  8
0
390
0
  6
Continuous
 62
     7
100
AcDbLine
 10
17.0
 20
-49.074612
 30
0.0
 11
19.5
 21
-50.517988
 31
0.0
  0
LINE
  5
125
100
AcDbEntity
  8
0
390
0
  6
Continuous
 62
     7
100
AcDbLine
 10
19.5
 20
-50.517988
 30
0.0
 11
22.0
 21
-49.074612
 31
0.0
  0
LINE
  5
126
100
AcDbEntity
  8
0
390
0
  6
Continuous
 62
     7
100
AcDbLine
 10
22.0
 20
-49.074612
 30
0.0
 11
22.0
 21
-48.389236
 31
0.0
  0
LINE
  5
127
100
AcDbEntity
  8
0
390
0
  6
Continuous
 62
     7
100
AcDbLine
 10
17.0
 20
-48.389236
 30
0.0
 11
22.0
 21
-48.389236
 31
0.0
  0
LINE
  5
128
100
AcDbEntity
  8
0
390
0
  6
Continuous
 62
     7
100
AcDbLine
 10
17.0
 20
-48.389236
 30
0.0
 11
17.0
 21
-49.074612
 31
0.0
  0
LINE
  5
129
100
AcDbEntity
  8
0
390
0
  6
Continuous
 62
     7
100
AcDbLine
 10
-17.0
 20
-69.389236
 30
0.0
 11
-17.0
 21
-68.703861
 31
0.0
  0
LINE
  5
12A
100
AcDbEntity
  8
0
390
0
  6
Continuous
 62
     7
100
AcDbLine
 10
-17.0
 20
-68.703861
 30
0.0
 11
-19.5
 21
-67.260485
 31
0.0
  0
LINE
  5
12B
100
AcDbEntity
  8
0
390
0
  6
Continuous
 62
     7
100
AcDbLine
 10
-19.5
 20
-67.260485
 30
0.0
 11
-22.0
 21
-68.703861
 31
0.0
  0
LINE
  5
12C
100
AcDbEntity
  8
0
390
0
  6
Continuous
 62
     7
100
AcDbLine
 10
-22.0
 20
-68.703861
 30
0.0
 11
-22.0
 21
-69.389236
 31
0.0
  0
LINE
  5
12D
100
AcDbEntity
  8
0
390
0
  6
Continuous
 62
     7
100
AcDbLine
 10
-22.0
 20
-69.389236
 30
0.0
 11
-17.0
 21
-69.389236
 31
0.0
  0
LINE
  5
12E
100
AcDbEntity
  8
0
390
0
  6
Continuous
 62
     7
100
AcDbLine
 10
-10.5
 20
-69.389236
 30
0.0
 11
-10.5
 21
-68.703861
 31
0.0
  0
LINE
  5
12F
100
AcDbEntity
  8
0
390
0
  6
Continuous
 62
     7
100
AcDbLine
 10
-10.5
 20
-68.703861
 30
0.0
 11
-13.0
 21
-67.260485
 31
0.0
  0
LINE
  5
130
100
AcDbEntity
  8
0
390
0
  6
Continuous
 62
     7
100
AcDbLine
 10
-13.0
 20
-67.260485
 30
0.0
 11
-15.5
 21
-68.703861
 31
0.0
  0
LINE
  5
131
100
AcDbEntity
  8
0
390
0
  6
Continuous
 62
     7
100
AcDbLine
 10
-15.5
 20
-68.703861
 30
0.0
 11
-15.5
 21
-69.389236
 31
0.0
  0
LINE
  5
132
100
AcDbEntity
  8
0
390
0
  6
Continuous
 62
     7
100
AcDbLine
 10
-15.5
 20
-69.389236
 30
0.0
 11
-10.5
 21
-69.389236
 31
0.0
  0
LINE
  5
133
100
AcDbEntity
  8
0
390
0
  6
Continuous
 62
     7
100
AcDbLine
 10
-4.0
 20
-69.389236
 30
0.0
 11
-4.0
 21
-68.703861
 31
0.0
  0
LINE
  5
134
100
AcDbEntity
  8
0
390
0
  6
Continuous
 62
     7
100
AcDbLine
 10
-4.0
 20
-68.703861
 30
0.0
 11
-6.5
 21
-67.260485
 31
0.0
  0
LINE
  5
135
100
AcDbEntity
  8
0
390
0
  6
Continuous
 62
     7
100
AcDbLine
 10
-6.5
 20
-67.260485
 30
0.0
 11
-9.0
 21
-68.703861
 31
0.0
  0
LINE
  5
136
100
AcDbEntity
  8
0
390
0
  6
Continuous
 62
     7
100
AcDbLine
 10
-9.0
 20
-68.703861
 30
0.0
 11
-9.0
 21
-69.389236
 31
0.0
  0
LINE
  5
137
100
AcDbEntity
  8
0
390
0
  6
Continuous
 62
     7
100
AcDbLine
 10
-9.0
 20
-69.389236
 30
0.0
 11
-4.0
 21
-69.389236
 31
0.0
  0
LINE
  5
138
100
AcDbEntity
  8
0
390
0
  6
Continuous
 62
     7
100
AcDbLine
 10
2.5
 20
-69.389236
 30
0.0
 11
2.5
 21
-68.703861
 31
0.0
  0
LINE
  5
139
100
AcDbEntity
  8
0
390
0
  6
Continuous
 62
     7
100
AcDbLine
 10
2.5
 20
-68.703861
 30
0.0
 11
0.0
 21
-67.260485
 31
0.0
  0
LINE
  5
13A
100
AcDbEntity
  8
0
390
0
  6
Continuous
 62
     7
100
AcDbLine
 10
0.0
 20
-67.260485
 30
0.0
 11
-2.5
 21
-68.703861
 31
0.0
  0
LINE
  5
13B
100
AcDbEntity
  8
0
390
0
  6
Continuous
 62
     7
100
AcDbLine
 10
-2.5
 20
-68.703861
 30
0.0
 11
-2.5
 21
-69.389236
 31
0.0
  0
LINE
  5
13C
100
AcDbEntity
  8
0
390
0
  6
Continuous
 62
     7
100
AcDbLine
 10
-2.5
 20
-69.389236
 30
0.0
 11
2.5
 21
-69.389236
 31
0.0
  0
LINE
  5
13D
100
AcDbEntity
  8
0
390
0
  6
Continuous
 62
     7
100
AcDbLine
 10
9.0
 20
-69.389236
 30
0.0
 11
9.0
 21
-68.703861
 31
0.0
  0
LINE
  5
13E
100
AcDbEntity
  8
0
390
0
  6
Continuous
 62
     7
100
AcDbLine
 10
9.0
 20
-68.703861
 30
0.0
 11
6.5
 21
-67.260485
 31
0.0
  0
LINE
  5
13F
100
AcDbEntity
  8
0
390
0
  6
Continuous
 62
     7
100
AcDbLine
 10
6.5
 20
-67.260485
 30
0.0
 11
4.0
 21
-68.703861
 31
0.0
  0
LINE
  5
140
100
AcDbEntity
  8
0
390
0
  6
Continuous
 62
     7
100
AcDbLine
 10
4.0
 20
-68.703861
 30
0.0
 11
4.0
 21
-69.389236
 31
0.0
  0
LINE
  5
141
100
AcDbEntity
  8
0
390
0
  6
Continuous
 62
     7
100
AcDbLine
 10
4.0
 20
-69.389236
 30
0.0
 11
9.0
 21
-69.389236
 31
0.0
  0
LINE
  5
142
100
AcDbEntity
  8
0
390
0
  6
Continuous
 62
     7
100
AcDbLine
 10
15.5
 20
-69.389236
 30
0.0
 11
15.5
 21
-68.703861
 31
0.0
  0
LINE
  5
143
100
AcDbEntity
  8
0
390
0
  6
Continuous
 62
     7
100
AcDbLine
 10
15.5
 20
-68.703861
 30
0.0
 11
13.0
 21
-67.260485
 31
0.0
  0
LINE
  5
144
100
AcDbEntity
  8
0
390
0
  6
Continuous
 62
     7
100
AcDbLine
 10
13.0
 20
-67.260485
 30
0.0
 11
10.5
 21
-68.703861
 31
0.0
  0
LINE
  5
145
100
AcDbEntity
  8
0
390
0
  6
Continuous
 62
     7
100
AcDbLine
 10
10.5
 20
-68.703861
 30
0.0
 11
10.5
 21
-69.389236
 31
0.0
  0
LINE
  5
146
100
AcDbEntity
  8
0
390
0
  6
Continuous
 62
     7
100
AcDbLine
 10
10.5
 20
-69.389236
 30
0.0
 11
15.5
 21
-69.389236
 31
0.0
  0
LINE
  5
147
100
AcDbEntity
  8
0
390
0
  6
Continuous
 62
     7
100
AcDbLine
 10
22.0
 20
-69.389236
 30
0.0
 11
22.0
 21
-68.703861
 31
0.0
  0
LINE
  5
148
100
AcDbEntity
  8
0
390
0
  6
Continuous
 62
     7
100
AcDbLine
 10
22.0
 20
-68.703861
 30
0.0
 11
19.5
 21
-67.260485
 31
0.0
  0
LINE
  5
149
100
AcDbEntity
  8
0
390
0
  6
Continuous
 62
     7
100
AcDbLine
 10
19.5
 20
-67.260485
 30
0.0
 11
17.0
 21
-68.703861
 31
0.0
  0
LINE
  5
14A
100
AcDbEntity
  8
0
390
0
  6
Continuous
 62
     7
100
AcDbLine
 10
17.0
 20
-68.703861
 30
0.0
 11
17.0
 21
-69.389236
 31
0.0
  0
LINE
  5
14B
100
AcDbEntity
  8
0
390
0
  6
Continuous
 62
     7
100
AcDbLine
 10
17.0
 20
-69.389236
 30
0.0
 11
22.0
 21
-69.389236
 31
0.0
  0
LINE
  5
14C
100
AcDbEntity
  8
0
390
0
  6
Continuous
 62
     7
100
AcDbLine
 10
25.0
 20
-51.672358
 30
0.0
 11
22.75
 21
-50.37332
 31
0.0
  0
LINE
  5
14D
100
AcDbEntity
  8
0
390
0
  6
Continuous
 62
     7
100
AcDbLine
 10
22.75
 20
-50.37332
 30
0.0
 11
20.25
 21
-51.816695
 31
0.0
  0
LINE
  5
14E
100
AcDbEntity
  8
0
390
0
  6
Continuous
 62
     7
100
AcDbLine
 10
20.25
 20
-51.816695
 30
0.0
 11
20.25
 21
-54.703447
 31
0.0
  0
LINE
  5
14F
100
AcDbEntity
  8
0
390
0
  6
Continuous
 62
     7
100
AcDbLine
 10
20.25
 20
-54.703447
 30
0.0
 11
22.75
 21
-56.146822
 31
0.0
  0
LINE
  5
150
100
AcDbEntity
  8
0
390
0
  6
Continuous
 62
     7
100
AcDbLine
 10
22.75
 20
-56.146822
 30
0.0
 11
25.0
 21
-54.847784
 31
0.0
  0
LINE
  5
151
100
AcDbEntity
  8
0
390
0
  6
Continuous
 62
     7
100
AcDbLine
 10
25.0
 20
-54.847784
 30
0.0
 11
25.0
 21
-51.672358
 31
0.0
  0
LINE
  5
152
100
AcDbEntity
  8
0
390
0
  6
Continuous
 62
     7
100
AcDbLine
 10
22.75
 20
-61.63165
 30
0.0
 11
25.0
 21
-62.930688
 31
0.0
  0
LINE
  5
153
100
AcDbEntity
  8
0
390
0
  6
Continuous
 62
     7
100
AcDbLine
 10
20.25
 20
-63.075026
 30
0.0
 11
22.75
 21
-61.63165
 31
0.0
  0
LINE
  5
154
100
AcDbEntity
  8
0
390
0
  6
Continuous
 62
     7
100
AcDbLine
 10
20.25
 20
-65.961777
 30
0.0
 11
20.25
 21
-63.075026
 31
0.0
  0
LINE
  5
155
100
AcDbEntity
  8
0
390
0
  6
Continuous
 62
     7
100
AcDbLine
 10
22.75
 20
-67.405153
 30
0.0
 11
20.25
 21
-65.961777
 31
0.0
  0
LINE
  5
156
100
AcDbEntity
  8
0
390
0
  6
Continuous
 62
     7
100
AcDbLine
 10
25.0
 20
-66.106115
 30
0.0
 11
22.75
 21
-67.405153
 31
0.0
  0
LINE
  5
157
100
AcDbEntity
  8
0
390
0
  6
Continuous
 62
     7
100
AcDbLine
 10
25.0
 20
-66.106115
 30
0.0
 11
25.0
 21
-62.930688
 31
0.0
  0
LINE
  5
158
100
AcDbEntity
  8
0
390
0
  6
Continuous
 62
     7
100
AcDbLine
 10
25.0
 20
-56.579835
 30
0.0
 11
23.5
 21
-57.445861
 31
0.0
  0
LINE
  5
159
100
AcDbEntity
  8
0
390
0
  6
Continuous
 62
     7
100
AcDbLine
 10
23.5
 20
-57.445861
 30
0.0
 11
23.5
 21
-60.332612
 31
0.0
  0
LINE
  5
15A
100
AcDbEntity
  8
0
390
0
  6
Continuous
 62
     7
100
AcDbLine
 10
23.5
 20
-60.332612
 30
0.0
 11
25.0
 21
-61.198637
 31
0.0
  0
LINE
  5
15B
100
AcDbEntity
  8
0
390
0
  6
Continuous
 62
     7
100
AcDbLine
 10
25.0
 20
-61.198637
 30
0.0
 11
25.0
 21
-56.579835
 31
0.0
  0
LINE
  5
15C
100
AcDbEntity
  8
0
390
0
  6
Continuous
 62
     7
100
AcDbLine
 10
-22.75
 20
-56.146822
 30
0.0
 11
-20.25
 21
-54.703447
 31
0.0
  0
LINE
  5
15D
100
AcDbEntity
  8
0
390
0
  6
Continuous
 62
     7
100
AcDbLine
 10
-20.25
 20
-54.703447
 30
0.0
 11
-20.25
 21
-51.816695
 31
0.0
  0
LINE
  5
15E
100
AcDbEntity
  8
0
390
0
  6
Continuous
 62
     7
100
AcDbLine
 10
-20.25
 20
-51.816695
 30
0.0
 11
-22.75
 21
-50.37332
 31
0.0
  0
LINE
  5
15F
100
AcDbEntity
  8
0
390
0
  6
Continuous
 62
     7
100
AcDbLine
 10
-22.75
 20
-50.37332
 30
0.0
 11
-25.0
 21
-51.672358
 31
0.0
  0
LINE
  5
160
100
AcDbEntity
  8
0
390
0
  6
Continuous
 62
     7
100
AcDbLine
 10
-25.0
 20
-54.847784
 30
0.0
 11
-25.0
 21
-51.672358
 31
0.0
  0
LINE
  5
161
100
AcDbEntity
  8
0
390
0
  6
Continuous
 62
     7
100
AcDbLine
 10
-25.0
 20
-54.847784
 30
0.0
 11
-22.75
 21
-56.146822
 31
0.0
  0
LINE
  5
162
100
AcDbEntity
  8
0
390
0
  6
Continuous
 62
     7
100
AcDbLine
 10
-23.5
 20
-60.332612
 30
0.0
 11
-23.5
 21
-57.445861
 31
0.0
  0
LINE
  5
163
100
AcDbEntity
  8
0
390
0
  6
Continuous
 62
     7
100
AcDbLine
 10
-23.5
 20
-57.445861
 30
0.0
 11
-25.0
 21
-56.579835
 31
0.0
  0
LINE
  5
164
100
AcDbEntity
  8
0
390
0
  6
Continuous
 62
     7
100
AcDbLine
 10
-25.0
 20
-61.198637
 30
0.0
 11
-25.0
 21
-56.579835
 31
0.0
  0
LINE
  5
165
100
AcDbEntity
  8
0
390
0
  6
Continuous
 62
     7
100
AcDbLine
 10
-25.0
 20
-61.198637
 30
0.0
 11
-23.5
 21
-60.332612
 31
0.0
  0
LINE
  5
166
100
AcDbEntity
  8
0
390
0
  6
Continuous
 62
     7
100
AcDbLine
 10
-20.25
 20
-65.961777
 30
0.0
 11
-22.75
 21
-67.405153
 31
0.0
  0
LINE
  5
167
100
AcDbEntity
  8
0
390
0
  6
Continuous
 62
     7
100
AcDbLine
 10
-20.25
 20
-63.075026
 30
0.0
 11
-20.25
 21
-65.961777
 31
0.0
  0
LINE
  5
168
100
AcDbEntity
  8
0
390
0
  6
Continuous
 62
     7
100
AcDbLine
 10
-22.75
 20
-61.63165
 30
0.0
 11
-20.25
 21
-63.075026
 31
0.0
  0
LINE
  5
169
100
AcDbEntity
  8
0
390
0
  6
Continuous
 62
     7
100
AcDbLine
 10
-25.0
 20
-62.930688
 30
0.0
 11
-22.75
 21
-61.63165
 31
0.0
  0
LINE
  5
16A
100
AcDbEntity
  8
0
390
0
  6
Continuous
 62
     7
100
AcDbLine
 10
-25.0
 20
-66.106115
 30
0.0
 11
-25.0
 21
-62.930688
 31
0.0
  0
LINE
  5
16B
100
AcDbEntity
  8
0
390
0
  6
Continuous
 62
     7
100
AcDbLine
 10
-22.75
 20
-67.405153
 30
0.0
 11
-25.0
 21
-66.106115
 31
0.0
  0
LINE
  5
16C
100
AcDbEntity
  8
0
390
0
  6
Continuous
 62
     7
100
AcDbLine
 10
22.75
 20
-66.921424
 30
0.0
 11
22.75
 21
-67.405153
 31
0.0
  0
LINE
  5
16D
100
AcDbEntity
  8
0
390
0
  6
Continuous
 62
     7
100
AcDbLine
 10
22.75
 20
-66.921424
 30
0.0
 11
24.831078
 21
-65.719913
 31
0.0
  0
LINE
  5
16E
100
AcDbEntity
  8
0
390
0
  6
Continuous
 62
     7
100
AcDbLine
 10
24.831078
 20
-65.719913
 30
0.0
 11
25.0
 21
-65.817439
 31
0.0
  0
LINE
  5
16F
100
AcDbEntity
  8
0
390
0
  6
Continuous
 62
     7
100
AcDbLine
 10
-21.581078
 20
-68.945725
 30
0.0
 11
-22.0
 21
-68.703861
 31
0.0
  0
LINE
  5
170
100
AcDbEntity
  8
0
390
0
  6
Continuous
 62
     7
100
AcDbLine
 10
-21.581078
 20
-69.389236
 30
0.0
 11
-21.581078
 21
-68.945725
 31
0.0
  0
LINE
  5
171
100
AcDbEntity
  8
0
390
0
  6
Continuous
 62
     7
100
AcDbLine
 10
-23.918922
 20
-60.090747
 30
0.0
 11
-23.5
 21
-60.332612
 31
0.0
  0
LINE
  5
172
100
AcDbEntity
  8
0
390
0
  6
Continuous
 62
     7
100
AcDbLine
 10
-23.918922
 20
-60.090747
 30
0.0
 11
-25.0
 21
-60.714908
 31
0.0
  0
LINE
  5
173
100
AcDbEntity
  8
0
390
0
  6
Continuous
 62
     7
100
AcDbLine
 10
-4.301577
 20
-48.900497
 30
0.0
 11
-4.0
 21
-49.074612
 31
0.0
  0
LINE
  5
174
100
AcDbEntity
  8
0
390
0
  6
Continuous
 62
     7
100
AcDbLine
 10
-4.301577
 20
-48.389236
 30
0.0
 11
-4.301577
 21
-48.900497
 31
0.0
  0
LINE
  5
175
100
AcDbEntity
  8
0
390
0
  6
Continuous
 62
     7
100
AcDbLine
 10
17.381604
 20
-48.854293
 30
0.0
 11
17.381604
 21
-48.389236
 31
0.0
  0
LINE
  5
176
100
AcDbEntity
  8
0
390
0
  6
Continuous
 62
     7
100
AcDbLine
 10
17.381604
 20
-48.854293
 30
0.0
 11
17.0
 21
-49.074612
 31
0.0
  0
LINE
  5
177
100
AcDbEntity
  8
0
390
0
  6
Continuous
 62
     7
100
AcDbLine
 10
4.301577
 20
-48.900497
 30
0.0
 11
4.301577
 21
-48.389236
 31
0.0
  0
LINE
  5
178
100
AcDbEntity
  8
0
390
0
  6
Continuous
 62
     7
100
AcDbLine
 10
4.301577
 20
-48.900497
 30
0.0
 11
4.0
 21
-49.074612
 31
0.0
  0
LINE
  5
179
100
AcDbEntity
  8
0
390
0
  6
Continuous
 62
     7
100
AcDbLine
 10
-15.140138
 20
-48.866846
 30
0.0
 11
-15.140138
 21
-48.389236
 31
0.0
  0
LINE
  5
17A
100
AcDbEntity
  8
0
390
0
  6
Continuous
 62
     7
100
AcDbLine
 10
-15.140138
 20
-48.866846
 30
0.0
 11
-15.5
 21
-49.074612
 31
0.0
  0
LINE
  5
17B
100
AcDbEntity
  8
0
390
0
  6
Continuous
 62
     7
100
AcDbLine
 10
-8.683279
 20
-48.891753
 30
0.0
 11
-8.683279
 21
-48.389236
 31
0.0
  0
LINE
  5
17C
100
AcDbEntity
  8
0
390
0
  6
Continuous
 62
     7
100
AcDbLine
 10
-8.683279
 20
-48.891753
 30
0.0
 11
-9.0
 21
-49.074612
 31
0.0
  0
LINE
  5
17D
100
AcDbEntity
  8
0
390
0
  6
Continuous
 62
     7
100
AcDbLine
 10
15.140138
 20
-48.866846
 30
0.0
 11
15.5
 21
-49.074612
 31
0.0
  0
LINE
  5
17E
100
AcDbEntity
  8
0
390
0
  6
Continuous
 62
     7
100
AcDbLine
 10
15.140138
 20
-48.389236
 30
0.0
 11
15.140138
 21
-48.866846
 31
0.0
  0
LINE
  5
17F
100
AcDbEntity
  8
0
390
0
  6
Continuous
 62
     7
100
AcDbLine
 10
-2.201999
 20
-48.902561
 30
0.0
 11
-2.201999
 21
-48.389236
 31
0.0
  0
LINE
  5
180
100
AcDbEntity
  8
0
390
0
  6
Continuous
 62
     7
100
AcDbLine
 10
-2.201999
 20
-48.902561
 30
0.0
 11
-2.5
 21
-49.074612
 31
0.0
  0
LINE
  5
181
100
AcDbEntity
  8
0
390
0
  6
Continuous
 62
     7
100
AcDbLine
 10
2.201999
 20
-48.902561
 30
0.0
 11
2.5
 21
-49.074612
 31
0.0
  0
LINE
  5
182
100
AcDbEntity
  8
0
390
0
  6
Continuous
 62
     7
100
AcDbLine
 10
2.201999
 20
-48.389236
 30
0.0
 11
2.201999
 21
-48.902561
 31
0.0
  0
LINE
  5
183
100
AcDbEntity
  8
0
390
0
  6
Continuous
 62
     7
100
AcDbLine
 10
10.828124
 20
-48.885169
 30
0.0
 11
10.828124
 21
-48.389236
 31
0.0
  0
LINE
  5
184
100
AcDbEntity
  8
0
390
0
  6
Continuous
 62
     7
100
AcDbLine
 10
10.828124
 20
-48.885169
 30
0.0
 11
10.5
 21
-49.074612
 31
0.0
  0
LINE
  5
185
100
AcDbEntity
  8
0
390
0
  6
Continuous
 62
     7
100
AcDbLine
 10
8.683279
 20
-48.891753
 30
0.0
 11
9.0
 21
-49.074612
 31
0.0
  0
LINE
  5
186
100
AcDbEntity
  8
0
390
0
  6
Continuous
 62
     7
100
AcDbLine
 10
8.683279
 20
-48.389236
 30
0.0
 11
8.683279
 21
-48.891753
 31
0.0
  0
LINE
  5
187
100
AcDbEntity
  8
0
390
0
  6
Continuous
 62
     7
100
AcDbLine
 10
21.581078
 20
-48.832747
 30
0.0
 11
22.0
 21
-49.074612
 31
0.0
  0
LINE
  5
188
100
AcDbEntity
  8
0
390
0
  6
Continuous
 62
     7
100
AcDbLine
 10
21.581078
 20
-48.389236
 30
0.0
 11
21.581078
 21
-48.832747
 31
0.0
  0
LINE
  5
189
100
AcDbEntity
  8
0
390
0
  6
Continuous
 62
     7
100
AcDbLine
 10
-10.828124
 20
-48.885169
 30
0.0
 11
-10.5
 21
-49.074612
 31
0.0
  0
LINE
  5
18A
100
AcDbEntity
  8
0
390
0
  6
Continuous
 62
     7
100
AcDbLine
 10
-10.828124
 20
-48.389236
 30
0.0
 11
-10.828124
 21
-48.885169
 31
0.0
  0
LINE
  5
18B
100
AcDbEntity
  8
0
390
0
  6
Continuous
 62
     7
100
AcDbLine
 10
-21.581078
 20
-48.832747
 30
0.0
 11
-22.0
 21
-49.074612
 31
0.0
  0
LINE
  5
18C
100
AcDbEntity
  8
0
390
0
  6
Continuous
 62
     7
100
AcDbLine
 10
-21.581078
 20
-48.832747
 30
0.0
 11
-21.581078
 21
-48.389236
 31
0.0
  0
LINE
  5
18D
100
AcDbEntity
  8
0
390
0
  6
Continuous
 62
     7
100
AcDbLine
 10
-17.381604
 20
-48.854293
 30
0.0
 11
-17.0
 21
-49.074612
 31
0.0
  0
LINE
  5
18E
100
AcDbEntity
  8
0
390
0
  6
Continuous
 62
     7
100
AcDbLine
 10
-17.381604
 20
-48.389236
 30
0.0
 11
-17.381604
 21
-48.854293
 31
0.0
  0
LINE
  5
18F
100
AcDbEntity
  8
0
390
0
  6
Continuous
 62
     7
100
AcDbLine
 10
-19.5
 20
-50.049167
 30
0.0
 11
-19.5
 21
-50.517988
 31
0.0
  0
LINE
  5
190
100
AcDbEntity
  8
0
390
0
  6
Continuous
 62
     7
100
AcDbLine
 10
-20.493902
 20
-49.460429
 30
0.0
 11
-21.581078
 21
-48.832747
 31
0.0
  0
ELLIPSE
  5
191
100
AcDbEntity
  8
0
390
0
  6
Continuous
 62
     7
100
AcDbEllipse
 10
0.0
 20
-60.758472
 30
0.0
 11
-33.498723645173285
 21
19.346391109741734
 31
0.0
210
0.0
220
0.0
230
1.0
 40
0.015115
 41
0.9212442471487944
 42
0.9582295171957016
  0
LINE
  5
192
100
AcDbEntity
  8
0
390
0
  6
Continuous
 62
     7
100
AcDbLine
 10
19.5
 20
-50.049167
 30
0.0
 11
19.5
 21
-50.517988
 31
0.0
  0
ELLIPSE
  5
193
100
AcDbEntity
  8
0
390
0
  6
Continuous
 62
     7
100
AcDbEllipse
 10
0.0
 20
-60.758472
 30
0.0
 11
33.498723645173285
 21
19.346391109741706
 31
0.0
210
0.0
220
0.0
230
1.0
 40
0.015115
 41
5.3249557899838855
 42
5.3619410600307926
  0
LINE
  5
194
100
AcDbEntity
  8
0
390
0
  6
Continuous
 62
     7
100
AcDbLine
 10
21.581078
 20
-48.832747
 30
0.0
 11
20.493902
 21
-49.460429
 31
0.0
  0
LINE
  5
195
100
AcDbEntity
  8
0
390
0
  6
Continuous
 62
     7
100
AcDbLine
 10
6.5
 20
-50.162514
 30
0.0
 11
6.5
 21
-50.517988
 31
0.0
  0
ELLIPSE
  5
196
100
AcDbEntity
  8
0
390
0
  6
Continuous
 62
     7
100
AcDbEllipse
 10
0.0
 20
-53.252918
 30
0.0
 11
33.498723645173285
 21
19.346391109741706
 31
0.0
210
0.0
220
0.0
230
1.0
 40
0.015115
 41
4.8989280847835719
 42
4.9658559219012401
  0
LINE
  5
197
100
AcDbEntity
  8
0
390
0
  6
Continuous
 62
     7
100
AcDbLine
 10
-13.0
 20
-50.122433
 30
0.0
 11
-13.0
 21
-50.517988
 31
0.0
  0
ELLIPSE
  5
198
100
AcDbEntity
  8
0
390
0
  6
Continuous
 62
     7
100
AcDbEllipse
 10
0.0
 20
-41.994588
 30
0.0
 11
33.498723645173285
 21
19.346391109741706
 31
0.0
210
0.0
220
0.0
230
1.0
 40
0.015115
 41
4.3051342982266627
 42
4.3745214887225767
  0
LINE
  5
199
100
AcDbEntity
  8
0
390
0
  6
Continuous
 62
     7
100
AcDbLine
 10
13.0
 20
-50.122433
 30
0.0
 11
13.0
 21
-50.517988
 31
0.0
  0
ELLIPSE
  5
19A
100
AcDbEntity
  8
0
390
0
  6
Continuous
 62
     7
100
AcDbEllipse
 10
0.0
 20
-41.994588
 30
0.0
 11
-33.498723645173285
 21
19.346391109741763
 31
0.0
210
0.0
220
0.0
230
1.0
 40
0.015115
 41
1.9086638184570102
 42
1.9780510089529255
  0
ELLIPSE
  5
19B
100
AcDbEntity
  8
0
390
0
  6
Continuous
 62
     7
100
AcDbEllipse
 10
0.0
 20
-45.747365
 30
0.0
 11
-33.498723645173285
 21
19.346391109741763
 31
0.0
210
0.0
220
0.0
230
1.0
 40
0.015115
 41
1.708286408172313
 42
1.774794041910541
  0
LINE
  5
19C
100
AcDbEntity
  8
0
390
0
  6
Continuous
 62
     7
100
AcDbLine
 10
0.0
 20
-50.175346
 30
0.0
 11
0.0
 21
-50.517988
 31
0.0
  0
ELLIPSE
  5
19D
100
AcDbEntity
  8
0
390
0
  6
Continuous
 62
     7
100
AcDbEllipse
 10
0.0
 20
-49.500141
 30
0.0
 11
33.498723645173285
 21
19.346391109741706
 31
0.0
210
0.0
220
0.0
230
1.0
 40
0.015115
 41
4.7036596750263096
 42
4.7694384229660658
  0
LINE
  5
19E
100
AcDbEntity
  8
0
390
0
  6
Continuous
 62
     7
100
AcDbLine
 10
-6.5
 20
-50.162514
 30
0.0
 11
-6.5
 21
-50.517988
 31
0.0
  0
ELLIPSE
  5
19F
100
AcDbEntity
  8
0
390
0
  6
Continuous
 62
     7
100
AcDbEllipse
 10
0.0
 20
-45.747365
 30
0.0
 11
33.498723645173285
 21
19.346391109741706
 31
0.0
210
0.0
220
0.0
230
1.0
 40
0.015115
 41
4.5083912652690463
 42
4.5748988990072759
  0
ELLIPSE
  5
1A0
100
AcDbEntity
  8
0
390
0
  6
Continuous
 62
     7
100
AcDbEllipse
 10
0.0
 20
-49.500141
 30
0.0
 11
-33.498723645173285
 21
19.346391109741763
 31
0.0
210
0.0
220
0.0
230
1.0
 40
0.015115
 41
1.5137468842135207
 42
1.5795256321532782
  0
ELLIPSE
  5
1A1
100
AcDbEntity
  8
0
390
0
  6
Continuous
 62
     7
100
AcDbEllipse
 10
0.0
 20
-57.005695
 30
0.0
 11
-33.498723645173285
 21
19.346391109741763
 31
0.0
210
0.0
220
0.0
230
1.0
 40
0.015115
 41
1.1105817513900889
 42
1.1810002553536305
  0
ELLIPSE
  5
1A2
100
AcDbEntity
  8
0
390
0
  6
Continuous
 62
     7
100
AcDbEllipse
 10
0.0
 20
-53.252918
 30
0.0
 11
-33.498723645173285
 21
19.346391109741763
 31
0.0
210
0.0
220
0.0
230
1.0
 40
0.015115
 41
1.3173293852783476
 42
1.3842572223960155
  0
ELLIPSE
  5
1A3
100
AcDbEntity
  8
0
390
0
  6
Continuous
 62
     7
100
AcDbEllipse
 10
0.0
 20
-57.005695
 30
0.0
 11
33.498723645173285
 21
19.346391109741706
 31
0.0
210
0.0
220
0.0
230
1.0
 40
0.015115
 41
5.1021850518259573
 42
5.1726035557894985
  0
ELLIPSE
  5
1A4
100
AcDbEntity
  8
0
390
0
  6
Continuous
 62
     7
100
AcDbEllipse
 10
0.0
 20
-38.241811
 30
0.0
 11
-33.498723645173285
 21
19.346391109741763
 31
0.0
210
0.0
220
0.0
230
1.0
 40
0.015115
 41
2.1250353037256362
 42
2.200821747110854
  0
ELLIPSE
  5
1A5
100
AcDbEntity
  8
0
390
0
  6
Continuous
 62
     7
100
AcDbEllipse
 10
0.0
 20
-38.241811
 30
0.0
 11
33.498723645173285
 21
19.346391109741706
 31
0.0
210
0.0
220
0.0
230
1.0
 40
0.015115
 41
4.0823635600687327
 42
4.1581500034539509
  0
LINE
  5
1A6
100
AcDbEntity
  8
0
390
0
  6
Continuous
 62
     7
100
AcDbLine
 10
-18.357649
 20
-52.043219
 30
0.0
 11
-18.75
 21
-51.816695
 31
0.0
  0
LINE
  5
1A7
100
AcDbEntity
  8
0
390
0
  6
Continuous
 62
     7
100
AcDbLine
 10
-16.25
 20
-50.800718
 30
0.0
 11
-16.25
 21
-50.37332
 31
0.0
  0
ELLIPSE
  5
1A8
100
AcDbEntity
  8
0
390
0
  6
Continuous
 62
     7
100
AcDbEllipse
 10
0.0
 20
-42.009224
 30
0.0
 11
33.498723645173285
 21
19.346391109741734
 31
0.0
210
0.0
220
0.0
230
1.0
 40
0.015115
 41
2.0685155263646879
 42
2.1420258963297205
  0
LINE
  5
1A9
100
AcDbEntity
  8
0
390
0
  6
Continuous
 62
     7
100
AcDbLine
 10
-14.101062
 20
-52.019381
 30
0.0
 11
-13.75
 21
-51.816695
 31
0.0
  0
ELLIPSE
  5
1AA
100
AcDbEntity
  8
0
390
0
  6
Continuous
 62
     7
100
AcDbEllipse
 10
0.0
 20
-60.773108
 30
0.0
 11
-33.498723645173285
 21
19.346391109741734
 31
0.0
210
0.0
220
0.0
230
1.0
 40
0.015115
 41
5.1555855598570517
 42
5.2275667906712426
  0
LINE
  5
1AB
100
AcDbEntity
  8
0
390
0
  6
Continuous
 62
     7
100
AcDbLine
 10
-5.445487
 20
-51.992506
 30
0.0
 11
-5.75
 21
-51.816695
 31
0.0
  0
LINE
  5
1AC
100
AcDbEntity
  8
0
390
0
  6
Continuous
 62
     7
100
AcDbLine
 10
-3.25
 20
-50.719146
 30
0.0
 11
-3.25
 21
-50.37332
 31
0.0
  0
ELLIPSE
  5
1AD
100
AcDbEntity
  8
0
390
0
  6
Continuous
 62
     7
100
AcDbEllipse
 10
0.0
 20
-49.514778
 30
0.0
 11
33.498723645173285
 21
19.346391109741734
 31
0.0
210
0.0
220
0.0
230
1.0
 40
0.015115
 41
1.6592347773839553
 42
1.7253433681606993
  0
LINE
  5
1AE
100
AcDbEntity
  8
0
390
0
  6
Continuous
 62
     7
100
AcDbLine
 10
-22.75
 20
-50.857049
 30
0.0
 11
-22.75
 21
-50.37332
 31
0.0
  0
LINE
  5
1AF
100
AcDbEntity
  8
0
390
0
  6
Continuous
 62
     7
100
AcDbLine
 10
-20.668922
 20
-52.05856
 30
0.0
 11
-20.25
 21
-51.816695
 31
0.0
  0
LINE
  5
1B0
100
AcDbEntity
  8
0
390
0
  6
Continuous
 62
     7
100
AcDbLine
 10
-22.75
 20
-50.857049
 30
0.0
 11
-20.668922
 21
-52.05856
 31
0.0
  0
LINE
  5
1B1
100
AcDbEntity
  8
0
390
0
  6
Continuous
 62
     7
100
AcDbLine
 10
14.101062
 20
-52.019381
 30
0.0
 11
13.75
 21
-51.816695
 31
0.0
  0
LINE
  5
1B2
100
AcDbEntity
  8
0
390
0
  6
Continuous
 62
     7
100
AcDbLine
 10
16.25
 20
-50.800718
 30
0.0
 11
16.25
 21
-50.37332
 31
0.0
  0
ELLIPSE
  5
1B3
100
AcDbEntity
  8
0
390
0
  6
Continuous
 62
     7
100
AcDbEllipse
 10
0.0
 20
-60.773108
 30
0.0
 11
33.498723645173285
 21
19.346391109741734
 31
0.0
210
0.0
220
0.0
230
1.0
 40
0.015115
 41
1.055618516508344
 42
1.1275997473225337
  0
LINE
  5
1B4
100
AcDbEntity
  8
0
390
0
  6
Continuous
 62
     7
100
AcDbLine
 10
20.668922
 20
-52.05856
 30
0.0
 11
20.25
 21
-51.816695
 31
0.0
  0
LINE
  5
1B5
100
AcDbEntity
  8
0
390
0
  6
Continuous
 62
     7
100
AcDbLine
 10
22.75
 20
-50.857049
 30
0.0
 11
22.75
 21
-50.37332
 31
0.0
  0
LINE
  5
1B6
100
AcDbEntity
  8
0
390
0
  6
Continuous
 62
     7
100
AcDbLine
 10
20.668922
 20
-52.05856
 30
0.0
 11
22.75
 21
-50.857049
 31
0.0
  0
LINE
  5
1B7
100
AcDbEntity
  8
0
390
0
  6
Continuous
 62
     7
100
AcDbLine
 10
-24.831078
 20
-52.05856
 30
0.0
 11
-22.75
 21
-50.857049
 31
0.0
  0
LINE
  5
1B8
100
AcDbEntity
  8
0
390
0
  6
Continuous
 62
     7
100
AcDbLine
 10
-24.831078
 20
-52.05856
 30
0.0
 11
-25.0
 21
-51.961033
 31
0.0
  0
LINE
  5
1B9
100
AcDbEntity
  8
0
390
0
  6
Continuous
 62
     7
100
AcDbLine
 10
1.047022
 20
-51.988181
 30
0.0
 11
0.75
 21
-51.816695
 31
0.0
  0
LINE
  5
1BA
100
AcDbEntity
  8
0
390
0
  6
Continuous
 62
     7
100
AcDbLine
 10
3.25
 20
-50.719146
 30
0.0
 11
3.25
 21
-50.37332
 31
0.0
  0
ELLIPSE
  5
1BB
100
AcDbEntity
  8
0
390
0
  6
Continuous
 62
     7
100
AcDbEllipse
 10
0.0
 20
-53.267554
 30
0.0
 11
33.498723645173285
 21
19.346391109741734
 31
0.0
210
0.0
220
0.0
230
1.0
 40
0.015115
 41
1.4648992654890767
 42
1.5308075494977258
  0
LINE
  5
1BC
100
AcDbEntity
  8
0
390
0
  6
Continuous
 62
     7
100
AcDbLine
 10
-1.047022
 20
-51.988181
 30
0.0
 11
-0.75
 21
-51.816695
 31
0.0
  0
ELLIPSE
  5
1BD
100
AcDbEntity
  8
0
390
0
  6
Continuous
 62
     7
100
AcDbEllipse
 10
0.0
 20
-53.267554
 30
0.0
 11
-33.498723645173285
 21
19.346391109741734
 31
0.0
210
0.0
220
0.0
230
1.0
 40
0.015115
 41
4.7523777576818595
 42
4.8182860416905093
  0
LINE
  5
1BE
100
AcDbEntity
  8
0
390
0
  6
Continuous
 62
     7
100
AcDbLine
 10
24.831078
 20
-52.05856
 30
0.0
 11
25.0
 21
-51.961033
 31
0.0
  0
LINE
  5
1BF
100
AcDbEntity
  8
0
390
0
  6
Continuous
 62
     7
100
AcDbLine
 10
22.75
 20
-50.857049
 30
0.0
 11
24.831078
 21
-52.05856
 31
0.0
  0
LINE
  5
1C0
100
AcDbEntity
  8
0
390
0
  6
Continuous
 62
     7
100
AcDbLine
 10
5.445487
 20
-51.992506
 30
0.0
 11
5.75
 21
-51.816695
 31
0.0
  0
ELLIPSE
  5
1C1
100
AcDbEntity
  8
0
390
0
  6
Continuous
 62
     7
100
AcDbEllipse
 10
0.0
 20
-49.514778
 30
0.0
 11
-33.498723645173285
 21
19.346391109741734
 31
0.0
210
0.0
220
0.0
230
1.0
 40
0.015115
 41
4.5578419390188873
 42
4.6239505297956311
  0
LINE
  5
1C2
100
AcDbEntity
  8
0
390
0
  6
Continuous
 62
     7
100
AcDbLine
 10
-11.915028
 20
-52.010092
 30
0.0
 11
-12.25
 21
-51.816695
 31
0.0
  0
LINE
  5
1C3
100
AcDbEntity
  8
0
390
0
  6
Continuous
 62
     7
100
AcDbLine
 10
-9.75
 20
-50.745191
 30
0.0
 11
-9.75
 21
-50.37332
 31
0.0
  0
ELLIPSE
  5
1C4
100
AcDbEntity
  8
0
390
0
  6
Continuous
 62
     7
100
AcDbEllipse
 10
0.0
 20
-45.762001
 30
0.0
 11
33.498723645173285
 21
19.346391109741734
 31
0.0
210
0.0
220
0.0
230
1.0
 40
0.015115
 41
1.8573857297183853
 42
1.9257005118590491
  0
LINE
  5
1C5
100
AcDbEntity
  8
0
390
0
  6
Continuous
 62
     7
100
AcDbLine
 10
9.75
 20
-50.745191
 30
0.0
 11
9.75
 21
-50.37332
 31
0.0
  0
LINE
  5
1C6
100
AcDbEntity
  8
0
390
0
  6
Continuous
 62
     7
100
AcDbLine
 10
11.915028
 20
-52.010092
 30
0.0
 11
12.25
 21
-51.816695
 31
0.0
  0
ELLIPSE
  5
1C7
100
AcDbEntity
  8
0
390
0
  6
Continuous
 62
     7
100
AcDbEllipse
 10
0.0
 20
-45.762001
 30
0.0
 11
-33.498723645173285
 21
19.346391109741734
 31
0.0
210
0.0
220
0.0
230
1.0
 40
0.015115
 41
4.3574847953205378
 42
4.4257995774612011
  0
LINE
  5
1C8
100
AcDbEntity
  8
0
390
0
  6
Continuous
 62
     7
100
AcDbLine
 10
7.561828
 20
-51.996729
 30
0.0
 11
7.25
 21
-51.816695
 31
0.0
  0
ELLIPSE
  5
1C9
100
AcDbEntity
  8
0
390
0
  6
Continuous
 62
     7
100
AcDbEllipse
 10
0.0
 20
-57.020331
 30
0.0
 11
33.498723645173285
 21
19.346391109741734
 31
0.0
210
0.0
220
0.0
230
1.0
 40
0.015115
 41
1.2667483131546469
 42
1.3343786040246914
  0
LINE
  5
1CA
100
AcDbEntity
  8
0
390
0
  6
Continuous
 62
     7
100
AcDbLine
 10
18.357649
 20
-52.043219
 30
0.0
 11
18.75
 21
-51.816695
 31
0.0
  0
ELLIPSE
  5
1CB
100
AcDbEntity
  8
0
390
0
  6
Continuous
 62
     7
100
AcDbEllipse
 10
0.0
 20
-42.009224
 30
0.0
 11
-33.498723645173285
 21
19.346391109741734
 31
0.0
210
0.0
220
0.0
230
1.0
 40
0.015115
 41
4.1411594108498671
 42
4.2146697808148987
  0
LINE
  5
1CC
100
AcDbEntity
  8
0
390
0
  6
Continuous
 62
     7
100
AcDbLine
 10
-7.561828
 20
-51.996729
 30
0.0
 11
-7.25
 21
-51.816695
 31
0.0
  0
ELLIPSE
  5
1CD
100
AcDbEntity
  8
0
390
0
  6
Continuous
 62
     7
100
AcDbEllipse
 10
0.0
 20
-57.020331
 30
0.0
 11
-33.498723645173285
 21
19.346391109741734
 31
0.0
210
0.0
220
0.0
230
1.0
 40
0.015115
 41
4.9488067031548928
 42
5.0164369940249394
  0
LINE
  5
1CE
100
AcDbEntity
  8
0
390
0
  6
Continuous
 62
     7
100
AcDbLine
 10
11.915028
 20
-54.510051
 30
0.0
 11
12.25
 21
-54.703447
 31
0.0
  0
LINE
  5
1CF
100
AcDbEntity
  8
0
390
0
  6
Continuous
 62
     7
100
AcDbLine
 10
11.915028
 20
-52.010092
 30
0.0
 11
11.915028
 21
-54.510051
 31
0.0
  0
LINE
  5
1D0
100
AcDbEntity
  8
0
390
0
  6
Continuous
 62
     7
100
AcDbLine
 10
-18.357649
 20
-54.476923
 30
0.0
 11
-18.75
 21
-54.703447
 31
0.0
  0
LINE
  5
1D1
100
AcDbEntity
  8
0
390
0
  6
Continuous
 62
     7
100
AcDbLine
 10
-18.357649
 20
-54.476923
 30
0.0
 11
-18.357649
 21
-52.043219
 31
0.0
  0
LINE
  5
1D2
100
AcDbEntity
  8
0
390
0
  6
Continuous
 62
     7
100
AcDbLine
 10
-14.101062
 20
-54.500761
 30
0.0
 11
-13.75
 21
-54.703447
 31
0.0
  0
LINE
  5
1D3
100
AcDbEntity
  8
0
390
0
  6
Continuous
 62
     7
100
AcDbLine
 10
-14.101062
 20
-52.019381
 30
0.0
 11
-14.101062
 21
-54.500761
 31
0.0
  0
LINE
  5
1D4
100
AcDbEntity
  8
0
390
0
  6
Continuous
 62
     7
100
AcDbLine
 10
-5.445487
 20
-54.527636
 30
0.0
 11
-5.75
 21
-54.703447
 31
0.0
  0
LINE
  5
1D5
100
AcDbEntity
  8
0
390
0
  6
Continuous
 62
     7
100
AcDbLine
 10
-5.445487
 20
-54.527636
 30
0.0
 11
-5.445487
 21
-51.992506
 31
0.0
  0
LINE
  5
1D6
100
AcDbEntity
  8
0
390
0
  6
Continuous
 62
     7
100
AcDbLine
 10
1.047022
 20
-54.531961
 30
0.0
 11
0.75
 21
-54.703447
 31
0.0
  0
LINE
  5
1D7
100
AcDbEntity
  8
0
390
0
  6
Continuous
 62
     7
100
AcDbLine
 10
1.047022
 20
-54.531961
 30
0.0
 11
1.047022
 21
-51.988181
 31
0.0
  0
LINE
  5
1D8
100
AcDbEntity
  8
0
390
0
  6
Continuous
 62
     7
100
AcDbLine
 10
20.668922
 20
-54.461582
 30
0.0
 11
20.25
 21
-54.703447
 31
0.0
  0
LINE
  5
1D9
100
AcDbEntity
  8
0
390
0
  6
Continuous
 62
     7
100
AcDbLine
 10
20.668922
 20
-54.461582
 30
0.0
 11
20.668922
 21
-52.05856
 31
0.0
  0
LINE
  5
1DA
100
AcDbEntity
  8
0
390
0
  6
Continuous
 62
     7
100
AcDbLine
 10
14.101062
 20
-54.500761
 30
0.0
 11
13.75
 21
-54.703447
 31
0.0
  0
LINE
  5
1DB
100
AcDbEntity
  8
0
390
0
  6
Continuous
 62
     7
100
AcDbLine
 10
14.101062
 20
-54.500761
 30
0.0
 11
14.101062
 21
-52.019381
 31
0.0
  0
LINE
  5
1DC
100
AcDbEntity
  8
0
390
0
  6
Continuous
 62
     7
100
AcDbLine
 10
-11.915028
 20
-54.510051
 30
0.0
 11
-12.25
 21
-54.703447
 31
0.0
  0
LINE
  5
1DD
100
AcDbEntity
  8
0
390
0
  6
Continuous
 62
     7
100
AcDbLine
 10
-11.915028
 20
-54.510051
 30
0.0
 11
-11.915028
 21
-52.010092
 31
0.0
  0
LINE
  5
1DE
100
AcDbEntity
  8
0
390
0
  6
Continuous
 62
     7
100
AcDbLine
 10
5.445487
 20
-54.527636
 30
0.0
 11
5.75
 21
-54.703447
 31
0.0
  0
LINE
  5
1DF
100
AcDbEntity
  8
0
390
0
  6
Continuous
 62
     7
100
AcDbLine
 10
5.445487
 20
-51.992506
 30
0.0
 11
5.445487
 21
-54.527636
 31
0.0
  0
LINE
  5
1E0
100
AcDbEntity
  8
0
390
0
  6
Continuous
 62
     7
100
AcDbLine
 10
-1.047022
 20
-54.531961
 30
0.0
 11
-0.75
 21
-54.703447
 31
0.0
  0
LINE
  5
1E1
100
AcDbEntity
  8
0
390
0
  6
Continuous
 62
     7
100
AcDbLine
 10
-1.047022
 20
-51.988181
 30
0.0
 11
-1.047022
 21
-54.531961
 31
0.0
  0
LINE
  5
1E2
100
AcDbEntity
  8
0
390
0
  6
Continuous
 62
     7
100
AcDbLine
 10
7.561828
 20
-54.523413
 30
0.0
 11
7.25
 21
-54.703447
 31
0.0
  0
LINE
  5
1E3
100
AcDbEntity
  8
0
390
0
  6
Continuous
 62
     7
100
AcDbLine
 10
7.561828
 20
-54.523413
 30
0.0
 11
7.561828
 21
-51.996729
 31
0.0
  0
LINE
  5
1E4
100
AcDbEntity
  8
0
390
0
  6
Continuous
 62
     7
100
AcDbLine
 10
-20.668922
 20
-54.461582
 30
0.0
 11
-20.25
 21
-54.703447
 31
0.0
  0
LINE
  5
1E5
100
AcDbEntity
  8
0
390
0
  6
Continuous
 62
     7
100
AcDbLine
 10
-20.668922
 20
-52.05856
 30
0.0
 11
-20.668922
 21
-54.461582
 31
0.0
  0
LINE
  5
1E6
100
AcDbEntity
  8
0
390
0
  6
Continuous
 62
     7
100
AcDbLine
 10
-7.561828
 20
-54.523413
 30
0.0
 11
-7.25
 21
-54.703447
 31
0.0
  0
LINE
  5
1E7
100
AcDbEntity
  8
0
390
0
  6
Continuous
 62
     7
100
AcDbLine
 10
-7.561828
 20
-51.996729
 30
0.0
 11
-7.561828
 21
-54.523413
 31
0.0
  0
LINE
  5
1E8
100
AcDbEntity
  8
0
390
0
  6
Continuous
 62
     7
100
AcDbLine
 10
18.357649
 20
-54.476923
 30
0.0
 11
18.75
 21
-54.703447
 31
0.0
  0
LINE
  5
1E9
100
AcDbEntity
  8
0
390
0
  6
Continuous
 62
     7
100
AcDbLine
 10
18.357649
 20
-52.043219
 30
0.0
 11
18.357649
 21
-54.476923
 31
0.0
  0
LINE
  5
1EA
100
AcDbEntity
  8
0
390
0
  6
Continuous
 62
     7
100
AcDbLine
 10
22.75
 20
-55.663094
 30
0.0
 11
22.75
 21
-56.146822
 31
0.0
  0
LINE
  5
1EB
100
AcDbEntity
  8
0
390
0
  6
Continuous
 62
     7
100
AcDbLine
 10
24.831078
 20
-54.461582
 30
0.0
 11
22.75
 21
-55.663094
 31
0.0
  0
LINE
  5
1EC
100
AcDbEntity
  8
0
390
0
  6
Continuous
 62
     7
100
AcDbLine
 10
24.831078
 20
-54.461582
 30
0.0
 11
25.0
 21
-54.559109
 31
0.0
  0
LINE
  5
1ED
100
AcDbEntity
  8
0
390
0
  6
Continuous
 62
     7
100
AcDbLine
 10
22.75
 20
-55.663094
 30
0.0
 11
20.668922
 21
-54.461582
 31
0.0
  0
LINE
  5
1EE
100
AcDbEntity
  8
0
390
0
  6
Continuous
 62
     7
100
AcDbLine
 10
-22.75
 20
-55.663094
 30
0.0
 11
-22.75
 21
-56.146822
 31
0.0
  0
LINE
  5
1EF
100
AcDbEntity
  8
0
390
0
  6
Continuous
 62
     7
100
AcDbLine
 10
-20.668922
 20
-54.461582
 30
0.0
 11
-22.75
 21
-55.663094
 31
0.0
  0
LINE
  5
1F0
100
AcDbEntity
  8
0
390
0
  6
Continuous
 62
     7
100
AcDbLine
 10
-16.25
 20
-55.719425
 30
0.0
 11
-16.25
 21
-56.146822
 31
0.0
  0
ELLIPSE
  5
1F1
100
AcDbEntity
  8
0
390
0
  6
Continuous
 62
     7
100
AcDbEllipse
 10
0.0
 20
-64.510918
 30
0.0
 11
-33.498723645173285
 21
19.346391109741734
 31
0.0
210
0.0
220
0.0
230
1.0
 40
0.015115
 41
0.9995667572600739
 42
1.0730771272251052
  0
LINE
  5
1F2
100
AcDbEntity
  8
0
390
0
  6
Continuous
 62
     7
100
AcDbLine
 10
16.25
 20
-55.719425
 30
0.0
 11
16.25
 21
-56.146822
 31
0.0
  0
ELLIPSE
  5
1F3
100
AcDbEntity
  8
0
390
0
  6
Continuous
 62
     7
100
AcDbEllipse
 10
0.0
 20
-64.510918
 30
0.0
 11
33.498723645173285
 21
19.346391109741734
 31
0.0
210
0.0
220
0.0
230
1.0
 40
0.015115
 41
5.2101081799544824
 42
5.2836185499195132
  0
LINE
  5
1F4
100
AcDbEntity
  8
0
390
0
  6
Continuous
 62
     7
100
AcDbLine
 10
-24.831078
 20
-54.461582
 30
0.0
 11
-25.0
 21
-54.559109
 31
0.0
  0
LINE
  5
1F5
100
AcDbEntity
  8
0
390
0
  6
Continuous
 62
     7
100
AcDbLine
 10
-22.75
 20
-55.663094
 30
0.0
 11
-24.831078
 21
-54.461582
 31
0.0
  0
LINE
  5
1F6
100
AcDbEntity
  8
0
390
0
  6
Continuous
 62
     7
100
AcDbLine
 10
-3.25
 20
-55.800996
 30
0.0
 11
-3.25
 21
-56.146822
 31
0.0
  0
ELLIPSE
  5
1F7
100
AcDbEntity
  8
0
390
0
  6
Continuous
 62
     7
100
AcDbEllipse
 10
0.0
 20
-57.005365
 30
0.0
 11
-33.498723645173285
 21
19.346391109741734
 31
0.0
210
0.0
220
0.0
230
1.0
 40
0.015115
 41
1.4162492854290949
 42
1.4823578762058389
  0
ELLIPSE
  5
1F8
100
AcDbEntity
  8
0
390
0
  6
Continuous
 62
     7
100
AcDbEllipse
 10
0.0
 20
-45.747034
 30
0.0
 11
33.498723645173285
 21
19.346391109741734
 31
0.0
210
0.0
220
0.0
230
1.0
 40
0.015115
 41
4.1972111700981376
 42
4.2691924009123277
  0
LINE
  5
1F9
100
AcDbEntity
  8
0
390
0
  6
Continuous
 62
     7
100
AcDbLine
 10
3.25
 20
-55.800996
 30
0.0
 11
3.25
 21
-56.146822
 31
0.0
  0
ELLIPSE
  5
1FA
100
AcDbEntity
  8
0
390
0
  6
Continuous
 62
     7
100
AcDbEllipse
 10
0.0
 20
-57.005365
 30
0.0
 11
33.498723645173285
 21
19.346391109741734
 31
0.0
210
0.0
220
0.0
230
1.0
 40
0.015115
 41
4.80082743097375
 42
4.866936021750492
  0
ELLIPSE
  5
1FB
100
AcDbEntity
  8
0
390
0
  6
Continuous
 62
     7
100
AcDbEllipse
 10
0.0
 20
-45.747034
 30
0.0
 11
-33.498723645173285
 21
19.346391109741734
 31
0.0
210
0.0
220
0.0
230
1.0
 40
0.015115
 41
2.0139929062672599
 42
2.08597413708145
  0
LINE
  5
1FC
100
AcDbEntity
  8
0
390
0
  6
Continuous
 62
     7
100
AcDbLine
 10
9.75
 20
-55.774951
 30
0.0
 11
9.75
 21
-56.146822
 31
0.0
  0
ELLIPSE
  5
1FD
100
AcDbEntity
  8
0
390
0
  6
Continuous
 62
     7
100
AcDbEllipse
 10
0.0
 20
-60.758141
 30
0.0
 11
33.498723645173285
 21
19.346391109741734
 31
0.0
210
0.0
220
0.0
230
1.0
 40
0.015115
 41
4.99897838330818
 42
5.0672931654488425
  0
ELLIPSE
  5
1FE
100
AcDbEntity
  8
0
390
0
  6
Continuous
 62
     7
100
AcDbEllipse
 10
0.0
 20
-49.499811
 30
0.0
 11
-33.498723645173285
 21
19.346391109741734
 31
0.0
210
0.0
220
0.0
230
1.0
 40
0.015115
 41
1.8072140495651017
 42
1.8748443404351476
  0
ELLIPSE
  5
1FF
100
AcDbEntity
  8
0
390
0
  6
Continuous
 62
     7
100
AcDbEllipse
 10
0.0
 20
-53.252588
 30
0.0
 11
33.498723645173285
 21
19.346391109741734
 31
0.0
210
0.0
220
0.0
230
1.0
 40
0.015115
 41
4.6064919190788709
 42
4.6724002030875198
  0
ELLIPSE
  5
200
100
AcDbEntity
  8
0
390
0
  6
Continuous
 62
     7
100
AcDbEllipse
 10
0.0
 20
-53.252588
 30
0.0
 11
-33.498723645173285
 21
19.346391109741734
 31
0.0
210
0.0
220
0.0
230
1.0
 40
0.015115
 41
1.6107851040920675
 42
1.6766933881007176
  0
LINE
  5
201
100
AcDbEntity
  8
0
390
0
  6
Continuous
 62
     7
100
AcDbLine
 10
-9.75
 20
-55.774951
 30
0.0
 11
-9.75
 21
-56.146822
 31
0.0
  0
ELLIPSE
  5
202
100
AcDbEntity
  8
0
390
0
  6
Continuous
 62
     7
100
AcDbEllipse
 10
0.0
 20
-60.758141
 30
0.0
 11
-33.498723645173285
 21
19.346391109741734
 31
0.0
210
0.0
220
0.0
230
1.0
 40
0.015115
 41
1.2158921417307451
 42
1.2842069238714082
  0
ELLIPSE
  5
203
100
AcDbEntity
  8
0
390
0
  6
Continuous
 62
     7
100
AcDbEllipse
 10
0.0
 20
-49.499811
 30
0.0
 11
33.498723645173285
 21
19.346391109741734
 31
0.0
210
0.0
220
0.0
230
1.0
 40
0.015115
 41
4.40834096674444
 42
4.4759712576144866
  0
LINE
  5
204
100
AcDbEntity
  8
0
390
0
  6
Continuous
 62
     7
100
AcDbLine
 10
17.381604
 20
-57.66618
 30
0.0
 11
17.0
 21
-57.445861
 31
0.0
  0
LINE
  5
205
100
AcDbEntity
  8
0
390
0
  6
Continuous
 62
     7
100
AcDbLine
 10
19.5
 20
-56.471305
 30
0.0
 11
19.5
 21
-56.002485
 31
0.0
  0
ELLIPSE
  5
206
100
AcDbEntity
  8
0
390
0
  6
Continuous
 62
     7
100
AcDbEllipse
 10
0.0
 20
-68.278661
 30
0.0
 11
33.498723645173314
 21
19.346391109741734
 31
0.0
210
0.0
220
0.0
230
1.0
 40
0.015115
 41
0.9407709064789405
 42
1.0165573498641569
  0
LINE
  5
207
100
AcDbEntity
  8
0
390
0
  6
Continuous
 62
     7
100
AcDbLine
 10
0.0
 20
-56.345126
 30
0.0
 11
0.0
 21
-56.002485
 31
0.0
  0
LINE
  5
208
100
AcDbEntity
  8
0
390
0
  6
Continuous
 62
     7
100
AcDbLine
 10
2.201999
 20
-57.617911
 30
0.0
 11
2.5
 21
-57.445861
 31
0.0
  0
ELLIPSE
  5
209
100
AcDbEntity
  8
0
390
0
  6
Continuous
 62
     7
100
AcDbEllipse
 10
0.0
 20
-57.020331
 30
0.0
 11
-33.498723645173285
 21
19.346391109741734
 31
0.0
210
0.0
220
0.0
230
1.0
 40
0.015115
 41
4.6553395378033136
 42
4.7211182857430707
  0
LINE
  5
20A
100
AcDbEntity
  8
0
390
0
  6
Continuous
 62
     7
100
AcDbLine
 10
6.5
 20
-56.357958
 30
0.0
 11
6.5
 21
-56.002485
 31
0.0
  0
LINE
  5
20B
100
AcDbEntity
  8
0
390
0
  6
Continuous
 62
     7
100
AcDbLine
 10
8.683279
 20
-57.628719
 30
0.0
 11
9.0
 21
-57.445861
 31
0.0
  0
ELLIPSE
  5
20C
100
AcDbEntity
  8
0
390
0
  6
Continuous
 62
     7
100
AcDbEllipse
 10
0.0
 20
-53.267554
 30
0.0
 11
-33.498723645173285
 21
19.346391109741734
 31
0.0
210
0.0
220
0.0
230
1.0
 40
0.015115
 41
4.4589220388681401
 42
4.5258498759858083
  0
LINE
  5
20D
100
AcDbEntity
  8
0
390
0
  6
Continuous
 62
     7
100
AcDbLine
 10
13.0
 20
-56.398039
 30
0.0
 11
13.0
 21
-56.002485
 31
0.0
  0
LINE
  5
20E
100
AcDbEntity
  8
0
390
0
  6
Continuous
 62
     7
100
AcDbLine
 10
15.140138
 20
-57.653627
 30
0.0
 11
15.5
 21
-57.445861
 31
0.0
  0
ELLIPSE
  5
20F
100
AcDbEntity
  8
0
390
0
  6
Continuous
 62
     7
100
AcDbEllipse
 10
0.0
 20
-49.514778
 30
0.0
 11
-33.498723645173285
 21
19.346391109741734
 31
0.0
210
0.0
220
0.0
230
1.0
 40
0.015115
 41
4.2521744049798817
 42
4.322592908943423
  0
LINE
  5
210
100
AcDbEntity
  8
0
390
0
  6
Continuous
 62
     7
100
AcDbLine
 10
4.301577
 20
-57.619976
 30
0.0
 11
4.0
 21
-57.445861
 31
0.0
  0
ELLIPSE
  5
211
100
AcDbEntity
  8
0
390
0
  6
Continuous
 62
     7
100
AcDbEllipse
 10
0.0
 20
-60.773108
 30
0.0
 11
33.498723645173314
 21
19.346391109741734
 31
0.0
210
0.0
220
0.0
230
1.0
 40
0.015115
 41
1.3667986116792532
 42
1.4333062454174803
  0
LINE
  5
212
100
AcDbEntity
  8
0
390
0
  6
Continuous
 62
     7
100
AcDbLine
 10
-15.140138
 20
-57.653627
 30
0.0
 11
-15.5
 21
-57.445861
 31
0.0
  0
LINE
  5
213
100
AcDbEntity
  8
0
390
0
  6
Continuous
 62
     7
100
AcDbLine
 10
-13.0
 20
-56.398039
 30
0.0
 11
-13.0
 21
-56.002485
 31
0.0
  0
ELLIPSE
  5
214
100
AcDbEntity
  8
0
390
0
  6
Continuous
 62
     7
100
AcDbEllipse
 10
0.0
 20
-49.514778
 30
0.0
 11
33.498723645173314
 21
19.346391109741734
 31
0.0
210
0.0
220
0.0
230
1.0
 40
0.015115
 41
1.9605923982361639
 42
2.0310109021997049
  0
LINE
  5
215
100
AcDbEntity
  8
0
390
0
  6
Continuous
 62
     7
100
AcDbLine
 10
-10.828124
 20
-57.635303
 30
0.0
 11
-10.5
 21
-57.445861
 31
0.0
  0
ELLIPSE
  5
216
100
AcDbEntity
  8
0
390
0
  6
Continuous
 62
     7
100
AcDbEllipse
 10
0.0
 20
-64.525885
 30
0.0
 11
-33.498723645173285
 21
19.346391109741734
 31
0.0
210
0.0
220
0.0
230
1.0
 40
0.015115
 41
5.0502564720468026
 42
5.1196436625427193
  0
LINE
  5
217
100
AcDbEntity
  8
0
390
0
  6
Continuous
 62
     7
100
AcDbLine
 10
-19.5
 20
-56.471305
 30
0.0
 11
-19.5
 21
-56.002485
 31
0.0
  0
LINE
  5
218
100
AcDbEntity
  8
0
390
0
  6
Continuous
 62
     7
100
AcDbLine
 10
-17.381604
 20
-57.66618
 30
0.0
 11
-17.0
 21
-57.445861
 31
0.0
  0
ELLIPSE
  5
219
100
AcDbEntity
  8
0
390
0
  6
Continuous
 62
     7
100
AcDbEllipse
 10
0.0
 20
-68.278661
 30
0.0
 11
-33.498723645173285
 21
19.346391109741734
 31
0.0
210
0.0
220
0.0
230
1.0
 40
0.015115
 41
5.2666279573154284
 42
5.3424144007006458
  0
LINE
  5
21A
100
AcDbEntity
  8
0
390
0
  6
Continuous
 62
     7
100
AcDbLine
 10
-8.683279
 20
-57.628719
 30
0.0
 11
-9.0
 21
-57.445861
 31
0.0
  0
LINE
  5
21B
100
AcDbEntity
  8
0
390
0
  6
Continuous
 62
     7
100
AcDbLine
 10
-6.5
 20
-56.357958
 30
0.0
 11
-6.5
 21
-56.002485
 31
0.0
  0
ELLIPSE
  5
21C
100
AcDbEntity
  8
0
390
0
  6
Continuous
 62
     7
100
AcDbEllipse
 10
0.0
 20
-53.267554
 30
0.0
 11
33.498723645173314
 21
19.346391109741734
 31
0.0
210
0.0
220
0.0
230
1.0
 40
0.015115
 41
1.7573354311937781
 42
1.8242632683114461
  0
LINE
  5
21D
100
AcDbEntity
  8
0
390
0
  6
Continuous
 62
     7
100
AcDbLine
 10
-21.581078
 20
-57.687725
 30
0.0
 11
-22.0
 21
-57.445861
 31
0.0
  0
ELLIPSE
  5
21E
100
AcDbEntity
  8
0
390
0
  6
Continuous
 62
     7
100
AcDbEllipse
 10
0.0
 20
-45.762001
 30
0.0
 11
33.498723645173314
 21
19.346391109741734
 31
0.0
210
0.0
220
0.0
230
1.0
 40
0.015115
 41
2.183363136394092
 42
2.2203484064409991
  0
LINE
  5
21F
100
AcDbEntity
  8
0
390
0
  6
Continuous
 62
     7
100
AcDbLine
 10
-21.581078
 20
-57.687725
 30
0.0
 11
-20.493902
 21
-57.060043
 31
0.0
  0
LINE
  5
220
100
AcDbEntity
  8
0
390
0
  6
Continuous
 62
     7
100
AcDbLine
 10
-2.201999
 20
-57.617911
 30
0.0
 11
-2.5
 21
-57.445861
 31
0.0
  0
ELLIPSE
  5
221
100
AcDbEntity
  8
0
390
0
  6
Continuous
 62
     7
100
AcDbEllipse
 10
0.0
 20
-57.020331
 30
0.0
 11
33.498723645173314
 21
19.346391109741734
 31
0.0
210
0.0
220
0.0
230
1.0
 40
0.015115
 41
1.562067021436516
 42
1.6278457693762722
  0
LINE
  5
222
100
AcDbEntity
  8
0
390
0
  6
Continuous
 62
     7
100
AcDbLine
 10
-4.301577
 20
-57.619976
 30
0.0
 11
-4.0
 21
-57.445861
 31
0.0
  0
ELLIPSE
  5
223
100
AcDbEntity
  8
0
390
0
  6
Continuous
 62
     7
100
AcDbEllipse
 10
0.0
 20
-60.773108
 30
0.0
 11
-33.498723645173285
 21
19.346391109741734
 31
0.0
210
0.0
220
0.0
230
1.0
 40
0.015115
 41
4.8498790617621053
 42
4.9163866955003321
  0
ELLIPSE
  5
224
100
AcDbEntity
  8
0
390
0
  6
Continuous
 62
     7
100
AcDbEllipse
 10
0.0
 20
-45.762001
 30
0.0
 11
-33.498723645173285
 21
19.346391109741734
 31
0.0
210
0.0
220
0.0
230
1.0
 40
0.015115
 41
4.0628369007385867
 42
4.0998221707854938
  0
LINE
  5
225
100
AcDbEntity
  8
0
390
0
  6
Continuous
 62
     7
100
AcDbLine
 10
21.581078
 20
-57.687725
 30
0.0
 11
22.0
 21
-57.445861
 31
0.0
  0
LINE
  5
226
100
AcDbEntity
  8
0
390
0
  6
Continuous
 62
     7
100
AcDbLine
 10
20.493902
 20
-57.060043
 30
0.0
 11
21.581078
 21
-57.687725
 31
0.0
  0
LINE
  5
227
100
AcDbEntity
  8
0
390
0
  6
Continuous
 62
     7
100
AcDbLine
 10
10.828124
 20
-57.635303
 30
0.0
 11
10.5
 21
-57.445861
 31
0.0
  0
ELLIPSE
  5
228
100
AcDbEntity
  8
0
390
0
  6
Continuous
 62
     7
100
AcDbEllipse
 10
0.0
 20
-64.525885
 30
0.0
 11
33.498723645173314
 21
19.346391109741734
 31
0.0
210
0.0
220
0.0
230
1.0
 40
0.015115
 41
1.1635416446368685
 42
1.232928835132783
  0
LINE
  5
229
100
AcDbEntity
  8
0
390
0
  6
Continuous
 62
     7
100
AcDbLine
 10
23.918922
 20
-57.687725
 30
0.0
 11
25.0
 21
-57.063564
 31
0.0
  0
LINE
  5
22A
100
AcDbEntity
  8
0
390
0
  6
Continuous
 62
     7
100
AcDbLine
 10
23.918922
 20
-57.687725
 30
0.0
 11
23.5
 21
-57.445861
 31
0.0
  0
LINE
  5
22B
100
AcDbEntity
  8
0
390
0
  6
Continuous
 62
     7
100
AcDbLine
 10
-23.918922
 20
-57.687725
 30
0.0
 11
-23.5
 21
-57.445861
 31
0.0
  0
LINE
  5
22C
100
AcDbEntity
  8
0
390
0
  6
Continuous
 62
     7
100
AcDbLine
 10
-25.0
 20
-57.063564
 30
0.0
 11
-23.918922
 21
-57.687725
 31
0.0
  0
LINE
  5
22D
100
AcDbEntity
  8
0
390
0
  6
Continuous
 62
     7
100
AcDbLine
 10
2.201999
 20
-60.160561
 30
0.0
 11
2.5
 21
-60.332612
 31
0.0
  0
LINE
  5
22E
100
AcDbEntity
  8
0
390
0
  6
Continuous
 62
     7
100
AcDbLine
 10
2.201999
 20
-57.617911
 30
0.0
 11
2.201999
 21
-60.160561
 31
0.0
  0
LINE
  5
22F
100
AcDbEntity
  8
0
390
0
  6
Continuous
 62
     7
100
AcDbLine
 10
-10.828124
 20
-60.143169
 30
0.0
 11
-10.5
 21
-60.332612
 31
0.0
  0
LINE
  5
230
100
AcDbEntity
  8
0
390
0
  6
Continuous
 62
     7
100
AcDbLine
 10
-10.828124
 20
-57.635303
 30
0.0
 11
-10.828124
 21
-60.143169
 31
0.0
  0
LINE
  5
231
100
AcDbEntity
  8
0
390
0
  6
Continuous
 62
     7
100
AcDbLine
 10
-4.301577
 20
-60.158497
 30
0.0
 11
-4.0
 21
-60.332612
 31
0.0
  0
LINE
  5
232
100
AcDbEntity
  8
0
390
0
  6
Continuous
 62
     7
100
AcDbLine
 10
-4.301577
 20
-57.619976
 30
0.0
 11
-4.301577
 21
-60.158497
 31
0.0
  0
LINE
  5
233
100
AcDbEntity
  8
0
390
0
  6
Continuous
 62
     7
100
AcDbLine
 10
-2.201999
 20
-60.160561
 30
0.0
 11
-2.5
 21
-60.332612
 31
0.0
  0
LINE
  5
234
100
AcDbEntity
  8
0
390
0
  6
Continuous
 62
     7
100
AcDbLine
 10
-2.201999
 20
-60.160561
 30
0.0
 11
-2.201999
 21
-57.617911
 31
0.0
  0
LINE
  5
235
100
AcDbEntity
  8
0
390
0
  6
Continuous
 62
     7
100
AcDbLine
 10
17.381604
 20
-60.112293
 30
0.0
 11
17.0
 21
-60.332612
 31
0.0
  0
LINE
  5
236
100
AcDbEntity
  8
0
390
0
  6
Continuous
 62
     7
100
AcDbLine
 10
17.381604
 20
-60.112293
 30
0.0
 11
17.381604
 21
-57.66618
 31
0.0
  0
LINE
  5
237
100
AcDbEntity
  8
0
390
0
  6
Continuous
 62
     7
100
AcDbLine
 10
15.140138
 20
-60.124846
 30
0.0
 11
15.5
 21
-60.332612
 31
0.0
  0
LINE
  5
238
100
AcDbEntity
  8
0
390
0
  6
Continuous
 62
     7
100
AcDbLine
 10
15.140138
 20
-57.653627
 30
0.0
 11
15.140138
 21
-60.124846
 31
0.0
  0
LINE
  5
239
100
AcDbEntity
  8
0
390
0
  6
Continuous
 62
     7
100
AcDbLine
 10
-21.581078
 20
-60.090747
 30
0.0
 11
-22.0
 21
-60.332612
 31
0.0
  0
LINE
  5
23A
100
AcDbEntity
  8
0
390
0
  6
Continuous
 62
     7
100
AcDbLine
 10
-21.581078
 20
-60.090747
 30
0.0
 11
-21.581078
 21
-57.687725
 31
0.0
  0
LINE
  5
23B
100
AcDbEntity
  8
0
390
0
  6
Continuous
 62
     7
100
AcDbLine
 10
4.301577
 20
-60.158497
 30
0.0
 11
4.0
 21
-60.332612
 31
0.0
  0
LINE
  5
23C
100
AcDbEntity
  8
0
390
0
  6
Continuous
 62
     7
100
AcDbLine
 10
4.301577
 20
-60.158497
 30
0.0
 11
4.301577
 21
-57.619976
 31
0.0
  0
LINE
  5
23D
100
AcDbEntity
  8
0
390
0
  6
Continuous
 62
     7
100
AcDbLine
 10
-23.918922
 20
-57.687725
 30
0.0
 11
-23.918922
 21
-60.090747
 31
0.0
  0
LINE
  5
23E
100
AcDbEntity
  8
0
390
0
  6
Continuous
 62
     7
100
AcDbLine
 10
10.828124
 20
-60.143169
 30
0.0
 11
10.5
 21
-60.332612
 31
0.0
  0
LINE
  5
23F
100
AcDbEntity
  8
0
390
0
  6
Continuous
 62
     7
100
AcDbLine
 10
10.828124
 20
-60.143169
 30
0.0
 11
10.828124
 21
-57.635303
 31
0.0
  0
LINE
  5
240
100
AcDbEntity
  8
0
390
0
  6
Continuous
 62
     7
100
AcDbLine
 10
-17.381604
 20
-60.112293
 30
0.0
 11
-17.0
 21
-60.332612
 31
0.0
  0
LINE
  5
241
100
AcDbEntity
  8
0
390
0
  6
Continuous
 62
     7
100
AcDbLine
 10
-17.381604
 20
-57.66618
 30
0.0
 11
-17.381604
 21
-60.112293
 31
0.0
  0
LINE
  5
242
100
AcDbEntity
  8
0
390
0
  6
Continuous
 62
     7
100
AcDbLine
 10
21.581078
 20
-60.090747
 30
0.0
 11
22.0
 21
-60.332612
 31
0.0
  0
LINE
  5
243
100
AcDbEntity
  8
0
390
0
  6
Continuous
 62
     7
100
AcDbLine
 10
21.581078
 20
-57.687725
 30
0.0
 11
21.581078
 21
-60.090747
 31
0.0
  0
LINE
  5
244
100
AcDbEntity
  8
0
390
0
  6
Continuous
 62
     7
100
AcDbLine
 10
-8.683279
 20
-60.149753
 30
0.0
 11
-9.0
 21
-60.332612
 31
0.0
  0
LINE
  5
245
100
AcDbEntity
  8
0
390
0
  6
Continuous
 62
     7
100
AcDbLine
 10
-8.683279
 20
-60.149753
 30
0.0
 11
-8.683279
 21
-57.628719
 31
0.0
  0
LINE
  5
246
100
AcDbEntity
  8
0
390
0
  6
Continuous
 62
     7
100
AcDbLine
 10
8.683279
 20
-60.149753
 30
0.0
 11
9.0
 21
-60.332612
 31
0.0
  0
LINE
  5
247
100
AcDbEntity
  8
0
390
0
  6
Continuous
 62
     7
100
AcDbLine
 10
8.683279
 20
-57.628719
 30
0.0
 11
8.683279
 21
-60.149753
 31
0.0
  0
LINE
  5
248
100
AcDbEntity
  8
0
390
0
  6
Continuous
 62
     7
100
AcDbLine
 10
-15.140138
 20
-60.124846
 30
0.0
 11
-15.5
 21
-60.332612
 31
0.0
  0
LINE
  5
249
100
AcDbEntity
  8
0
390
0
  6
Continuous
 62
     7
100
AcDbLine
 10
-15.140138
 20
-60.124846
 30
0.0
 11
-15.140138
 21
-57.653627
 31
0.0
  0
LINE
  5
24A
100
AcDbEntity
  8
0
390
0
  6
Continuous
 62
     7
100
AcDbLine
 10
23.918922
 20
-60.090747
 30
0.0
 11
23.5
 21
-60.332612
 31
0.0
  0
LINE
  5
24B
100
AcDbEntity
  8
0
390
0
  6
Continuous
 62
     7
100
AcDbLine
 10
23.918922
 20
-60.090747
 30
0.0
 11
23.918922
 21
-57.687725
 31
0.0
  0
ELLIPSE
  5
24C
100
AcDbEntity
  8
0
390
0
  6
Continuous
 62
     7
100
AcDbEllipse
 10
0.0
 20
-72.016472
 30
0.0
 11
-33.498723645173285
 21
19.346391109741734
 31
0.0
210
0.0
220
0.0
230
1.0
 40
0.015115
 41
0.9212442471487944
 42
0.9582295171957016
  0
LINE
  5
24D
100
AcDbEntity
  8
0
390
0
  6
Continuous
 62
     7
100
AcDbLine
 10
-19.5
 20
-61.307167
 30
0.0
 11
-19.5
 21
-61.775988
 31
0.0
  0
LINE
  5
24E
100
AcDbEntity
  8
0
390
0
  6
Continuous
 62
     7
100
AcDbLine
 10
-20.493902
 20
-60.718429
 30
0.0
 11
-21.581078
 21
-60.090747
 31
0.0
  0
LINE
  5
24F
100
AcDbEntity
  8
0
390
0
  6
Continuous
 62
     7
100
AcDbLine
 10
25.0
 20
-60.714908
 30
0.0
 11
23.918922
 21
-60.090747
 31
0.0
  0
LINE
  5
250
100
AcDbEntity
  8
0
390
0
  6
Continuous
 62
     7
100
AcDbLine
 10
-13.0
 20
-61.380433
 30
0.0
 11
-13.0
 21
-61.775988
 31
0.0
  0
ELLIPSE
  5
251
100
AcDbEntity
  8
0
390
0
  6
Continuous
 62
     7
100
AcDbEllipse
 10
0.0
 20
-68.263695
 30
0.0
 11
-33.498723645173285
 21
19.346391109741734
 31
0.0
210
0.0
220
0.0
230
1.0
 40
0.015115
 41
1.1105817513900889
 42
1.1810002553536305
  0
LINE
  5
252
100
AcDbEntity
  8
0
390
0
  6
Continuous
 62
     7
100
AcDbLine
 10
19.5
 20
-61.307167
 30
0.0
 11
19.5
 21
-61.775988
 31
0.0
  0
ELLIPSE
  5
253
100
AcDbEntity
  8
0
390
0
  6
Continuous
 62
     7
100
AcDbEllipse
 10
0.0
 20
-72.016472
 30
0.0
 11
33.498723645173285
 21
19.346391109741706
 31
0.0
210
0.0
220
0.0
230
1.0
 40
0.015115
 41
5.3249557899838855
 42
5.3619410600307926
  0
LINE
  5
254
100
AcDbEntity
  8
0
390
0
  6
Continuous
 62
     7
100
AcDbLine
 10
21.581078
 20
-60.090747
 30
0.0
 11
20.493902
 21
-60.718429
 31
0.0
  0
ELLIPSE
  5
255
100
AcDbEntity
  8
0
390
0
  6
Continuous
 62
     7
100
AcDbEllipse
 10
0.0
 20
-49.499811
 30
0.0
 11
33.498723645173285
 21
19.346391109741706
 31
0.0
210
0.0
220
0.0
230
1.0
 40
0.015115
 41
4.0823635600687336
 42
4.1581500034539509
  0
ELLIPSE
  5
256
100
AcDbEntity
  8
0
390
0
  6
Continuous
 62
     7
100
AcDbEllipse
 10
0.0
 20
-49.499811
 30
0.0
 11
-33.498723645173285
 21
19.346391109741763
 31
0.0
210
0.0
220
0.0
230
1.0
 40
0.015115
 41
2.1250353037256362
 42
2.2008217471108549
  0
LINE
  5
257
100
AcDbEntity
  8
0
390
0
  6
Continuous
 62
     7
100
AcDbLine
 10
13.0
 20
-61.380433
 30
0.0
 11
13.0
 21
-61.775988
 31
0.0
  0
ELLIPSE
  5
258
100
AcDbEntity
  8
0
390
0
  6
Continuous
 62
     7
100
AcDbEllipse
 10
0.0
 20
-68.263695
 30
0.0
 11
33.498723645173285
 21
19.346391109741706
 31
0.0
210
0.0
220
0.0
230
1.0
 40
0.015115
 41
5.1021850518259573
 42
5.1726035557894985
  0
LINE
  5
259
100
AcDbEntity
  8
0
390
0
  6
Continuous
 62
     7
100
AcDbLine
 10
6.5
 20
-61.420514
 30
0.0
 11
6.5
 21
-61.775988
 31
0.0
  0
ELLIPSE
  5
25A
100
AcDbEntity
  8
0
390
0
  6
Continuous
 62
     7
100
AcDbEllipse
 10
0.0
 20
-64.510918
 30
0.0
 11
33.498723645173285
 21
19.346391109741706
 31
0.0
210
0.0
220
0.0
230
1.0
 40
0.015115
 41
4.8989280847835719
 42
4.9658559219012401
  0
ELLIPSE
  5
25B
100
AcDbEntity
  8
0
390
0
  6
Continuous
 62
     7
100
AcDbEllipse
 10
0.0
 20
-57.005365
 30
0.0
 11
-33.498723645173285
 21
19.346391109741763
 31
0.0
210
0.0
220
0.0
230
1.0
 40
0.015115
 41
1.708286408172313
 42
1.774794041910541
  0
LINE
  5
25C
100
AcDbEntity
  8
0
390
0
  6
Continuous
 62
     7
100
AcDbLine
 10
0.0
 20
-61.433346
 30
0.0
 11
0.0
 21
-61.775988
 31
0.0
  0
ELLIPSE
  5
25D
100
AcDbEntity
  8
0
390
0
  6
Continuous
 62
     7
100
AcDbEllipse
 10
0.0
 20
-60.758141
 30
0.0
 11
33.498723645173285
 21
19.346391109741706
 31
0.0
210
0.0
220
0.0
230
1.0
 40
0.015115
 41
4.7036596750263096
 42
4.7694384229660658
  0
LINE
  5
25E
100
AcDbEntity
  8
0
390
0
  6
Continuous
 62
     7
100
AcDbLine
 10
-6.5
 20
-61.420514
 30
0.0
 11
-6.5
 21
-61.775988
 31
0.0
  0
ELLIPSE
  5
25F
100
AcDbEntity
  8
0
390
0
  6
Continuous
 62
     7
100
AcDbEllipse
 10
0.0
 20
-57.005365
 30
0.0
 11
33.498723645173285
 21
19.346391109741706
 31
0.0
210
0.0
220
0.0
230
1.0
 40
0.015115
 41
4.5083912652690463
 42
4.5748988990072759
  0
ELLIPSE
  5
260
100
AcDbEntity
  8
0
390
0
  6
Continuous
 62
     7
100
AcDbEllipse
 10
0.0
 20
-53.252588
 30
0.0
 11
33.498723645173285
 21
19.346391109741706
 31
0.0
210
0.0
220
0.0
230
1.0
 40
0.015115
 41
4.3051342982266627
 42
4.3745214887225767
  0
ELLIPSE
  5
261
100
AcDbEntity
  8
0
390
0
  6
Continuous
 62
     7
100
AcDbEllipse
 10
0.0
 20
-60.758141
 30
0.0
 11
-33.498723645173285
 21
19.346391109741734
 31
0.0
210
0.0
220
0.0
230
1.0
 40
0.015115
 41
1.513746884213522
 42
1.5795256321532773
  0
ELLIPSE
  5
262
100
AcDbEntity
  8
0
390
0
  6
Continuous
 62
     7
100
AcDbEllipse
 10
0.0
 20
-64.510918
 30
0.0
 11
-33.498723645173285
 21
19.346391109741734
 31
0.0
210
0.0
220
0.0
230
1.0
 40
0.015115
 41
1.3173293852783483
 42
1.3842572223960155
  0
ELLIPSE
  5
263
100
AcDbEntity
  8
0
390
0
  6
Continuous
 62
     7
100
AcDbEllipse
 10
0.0
 20
-53.252588
 30
0.0
 11
-33.498723645173285
 21
19.346391109741763
 31
0.0
210
0.0
220
0.0
230
1.0
 40
0.015115
 41
1.9086638184570102
 42
1.9780510089529255
  0
LINE
  5
264
100
AcDbEntity
  8
0
390
0
  6
Continuous
 62
     7
100
AcDbLine
 10
-20.668922
 20
-63.31689
 30
0.0
 11
-22.75
 21
-62.115379
 31
0.0
  0
LINE
  5
265
100
AcDbEntity
  8
0
390
0
  6
Continuous
 62
     7
100
AcDbLine
 10
-22.75
 20
-62.115379
 30
0.0
 11
-22.75
 21
-61.63165
 31
0.0
  0
LINE
  5
266
100
AcDbEntity
  8
0
390
0
  6
Continuous
 62
     7
100
AcDbLine
 10
-20.668922
 20
-63.31689
 30
0.0
 11
-20.25
 21
-63.075026
 31
0.0
  0
ELLIPSE
  5
267
100
AcDbEntity
  8
0
390
0
  6
Continuous
 62
     7
100
AcDbEllipse
 10
0.0
 20
-60.773108
 30
0.0
 11
33.498723645173285
 21
19.346391109741734
 31
0.0
210
0.0
220
0.0
230
1.0
 40
0.015115
 41
1.6592347773839549
 42
1.7253433681606989
  0
LINE
  5
268
100
AcDbEntity
  8
0
390
0
  6
Continuous
 62
     7
100
AcDbLine
 10
-5.445487
 20
-63.250836
 30
0.0
 11
-5.75
 21
-63.075026
 31
0.0
  0
LINE
  5
269
100
AcDbEntity
  8
0
390
0
  6
Continuous
 62
     7
100
AcDbLine
 10
-3.25
 20
-61.977476
 30
0.0
 11
-3.25
 21
-61.63165
 31
0.0
  0
ELLIPSE
  5
26A
100
AcDbEntity
  8
0
390
0
  6
Continuous
 62
     7
100
AcDbEllipse
 10
0.0
 20
-57.020331
 30
0.0
 11
33.498723645173285
 21
19.346391109741734
 31
0.0
210
0.0
220
0.0
230
1.0
 40
0.015115
 41
1.8573857297183853
 42
1.9257005118590489
  0
LINE
  5
26B
100
AcDbEntity
  8
0
390
0
  6
Continuous
 62
     7
100
AcDbLine
 10
-11.915028
 20
-63.268422
 30
0.0
 11
-12.25
 21
-63.075026
 31
0.0
  0
LINE
  5
26C
100
AcDbEntity
  8
0
390
0
  6
Continuous
 62
     7
100
AcDbLine
 10
-9.75
 20
-62.003521
 30
0.0
 11
-9.75
 21
-61.63165
 31
0.0
  0
ELLIPSE
  5
26D
100
AcDbEntity
  8
0
390
0
  6
Continuous
 62
     7
100
AcDbEllipse
 10
0.0
 20
-68.278661
 30
0.0
 11
-33.498723645173285
 21
19.346391109741734
 31
0.0
210
0.0
220
0.0
230
1.0
 40
0.015115
 41
4.9488067031548937
 42
5.0164369940249394
  0
LINE
  5
26E
100
AcDbEntity
  8
0
390
0
  6
Continuous
 62
     7
100
AcDbLine
 10
-7.561828
 20
-63.25506
 30
0.0
 11
-7.25
 21
-63.075026
 31
0.0
  0
LINE
  5
26F
100
AcDbEntity
  8
0
390
0
  6
Continuous
 62
     7
100
AcDbLine
 10
24.831078
 20
-63.31689
 30
0.0
 11
25.0
 21
-63.219363
 31
0.0
  0
LINE
  5
270
100
AcDbEntity
  8
0
390
0
  6
Continuous
 62
     7
100
AcDbLine
 10
24.831078
 20
-63.31689
 30
0.0
 11
22.75
 21
-62.115379
 31
0.0
  0
LINE
  5
271
100
AcDbEntity
  8
0
390
0
  6
Continuous
 62
     7
100
AcDbLine
 10
22.75
 20
-62.115379
 30
0.0
 11
22.75
 21
-61.63165
 31
0.0
  0
ELLIPSE
  5
272
100
AcDbEntity
  8
0
390
0
  6
Continuous
 62
     7
100
AcDbEllipse
 10
0.0
 20
-53.267554
 30
0.0
 11
33.498723645173285
 21
19.346391109741734
 31
0.0
210
0.0
220
0.0
230
1.0
 40
0.015115
 41
2.0685155263646884
 42
2.1420258963297196
  0
LINE
  5
273
100
AcDbEntity
  8
0
390
0
  6
Continuous
 62
     7
100
AcDbLine
 10
-18.357649
 20
-63.301549
 30
0.0
 11
-18.75
 21
-63.075026
 31
0.0
  0
LINE
  5
274
100
AcDbEntity
  8
0
390
0
  6
Continuous
 62
     7
100
AcDbLine
 10
-16.25
 20
-62.059048
 30
0.0
 11
-16.25
 21
-61.63165
 31
0.0
  0
ELLIPSE
  5
275
100
AcDbEntity
  8
0
390
0
  6
Continuous
 62
     7
100
AcDbEllipse
 10
0.0
 20
-64.525885
 30
0.0
 11
-33.498723645173314
 21
19.346391109741734
 31
0.0
210
0.0
220
0.0
230
1.0
 40
0.015115
 41
4.7523777576818595
 42
4.8182860416905093
  0
LINE
  5
276
100
AcDbEntity
  8
0
390
0
  6
Continuous
 62
     7
100
AcDbLine
 10
-1.047022
 20
-63.246511
 30
0.0
 11
-0.75
 21
-63.075026
 31
0.0
  0
ELLIPSE
  5
277
100
AcDbEntity
  8
0
390
0
  6
Continuous
 62
     7
100
AcDbEllipse
 10
0.0
 20
-53.267554
 30
0.0
 11
-33.498723645173285
 21
19.346391109741734
 31
0.0
210
0.0
220
0.0
230
1.0
 40
0.015115
 41
4.1411594108498653
 42
4.214669780814897
  0
LINE
  5
278
100
AcDbEntity
  8
0
390
0
  6
Continuous
 62
     7
100
AcDbLine
 10
16.25
 20
-62.059048
 30
0.0
 11
16.25
 21
-61.63165
 31
0.0
  0
LINE
  5
279
100
AcDbEntity
  8
0
390
0
  6
Continuous
 62
     7
100
AcDbLine
 10
18.357649
 20
-63.301549
 30
0.0
 11
18.75
 21
-63.075026
 31
0.0
  0
ELLIPSE
  5
27A
100
AcDbEntity
  8
0
390
0
  6
Continuous
 62
     7
100
AcDbEllipse
 10
0.0
 20
-68.278661
 30
0.0
 11
33.498723645173285
 21
19.346391109741734
 31
0.0
210
0.0
220
0.0
230
1.0
 40
0.015115
 41
1.2667483131546462
 42
1.3343786040246925
  0
LINE
  5
27B
100
AcDbEntity
  8
0
390
0
  6
Continuous
 62
     7
100
AcDbLine
 10
7.561828
 20
-63.25506
 30
0.0
 11
7.25
 21
-63.075026
 31
0.0
  0
LINE
  5
27C
100
AcDbEntity
  8
0
390
0
  6
Continuous
 62
     7
100
AcDbLine
 10
9.75
 20
-62.003521
 30
0.0
 11
9.75
 21
-61.63165
 31
0.0
  0
LINE
  5
27D
100
AcDbEntity
  8
0
390
0
  6
Continuous
 62
     7
100
AcDbLine
 10
-22.75
 20
-62.115379
 30
0.0
 11
-24.831078
 21
-63.31689
 31
0.0
  0
LINE
  5
27E
100
AcDbEntity
  8
0
390
0
  6
Continuous
 62
     7
100
AcDbLine
 10
-24.831078
 20
-63.31689
 30
0.0
 11
-25.0
 21
-63.219363
 31
0.0
  0
ELLIPSE
  5
27F
100
AcDbEntity
  8
0
390
0
  6
Continuous
 62
     7
100
AcDbEllipse
 10
0.0
 20
-60.773108
 30
0.0
 11
-33.498723645173285
 21
19.346391109741734
 31
0.0
210
0.0
220
0.0
230
1.0
 40
0.015115
 41
4.5578419390188873
 42
4.6239505297956311
  0
LINE
  5
280
100
AcDbEntity
  8
0
390
0
  6
Continuous
 62
     7
100
AcDbLine
 10
3.25
 20
-61.977476
 30
0.0
 11
3.25
 21
-61.63165
 31
0.0
  0
LINE
  5
281
100
AcDbEntity
  8
0
390
0
  6
Continuous
 62
     7
100
AcDbLine
 10
5.445487
 20
-63.250836
 30
0.0
 11
5.75
 21
-63.075026
 31
0.0
  0
ELLIPSE
  5
282
100
AcDbEntity
  8
0
390
0
  6
Continuous
 62
     7
100
AcDbEllipse
 10
0.0
 20
-72.031438
 30
0.0
 11
33.498723645173285
 21
19.346391109741734
 31
0.0
210
0.0
220
0.0
230
1.0
 40
0.015115
 41
1.0556185165083432
 42
1.1275997473225341
  0
LINE
  5
283
100
AcDbEntity
  8
0
390
0
  6
Continuous
 62
     7
100
AcDbLine
 10
14.101062
 20
-63.277712
 30
0.0
 11
13.75
 21
-63.075026
 31
0.0
  0
ELLIPSE
  5
284
100
AcDbEntity
  8
0
390
0
  6
Continuous
 62
     7
100
AcDbEllipse
 10
0.0
 20
-64.525885
 30
0.0
 11
33.498723645173285
 21
19.346391109741734
 31
0.0
210
0.0
220
0.0
230
1.0
 40
0.015115
 41
1.4648992654890765
 42
1.530807549497726
  0
LINE
  5
285
100
AcDbEntity
  8
0
390
0
  6
Continuous
 62
     7
100
AcDbLine
 10
1.047022
 20
-63.246511
 30
0.0
 11
0.75
 21
-63.075026
 31
0.0
  0
LINE
  5
286
100
AcDbEntity
  8
0
390
0
  6
Continuous
 62
     7
100
AcDbLine
 10
22.75
 20
-62.115379
 30
0.0
 11
20.668922
 21
-63.31689
 31
0.0
  0
LINE
  5
287
100
AcDbEntity
  8
0
390
0
  6
Continuous
 62
     7
100
AcDbLine
 10
20.668922
 20
-63.31689
 30
0.0
 11
20.25
 21
-63.075026
 31
0.0
  0
ELLIPSE
  5
288
100
AcDbEntity
  8
0
390
0
  6
Continuous
 62
     7
100
AcDbEllipse
 10
0.0
 20
-57.020331
 30
0.0
 11
-33.498723645173314
 21
19.346391109741734
 31
0.0
210
0.0
220
0.0
230
1.0
 40
0.015115
 41
4.3574847953205369
 42
4.4257995774612002
  0
LINE
  5
289
100
AcDbEntity
  8
0
390
0
  6
Continuous
 62
     7
100
AcDbLine
 10
11.915028
 20
-63.268422
 30
0.0
 11
12.25
 21
-63.075026
 31
0.0
  0
ELLIPSE
  5
28A
100
AcDbEntity
  8
0
390
0
  6
Continuous
 62
     7
100
AcDbEllipse
 10
0.0
 20
-72.031438
 30
0.0
 11
-33.498723645173285
 21
19.346391109741734
 31
0.0
210
0.0
220
0.0
230
1.0
 40
0.015115
 41
5.1555855598570517
 42
5.2275667906712426
  0
LINE
  5
28B
100
AcDbEntity
  8
0
390
0
  6
Continuous
 62
     7
100
AcDbLine
 10
-14.101062
 20
-63.277712
 30
0.0
 11
-13.75
 21
-63.075026
 31
0.0
  0
LINE
  5
28C
100
AcDbEntity
  8
0
390
0
  6
Continuous
 62
     7
100
AcDbLine
 10
5.445487
 20
-65.785966
 30
0.0
 11
5.445487
 21
-63.250836
 31
0.0
  0
LINE
  5
28D
100
AcDbEntity
  8
0
390
0
  6
Continuous
 62
     7
100
AcDbLine
 10
5.445487
 20
-65.785966
 30
0.0
 11
5.75
 21
-65.961777
 31
0.0
  0
LINE
  5
28E
100
AcDbEntity
  8
0
390
0
  6
Continuous
 62
     7
100
AcDbLine
 10
14.101062
 20
-63.277712
 30
0.0
 11
14.101062
 21
-65.759091
 31
0.0
  0
LINE
  5
28F
100
AcDbEntity
  8
0
390
0
  6
Continuous
 62
     7
100
AcDbLine
 10
14.101062
 20
-65.759091
 30
0.0
 11
13.75
 21
-65.961777
 31
0.0
  0
LINE
  5
290
100
AcDbEntity
  8
0
390
0
  6
Continuous
 62
     7
100
AcDbLine
 10
1.047022
 20
-63.246511
 30
0.0
 11
1.047022
 21
-65.790291
 31
0.0
  0
LINE
  5
291
100
AcDbEntity
  8
0
390
0
  6
Continuous
 62
     7
100
AcDbLine
 10
1.047022
 20
-65.790291
 30
0.0
 11
0.75
 21
-65.961777
 31
0.0
  0
LINE
  5
292
100
AcDbEntity
  8
0
390
0
  6
Continuous
 62
     7
100
AcDbLine
 10
11.915028
 20
-65.768381
 30
0.0
 11
11.915028
 21
-63.268422
 31
0.0
  0
LINE
  5
293
100
AcDbEntity
  8
0
390
0
  6
Continuous
 62
     7
100
AcDbLine
 10
11.915028
 20
-65.768381
 30
0.0
 11
12.25
 21
-65.961777
 31
0.0
  0
LINE
  5
294
100
AcDbEntity
  8
0
390
0
  6
Continuous
 62
     7
100
AcDbLine
 10
7.561828
 20
-63.25506
 30
0.0
 11
7.561828
 21
-65.781743
 31
0.0
  0
LINE
  5
295
100
AcDbEntity
  8
0
390
0
  6
Continuous
 62
     7
100
AcDbLine
 10
7.561828
 20
-65.781743
 30
0.0
 11
7.25
 21
-65.961777
 31
0.0
  0
LINE
  5
296
100
AcDbEntity
  8
0
390
0
  6
Continuous
 62
     7
100
AcDbLine
 10
-11.915028
 20
-63.268422
 30
0.0
 11
-11.915028
 21
-65.768381
 31
0.0
  0
LINE
  5
297
100
AcDbEntity
  8
0
390
0
  6
Continuous
 62
     7
100
AcDbLine
 10
-11.915028
 20
-65.768381
 30
0.0
 11
-12.25
 21
-65.961777
 31
0.0
  0
LINE
  5
298
100
AcDbEntity
  8
0
390
0
  6
Continuous
 62
     7
100
AcDbLine
 10
-20.668922
 20
-65.719913
 30
0.0
 11
-20.668922
 21
-63.31689
 31
0.0
  0
LINE
  5
299
100
AcDbEntity
  8
0
390
0
  6
Continuous
 62
     7
100
AcDbLine
 10
-20.668922
 20
-65.719913
 30
0.0
 11
-20.25
 21
-65.961777
 31
0.0
  0
LINE
  5
29A
100
AcDbEntity
  8
0
390
0
  6
Continuous
 62
     7
100
AcDbLine
 10
-7.561828
 20
-65.781743
 30
0.0
 11
-7.561828
 21
-63.25506
 31
0.0
  0
LINE
  5
29B
100
AcDbEntity
  8
0
390
0
  6
Continuous
 62
     7
100
AcDbLine
 10
-7.561828
 20
-65.781743
 30
0.0
 11
-7.25
 21
-65.961777
 31
0.0
  0
LINE
  5
29C
100
AcDbEntity
  8
0
390
0
  6
Continuous
 62
     7
100
AcDbLine
 10
-14.101062
 20
-65.759091
 30
0.0
 11
-14.101062
 21
-63.277712
 31
0.0
  0
LINE
  5
29D
100
AcDbEntity
  8
0
390
0
  6
Continuous
 62
     7
100
AcDbLine
 10
-14.101062
 20
-65.759091
 30
0.0
 11
-13.75
 21
-65.961777
 31
0.0
  0
LINE
  5
29E
100
AcDbEntity
  8
0
390
0
  6
Continuous
 62
     7
100
AcDbLine
 10
18.357649
 20
-65.735253
 30
0.0
 11
18.357649
 21
-63.301549
 31
0.0
  0
LINE
  5
29F
100
AcDbEntity
  8
0
390
0
  6
Continuous
 62
     7
100
AcDbLine
 10
18.357649
 20
-65.735253
 30
0.0
 11
18.75
 21
-65.961777
 31
0.0
  0
LINE
  5
2A0
100
AcDbEntity
  8
0
390
0
  6
Continuous
 62
     7
100
AcDbLine
 10
-5.445487
 20
-63.250836
 30
0.0
 11
-5.445487
 21
-65.785966
 31
0.0
  0
LINE
  5
2A1
100
AcDbEntity
  8
0
390
0
  6
Continuous
 62
     7
100
AcDbLine
 10
-5.445487
 20
-65.785966
 30
0.0
 11
-5.75
 21
-65.961777
 31
0.0
  0
LINE
  5
2A2
100
AcDbEntity
  8
0
390
0
  6
Continuous
 62
     7
100
AcDbLine
 10
20.668922
 20
-63.31689
 30
0.0
 11
20.668922
 21
-65.719913
 31
0.0
  0
LINE
  5
2A3
100
AcDbEntity
  8
0
390
0
  6
Continuous
 62
     7
100
AcDbLine
 10
20.668922
 20
-65.719913
 30
0.0
 11
20.25
 21
-65.961777
 31
0.0
  0
LINE
  5
2A4
100
AcDbEntity
  8
0
390
0
  6
Continuous
 62
     7
100
AcDbLine
 10
-1.047022
 20
-65.790291
 30
0.0
 11
-1.047022
 21
-63.246511
 31
0.0
  0
LINE
  5
2A5
100
AcDbEntity
  8
0
390
0
  6
Continuous
 62
     7
100
AcDbLine
 10
-1.047022
 20
-65.790291
 30
0.0
 11
-0.75
 21
-65.961777
 31
0.0
  0
LINE
  5
2A6
100
AcDbEntity
  8
0
390
0
  6
Continuous
 62
     7
100
AcDbLine
 10
-18.357649
 20
-63.301549
 30
0.0
 11
-18.357649
 21
-65.735253
 31
0.0
  0
LINE
  5
2A7
100
AcDbEntity
  8
0
390
0
  6
Continuous
 62
     7
100
AcDbLine
 10
-18.357649
 20
-65.735253
 30
0.0
 11
-18.75
 21
-65.961777
 31
0.0
  0
ELLIPSE
  5
2A8
100
AcDbEntity
  8
0
390
0
  6
Continuous
 62
     7
100
AcDbEllipse
 10
0.0
 20
-57.005365
 30
0.0
 11
33.498723645173285
 21
19.346391109741734
 31
0.0
210
0.0
220
0.0
230
1.0
 40
0.015115
 41
4.1972111700981376
 42
4.2691924009123277
  0
LINE
  5
2A9
100
AcDbEntity
  8
0
390
0
  6
Continuous
 62
     7
100
AcDbLine
 10
-16.25
 20
-66.977755
 30
0.0
 11
-16.25
 21
-67.405153
 31
0.0
  0
ELLIPSE
  5
2AA
100
AcDbEntity
  8
0
390
0
  6
Continuous
 62
     7
100
AcDbEllipse
 10
0.0
 20
-75.769248
 30
0.0
 11
-33.498723645173285
 21
19.346391109741763
 31
0.0
210
0.0
220
0.0
230
1.0
 40
0.015115
 41
0.9995667572600738
 42
1.0730771272251056
  0
ELLIPSE
  5
2AB
100
AcDbEntity
  8
0
390
0
  6
Continuous
 62
     7
100
AcDbEllipse
 10
0.0
 20
-57.005365
 30
0.0
 11
-33.498723645173285
 21
19.346391109741763
 31
0.0
210
0.0
220
0.0
230
1.0
 40
0.015115
 41
2.0139929062672595
 42
2.08597413708145
  0
LINE
  5
2AC
100
AcDbEntity
  8
0
390
0
  6
Continuous
 62
     7
100
AcDbLine
 10
16.25
 20
-66.977755
 30
0.0
 11
16.25
 21
-67.405153
 31
0.0
  0
ELLIPSE
  5
2AD
100
AcDbEntity
  8
0
390
0
  6
Continuous
 62
     7
100
AcDbEllipse
 10
0.0
 20
-72.016472
 30
0.0
 11
-33.498723645173285
 21
19.346391109741763
 31
0.0
210
0.0
220
0.0
230
1.0
 40
0.015115
 41
1.2158921417307449
 42
1.2842069238714078
  0
LINE
  5
2AE
100
AcDbEntity
  8
0
390
0
  6
Continuous
 62
     7
100
AcDbLine
 10
-9.75
 20
-67.033281
 30
0.0
 11
-9.75
 21
-67.405153
 31
0.0
  0
ELLIPSE
  5
2AF
100
AcDbEntity
  8
0
390
0
  6
Continuous
 62
     7
100
AcDbEllipse
 10
0.0
 20
-75.769248
 30
0.0
 11
33.498723645173285
 21
19.346391109741734
 31
0.0
210
0.0
220
0.0
230
1.0
 40
0.015115
 41
5.2101081799544824
 42
5.2836185499195132
  0
LINE
  5
2B0
100
AcDbEntity
  8
0
390
0
  6
Continuous
 62
     7
100
AcDbLine
 10
-22.75
 20
-66.921424
 30
0.0
 11
-20.668922
 21
-65.719913
 31
0.0
  0
LINE
  5
2B1
100
AcDbEntity
  8
0
390
0
  6
Continuous
 62
     7
100
AcDbLine
 10
-22.75
 20
-66.921424
 30
0.0
 11
-22.75
 21
-67.405153
 31
0.0
  0
LINE
  5
2B2
100
AcDbEntity
  8
0
390
0
  6
Continuous
 62
     7
100
AcDbLine
 10
-24.831078
 20
-65.719913
 30
0.0
 11
-22.75
 21
-66.921424
 31
0.0
  0
LINE
  5
2B3
100
AcDbEntity
  8
0
390
0
  6
Continuous
 62
     7
100
AcDbLine
 10
-24.831078
 20
-65.719913
 30
0.0
 11
-25.0
 21
-65.817439
 31
0.0
  0
LINE
  5
2B4
100
AcDbEntity
  8
0
390
0
  6
Continuous
 62
     7
100
AcDbLine
 10
20.668922
 20
-65.719913
 30
0.0
 11
22.75
 21
-66.921424
 31
0.0
  0
ELLIPSE
  5
2B5
100
AcDbEntity
  8
0
390
0
  6
Continuous
 62
     7
100
AcDbEllipse
 10
0.0
 20
-72.016472
 30
0.0
 11
33.498723645173285
 21
19.346391109741734
 31
0.0
210
0.0
220
0.0
230
1.0
 40
0.015115
 41
4.9989783833081782
 42
5.0672931654488425
  0
LINE
  5
2B6
100
AcDbEntity
  8
0
390
0
  6
Continuous
 62
     7
100
AcDbLine
 10
9.75
 20
-67.033281
 30
0.0
 11
9.75
 21
-67.405153
 31
0.0
  0
ELLIPSE
  5
2B7
100
AcDbEntity
  8
0
390
0
  6
Continuous
 62
     7
100
AcDbEllipse
 10
0.0
 20
-68.263695
 30
0.0
 11
-33.498723645173285
 21
19.346391109741763
 31
0.0
210
0.0
220
0.0
230
1.0
 40
0.015115
 41
1.4162492854290945
 42
1.4823578762058383
  0
LINE
  5
2B8
100
AcDbEntity
  8
0
390
0
  6
Continuous
 62
     7
100
AcDbLine
 10
-3.25
 20
-67.059326
 30
0.0
 11
-3.25
 21
-67.405153
 31
0.0
  0
ELLIPSE
  5
2B9
100
AcDbEntity
  8
0
390
0
  6
Continuous
 62
     7
100
AcDbEllipse
 10
0.0
 20
-64.510918
 30
0.0
 11
33.498723645173285
 21
19.346391109741734
 31
0.0
210
0.0
220
0.0
230
1.0
 40
0.015115
 41
4.60649191907887
 42
4.6724002030875198
  0
ELLIPSE
  5
2BA
100
AcDbEntity
  8
0
390
0
  6
Continuous
 62
     7
100
AcDbEllipse
 10
0.0
 20
-60.758141
 30
0.0
 11
33.498723645173285
 21
19.346391109741734
 31
0.0
210
0.0
220
0.0
230
1.0
 40
0.015115
 41
4.40834096674444
 42
4.4759712576144857
  0
ELLIPSE
  5
2BB
100
AcDbEntity
  8
0
390
0
  6
Continuous
 62
     7
100
AcDbEllipse
 10
0.0
 20
-68.263695
 30
0.0
 11
33.498723645173285
 21
19.346391109741734
 31
0.0
210
0.0
220
0.0
230
1.0
 40
0.015115
 41
4.80082743097375
 42
4.866936021750492
  0
LINE
  5
2BC
100
AcDbEntity
  8
0
390
0
  6
Continuous
 62
     7
100
AcDbLine
 10
3.25
 20
-67.059326
 30
0.0
 11
3.25
 21
-67.405153
 31
0.0
  0
ELLIPSE
  5
2BD
100
AcDbEntity
  8
0
390
0
  6
Continuous
 62
     7
100
AcDbEllipse
 10
0.0
 20
-60.758141
 30
0.0
 11
-33.498723645173285
 21
19.346391109741763
 31
0.0
210
0.0
220
0.0
230
1.0
 40
0.015115
 41
1.807214049565101
 42
1.8748443404351469
  0
ELLIPSE
  5
2BE
100
AcDbEntity
  8
0
390
0
  6
Continuous
 62
     7
100
AcDbEllipse
 10
0.0
 20
-64.510918
 30
0.0
 11
-33.498723645173285
 21
19.346391109741763
 31
0.0
210
0.0
220
0.0
230
1.0
 40
0.015115
 41
1.6107851040920673
 42
1.6766933881007167
  0
LINE
  5
2BF
100
AcDbEntity
  8
0
390
0
  6
Continuous
 62
     7
100
AcDbLine
 10
-21.581078
 20
-68.945725
 30
0.0
 11
-20.493902
 21
-68.318043
 31
0.0
  0
LINE
  5
2C0
100
AcDbEntity
  8
0
390
0
  6
Continuous
 62
     7
100
AcDbLine
 10
-19.5
 20
-67.729305
 30
0.0
 11
-19.5
 21
-67.260485
 31
0.0
  0
ELLIPSE
  5
2C1
100
AcDbEntity
  8
0
390
0
  6
Continuous
 62
     7
100
AcDbEllipse
 10
0.0
 20
-57.020001
 30
0.0
 11
33.498723645173314
 21
19.346391109741734
 31
0.0
210
0.0
220
0.0
230
1.0
 40
0.015115
 41
2.183363136394092
 42
2.2203484064409991
  0
LINE
  5
2C2
100
AcDbEntity
  8
0
390
0
  6
Continuous
 62
     7
100
AcDbLine
 10
10.828124
 20
-68.893303
 30
0.0
 11
10.5
 21
-68.703861
 31
0.0
  0
LINE
  5
2C3
100
AcDbEntity
  8
0
390
0
  6
Continuous
 62
     7
100
AcDbLine
 10
13.0
 20
-67.656039
 30
0.0
 11
13.0
 21
-67.260485
 31
0.0
  0
ELLIPSE
  5
2C4
100
AcDbEntity
  8
0
390
0
  6
Continuous
 62
     7
100
AcDbEllipse
 10
0.0
 20
-75.783885
 30
0.0
 11
33.498723645173314
 21
19.346391109741734
 31
0.0
210
0.0
220
0.0
230
1.0
 40
0.015115
 41
1.1635416446368676
 42
1.232928835132783
  0
LINE
  5
2C5
100
AcDbEntity
  8
0
390
0
  6
Continuous
 62
     7
100
AcDbLine
 10
4.301577
 20
-68.877976
 30
0.0
 11
4.0
 21
-68.703861
 31
0.0
  0
LINE
  5
2C6
100
AcDbEntity
  8
0
390
0
  6
Continuous
 62
     7
100
AcDbLine
 10
6.5
 20
-67.615958
 30
0.0
 11
6.5
 21
-67.260485
 31
0.0
  0
ELLIPSE
  5
2C7
100
AcDbEntity
  8
0
390
0
  6
Continuous
 62
     7
100
AcDbEllipse
 10
0.0
 20
-72.031108
 30
0.0
 11
33.498723645173314
 21
19.346391109741734
 31
0.0
210
0.0
220
0.0
230
1.0
 40
0.015115
 41
1.3667986116792523
 42
1.4333062454174803
  0
LINE
  5
2C8
100
AcDbEntity
  8
0
390
0
  6
Continuous
 62
     7
100
AcDbLine
 10
15.140138
 20
-68.911627
 30
0.0
 11
15.5
 21
-68.703861
 31
0.0
  0
ELLIPSE
  5
2C9
100
AcDbEntity
  8
0
390
0
  6
Continuous
 62
     7
100
AcDbEllipse
 10
0.0
 20
-60.772778
 30
0.0
 11
-33.498723645173285
 21
19.346391109741734
 31
0.0
210
0.0
220
0.0
230
1.0
 40
0.015115
 41
4.2521744049798809
 42
4.3225929089434221
  0
LINE
  5
2CA
100
AcDbEntity
  8
0
390
0
  6
Continuous
 62
     7
100
AcDbLine
 10
-17.381604
 20
-68.92418
 30
0.0
 11
-17.0
 21
-68.703861
 31
0.0
  0
ELLIPSE
  5
2CB
100
AcDbEntity
  8
0
390
0
  6
Continuous
 62
     7
100
AcDbEllipse
 10
0.0
 20
-79.536661
 30
0.0
 11
-33.498723645173285
 21
19.346391109741734
 31
0.0
210
0.0
220
0.0
230
1.0
 40
0.015115
 41
5.2666279573154284
 42
5.3424144007006458
  0
LINE
  5
2CC
100
AcDbEntity
  8
0
390
0
  6
Continuous
 62
     7
100
AcDbLine
 10
-15.140138
 20
-68.911627
 30
0.0
 11
-15.5
 21
-68.703861
 31
0.0
  0
LINE
  5
2CD
100
AcDbEntity
  8
0
390
0
  6
Continuous
 62
     7
100
AcDbLine
 10
-13.0
 20
-67.656039
 30
0.0
 11
-13.0
 21
-67.260485
 31
0.0
  0
ELLIPSE
  5
2CE
100
AcDbEntity
  8
0
390
0
  6
Continuous
 62
     7
100
AcDbEllipse
 10
0.0
 20
-60.772778
 30
0.0
 11
33.498723645173314
 21
19.346391109741734
 31
0.0
210
0.0
220
0.0
230
1.0
 40
0.015115
 41
1.960592398236163
 42
2.0310109021997049
  0
LINE
  5
2CF
100
AcDbEntity
  8
0
390
0
  6
Continuous
 62
     7
100
AcDbLine
 10
-8.683279
 20
-68.886719
 30
0.0
 11
-9.0
 21
-68.703861
 31
0.0
  0
LINE
  5
2D0
100
AcDbEntity
  8
0
390
0
  6
Continuous
 62
     7
100
AcDbLine
 10
-6.5
 20
-67.615958
 30
0.0
 11
-6.5
 21
-67.260485
 31
0.0
  0
ELLIPSE
  5
2D1
100
AcDbEntity
  8
0
390
0
  6
Continuous
 62
     7
100
AcDbEllipse
 10
0.0
 20
-64.525554
 30
0.0
 11
33.498723645173314
 21
19.346391109741734
 31
0.0
210
0.0
220
0.0
230
1.0
 40
0.015115
 41
1.7573354311937788
 42
1.8242632683114461
  0
LINE
  5
2D2
100
AcDbEntity
  8
0
390
0
  6
Continuous
 62
     7
100
AcDbLine
 10
0.0
 20
-67.603126
 30
0.0
 11
0.0
 21
-67.260485
 31
0.0
  0
LINE
  5
2D3
100
AcDbEntity
  8
0
390
0
  6
Continuous
 62
     7
100
AcDbLine
 10
2.201999
 20
-68.875911
 30
0.0
 11
2.5
 21
-68.703861
 31
0.0
  0
ELLIPSE
  5
2D4
100
AcDbEntity
  8
0
390
0
  6
Continuous
 62
     7
100
AcDbEllipse
 10
0.0
 20
-68.278331
 30
0.0
 11
-33.498723645173285
 21
19.346391109741734
 31
0.0
210
0.0
220
0.0
230
1.0
 40
0.015115
 41
4.6553395378033136
 42
4.7211182857430707
  0
LINE
  5
2D5
100
AcDbEntity
  8
0
390
0
  6
Continuous
 62
     7
100
AcDbLine
 10
-4.301577
 20
-68.877976
 30
0.0
 11
-4.0
 21
-68.703861
 31
0.0
  0
ELLIPSE
  5
2D6
100
AcDbEntity
  8
0
390
0
  6
Continuous
 62
     7
100
AcDbEllipse
 10
0.0
 20
-72.031108
 30
0.0
 11
-33.498723645173285
 21
19.346391109741734
 31
0.0
210
0.0
220
0.0
230
1.0
 40
0.015115
 41
4.8498790617621053
 42
4.916386695500333
  0
ELLIPSE
  5
2D7
100
AcDbEntity
  8
0
390
0
  6
Continuous
 62
     7
100
AcDbEllipse
 10
0.0
 20
-57.020001
 30
0.0
 11
-33.498723645173285
 21
19.346391109741734
 31
0.0
210
0.0
220
0.0
230
1.0
 40
0.015115
 41
4.0628369007385867
 42
4.0998221707854938
  0
LINE
  5
2D8
100
AcDbEntity
  8
0
390
0
  6
Continuous
 62
     7
100
AcDbLine
 10
19.5
 20
-67.729305
 30
0.0
 11
19.5
 21
-67.260485
 31
0.0
  0
LINE
  5
2D9
100
AcDbEntity
  8
0
390
0
  6
Continuous
 62
     7
100
AcDbLine
 10
21.581078
 20
-68.945725
 30
0.0
 11
22.0
 21
-68.703861
 31
0.0
  0
LINE
  5
2DA
100
AcDbEntity
  8
0
390
0
  6
Continuous
 62
     7
100
AcDbLine
 10
20.493902
 20
-68.318043
 30
0.0
 11
21.581078
 21
-68.945725
 31
0.0
  0
LINE
  5
2DB
100
AcDbEntity
  8
0
390
0
  6
Continuous
 62
     7
100
AcDbLine
 10
-10.828124
 20
-68.893303
 30
0.0
 11
-10.5
 21
-68.703861
 31
0.0
  0
ELLIPSE
  5
2DC
100
AcDbEntity
  8
0
390
0
  6
Continuous
 62
     7
100
AcDbEllipse
 10
0.0
 20
-75.783885
 30
0.0
 11
-33.498723645173285
 21
19.346391109741734
 31
0.0
210
0.0
220
0.0
230
1.0
 40
0.015115
 41
5.0502564720468026
 42
5.1196436625427166
  0
LINE
  5
2DD
100
AcDbEntity
  8
0
390
0
  6
Continuous
 62
     7
100
AcDbLine
 10
17.381604
 20
-68.92418
 30
0.0
 11
17.0
 21
-68.703861
 31
0.0
  0
ELLIPSE
  5
2DE
100
AcDbEntity
  8
0
390
0
  6
Continuous
 62
     7
100
AcDbEllipse
 10
0.0
 20
-79.536661
 30
0.0
 11
33.498723645173314
 21
19.346391109741734
 31
0.0
210
0.0
220
0.0
230
1.0
 40
0.015115
 41
0.9407709064789395
 42
1.0165573498641569
  0
LINE
  5
2DF
100
AcDbEntity
  8
0
390
0
  6
Continuous
 62
     7
100
AcDbLine
 10
8.683279
 20
-68.886719
 30
0.0
 11
9.0
 21
-68.703861
 31
0.0
  0
ELLIPSE
  5
2E0
100
AcDbEntity
  8
0
390
0
  6
Continuous
 62
     7
100
AcDbEllipse
 10
0.0
 20
-64.525554
 30
0.0
 11
-33.498723645173285
 21
19.346391109741734
 31
0.0
210
0.0
220
0.0
230
1.0
 40
0.015115
 41
4.4589220388681401
 42
4.5258498759858083
  0
LINE
  5
2E1
100
AcDbEntity
  8
0
390
0
  6
Continuous
 62
     7
100
AcDbLine
 10
-2.201999
 20
-68.875911
 30
0.0
 11
-2.5
 21
-68.703861
 31
0.0
  0
ELLIPSE
  5
2E2
100
AcDbEntity
  8
0
390
0
  6
Continuous
 62
     7
100
AcDbEllipse
 10
0.0
 20
-68.278331
 30
0.0
 11
33.498723645173314
 21
19.346391109741734
 31
0.0
210
0.0
220
0.0
230
1.0
 40
0.015115
 41
1.562067021436516
 42
1.6278457693762722
  0
LINE
  5
2E3
100
AcDbEntity
  8
0
390
0
  6
Continuous
 62
     7
100
AcDbLine
 10
17.381604
 20
-69.389236
 30
0.0
 11
17.381604
 21
-68.92418
 31
0.0
  0
LINE
  5
2E4
100
AcDbEntity
  8
0
390
0
  6
Continuous
 62
     7
100
AcDbLine
 10
10.828124
 20
-69.389236
 30
0.0
 11
10.828124
 21
-68.893303
 31
0.0
  0
LINE
  5
2E5
100
AcDbEntity
  8
0
390
0
  6
Continuous
 62
     7
100
AcDbLine
 10
21.581078
 20
-68.945725
 30
0.0
 11
21.581078
 21
-69.389236
 31
0.0
  0
LINE
  5
2E6
100
AcDbEntity
  8
0
390
0
  6
Continuous
 62
     7
100
AcDbLine
 10
-8.683279
 20
-69.389236
 30
0.0
 11
-8.683279
 21
-68.886719
 31
0.0
  0
LINE
  5
2E7
100
AcDbEntity
  8
0
390
0
  6
Continuous
 62
     7
100
AcDbLine
 10
2.201999
 20
-68.875911
 30
0.0
 11
2.201999
 21
-69.389236
 31
0.0
  0
LINE
  5
2E8
100
AcDbEntity
  8
0
390
0
  6
Continuous
 62
     7
100
AcDbLine
 10
15.140138
 20
-68.911627
 30
0.0
 11
15.140138
 21
-69.389236
 31
0.0
  0
LINE
  5
2E9
100
AcDbEntity
  8
0
390
0
  6
Continuous
 62
     7
100
AcDbLine
 10
-17.381604
 20
-68.92418
 30
0.0
 11
-17.381604
 21
-69.389236
 31
0.0
  0
LINE
  5
2EA
100
AcDbEntity
  8
0
390
0
  6
Continuous
 62
     7
100
AcDbLine
 10
-4.301577
 20
-68.877976
 30
0.0
 11
-4.301577
 21
-69.389236
 31
0.0
  0
LINE
  5
2EB
100
AcDbEntity
  8
0
390
0
  6
Continuous
 62
     7
100
AcDbLine
 10
8.683279
 20
-68.886719
 30
0.0
 11
8.683279
 21
-69.389236
 31
0.0
  0
LINE
  5
2EC
100
AcDbEntity
  8
0
390
0
  6
Continuous
 62
     7
100
AcDbLine
 10
4.301577
 20
-69.389236
 30
0.0
 11
4.301577
 21
-68.877976
 31
0.0
  0
LINE
  5
2ED
100
AcDbEntity
  8
0
390
0
  6
Continuous
 62
     7
100
AcDbLine
 10
-2.201999
 20
-69.389236
 30
0.0
 11
-2.201999
 21
-68.875911
 31
0.0
  0
LINE
  5
2EE
100
AcDbEntity
  8
0
390
0
  6
Continuous
 62
     7
100
AcDbLine
 10
-10.828124
 20
-68.893303
 30
0.0
 11
-10.828124
 21
-69.389236
 31
0.0
  0
LINE
  5
2EF
100
AcDbEntity
  8
0
390
0
  6
Continuous
 62
     7
100
AcDbLine
 10
-15.140138
 20
-69.389236
 30
0.0
 11
-15.140138
 21
-68.911627
 31
0.0
  0
LINE
  5
2F0
100
AcDbEntity
  8
0
390
0
  6
Continuous
 62
     7
100
AcDbLine
 10
-2.819519
 20
-46.189236
 30
0.0
 11
-2.819519
 21
-46.389236
 31
0.0
  0
LINE
  5
2F1
100
AcDbEntity
  8
0
390
0
  6
Continuous
 62
     7
100
AcDbLine
 10
-4.0495
 20
-46.189236
 30
0.0
 11
-2.819519
 21
-46.189236
 31
0.0
  0
LINE
  5
2F2
100
AcDbEntity
  8
0
390
0
  6
Continuous
 62
     7
100
AcDbLine
 10
-1.657622
 20
-46.189236
 30
0.0
 11
-1.657622
 21
-46.389236
 31
0.0
  0
LINE
  5
2F3
100
AcDbEntity
  8
0
390
0
  6
Continuous
 62
     7
100
AcDbLine
 10
-2.819519
 20
-46.189236
 30
0.0
 11
-1.657622
 21
-46.189236
 31
0.0
  0
LINE
  5
2F4
100
AcDbEntity
  8
0
390
0
  6
Continuous
 62
     7
100
AcDbLine
 10
2.404897
 20
-46.189236
 30
0.0
 11
2.404897
 21
-46.389236
 31
0.0
  0
LINE
  5
2F5
100
AcDbEntity
  8
0
390
0
  6
Continuous
 62
     7
100
AcDbLine
 10
2.404897
 20
-46.189236
 30
0.0
 11
3.240983
 21
-46.189236
 31
0.0
  0
LINE
  5
2F6
100
AcDbEntity
  8
0
390
0
  6
Continuous
 62
     7
100
AcDbLine
 10
-6.35364
 20
-46.189236
 30
0.0
 11
-6.35364
 21
-46.389236
 31
0.0
  0
LINE
  5
2F7
100
AcDbEntity
  8
0
390
0
  6
Continuous
 62
     7
100
AcDbLine
 10
-6.35364
 20
-46.189236
 30
0.0
 11
-5.191998
 21
-46.189236
 31
0.0
  0
LINE
  5
2F8
100
AcDbEntity
  8
0
390
0
  6
Continuous
 62
     7
100
AcDbLine
 10
-5.191998
 20
-46.189236
 30
0.0
 11
-5.191998
 21
-46.389236
 31
0.0
  0
LINE
  5
2F9
100
AcDbEntity
  8
0
390
0
  6
Continuous
 62
     7
100
AcDbLine
 10
3.240983
 20
-46.189236
 30
0.0
 11
4.819075
 21
-46.189236
 31
0.0
  0
LINE
  5
2FA
100
AcDbEntity
  8
0
390
0
  6
Continuous
 62
     7
100
AcDbLine
 10
4.819075
 20
-46.189236
 30
0.0
 11
4.819075
 21
-46.389236
 31
0.0
  0
LINE
  5
2FB
100
AcDbEntity
  8
0
390
0
  6
Continuous
 62
     7
100
AcDbLine
 10
3.240983
 20
-46.189236
 30
0.0
 11
3.240983
 21
-46.389236
 31
0.0
  0
LINE
  5
2FC
100
AcDbEntity
  8
0
390
0
  6
Continuous
 62
     7
100
AcDbLine
 10
1.176561
 20
-46.189236
 30
0.0
 11
1.176561
 21
-46.389236
 31
0.0
  0
LINE
  5
2FD
100
AcDbEntity
  8
0
390
0
  6
Continuous
 62
     7
100
AcDbLine
 10
1.176561
 20
-46.189236
 30
0.0
 11
2.404897
 21
-46.189236
 31
0.0
  0
LINE
  5
2FE
100
AcDbEntity
  8
0
390
0
  6
Continuous
 62
     7
100
AcDbLine
 10
-0.821505
 20
-46.189236
 30
0.0
 11
-0.821505
 21
-46.389236
 31
0.0
  0
LINE
  5
2FF
100
AcDbEntity
  8
0
390
0
  6
Continuous
 62
     7
100
AcDbLine
 10
0.340474
 20
-46.189236
 30
0.0
 11
0.340474
 21
-46.389236
 31
0.0
  0
LINE
  5
300
100
AcDbEntity
  8
0
390
0
  6
Continuous
 62
     7
100
AcDbLine
 10
-0.821505
 20
-46.189236
 30
0.0
 11
0.340474
 21
-46.189236
 31
0.0
  0
LINE
  5
301
100
AcDbEntity
  8
0
390
0
  6
Continuous
 62
     7
100
AcDbLine
 10
-1.657622
 20
-46.189236
 30
0.0
 11
-0.821505
 21
-46.189236
 31
0.0
  0
LINE
  5
302
100
AcDbEntity
  8
0
390
0
  6
Continuous
 62
     7
100
AcDbLine
 10
0.340474
 20
-46.189236
 30
0.0
 11
1.176561
 21
-46.189236
 31
0.0
  0
LINE
  5
303
100
AcDbEntity
  8
0
390
0
  6
Continuous
 62
     7
100
AcDbLine
 10
4.819075
 20
-46.189236
 30
0.0
 11
6.319075
 21
-46.189236
 31
0.0
  0
LINE
  5
304
100
AcDbEntity
  8
0
390
0
  6
Continuous
 62
     7
100
AcDbLine
 10
6.319075
 20
-46.189236
 30
0.0
 11
6.319075
 21
-46.389236
 31
0.0
  0
LINE
  5
305
100
AcDbEntity
  8
0
390
0
  6
Continuous
 62
     7
100
AcDbLine
 10
-4.772084
 20
-46.189236
 30
0.0
 11
-4.772084
 21
-46.389236
 31
0.0
  0
LINE
  5
306
100
AcDbEntity
  8
0
390
0
  6
Continuous
 62
     7
100
AcDbLine
 10
-5.191998
 20
-46.189236
 30
0.0
 11
-4.772084
 21
-46.189236
 31
0.0
  0
LINE
  5
307
100
AcDbEntity
  8
0
390
0
  6
Continuous
 62
     7
100
AcDbLine
 10
-4.0495
 20
-46.189236
 30
0.0
 11
-4.0495
 21
-46.389236
 31
0.0
  0
LINE
  5
308
100
AcDbEntity
  8
0
390
0
  6
Continuous
 62
     7
100
AcDbLine
 10
-4.772084
 20
-46.189236
 30
0.0
 11
-4.0495
 21
-46.189236
 31
0.0
  0
LINE
  5
309
100
AcDbEntity
  8
0
390
0
  6
Continuous
 62
     7
100
AcDbLine
 10
-24.831078
 20
-63.31689
 30
0.0
 11
-24.831078
 21
-65.719913
 31
0.0
  0
LINE
  5
30A
100
AcDbEntity
  8
0
390
0
  6
Continuous
 62
     7
100
AcDbLine
 10
-24.831078
 20
-54.461582
 30
0.0
 11
-24.831078
 21
-52.05856
 31
0.0
  0
LINE
  5
30B
100
AcDbEntity
  8
0
390
0
  6
Continuous
 62
     7
100
AcDbLine
 10
24.831078
 20
-65.719913
 30
0.0
 11
24.831078
 21
-63.31689
 31
0.0
  0
LINE
  5
30C
100
AcDbEntity
  8
0
390
0
  6
Continuous
 62
     7
100
AcDbLine
 10
24.831078
 20
-52.05856
 30
0.0
 11
24.831078
 21
-54.461582
 31
0.0
  0
LINE
  5
30D
100
AcDbEntity
  8
0
390
0
  6
Continuous
 62
     7
100
AcDbLine
 10
-20.493902
 20
-69.389236
 30
0.0
 11
-20.493902
 21
-68.318043
 31
0.0
  0
LINE
  5
30E
100
AcDbEntity
  8
0
390
0
  6
Continuous
 62
     7
100
AcDbLine
 10
-20.493902
 20
-60.718429
 30
0.0
 11
-20.493902
 21
-57.060043
 31
0.0
  0
LINE
  5
30F
100
AcDbEntity
  8
0
390
0
  6
Continuous
 62
     7
100
AcDbLine
 10
20.493902
 20
-60.718429
 30
0.0
 11
20.493902
 21
-57.060043
 31
0.0
  0
LINE
  5
310
100
AcDbEntity
  8
0
390
0
  6
Continuous
 62
     7
100
AcDbLine
 10
-20.493902
 20
-49.460429
 30
0.0
 11
-20.493902
 21
-48.389236
 31
0.0
  0
LINE
  5
311
100
AcDbEntity
  8
0
390
0
  6
Continuous
 62
     7
100
AcDbLine
 10
20.493902
 20
-69.389236
 30
0.0
 11
20.493902
 21
-68.318043
 31
0.0
  0
LINE
  5
312
100
AcDbEntity
  8
0
390
0
  6
Continuous
 62
     7
100
AcDbLine
 10
20.493902
 20
-49.460429
 30
0.0
 11
20.493902
 21
-48.389236
 31
0.0
  0
POINT
  5
313
100
AcDbEntity
  8
0
390
0
 62
     7
100
AcDbPoint
 10
0.0
 20
0.0
 30
0.0
  0
ENDSEC
  0
SECTION
  2
OBJECTS
  0
DICTIONARY
  5
19
100
AcDbDictionary
280
     0
281
     1
  3
ACAD_GROUP
350
1A
  3
ACAD_MLINESTYLE
350
1B
  3
ACAD_LAYOUT
350
1E
  3
ACAD_PLOTSETTINGS
350
22
  3
ACAD_PLOTSTYLENAME
350
1F
  3
ACAD_WIPEOUT_VARS
350
23
  0
DICTIONARY
  5
1A
102
{ACAD_REACTORS
330
19
102
}
100
AcDbDictionary
280
     0
281
     1
  0
DICTIONARY
  5
1B
102
{ACAD_REACTORS
330
19
102
}
100
AcDbDictionary
280
     0
281
     1
  3
Standard
350
1C
  0
MLINESTYLE
  5
1C
102
{ACAD_REACTORS
330
1B
102
}
100
AcDbMlineStyle
  2
Standard
 70
     0
  3

 62
     0
 51
90.0
 52
90.0
 71
     2
 49
0.5
 62
   256
  6
ByLayer
 49
-0.5
 62
   256
  6
ByLayer
  0
ACDBDICTIONARYWDFLT
  5
1F
102
{ACAD_REACTORS
330
19
102
}
100
AcDbDictionary
281
     1
  3
Normal
350
1D
100
AcDbDictionaryWithDefault
340
1D
  0
ACDBPLACEHOLDER
  5
1D
102
{ACAD_REACTORS
330
1F
102
}
  0
LAYOUT
  5
20
102
{ACAD_REACTORS
330
1E
102
}
100
AcDbPlotSettings
  1

  2

  4

  6

 40
0.0
 41
0.0
 42
0.0
 43
0.0
 44
0.0
 45
0.0
 46
0.0
 47
0.0
 48
0.0
 49
0.0
140
0.0
141
0.0
142
1.0
143
1.0
 70
  1024
 72
     0
 73
     0
 74
     0
  7

 75
     0
147
1.0
148
0.0
149
0.0
100
AcDbLayout
  1
Model
 70
     0
 71
     1
 10
0.0
 20
0.0
 11
0.0
 21
0.0
 12
0.0
 22
0.0
 32
0.0
 14
0.0
 24
0.0
 34
0.0
 15
0.0
 25
0.0
 35
0.0
146
0.0
 13
0.0
 23
0.0
 33
0.0
 16
0.0
 26
0.0
 36
0.0
 17
0.0
 27
0.0
 37
0.0
 76
     0
330
A
331
0
345
0
346
0
  0
LAYOUT
  5
21
102
{ACAD_REACTORS
330
1E
102
}
100
AcDbPlotSettings
  1

  2

  4

  6

 40
0.0
 41
0.0
 42
0.0
 43
0.0
 44
0.0
 45
0.0
 46
0.0
 47
0.0
 48
0.0
 49
0.0
140
0.0
141
0.0
142
1.0
143
1.0
 70
     0
 72
     0
 73
     0
 74
     0
  7

 75
     0
147
1.0
148
0.0
149
0.0
100
AcDbLayout
  1
Layout1
 70
     0
 71
     2
 10
0.0
 20
0.0
 11
0.0
 21
0.0
 12
0.0
 22
0.0
 32
0.0
 14
0.0
 24
0.0
 34
0.0
 15
0.0
 25
0.0
 35
0.0
146
0.0
 13
0.0
 23
0.0
 33
0.0
 16
0.0
 26
0.0
 36
0.0
 17
0.0
 27
0.0
 37
0.0
 76
     0
330
B
331
0
345
0
346
0
  0
DICTIONARY
  5
1E
102
{ACAD_REACTORS
330
19
102
}
100
AcDbDictionary
280
     0
281
     1
  3
Layout1
350
21
  3
Model
350
20
  0
DICTIONARY
  5
22
102
{ACAD_REACTORS
330
19
102
}
100
AcDbDictionary
280
     0
281
     1
  0
WIPEOUTVARIABLES
  5
23
100
AcDbWipeoutVariables
 70
     1
  0
ENDSEC
  0
EOF
