  0
SECTION
  2
HEADER
  9
$ACADVER
  1
AC1015
  9
$ACADMAINTVER
 70
     6
  9
$DWGCODEPAGE
  3
DOS932
  9
$INSBASE
 10
0.0
 20
0.0
 30
0.0
  9
$EXTMIN
 10
-27.0
 20
-73.246786
 30
0.0
  9
$EXTMAX
 10
327.186529
 20
261.639272
 30
9.906
  9
$LIMMIN
 10
-27.0
 20
-73.246786
  9
$LIMMAX
 10
327.186529
 20
261.639272
  9
$ORTHOMODE
 70
     0
  9
$REGENMODE
 70
     1
  9
$FILLMODE
 70
     1
  9
$QTEXTMODE
 70
     0
  9
$MIRRTEXT
 70
     1
  9
$LTSCALE
 40
10.0
  9
$ATTMODE
 70
     1
  9
$TEXTSIZE
 40
0.2
  9
$TRACEWID
 40
0.05
  9
$TEXTSTYLE
  7
Standard
  9
$CLAYER
  8
0
  9
$CELTYPE
  6
Continuous
  9
$CECOLOR
 62
   256
  9
$CELTSCALE
 40
1.0
  9
$DISPSILH
 70
     0
  9
$DIMSCALE
 40
1.0
  9
$DIMASZ
 40
1.40208
  9
$DIMEXO
 40
1.40208
  9
$DIMDLI
 40
0.38
  9
$DIMRND
 40
0.0
  9
$DIMDLE
 40
0.0
  9
$DIMEXE
 40
1.05156
  9
$DIMTP
 40
0.0
  9
$DIMTM
 40
0.0
  9
$DIMTXT
 40
3.5052
  9
$DIMCEN
 40
0.09
  9
$DIMTSZ
 40
0.0
  9
$DIMTOL
 70
     0
  9
$DIMLIM
 70
     0
  9
$DIMTIH
 70
     0
  9
$DIMTOH
 70
     0
  9
$DIMSE1
 70
     0
  9
$DIMSE2
 70
     0
  9
$DIMTAD
 70
     1
  9
$DIMZIN
 70
     0
  9
$DIMBLK
  1

  9
$DIMASO
 70
     1
  9
$DIMSHO
 70
     1
  9
$DIMPOST
  1

  9
$DIMAPOST
  1

  9
$DIMALT
 70
     0
  9
$DIMALTD
 70
     2
  9
$DIMALTF
 40
25.4
  9
$DIMLFAC
 40
1.0
  9
$DIMTOFL
 70
     0
  9
$DIMTVP
 40
0.0
  9
$DIMTIX
 70
     0
  9
$DIMSOXD
 70
     0
  9
$DIMSAH
 70
     0
  9
$DIMBLK1
  1

  9
$DIMBLK2
  1

  9
$DIMSTYLE
  2
Standard
  9
$DIMCLRD
 70
     7
  9
$DIMCLRE
 70
     7
  9
$DIMCLRT
 70
     7
  9
$DIMTFAC
 40
0.5
  9
$DIMGAP
 40
1.7526
  9
$DIMJUST
 70
     0
  9
$DIMSD1
 70
     0
  9
$DIMSD2
 70
     0
  9
$DIMTOLJ
 70
     1
  9
$DIMTZIN
 70
     0
  9
$DIMALTZ
 70
     0
  9
$DIMALTTZ
 70
     0
  9
$DIMUPT
 70
     0
  9
$DIMDEC
 70
     2
  9
$DIMTDEC
 70
     4
  9
$DIMALTU
 70
     2
  9
$DIMALTTD
 70
     2
  9
$DIMTXSTY
  7
Standard
  9
$DIMAUNIT
 70
     0
  9
$DIMADEC
 70
     0
  9
$DIMALTRND
 40
0.0
  9
$DIMAZIN
 70
     0
  9
$DIMDSEP
 70
     0
  9
$DIMATFIT
 70
     3
  9
$DIMFRAC
 70
     0
  9
$DIMLDRBLK
  1

  9
$DIMLUNIT
 70
     2
  9
$DIMLWD
 70
     0
  9
$DIMLWE
 70
     0
  9
$DIMTMOVE
 70
     0
  9
$LUNITS
 70
     2
  9
$LUPREC
 70
     4
  9
$SKETCHINC
 40
0.1
  9
$FILLETRAD
 40
0.0
  9
$AUNITS
 70
     0
  9
$AUPREC
 70
     0
  9
$MENU
  1
acad
  9
$ELEVATION
 40
0.0
  9
$PELEVATION
 40
0.0
  9
$THICKNESS
 40
0.0
  9
$LIMCHECK
 70
     0
  9
$CHAMFERA
 40
0.0
  9
$CHAMFERB
 40
0.0
  9
$CHAMFERC
 40
0.0
  9
$CHAMFERD
 40
0.0
  9
$SKPOLY
 70
     0
  9
$TDCREATE
 40
2459781.426041667
  9
$TDUCREATE
 40
0.000000000
  9
$TDUPDATE
 40
2459781.050937500
  9
$TDUUPDATE
 40
0.000000000
  9
$TDINDWG
 40
0.0000000000
  9
$TDUSRTIMER
 40
0.0000000000
  9
$USRTIMER
 70
     1
  9
$ANGBASE
 50
0.0
  9
$ANGDIR
 70
     0
  9
$PDMODE
 70
     0
  9
$PDSIZE
 40
0.0
  9
$PLINEWID
 40
0.0
  9
$SPLFRAME
 70
     0
  9
$SPLINETYPE
 70
     6
  9
$SPLINESEGS
 70
     8
  9
$HANDSEED
  5
2FE
  9
$SURFTAB1
 70
     6
  9
$SURFTAB2
 70
     6
  9
$SURFTYPE
 70
     6
  9
$SURFU
 70
     6
  9
$SURFV
 70
     6
  9
$UCSBASE
  2

  9
$UCSNAME
  2

  9
$UCSORG
 10
0.0
 20
0.0
 30
0.0
  9
$UCSXDIR
 10
1.0
 20
0.0
 30
0.0
  9
$UCSYDIR
 10
0.0
 20
1.0
 30
0.0
  9
$UCSORTHOREF
  2

  9
$UCSORTHOVIEW
 70
     0
  9
$UCSORGTOP
 10
0.0
 20
0.0
 30
0.0
  9
$UCSORGBOTTOM
 10
0.0
 20
0.0
 30
0.0
  9
$UCSORGLEFT
 10
0.0
 20
0.0
 30
0.0
  9
$UCSORGRIGHT
 10
0.0
 20
0.0
 30
0.0
  9
$UCSORGFRONT
 10
0.0
 20
0.0
 30
0.0
  9
$UCSORGBACK
 10
0.0
 20
0.0
 30
0.0
  9
$PUCSBASE
  2

  9
$PUCSNAME
  2

  9
$PUCSORG
 10
0.0
 20
0.0
 30
0.0
  9
$PUCSXDIR
 10
1.0
 20
0.0
 30
0.0
  9
$PUCSYDIR
 10
0.0
 20
1.0
 30
0.0
  9
$PUCSORTHOREF
  2

  9
$PUCSORTHOVIEW
 70
     0
  9
$PUCSORGTOP
 10
0.0
 20
0.0
 30
0.0
  9
$PUCSORGBOTTOM
 10
0.0
 20
0.0
 30
0.0
  9
$PUCSORGLEFT
 10
0.0
 20
0.0
 30
0.0
  9
$PUCSORGRIGHT
 10
0.0
 20
0.0
 30
0.0
  9
$PUCSORGFRONT
 10
0.0
 20
0.0
 30
0.0
  9
$PUCSORGBACK
 10
0.0
 20
0.0
 30
0.0
  9
$USERI1
 70
     0
  9
$USERI2
 70
     0
  9
$USERI3
 70
     0
  9
$USERI4
 70
     0
  9
$USERI5
 70
     0
  9
$USERR1
 40
0.0
  9
$USERR2
 40
0.0
  9
$USERR3
 40
0.0
  9
$USERR4
 40
0.0
  9
$USERR5
 40
0.0
  9
$WORLDVIEW
 70
     1
  9
$SHADEDGE
 70
     3
  9
$SHADEDIF
 70
    70
  9
$TILEMODE
 70
     1
  9
$MAXACTVP
 70
    16
  9
$PINSBASE
 10
0.0
 20
0.0
 30
0.0
  9
$PLIMCHECK
 70
     0
  9
$PEXTMIN
 10
1.000000E+20
 20
1.000000E+20
 30
1.000000E+20
  9
$PEXTMAX
 10
-1.000000E+20
 20
-1.000000E+20
 30
-1.000000E+20
  9
$PLIMMIN
 10
0.0
 20
0.0
  9
$PLIMMAX
 10
12.0
 20
9.0
  9
$UNITMODE
 70
     0
  9
$VISRETAIN
 70
     0
  9
$PLINEGEN
 70
     1
  9
$PSLTSCALE
 70
     0
  9
$TREEDEPTH
 70
  3020
  9
$CMLSTYLE
  2
Standard
  9
$CMLJUST
 70
     0
  9
$CMLSCALE
 40
1.0
  9
$PROXYGRAPHICS
 70
     0
  9
$MEASUREMENT
 70
     0
  9
$CELWEIGHT
370
     0
  9
$ENDCAPS
280
     0
  9
$JOINSTYLE
280
     0
  9
$LWDISPLAY
290
     0
  9
$INSUNITS
 70
     0
  9
$HYPERLINKBASE
  1

  9
$STYLESHEET
  1

  9
$XEDIT
290
     1
  9
$CEPSNTYPE
380
     0
  9
$PSTYLEMODE
290
     1
  9
$FINGERPRINTGUID
  2

  9
$VERSIONGUID
  2

  9
$EXTNAMES
290
     1
  9
$PSVPSCALE
 40
0.0
  0
ENDSEC
  0
SECTION
  2
CLASSES
  0
CLASS
  1
LWPOLYLINE
  2
AcDbPolyline
  3
AutoCAD 2000
 90
        0
280
     0
281
     1
  0
CLASS
  1
IMAGE
  2
AcDbRasterImage
  3
ISM
 90
      127
280
     0
281
     1
  0
CLASS
  1
OLE2FRAME
  2
AcDbOle2Frame
  3
AutoCAD 2000
 90
        0
280
     0
281
     1
  0
CLASS
  1
HATCH
  2
AcDbHatch
  3
AutoCAD 2000
 90
        0
280
     0
281
     1
  0
CLASS
  1
DICTIONARYVAR
  2
AcDbDictionaryVar
  3
AutoCAD 2000
 90
        0
280
     0
281
     0
  0
CLASS
  1
RASTERVARIABLES
  2
AcDbRasterVariables
  3
ISM
 90
        0
280
     0
281
     0
  0
CLASS
  1
IMAGEDEF
  2
AcDbRasterImageDef
  3
ISM
 90
        0
280
     0
281
     0
  0
CLASS
  1
IMAGEDEF_REACTOR
  2
AcDbRasterImageDefReactor
  3
ISM
 90
        1
280
     0
281
     0
  0
CLASS
  1
IDBUFFER
  2
AcDbIdBuffer
  3
AutoCAD 2000
 90
        0
280
     0
281
     0
  0
CLASS
  1
SPATIAL_FILTER
  2
AcDbSpatialFilter
  3
AutoCAD 2000
 90
        0
280
     0
281
     0
  0
CLASS
  1
XRECORD
  2
AcDbXrecord
  3
AutoCAD 2000
 90
        0
280
     0
281
     0
  0
CLASS
  1
SORTENTSTABLE
  2
AcDbSortentsTable
  3
AutoCAD 2000
 90
        0
280
     0
281
     0
  0
CLASS
  1
LAYER_INDEX
  2
AcDbLayerIndex
  3
AutoCAD 2000
 90
        0
280
     0
281
     0
  0
CLASS
  1
SPATIAL_INDEX
  2
AcDbSpatialIndex
  3
AutoCAD 2000
 90
        0
280
     0
281
     0
  0
CLASS
  1
OBJECT_PTR
  2
CAseDLPNTableRecord
  3
"ASE-LPNTableRecord"
 90
        1
280
     0
281
     0
  0
CLASS
  1
LAYOUT
  2
AcDbLayout
  3
AutoCAD 2000
 90
        0
280
     0
281
     0
  0
CLASS
  1
PLOTSETTINGS
  2
AcDbPlotSettings
  3
AutoCAD 2000
 90
        0
280
     0
281
     0
  0
CLASS
  1
ACDBDICTIONARYWDFLT
  2
AcDbDictionaryWithDefault
  3
AutoCAD 2000
 90
        0
280
     0
281
     0
  0
CLASS
  1
ACDBPLACEHOLDER
  2
AcDbPlaceHolder
  3
AutoCAD 2000
 90
        0
280
     0
281
     0
  0
CLASS
  1
VBA_PROJECT
  2
AcDbVbaProject
  3
acadvba
 90
        0
280
     0
281
     0
  0
CLASS
  1
WIPEOUT
  2
AcDbWipeout
  3
WipeOut|AutoCAD Express Tool|expresstools@autodesk.com
 90
      127
280
     0
281
     1
  0
CLASS
  1
WIPEOUTVARIABLES
  2
AcDbWipeoutVariables
  3
WipeOut|AutoCAD Express Tool|expresstools@autodesk.com
 90
        0
280
     0
281
     0
  0
CLASS
  1
RTEXT
  2
RText
  3
RText|AutoCAD Express Tool|expresstools@autodesk.com
 90
        0
280
     0
281
     1
  0
CLASS
  1
ARCALIGNEDTEXT
  2
AcDbArcAlignedText
  3
ATEXT|AutoCAD Express Tool|expresstools@autodesk.com
 90
        0
280
     0
281
     1
  0
ENDSEC
  0
SECTION
  2
TABLES
  0
TABLE
  2
VPORT
  5
7
100
AcDbSymbolTable
 70
     1
  0
VPORT
  5
15
100
AcDbSymbolTableRecord
100
AcDbViewportTableRecord
  2
*ACTIVE
 70
     0
 10
0.0
 20
0.0
 11
1.0
 21
1.0
 12
6.591288
 22
4.579184
 13
0.0
 23
0.0
 14
1.0
 24
1.0
 15
0.0
 25
0.0
 16
0.0
 26
0.0
 36
1.0
 17
0.0
 27
0.0
 37
0.0
 40
9.158369
 41
0.688564
 42
50.0
 43
0.0
 44
0.0
 50
0.0
 51
0.0
 71
     0
 72
   100
 73
     1
 74
     1
 75
     0
 76
     0
 77
     0
 78
     0
281
     0
 65
     0
110
0.0
120
0.0
130
0.0
111
1.0
121
0.0
131
0.0
112
0.0
122
1.0
132
0.0
345
0
346
0
 79
     0
146
0.0
  0
ENDTAB
  0
TABLE
  2
LTYPE
  5
4
100
AcDbSymbolTable
 70
     3
  0
LTYPE
  5
11
100
AcDbSymbolTableRecord
100
AcDbLinetypeTableRecord
  2
ByBlock
 70
    64
  3

 72
    65
 73
     0
 40
0.0
  0
LTYPE
  5
12
100
AcDbSymbolTableRecord
100
AcDbLinetypeTableRecord
  2
ByLayer
 70
    64
  3

 72
    65
 73
     0
 40
0.0
  0
LTYPE
  5
13
100
AcDbSymbolTableRecord
100
AcDbLinetypeTableRecord
  2
Continuous
 70
    64
  3
Solid line
 72
    65
 73
     0
 40
0.0
  0
ENDTAB
  0
TABLE
  2
LAYER
  5
2
100
AcDbSymbolTable
 70
     1
  0
LAYER
  5
14
100
AcDbSymbolTableRecord
100
AcDbLayerTableRecord
  2
0
 70
     0
 62
     7
  6
Continuous
290
     1
370
    -3
390
1D
  0
ENDTAB
  0
TABLE
  2
STYLE
  5
3
100
AcDbSymbolTable
 70
     1
  0
STYLE
  5
17
100
AcDbSymbolTableRecord
100
AcDbTextStyleTableRecord
  2
Standard
 70
     0
 40
0.0
 41
1.0
 50
0.0
 71
     0
 42
0.0
  3
FG教科書体NT-M
  4

1001
ACAD
1000
FG教科書体NT-M
1071
        0
  0
ENDTAB
  0
TABLE
  2
VIEW
  5
5
100
AcDbSymbolTable
 70
     0
  0
ENDTAB
  0
TABLE
  2
UCS
  5
6
100
AcDbSymbolTable
 70
     0
  0
ENDTAB
  0
TABLE
  2
APPID
  5
8
100
AcDbSymbolTable
 70
     2
  0
APPID
  5
16
100
AcDbSymbolTableRecord
100
AcDbRegAppTableRecord
  2
ACAD
 70
     0
  0
APPID
  5
26
100
AcDbSymbolTableRecord
100
AcDbRegAppTableRecord
  2
TOPsolid_Design
 70
     0
  0
ENDTAB
  0
TABLE
  2
DIMSTYLE
  5
9
100
AcDbSymbolTable
 70
     1
100
AcDbDimStyleTable
 71
     0
  0
DIMSTYLE
105
18
100
AcDbSymbolTableRecord
100
AcDbDimStyleTableRecord
  2
Standard
 70
     0
  3

  4

 40
1.0
 41
1.40208
 42
1.40208
 43
0.38
 44
1.05156
 45
0.0
 46
0.0
 47
0.0
 48
0.0
 71
     0
 72
     0
 73
     0
 74
     0
 75
     0
 76
     0
 77
     1
 78
     0
 79
     0
140
3.5052
141
0.09
142
0.0
143
25.4
144
1.0
145
0.0
146
0.5
147
1.7526
148
0.0
170
     0
171
     2
172
     0
173
     0
174
     0
175
     0
176
     7
177
     7
178
     7
179
     0
271
     2
272
     4
273
     2
274
     2
275
     0
276
     0
277
     2
278
    46
279
     0
280
     0
281
     0
282
     0
283
     1
284
     0
285
     0
286
     0
288
     0
289
     3
340
17
341
0
342
0
343
0
344
0
371
    -2
372
    -2
  0
ENDTAB
  0
TABLE
  2
BLOCK_RECORD
  5
1
100
AcDbSymbolTable
 70
     0
  0
BLOCK_RECORD
  5
A
100
AcDbSymbolTableRecord
100
AcDbBlockTableRecord
  2
*MODEL_SPACE
340
20
  0
BLOCK_RECORD
  5
B
100
AcDbSymbolTableRecord
100
AcDbBlockTableRecord
  2
*PAPER_SPACE
340
21
  0
ENDTAB
  0
ENDSEC
  0
SECTION
  2
BLOCKS
  0
BLOCK
  5
D
100
AcDbEntity
  8
0
390
0
100
AcDbBlockBegin
  2
*MODEL_SPACE
 70
     0
 10
0.0
 20
0.0
 30
0.0
  3
*MODEL_SPACE
  1

  0
ENDBLK
  5
E
100
AcDbEntity
  8
0
390
0
100
AcDbBlockEnd
  0
BLOCK
  5
F
100
AcDbEntity
 67
     1
  8
0
390
0
100
AcDbBlockBegin
  2
*PAPER_SPACE
 70
     0
 10
0.0
 20
0.0
 30
0.0
  3
*PAPER_SPACE
  1

  0
ENDBLK
  5
10
100
AcDbEntity
 67
     1
  8
0
390
0
100
AcDbBlockEnd
  0
ENDSEC
  0
SECTION
  2
ENTITIES
  0
LINE
  5
27
100
AcDbEntity
  8
0
390
0
  6
Continuous
 62
     7
100
AcDbLine
 10
-2.819519
 20
8.0
 30
0.0
 11
-1.657622
 21
8.0
 31
0.0
  0
LINE
  5
28
100
AcDbEntity
  8
0
390
0
  6
Continuous
 62
     7
100
AcDbLine
 10
-4.636246
 20
12.496707
 30
0.0
 11
-2.819519
 21
8.0
 31
0.0
  0
LINE
  5
29
100
AcDbEntity
  8
0
390
0
  6
Continuous
 62
     7
100
AcDbLine
 10
-3.474604
 20
12.496707
 30
0.0
 11
-4.636246
 21
12.496707
 31
0.0
  0
LINE
  5
2A
100
AcDbEntity
  8
0
390
0
  6
Continuous
 62
     7
100
AcDbLine
 10
-1.657622
 20
8.0
 30
0.0
 11
-3.474604
 21
12.496707
 31
0.0
  0
LINE
  5
2B
100
AcDbEntity
  8
0
390
0
  6
Continuous
 62
     7
100
AcDbLine
 10
-0.821505
 20
8.0
 30
0.0
 11
0.340474
 21
8.0
 31
0.0
  0
LINE
  5
2C
100
AcDbEntity
  8
0
390
0
  6
Continuous
 62
     7
100
AcDbLine
 10
-2.638488
 20
12.496707
 30
0.0
 11
-0.821505
 21
8.0
 31
0.0
  0
LINE
  5
2D
100
AcDbEntity
  8
0
390
0
  6
Continuous
 62
     7
100
AcDbLine
 10
-1.476508
 20
12.496707
 30
0.0
 11
-2.638488
 21
12.496707
 31
0.0
  0
LINE
  5
2E
100
AcDbEntity
  8
0
390
0
  6
Continuous
 62
     7
100
AcDbLine
 10
0.340474
 20
8.0
 30
0.0
 11
-1.476508
 21
12.496707
 31
0.0
  0
LINE
  5
2F
100
AcDbEntity
  8
0
390
0
  6
Continuous
 62
     7
100
AcDbLine
 10
1.176561
 20
8.0
 30
0.0
 11
2.404897
 21
8.0
 31
0.0
  0
LINE
  5
30
100
AcDbEntity
  8
0
390
0
  6
Continuous
 62
     7
100
AcDbLine
 10
0.250797
 20
10.290946
 30
0.0
 11
1.176561
 21
8.0
 31
0.0
  0
LINE
  5
31
100
AcDbEntity
  8
0
390
0
  6
Continuous
 62
     7
100
AcDbLine
 10
0.831794
 20
11.729217
 30
0.0
 11
0.250797
 21
10.290946
 31
0.0
  0
LINE
  5
32
100
AcDbEntity
  8
0
390
0
  6
Continuous
 62
     7
100
AcDbLine
 10
1.790601
 20
9.356196
 30
0.0
 11
0.831794
 21
11.729217
 31
0.0
  0
LINE
  5
33
100
AcDbEntity
  8
0
390
0
  6
Continuous
 62
     7
100
AcDbLine
 10
3.059599
 20
12.496707
 30
0.0
 11
1.790601
 21
9.356196
 31
0.0
  0
LINE
  5
34
100
AcDbEntity
  8
0
390
0
  6
Continuous
 62
     7
100
AcDbLine
 10
4.221594
 20
12.496707
 30
0.0
 11
3.059599
 21
12.496707
 31
0.0
  0
LINE
  5
35
100
AcDbEntity
  8
0
390
0
  6
Continuous
 62
     7
100
AcDbLine
 10
2.404897
 20
8.0
 30
0.0
 11
4.221594
 21
12.496707
 31
0.0
  0
LINE
  5
36
100
AcDbEntity
  8
0
390
0
  6
Continuous
 62
     7
100
AcDbLine
 10
3.240983
 20
8.0
 30
0.0
 11
4.819075
 21
8.0
 31
0.0
  0
LINE
  5
37
100
AcDbEntity
  8
0
390
0
  6
Continuous
 62
     7
100
AcDbLine
 10
3.505179
 20
8.653906
 30
0.0
 11
3.240983
 21
8.0
 31
0.0
  0
LINE
  5
38
100
AcDbEntity
  8
0
390
0
  6
Continuous
 62
     7
100
AcDbLine
 10
4.143902
 20
8.653906
 30
0.0
 11
3.505179
 21
8.653906
 31
0.0
  0
ARC
  5
39
100
AcDbEntity
  8
0
390
0
  6
Continuous
 62
     7
100
AcDbCircle
 10
4.143902
 20
9.653906
 30
0.0
 40
1.0
210
0.0
220
0.0
230
1.0
100
AcDbArc
 50
270.0
 51
360.0
  0
LINE
  5
3A
100
AcDbEntity
  8
0
390
0
  6
Continuous
 62
     7
100
AcDbLine
 10
5.143902
 20
12.496707
 30
0.0
 11
5.143902
 21
9.653906
 31
0.0
  0
LINE
  5
3B
100
AcDbEntity
  8
0
390
0
  6
Continuous
 62
     7
100
AcDbLine
 10
6.319075
 20
12.496707
 30
0.0
 11
5.143902
 21
12.496707
 31
0.0
  0
LINE
  5
3C
100
AcDbEntity
  8
0
390
0
  6
Continuous
 62
     7
100
AcDbLine
 10
6.319075
 20
9.5
 30
0.0
 11
6.319075
 21
12.496707
 31
0.0
  0
ARC
  5
3D
100
AcDbEntity
  8
0
390
0
  6
Continuous
 62
     7
100
AcDbCircle
 10
4.819075
 20
9.5
 30
0.0
 40
1.5
210
0.0
220
0.0
230
1.0
100
AcDbArc
 50
270.0
 51
360.0
  0
LINE
  5
3E
100
AcDbEntity
  8
0
390
0
  6
Continuous
 62
     7
100
AcDbLine
 10
-4.772085
 20
9.038567
 30
0.0
 11
-4.049501
 21
9.038567
 31
0.0
  0
LINE
  5
3F
100
AcDbEntity
  8
0
390
0
  6
Continuous
 62
     7
100
AcDbLine
 10
-5.191998
 20
8.0
 30
0.0
 11
-4.772085
 21
9.038567
 31
0.0
  0
LINE
  5
40
100
AcDbEntity
  8
0
390
0
  6
Continuous
 62
     7
100
AcDbLine
 10
-6.35364
 20
8.0
 30
0.0
 11
-5.191998
 21
8.0
 31
0.0
  0
LINE
  5
41
100
AcDbEntity
  8
0
390
0
  6
Continuous
 62
     7
100
AcDbLine
 10
-4.991636
 20
11.371512
 30
0.0
 11
-6.35364
 21
8.0
 31
0.0
  0
LINE
  5
42
100
AcDbEntity
  8
0
390
0
  6
Continuous
 62
     7
100
AcDbLine
 10
-4.049501
 20
9.038567
 30
0.0
 11
-4.991636
 21
11.371512
 31
0.0
  0
LINE
  5
43
100
AcDbEntity
  8
0
390
0
  6
Continuous
 62
     7
100
AcDbLine
 10
-22.0
 20
0.0
 30
0.0
 11
-27.0
 21
0.0
 31
0.0
  0
LINE
  5
44
100
AcDbEntity
  8
0
390
0
  6
Continuous
 62
     7
100
AcDbLine
 10
-27.0
 20
0.0
 30
0.0
 11
-27.0
 21
25.5
 31
0.0
  0
LINE
  5
45
100
AcDbEntity
  8
0
390
0
  6
Continuous
 62
     7
100
AcDbLine
 10
-22.0
 20
25.5
 30
0.0
 11
-27.0
 21
25.5
 31
0.0
  0
LINE
  5
46
100
AcDbEntity
  8
0
390
0
  6
Continuous
 62
     7
100
AcDbLine
 10
-22.0
 20
25.5
 30
0.0
 11
-22.0
 21
0.0
 31
0.0
  0
LINE
  5
47
100
AcDbEntity
  8
0
390
0
  6
Continuous
 62
     7
100
AcDbLine
 10
22.0
 20
27.0
 30
0.0
 11
25.5
 21
27.0
 31
0.0
  0
ARC
  5
48
100
AcDbEntity
  8
0
390
0
  6
Continuous
 62
     7
100
AcDbCircle
 10
25.5
 20
25.5
 30
0.0
 40
1.5
210
0.0
220
0.0
230
1.0
100
AcDbArc
 50
0.0
 51
90.0
  0
LINE
  5
49
100
AcDbEntity
  8
0
390
0
  6
Continuous
 62
     7
100
AcDbLine
 10
27.0
 20
25.5
 30
0.0
 11
22.0
 21
25.5
 31
0.0
  0
LINE
  5
4A
100
AcDbEntity
  8
0
390
0
  6
Continuous
 62
     7
100
AcDbLine
 10
22.0
 20
25.5
 30
0.0
 11
22.0
 21
27.0
 31
0.0
  0
LINE
  5
4B
100
AcDbEntity
  8
0
390
0
  6
Continuous
 62
     7
100
AcDbLine
 10
22.0
 20
0.0
 30
0.0
 11
22.0
 21
25.5
 31
0.0
  0
LINE
  5
4C
100
AcDbEntity
  8
0
390
0
  6
Continuous
 62
     7
100
AcDbLine
 10
27.0
 20
25.5
 30
0.0
 11
27.0
 21
0.0
 31
0.0
  0
LINE
  5
4D
100
AcDbEntity
  8
0
390
0
  6
Continuous
 62
     7
100
AcDbLine
 10
27.0
 20
0.0
 30
0.0
 11
22.0
 21
0.0
 31
0.0
  0
LINE
  5
4E
100
AcDbEntity
  8
0
390
0
  6
Continuous
 62
     7
100
AcDbLine
 10
22.0
 20
25.5
 30
0.0
 11
19.974984
 21
25.5
 31
0.0
  0
LINE
  5
4F
100
AcDbEntity
  8
0
390
0
  6
Continuous
 62
     7
100
AcDbLine
 10
19.974984
 20
25.5
 30
0.0
 11
19.974984
 21
27.0
 31
0.0
  0
LINE
  5
50
100
AcDbEntity
  8
0
390
0
  6
Continuous
 62
     7
100
AcDbLine
 10
19.974984
 20
27.0
 30
0.0
 11
22.0
 21
27.0
 31
0.0
  0
ARC
  5
51
100
AcDbEntity
  8
0
390
0
  6
Continuous
 62
     7
100
AcDbCircle
 10
-25.5
 20
25.5
 30
0.0
 40
1.5
210
0.0
220
0.0
230
1.0
100
AcDbArc
 50
90.0
 51
180.0
  0
LINE
  5
52
100
AcDbEntity
  8
0
390
0
  6
Continuous
 62
     7
100
AcDbLine
 10
-25.5
 20
27.0
 30
0.0
 11
-22.0
 21
27.0
 31
0.0
  0
LINE
  5
53
100
AcDbEntity
  8
0
390
0
  6
Continuous
 62
     7
100
AcDbLine
 10
-22.0
 20
25.5
 30
0.0
 11
-22.0
 21
27.0
 31
0.0
  0
LINE
  5
54
100
AcDbEntity
  8
0
390
0
  6
Continuous
 62
     7
100
AcDbLine
 10
-19.974984
 20
25.5
 30
0.0
 11
-22.0
 21
25.5
 31
0.0
  0
LINE
  5
55
100
AcDbEntity
  8
0
390
0
  6
Continuous
 62
     7
100
AcDbLine
 10
-22.0
 20
27.0
 30
0.0
 11
-19.974984
 21
27.0
 31
0.0
  0
LINE
  5
56
100
AcDbEntity
  8
0
390
0
  6
Continuous
 62
     7
100
AcDbLine
 10
-19.974984
 20
25.5
 30
0.0
 11
-19.974984
 21
27.0
 31
0.0
  0
ARC
  5
57
100
AcDbEntity
  8
0
390
0
  6
Continuous
 62
     7
100
AcDbCircle
 10
0.0
 20
50.5
 30
0.0
 40
32.0
210
0.0
220
0.0
230
1.0
100
AcDbArc
 50
231.375167
 51
308.624833
  0
LINE
  5
58
100
AcDbEntity
  8
0
390
0
  6
Continuous
 62
     7
100
AcDbLine
 10
-19.974984
 20
25.5
 30
0.0
 11
-19.038657
 21
26.671875
 31
0.0
  0
ARC
  5
59
100
AcDbEntity
  8
0
390
0
  6
Continuous
 62
     7
100
AcDbCircle
 10
0.0
 20
50.5
 30
0.0
 40
30.5
210
0.0
220
0.0
230
1.0
100
AcDbArc
 50
231.375167
 51
308.624833
  0
LINE
  5
5A
100
AcDbEntity
  8
0
390
0
  6
Continuous
 62
     7
100
AcDbLine
 10
19.974984
 20
25.5
 30
0.0
 11
19.038657
 21
26.671875
 31
0.0
  0
LINE
  5
5B
100
AcDbEntity
  8
0
390
0
  6
Continuous
 62
     7
100
AcDbLine
 10
-22.0
 20
0.0
 30
0.0
 11
22.0
 21
0.0
 31
0.0
  0
ARC
  5
5C
100
AcDbEntity
  8
0
390
0
  6
Continuous
 62
     7
100
AcDbCircle
 10
19.974984
 20
25.5
 30
0.0
 40
1.5
210
0.0
220
0.0
230
1.0
100
AcDbArc
 50
90.0
 51
128.624833
  0
ARC
  5
5D
100
AcDbEntity
  8
0
390
0
  6
Continuous
 62
     7
100
AcDbCircle
 10
-19.974984
 20
25.5
 30
0.0
 40
1.5
210
0.0
220
0.0
230
1.0
100
AcDbArc
 50
51.375167
 51
90.0
  0
LINE
  5
5E
100
AcDbEntity
  8
0
390
0
  6
Continuous
 62
     7
100
AcDbLine
 10
112.351029
 20
0.0
 30
0.0
 11
112.351029
 21
25.5
 31
0.0
  0
LINE
  5
5F
100
AcDbEntity
  8
0
390
0
  6
Continuous
 62
     7
100
AcDbLine
 10
117.351029
 20
25.5
 30
0.0
 11
112.351029
 21
25.5
 31
0.0
  0
LINE
  5
60
100
AcDbEntity
  8
0
390
0
  6
Continuous
 62
     7
100
AcDbLine
 10
117.351029
 20
25.5
 30
0.0
 11
117.351029
 21
0.0
 31
0.0
  0
LINE
  5
61
100
AcDbEntity
  8
0
390
0
  6
Continuous
 62
     7
100
AcDbLine
 10
117.351029
 20
0.0
 30
0.0
 11
112.351029
 21
0.0
 31
0.0
  0
LINE
  5
62
100
AcDbEntity
  8
0
390
0
  6
Continuous
 62
     7
100
AcDbLine
 10
92.351029
 20
0.0
 30
0.0
 11
92.351029
 21
25.5
 31
0.0
  0
LINE
  5
63
100
AcDbEntity
  8
0
390
0
  6
Continuous
 62
     7
100
AcDbLine
 10
97.351029
 20
25.5
 30
0.0
 11
92.351029
 21
25.5
 31
0.0
  0
LINE
  5
64
100
AcDbEntity
  8
0
390
0
  6
Continuous
 62
     7
100
AcDbLine
 10
97.351029
 20
25.5
 30
0.0
 11
97.351029
 21
0.0
 31
0.0
  0
LINE
  5
65
100
AcDbEntity
  8
0
390
0
  6
Continuous
 62
     7
100
AcDbLine
 10
97.351029
 20
0.0
 30
0.0
 11
92.351029
 21
0.0
 31
0.0
  0
LINE
  5
66
100
AcDbEntity
  8
0
390
0
  6
Continuous
 62
     7
100
AcDbLine
 10
112.351029
 20
25.5
 30
0.0
 11
97.351029
 21
25.5
 31
0.0
  0
LINE
  5
67
100
AcDbEntity
  8
0
390
0
  6
Continuous
 62
     7
100
AcDbLine
 10
112.351029
 20
0.0
 30
0.0
 11
97.351029
 21
0.0
 31
0.0
  0
LINE
  5
68
100
AcDbEntity
  8
0
390
0
  6
Continuous
 62
     7
100
AcDbLine
 10
93.851029
 20
27.0
 30
0.0
 11
97.351029
 21
27.0
 31
0.0
  0
LINE
  5
69
100
AcDbEntity
  8
0
390
0
  6
Continuous
 62
     7
100
AcDbLine
 10
97.351029
 20
27.0
 30
0.0
 11
97.351029
 21
25.5
 31
0.0
  0
ARC
  5
6A
100
AcDbEntity
  8
0
390
0
  6
Continuous
 62
     7
100
AcDbCircle
 10
93.851029
 20
25.5
 30
0.0
 40
1.5
210
0.0
220
0.0
230
1.0
100
AcDbArc
 50
90.0
 51
180.0
  0
LINE
  5
6B
100
AcDbEntity
  8
0
390
0
  6
Continuous
 62
     7
100
AcDbLine
 10
97.351029
 20
27.0
 30
0.0
 11
112.351029
 21
27.0
 31
0.0
  0
LINE
  5
6C
100
AcDbEntity
  8
0
390
0
  6
Continuous
 62
     7
100
AcDbLine
 10
112.351029
 20
27.0
 30
0.0
 11
112.351029
 21
25.5
 31
0.0
  0
LINE
  5
6D
100
AcDbEntity
  8
0
390
0
  6
Continuous
 62
     7
100
AcDbLine
 10
112.351029
 20
27.0
 30
0.0
 11
115.851029
 21
27.0
 31
0.0
  0
ARC
  5
6E
100
AcDbEntity
  8
0
390
0
  6
Continuous
 62
     7
100
AcDbCircle
 10
115.851029
 20
25.5
 30
0.0
 40
1.5
210
0.0
220
0.0
230
1.0
100
AcDbArc
 50
0.0
 51
90.0
  0
LINE
  5
6F
100
AcDbEntity
  8
0
390
0
  6
Continuous
 62
     7
100
AcDbLine
 10
117.351029
 20
18.5
 30
0.0
 11
117.351029
 21
25.5
 31
0.0
  0
LINE
  5
70
100
AcDbEntity
  8
0
390
0
  6
Continuous
 62
     7
100
AcDbLine
 10
92.351029
 20
25.5
 30
0.0
 11
92.351029
 21
18.5
 31
0.0
  0
LINE
  5
71
100
AcDbEntity
  8
0
390
0
  6
Continuous
 62
     7
100
AcDbLine
 10
92.151029
 20
8.0
 30
0.0
 11
92.351029
 21
8.0
 31
0.0
  0
LINE
  5
72
100
AcDbEntity
  8
0
390
0
  6
Continuous
 62
     7
100
AcDbLine
 10
92.151029
 20
9.5
 30
0.0
 11
92.351029
 21
9.5
 31
0.0
  0
LINE
  5
73
100
AcDbEntity
  8
0
390
0
  6
Continuous
 62
     7
100
AcDbLine
 10
92.151029
 20
8.0
 30
0.0
 11
92.151029
 21
9.5
 31
0.0
  0
LINE
  5
74
100
AcDbEntity
  8
0
390
0
  6
Continuous
 62
     7
100
AcDbLine
 10
92.151029
 20
12.496707
 30
0.0
 11
92.351029
 21
12.496707
 31
0.0
  0
LINE
  5
75
100
AcDbEntity
  8
0
390
0
  6
Continuous
 62
     7
100
AcDbLine
 10
92.151029
 20
9.5
 30
0.0
 11
92.151029
 21
12.496707
 31
0.0
  0
ARC
  5
76
100
AcDbEntity
  8
0
390
0
  6
Continuous
 62
     7
100
AcDbCircle
 10
-22.0
 20
-68.246786
 30
0.0
 40
5.0
210
0.0
220
0.0
230
1.0
100
AcDbArc
 50
180.0
 51
270.0
  0
LINE
  5
77
100
AcDbEntity
  8
0
390
0
  6
Continuous
 62
     7
100
AcDbLine
 10
-27.0
 20
-53.246786
 30
0.0
 11
-27.0
 21
-68.246786
 31
0.0
  0
ARC
  5
78
100
AcDbEntity
  8
0
390
0
  6
Continuous
 62
     7
100
AcDbCircle
 10
-22.0
 20
-53.246786
 30
0.0
 40
5.0
210
0.0
220
0.0
230
1.0
100
AcDbArc
 50
90.0
 51
180.0
  0
LINE
  5
79
100
AcDbEntity
  8
0
390
0
  6
Continuous
 62
     7
100
AcDbLine
 10
-22.0
 20
-48.246786
 30
0.0
 11
22.0
 21
-48.246786
 31
0.0
  0
ARC
  5
7A
100
AcDbEntity
  8
0
390
0
  6
Continuous
 62
     7
100
AcDbCircle
 10
22.0
 20
-53.246786
 30
0.0
 40
5.0
210
0.0
220
0.0
230
1.0
100
AcDbArc
 50
0.0
 51
90.0
  0
LINE
  5
7B
100
AcDbEntity
  8
0
390
0
  6
Continuous
 62
     7
100
AcDbLine
 10
27.0
 20
-68.246786
 30
0.0
 11
27.0
 21
-53.246786
 31
0.0
  0
ARC
  5
7C
100
AcDbEntity
  8
0
390
0
  6
Continuous
 62
     7
100
AcDbCircle
 10
22.0
 20
-68.246786
 30
0.0
 40
5.0
210
0.0
220
0.0
230
1.0
100
AcDbArc
 50
270.0
 51
360.0
  0
LINE
  5
7D
100
AcDbEntity
  8
0
390
0
  6
Continuous
 62
     7
100
AcDbLine
 10
-22.0
 20
-73.246786
 30
0.0
 11
22.0
 21
-73.246786
 31
0.0
  0
LINE
  5
7E
100
AcDbEntity
  8
0
390
0
  6
Continuous
 62
     7
100
AcDbLine
 10
7.25
 20
-64.932575
 30
0.0
 11
9.75
 21
-63.4892
 31
0.0
  0
LINE
  5
7F
100
AcDbEntity
  8
0
390
0
  6
Continuous
 62
     7
100
AcDbLine
 10
7.25
 20
-67.819327
 30
0.0
 11
7.25
 21
-64.932575
 31
0.0
  0
LINE
  5
80
100
AcDbEntity
  8
0
390
0
  6
Continuous
 62
     7
100
AcDbLine
 10
9.75
 20
-69.262702
 30
0.0
 11
7.25
 21
-67.819327
 31
0.0
  0
LINE
  5
81
100
AcDbEntity
  8
0
390
0
  6
Continuous
 62
     7
100
AcDbLine
 10
12.25
 20
-67.819327
 30
0.0
 11
9.75
 21
-69.262702
 31
0.0
  0
LINE
  5
82
100
AcDbEntity
  8
0
390
0
  6
Continuous
 62
     7
100
AcDbLine
 10
12.25
 20
-64.932575
 30
0.0
 11
12.25
 21
-67.819327
 31
0.0
  0
LINE
  5
83
100
AcDbEntity
  8
0
390
0
  6
Continuous
 62
     7
100
AcDbLine
 10
9.75
 20
-63.4892
 30
0.0
 11
12.25
 21
-64.932575
 31
0.0
  0
LINE
  5
84
100
AcDbEntity
  8
0
390
0
  6
Continuous
 62
     7
100
AcDbLine
 10
-5.75
 20
-64.932575
 30
0.0
 11
-3.25
 21
-63.4892
 31
0.0
  0
LINE
  5
85
100
AcDbEntity
  8
0
390
0
  6
Continuous
 62
     7
100
AcDbLine
 10
-5.75
 20
-67.819327
 30
0.0
 11
-5.75
 21
-64.932575
 31
0.0
  0
LINE
  5
86
100
AcDbEntity
  8
0
390
0
  6
Continuous
 62
     7
100
AcDbLine
 10
-3.25
 20
-69.262702
 30
0.0
 11
-5.75
 21
-67.819327
 31
0.0
  0
LINE
  5
87
100
AcDbEntity
  8
0
390
0
  6
Continuous
 62
     7
100
AcDbLine
 10
-0.75
 20
-67.819327
 30
0.0
 11
-3.25
 21
-69.262702
 31
0.0
  0
LINE
  5
88
100
AcDbEntity
  8
0
390
0
  6
Continuous
 62
     7
100
AcDbLine
 10
-0.75
 20
-64.932575
 30
0.0
 11
-0.75
 21
-67.819327
 31
0.0
  0
LINE
  5
89
100
AcDbEntity
  8
0
390
0
  6
Continuous
 62
     7
100
AcDbLine
 10
-3.25
 20
-63.4892
 30
0.0
 11
-0.75
 21
-64.932575
 31
0.0
  0
LINE
  5
8A
100
AcDbEntity
  8
0
390
0
  6
Continuous
 62
     7
100
AcDbLine
 10
-18.75
 20
-64.932575
 30
0.0
 11
-16.25
 21
-63.4892
 31
0.0
  0
LINE
  5
8B
100
AcDbEntity
  8
0
390
0
  6
Continuous
 62
     7
100
AcDbLine
 10
-18.75
 20
-67.819327
 30
0.0
 11
-18.75
 21
-64.932575
 31
0.0
  0
LINE
  5
8C
100
AcDbEntity
  8
0
390
0
  6
Continuous
 62
     7
100
AcDbLine
 10
-16.25
 20
-69.262702
 30
0.0
 11
-18.75
 21
-67.819327
 31
0.0
  0
LINE
  5
8D
100
AcDbEntity
  8
0
390
0
  6
Continuous
 62
     7
100
AcDbLine
 10
-13.75
 20
-67.819327
 30
0.0
 11
-16.25
 21
-69.262702
 31
0.0
  0
LINE
  5
8E
100
AcDbEntity
  8
0
390
0
  6
Continuous
 62
     7
100
AcDbLine
 10
-13.75
 20
-64.932575
 30
0.0
 11
-13.75
 21
-67.819327
 31
0.0
  0
LINE
  5
8F
100
AcDbEntity
  8
0
390
0
  6
Continuous
 62
     7
100
AcDbLine
 10
-16.25
 20
-63.4892
 30
0.0
 11
-13.75
 21
-64.932575
 31
0.0
  0
LINE
  5
90
100
AcDbEntity
  8
0
390
0
  6
Continuous
 62
     7
100
AcDbLine
 10
2.5
 20
-59.30341
 30
0.0
 11
0.0
 21
-57.860035
 31
0.0
  0
LINE
  5
91
100
AcDbEntity
  8
0
390
0
  6
Continuous
 62
     7
100
AcDbLine
 10
0.0
 20
-57.860035
 30
0.0
 11
-2.5
 21
-59.30341
 31
0.0
  0
LINE
  5
92
100
AcDbEntity
  8
0
390
0
  6
Continuous
 62
     7
100
AcDbLine
 10
-2.5
 20
-59.30341
 30
0.0
 11
-2.5
 21
-62.190162
 31
0.0
  0
LINE
  5
93
100
AcDbEntity
  8
0
390
0
  6
Continuous
 62
     7
100
AcDbLine
 10
-2.5
 20
-62.190162
 30
0.0
 11
0.0
 21
-63.633537
 31
0.0
  0
LINE
  5
94
100
AcDbEntity
  8
0
390
0
  6
Continuous
 62
     7
100
AcDbLine
 10
0.0
 20
-63.633537
 30
0.0
 11
2.5
 21
-62.190162
 31
0.0
  0
LINE
  5
95
100
AcDbEntity
  8
0
390
0
  6
Continuous
 62
     7
100
AcDbLine
 10
2.5
 20
-62.190162
 30
0.0
 11
2.5
 21
-59.30341
 31
0.0
  0
LINE
  5
96
100
AcDbEntity
  8
0
390
0
  6
Continuous
 62
     7
100
AcDbLine
 10
9.0
 20
-59.30341
 30
0.0
 11
6.5
 21
-57.860035
 31
0.0
  0
LINE
  5
97
100
AcDbEntity
  8
0
390
0
  6
Continuous
 62
     7
100
AcDbLine
 10
6.5
 20
-57.860035
 30
0.0
 11
4.0
 21
-59.30341
 31
0.0
  0
LINE
  5
98
100
AcDbEntity
  8
0
390
0
  6
Continuous
 62
     7
100
AcDbLine
 10
4.0
 20
-59.30341
 30
0.0
 11
4.0
 21
-62.190162
 31
0.0
  0
LINE
  5
99
100
AcDbEntity
  8
0
390
0
  6
Continuous
 62
     7
100
AcDbLine
 10
4.0
 20
-62.190162
 30
0.0
 11
6.5
 21
-63.633537
 31
0.0
  0
LINE
  5
9A
100
AcDbEntity
  8
0
390
0
  6
Continuous
 62
     7
100
AcDbLine
 10
6.5
 20
-63.633537
 30
0.0
 11
9.0
 21
-62.190162
 31
0.0
  0
LINE
  5
9B
100
AcDbEntity
  8
0
390
0
  6
Continuous
 62
     7
100
AcDbLine
 10
9.0
 20
-62.190162
 30
0.0
 11
9.0
 21
-59.30341
 31
0.0
  0
LINE
  5
9C
100
AcDbEntity
  8
0
390
0
  6
Continuous
 62
     7
100
AcDbLine
 10
15.5
 20
-59.30341
 30
0.0
 11
13.0
 21
-57.860035
 31
0.0
  0
LINE
  5
9D
100
AcDbEntity
  8
0
390
0
  6
Continuous
 62
     7
100
AcDbLine
 10
13.0
 20
-57.860035
 30
0.0
 11
10.5
 21
-59.30341
 31
0.0
  0
LINE
  5
9E
100
AcDbEntity
  8
0
390
0
  6
Continuous
 62
     7
100
AcDbLine
 10
10.5
 20
-59.30341
 30
0.0
 11
10.5
 21
-62.190162
 31
0.0
  0
LINE
  5
9F
100
AcDbEntity
  8
0
390
0
  6
Continuous
 62
     7
100
AcDbLine
 10
10.5
 20
-62.190162
 30
0.0
 11
13.0
 21
-63.633537
 31
0.0
  0
LINE
  5
A0
100
AcDbEntity
  8
0
390
0
  6
Continuous
 62
     7
100
AcDbLine
 10
13.0
 20
-63.633537
 30
0.0
 11
15.5
 21
-62.190162
 31
0.0
  0
LINE
  5
A1
100
AcDbEntity
  8
0
390
0
  6
Continuous
 62
     7
100
AcDbLine
 10
15.5
 20
-62.190162
 30
0.0
 11
15.5
 21
-59.30341
 31
0.0
  0
LINE
  5
A2
100
AcDbEntity
  8
0
390
0
  6
Continuous
 62
     7
100
AcDbLine
 10
22.0
 20
-59.30341
 30
0.0
 11
19.5
 21
-57.860035
 31
0.0
  0
LINE
  5
A3
100
AcDbEntity
  8
0
390
0
  6
Continuous
 62
     7
100
AcDbLine
 10
19.5
 20
-57.860035
 30
0.0
 11
17.0
 21
-59.30341
 31
0.0
  0
LINE
  5
A4
100
AcDbEntity
  8
0
390
0
  6
Continuous
 62
     7
100
AcDbLine
 10
17.0
 20
-59.30341
 30
0.0
 11
17.0
 21
-62.190162
 31
0.0
  0
LINE
  5
A5
100
AcDbEntity
  8
0
390
0
  6
Continuous
 62
     7
100
AcDbLine
 10
17.0
 20
-62.190162
 30
0.0
 11
19.5
 21
-63.633537
 31
0.0
  0
LINE
  5
A6
100
AcDbEntity
  8
0
390
0
  6
Continuous
 62
     7
100
AcDbLine
 10
19.5
 20
-63.633537
 30
0.0
 11
22.0
 21
-62.190162
 31
0.0
  0
LINE
  5
A7
100
AcDbEntity
  8
0
390
0
  6
Continuous
 62
     7
100
AcDbLine
 10
22.0
 20
-62.190162
 30
0.0
 11
22.0
 21
-59.30341
 31
0.0
  0
LINE
  5
A8
100
AcDbEntity
  8
0
390
0
  6
Continuous
 62
     7
100
AcDbLine
 10
-4.0
 20
-59.30341
 30
0.0
 11
-6.5
 21
-57.860035
 31
0.0
  0
LINE
  5
A9
100
AcDbEntity
  8
0
390
0
  6
Continuous
 62
     7
100
AcDbLine
 10
-6.5
 20
-57.860035
 30
0.0
 11
-9.0
 21
-59.30341
 31
0.0
  0
LINE
  5
AA
100
AcDbEntity
  8
0
390
0
  6
Continuous
 62
     7
100
AcDbLine
 10
-9.0
 20
-59.30341
 30
0.0
 11
-9.0
 21
-62.190162
 31
0.0
  0
LINE
  5
AB
100
AcDbEntity
  8
0
390
0
  6
Continuous
 62
     7
100
AcDbLine
 10
-9.0
 20
-62.190162
 30
0.0
 11
-6.5
 21
-63.633537
 31
0.0
  0
LINE
  5
AC
100
AcDbEntity
  8
0
390
0
  6
Continuous
 62
     7
100
AcDbLine
 10
-6.5
 20
-63.633537
 30
0.0
 11
-4.0
 21
-62.190162
 31
0.0
  0
LINE
  5
AD
100
AcDbEntity
  8
0
390
0
  6
Continuous
 62
     7
100
AcDbLine
 10
-4.0
 20
-62.190162
 30
0.0
 11
-4.0
 21
-59.30341
 31
0.0
  0
LINE
  5
AE
100
AcDbEntity
  8
0
390
0
  6
Continuous
 62
     7
100
AcDbLine
 10
-10.5
 20
-59.30341
 30
0.0
 11
-13.0
 21
-57.860035
 31
0.0
  0
LINE
  5
AF
100
AcDbEntity
  8
0
390
0
  6
Continuous
 62
     7
100
AcDbLine
 10
-13.0
 20
-57.860035
 30
0.0
 11
-15.5
 21
-59.30341
 31
0.0
  0
LINE
  5
B0
100
AcDbEntity
  8
0
390
0
  6
Continuous
 62
     7
100
AcDbLine
 10
-15.5
 20
-59.30341
 30
0.0
 11
-15.5
 21
-62.190162
 31
0.0
  0
LINE
  5
B1
100
AcDbEntity
  8
0
390
0
  6
Continuous
 62
     7
100
AcDbLine
 10
-15.5
 20
-62.190162
 30
0.0
 11
-13.0
 21
-63.633537
 31
0.0
  0
LINE
  5
B2
100
AcDbEntity
  8
0
390
0
  6
Continuous
 62
     7
100
AcDbLine
 10
-13.0
 20
-63.633537
 30
0.0
 11
-10.5
 21
-62.190162
 31
0.0
  0
LINE
  5
B3
100
AcDbEntity
  8
0
390
0
  6
Continuous
 62
     7
100
AcDbLine
 10
-10.5
 20
-62.190162
 30
0.0
 11
-10.5
 21
-59.30341
 31
0.0
  0
LINE
  5
B4
100
AcDbEntity
  8
0
390
0
  6
Continuous
 62
     7
100
AcDbLine
 10
-17.0
 20
-59.30341
 30
0.0
 11
-19.5
 21
-57.860035
 31
0.0
  0
LINE
  5
B5
100
AcDbEntity
  8
0
390
0
  6
Continuous
 62
     7
100
AcDbLine
 10
-19.5
 20
-57.860035
 30
0.0
 11
-22.0
 21
-59.30341
 31
0.0
  0
LINE
  5
B6
100
AcDbEntity
  8
0
390
0
  6
Continuous
 62
     7
100
AcDbLine
 10
-22.0
 20
-59.30341
 30
0.0
 11
-22.0
 21
-62.190162
 31
0.0
  0
LINE
  5
B7
100
AcDbEntity
  8
0
390
0
  6
Continuous
 62
     7
100
AcDbLine
 10
-22.0
 20
-62.190162
 30
0.0
 11
-19.5
 21
-63.633537
 31
0.0
  0
LINE
  5
B8
100
AcDbEntity
  8
0
390
0
  6
Continuous
 62
     7
100
AcDbLine
 10
-19.5
 20
-63.633537
 30
0.0
 11
-17.0
 21
-62.190162
 31
0.0
  0
LINE
  5
B9
100
AcDbEntity
  8
0
390
0
  6
Continuous
 62
     7
100
AcDbLine
 10
-17.0
 20
-62.190162
 30
0.0
 11
-17.0
 21
-59.30341
 31
0.0
  0
LINE
  5
BA
100
AcDbEntity
  8
0
390
0
  6
Continuous
 62
     7
100
AcDbLine
 10
5.75
 20
-53.674245
 30
0.0
 11
3.25
 21
-52.230869
 31
0.0
  0
LINE
  5
BB
100
AcDbEntity
  8
0
390
0
  6
Continuous
 62
     7
100
AcDbLine
 10
3.25
 20
-52.230869
 30
0.0
 11
0.75
 21
-53.674245
 31
0.0
  0
LINE
  5
BC
100
AcDbEntity
  8
0
390
0
  6
Continuous
 62
     7
100
AcDbLine
 10
0.75
 20
-53.674245
 30
0.0
 11
0.75
 21
-56.560996
 31
0.0
  0
LINE
  5
BD
100
AcDbEntity
  8
0
390
0
  6
Continuous
 62
     7
100
AcDbLine
 10
0.75
 20
-56.560996
 30
0.0
 11
3.25
 21
-58.004372
 31
0.0
  0
LINE
  5
BE
100
AcDbEntity
  8
0
390
0
  6
Continuous
 62
     7
100
AcDbLine
 10
3.25
 20
-58.004372
 30
0.0
 11
5.75
 21
-56.560996
 31
0.0
  0
LINE
  5
BF
100
AcDbEntity
  8
0
390
0
  6
Continuous
 62
     7
100
AcDbLine
 10
5.75
 20
-56.560996
 30
0.0
 11
5.75
 21
-53.674245
 31
0.0
  0
LINE
  5
C0
100
AcDbEntity
  8
0
390
0
  6
Continuous
 62
     7
100
AcDbLine
 10
12.25
 20
-53.674245
 30
0.0
 11
9.75
 21
-52.230869
 31
0.0
  0
LINE
  5
C1
100
AcDbEntity
  8
0
390
0
  6
Continuous
 62
     7
100
AcDbLine
 10
9.75
 20
-52.230869
 30
0.0
 11
7.25
 21
-53.674245
 31
0.0
  0
LINE
  5
C2
100
AcDbEntity
  8
0
390
0
  6
Continuous
 62
     7
100
AcDbLine
 10
7.25
 20
-53.674245
 30
0.0
 11
7.25
 21
-56.560996
 31
0.0
  0
LINE
  5
C3
100
AcDbEntity
  8
0
390
0
  6
Continuous
 62
     7
100
AcDbLine
 10
7.25
 20
-56.560996
 30
0.0
 11
9.75
 21
-58.004372
 31
0.0
  0
LINE
  5
C4
100
AcDbEntity
  8
0
390
0
  6
Continuous
 62
     7
100
AcDbLine
 10
9.75
 20
-58.004372
 30
0.0
 11
12.25
 21
-56.560996
 31
0.0
  0
LINE
  5
C5
100
AcDbEntity
  8
0
390
0
  6
Continuous
 62
     7
100
AcDbLine
 10
12.25
 20
-56.560996
 30
0.0
 11
12.25
 21
-53.674245
 31
0.0
  0
LINE
  5
C6
100
AcDbEntity
  8
0
390
0
  6
Continuous
 62
     7
100
AcDbLine
 10
18.75
 20
-53.674245
 30
0.0
 11
16.25
 21
-52.230869
 31
0.0
  0
LINE
  5
C7
100
AcDbEntity
  8
0
390
0
  6
Continuous
 62
     7
100
AcDbLine
 10
16.25
 20
-52.230869
 30
0.0
 11
13.75
 21
-53.674245
 31
0.0
  0
LINE
  5
C8
100
AcDbEntity
  8
0
390
0
  6
Continuous
 62
     7
100
AcDbLine
 10
13.75
 20
-53.674245
 30
0.0
 11
13.75
 21
-56.560996
 31
0.0
  0
LINE
  5
C9
100
AcDbEntity
  8
0
390
0
  6
Continuous
 62
     7
100
AcDbLine
 10
13.75
 20
-56.560996
 30
0.0
 11
16.25
 21
-58.004372
 31
0.0
  0
LINE
  5
CA
100
AcDbEntity
  8
0
390
0
  6
Continuous
 62
     7
100
AcDbLine
 10
16.25
 20
-58.004372
 30
0.0
 11
18.75
 21
-56.560996
 31
0.0
  0
LINE
  5
CB
100
AcDbEntity
  8
0
390
0
  6
Continuous
 62
     7
100
AcDbLine
 10
18.75
 20
-56.560996
 30
0.0
 11
18.75
 21
-53.674245
 31
0.0
  0
LINE
  5
CC
100
AcDbEntity
  8
0
390
0
  6
Continuous
 62
     7
100
AcDbLine
 10
-0.75
 20
-53.674245
 30
0.0
 11
-3.25
 21
-52.230869
 31
0.0
  0
LINE
  5
CD
100
AcDbEntity
  8
0
390
0
  6
Continuous
 62
     7
100
AcDbLine
 10
-3.25
 20
-52.230869
 30
0.0
 11
-5.75
 21
-53.674245
 31
0.0
  0
LINE
  5
CE
100
AcDbEntity
  8
0
390
0
  6
Continuous
 62
     7
100
AcDbLine
 10
-5.75
 20
-53.674245
 30
0.0
 11
-5.75
 21
-56.560996
 31
0.0
  0
LINE
  5
CF
100
AcDbEntity
  8
0
390
0
  6
Continuous
 62
     7
100
AcDbLine
 10
-5.75
 20
-56.560996
 30
0.0
 11
-3.25
 21
-58.004372
 31
0.0
  0
LINE
  5
D0
100
AcDbEntity
  8
0
390
0
  6
Continuous
 62
     7
100
AcDbLine
 10
-3.25
 20
-58.004372
 30
0.0
 11
-0.75
 21
-56.560996
 31
0.0
  0
LINE
  5
D1
100
AcDbEntity
  8
0
390
0
  6
Continuous
 62
     7
100
AcDbLine
 10
-0.75
 20
-56.560996
 30
0.0
 11
-0.75
 21
-53.674245
 31
0.0
  0
LINE
  5
D2
100
AcDbEntity
  8
0
390
0
  6
Continuous
 62
     7
100
AcDbLine
 10
-7.25
 20
-53.674245
 30
0.0
 11
-9.75
 21
-52.230869
 31
0.0
  0
LINE
  5
D3
100
AcDbEntity
  8
0
390
0
  6
Continuous
 62
     7
100
AcDbLine
 10
-9.75
 20
-52.230869
 30
0.0
 11
-12.25
 21
-53.674245
 31
0.0
  0
LINE
  5
D4
100
AcDbEntity
  8
0
390
0
  6
Continuous
 62
     7
100
AcDbLine
 10
-12.25
 20
-53.674245
 30
0.0
 11
-12.25
 21
-56.560996
 31
0.0
  0
LINE
  5
D5
100
AcDbEntity
  8
0
390
0
  6
Continuous
 62
     7
100
AcDbLine
 10
-12.25
 20
-56.560996
 30
0.0
 11
-9.75
 21
-58.004372
 31
0.0
  0
LINE
  5
D6
100
AcDbEntity
  8
0
390
0
  6
Continuous
 62
     7
100
AcDbLine
 10
-9.75
 20
-58.004372
 30
0.0
 11
-7.25
 21
-56.560996
 31
0.0
  0
LINE
  5
D7
100
AcDbEntity
  8
0
390
0
  6
Continuous
 62
     7
100
AcDbLine
 10
-7.25
 20
-56.560996
 30
0.0
 11
-7.25
 21
-53.674245
 31
0.0
  0
LINE
  5
D8
100
AcDbEntity
  8
0
390
0
  6
Continuous
 62
     7
100
AcDbLine
 10
-13.75
 20
-53.674245
 30
0.0
 11
-16.25
 21
-52.230869
 31
0.0
  0
LINE
  5
D9
100
AcDbEntity
  8
0
390
0
  6
Continuous
 62
     7
100
AcDbLine
 10
-16.25
 20
-52.230869
 30
0.0
 11
-18.75
 21
-53.674245
 31
0.0
  0
LINE
  5
DA
100
AcDbEntity
  8
0
390
0
  6
Continuous
 62
     7
100
AcDbLine
 10
-18.75
 20
-53.674245
 30
0.0
 11
-18.75
 21
-56.560996
 31
0.0
  0
LINE
  5
DB
100
AcDbEntity
  8
0
390
0
  6
Continuous
 62
     7
100
AcDbLine
 10
-18.75
 20
-56.560996
 30
0.0
 11
-16.25
 21
-58.004372
 31
0.0
  0
LINE
  5
DC
100
AcDbEntity
  8
0
390
0
  6
Continuous
 62
     7
100
AcDbLine
 10
-16.25
 20
-58.004372
 30
0.0
 11
-13.75
 21
-56.560996
 31
0.0
  0
LINE
  5
DD
100
AcDbEntity
  8
0
390
0
  6
Continuous
 62
     7
100
AcDbLine
 10
-13.75
 20
-56.560996
 30
0.0
 11
-13.75
 21
-53.674245
 31
0.0
  0
LINE
  5
DE
100
AcDbEntity
  8
0
390
0
  6
Continuous
 62
     7
100
AcDbLine
 10
-12.25
 20
-64.932575
 30
0.0
 11
-9.75
 21
-63.4892
 31
0.0
  0
LINE
  5
DF
100
AcDbEntity
  8
0
390
0
  6
Continuous
 62
     7
100
AcDbLine
 10
-12.25
 20
-67.819327
 30
0.0
 11
-12.25
 21
-64.932575
 31
0.0
  0
LINE
  5
E0
100
AcDbEntity
  8
0
390
0
  6
Continuous
 62
     7
100
AcDbLine
 10
-9.75
 20
-69.262702
 30
0.0
 11
-12.25
 21
-67.819327
 31
0.0
  0
LINE
  5
E1
100
AcDbEntity
  8
0
390
0
  6
Continuous
 62
     7
100
AcDbLine
 10
-7.25
 20
-67.819327
 30
0.0
 11
-9.75
 21
-69.262702
 31
0.0
  0
LINE
  5
E2
100
AcDbEntity
  8
0
390
0
  6
Continuous
 62
     7
100
AcDbLine
 10
-7.25
 20
-64.932575
 30
0.0
 11
-7.25
 21
-67.819327
 31
0.0
  0
LINE
  5
E3
100
AcDbEntity
  8
0
390
0
  6
Continuous
 62
     7
100
AcDbLine
 10
-9.75
 20
-63.4892
 30
0.0
 11
-7.25
 21
-64.932575
 31
0.0
  0
LINE
  5
E4
100
AcDbEntity
  8
0
390
0
  6
Continuous
 62
     7
100
AcDbLine
 10
0.75
 20
-64.932575
 30
0.0
 11
3.25
 21
-63.4892
 31
0.0
  0
LINE
  5
E5
100
AcDbEntity
  8
0
390
0
  6
Continuous
 62
     7
100
AcDbLine
 10
0.75
 20
-67.819327
 30
0.0
 11
0.75
 21
-64.932575
 31
0.0
  0
LINE
  5
E6
100
AcDbEntity
  8
0
390
0
  6
Continuous
 62
     7
100
AcDbLine
 10
3.25
 20
-69.262702
 30
0.0
 11
0.75
 21
-67.819327
 31
0.0
  0
LINE
  5
E7
100
AcDbEntity
  8
0
390
0
  6
Continuous
 62
     7
100
AcDbLine
 10
5.75
 20
-67.819327
 30
0.0
 11
3.25
 21
-69.262702
 31
0.0
  0
LINE
  5
E8
100
AcDbEntity
  8
0
390
0
  6
Continuous
 62
     7
100
AcDbLine
 10
5.75
 20
-64.932575
 30
0.0
 11
5.75
 21
-67.819327
 31
0.0
  0
LINE
  5
E9
100
AcDbEntity
  8
0
390
0
  6
Continuous
 62
     7
100
AcDbLine
 10
3.25
 20
-63.4892
 30
0.0
 11
5.75
 21
-64.932575
 31
0.0
  0
LINE
  5
EA
100
AcDbEntity
  8
0
390
0
  6
Continuous
 62
     7
100
AcDbLine
 10
13.75
 20
-64.932575
 30
0.0
 11
16.25
 21
-63.4892
 31
0.0
  0
LINE
  5
EB
100
AcDbEntity
  8
0
390
0
  6
Continuous
 62
     7
100
AcDbLine
 10
13.75
 20
-67.819327
 30
0.0
 11
13.75
 21
-64.932575
 31
0.0
  0
LINE
  5
EC
100
AcDbEntity
  8
0
390
0
  6
Continuous
 62
     7
100
AcDbLine
 10
16.25
 20
-69.262702
 30
0.0
 11
13.75
 21
-67.819327
 31
0.0
  0
LINE
  5
ED
100
AcDbEntity
  8
0
390
0
  6
Continuous
 62
     7
100
AcDbLine
 10
18.75
 20
-67.819327
 30
0.0
 11
16.25
 21
-69.262702
 31
0.0
  0
LINE
  5
EE
100
AcDbEntity
  8
0
390
0
  6
Continuous
 62
     7
100
AcDbLine
 10
18.75
 20
-64.932575
 30
0.0
 11
18.75
 21
-67.819327
 31
0.0
  0
LINE
  5
EF
100
AcDbEntity
  8
0
390
0
  6
Continuous
 62
     7
100
AcDbLine
 10
16.25
 20
-63.4892
 30
0.0
 11
18.75
 21
-64.932575
 31
0.0
  0
LINE
  5
F0
100
AcDbEntity
  8
0
390
0
  6
Continuous
 62
     7
100
AcDbLine
 10
-22.0
 20
-50.246786
 30
0.0
 11
-22.0
 21
-50.932162
 31
0.0
  0
LINE
  5
F1
100
AcDbEntity
  8
0
390
0
  6
Continuous
 62
     7
100
AcDbLine
 10
-22.0
 20
-50.932162
 30
0.0
 11
-19.5
 21
-52.375537
 31
0.0
  0
LINE
  5
F2
100
AcDbEntity
  8
0
390
0
  6
Continuous
 62
     7
100
AcDbLine
 10
-19.5
 20
-52.375537
 30
0.0
 11
-17.0
 21
-50.932162
 31
0.0
  0
LINE
  5
F3
100
AcDbEntity
  8
0
390
0
  6
Continuous
 62
     7
100
AcDbLine
 10
-17.0
 20
-50.932162
 30
0.0
 11
-17.0
 21
-50.246786
 31
0.0
  0
LINE
  5
F4
100
AcDbEntity
  8
0
390
0
  6
Continuous
 62
     7
100
AcDbLine
 10
-22.0
 20
-50.246786
 30
0.0
 11
-17.0
 21
-50.246786
 31
0.0
  0
LINE
  5
F5
100
AcDbEntity
  8
0
390
0
  6
Continuous
 62
     7
100
AcDbLine
 10
-15.5
 20
-50.932162
 30
0.0
 11
-13.0
 21
-52.375537
 31
0.0
  0
LINE
  5
F6
100
AcDbEntity
  8
0
390
0
  6
Continuous
 62
     7
100
AcDbLine
 10
-13.0
 20
-52.375537
 30
0.0
 11
-10.5
 21
-50.932162
 31
0.0
  0
LINE
  5
F7
100
AcDbEntity
  8
0
390
0
  6
Continuous
 62
     7
100
AcDbLine
 10
-10.5
 20
-50.932162
 30
0.0
 11
-10.5
 21
-50.246786
 31
0.0
  0
LINE
  5
F8
100
AcDbEntity
  8
0
390
0
  6
Continuous
 62
     7
100
AcDbLine
 10
-15.5
 20
-50.246786
 30
0.0
 11
-10.5
 21
-50.246786
 31
0.0
  0
LINE
  5
F9
100
AcDbEntity
  8
0
390
0
  6
Continuous
 62
     7
100
AcDbLine
 10
-15.5
 20
-50.246786
 30
0.0
 11
-15.5
 21
-50.932162
 31
0.0
  0
LINE
  5
FA
100
AcDbEntity
  8
0
390
0
  6
Continuous
 62
     7
100
AcDbLine
 10
-9.0
 20
-50.932162
 30
0.0
 11
-6.5
 21
-52.375537
 31
0.0
  0
LINE
  5
FB
100
AcDbEntity
  8
0
390
0
  6
Continuous
 62
     7
100
AcDbLine
 10
-6.5
 20
-52.375537
 30
0.0
 11
-4.0
 21
-50.932162
 31
0.0
  0
LINE
  5
FC
100
AcDbEntity
  8
0
390
0
  6
Continuous
 62
     7
100
AcDbLine
 10
-4.0
 20
-50.932162
 30
0.0
 11
-4.0
 21
-50.246786
 31
0.0
  0
LINE
  5
FD
100
AcDbEntity
  8
0
390
0
  6
Continuous
 62
     7
100
AcDbLine
 10
-9.0
 20
-50.246786
 30
0.0
 11
-4.0
 21
-50.246786
 31
0.0
  0
LINE
  5
FE
100
AcDbEntity
  8
0
390
0
  6
Continuous
 62
     7
100
AcDbLine
 10
-9.0
 20
-50.246786
 30
0.0
 11
-9.0
 21
-50.932162
 31
0.0
  0
LINE
  5
FF
100
AcDbEntity
  8
0
390
0
  6
Continuous
 62
     7
100
AcDbLine
 10
-2.5
 20
-50.932162
 30
0.0
 11
0.0
 21
-52.375537
 31
0.0
  0
LINE
  5
100
100
AcDbEntity
  8
0
390
0
  6
Continuous
 62
     7
100
AcDbLine
 10
0.0
 20
-52.375537
 30
0.0
 11
2.5
 21
-50.932162
 31
0.0
  0
LINE
  5
101
100
AcDbEntity
  8
0
390
0
  6
Continuous
 62
     7
100
AcDbLine
 10
2.5
 20
-50.932162
 30
0.0
 11
2.5
 21
-50.246786
 31
0.0
  0
LINE
  5
102
100
AcDbEntity
  8
0
390
0
  6
Continuous
 62
     7
100
AcDbLine
 10
-2.5
 20
-50.246786
 30
0.0
 11
2.5
 21
-50.246786
 31
0.0
  0
LINE
  5
103
100
AcDbEntity
  8
0
390
0
  6
Continuous
 62
     7
100
AcDbLine
 10
-2.5
 20
-50.246786
 30
0.0
 11
-2.5
 21
-50.932162
 31
0.0
  0
LINE
  5
104
100
AcDbEntity
  8
0
390
0
  6
Continuous
 62
     7
100
AcDbLine
 10
4.0
 20
-50.932162
 30
0.0
 11
6.5
 21
-52.375537
 31
0.0
  0
LINE
  5
105
100
AcDbEntity
  8
0
390
0
  6
Continuous
 62
     7
100
AcDbLine
 10
6.5
 20
-52.375537
 30
0.0
 11
9.0
 21
-50.932162
 31
0.0
  0
LINE
  5
106
100
AcDbEntity
  8
0
390
0
  6
Continuous
 62
     7
100
AcDbLine
 10
9.0
 20
-50.932162
 30
0.0
 11
9.0
 21
-50.246786
 31
0.0
  0
LINE
  5
107
100
AcDbEntity
  8
0
390
0
  6
Continuous
 62
     7
100
AcDbLine
 10
4.0
 20
-50.246786
 30
0.0
 11
9.0
 21
-50.246786
 31
0.0
  0
LINE
  5
108
100
AcDbEntity
  8
0
390
0
  6
Continuous
 62
     7
100
AcDbLine
 10
4.0
 20
-50.246786
 30
0.0
 11
4.0
 21
-50.932162
 31
0.0
  0
LINE
  5
109
100
AcDbEntity
  8
0
390
0
  6
Continuous
 62
     7
100
AcDbLine
 10
10.5
 20
-50.932162
 30
0.0
 11
13.0
 21
-52.375537
 31
0.0
  0
LINE
  5
10A
100
AcDbEntity
  8
0
390
0
  6
Continuous
 62
     7
100
AcDbLine
 10
13.0
 20
-52.375537
 30
0.0
 11
15.5
 21
-50.932162
 31
0.0
  0
LINE
  5
10B
100
AcDbEntity
  8
0
390
0
  6
Continuous
 62
     7
100
AcDbLine
 10
15.5
 20
-50.932162
 30
0.0
 11
15.5
 21
-50.246786
 31
0.0
  0
LINE
  5
10C
100
AcDbEntity
  8
0
390
0
  6
Continuous
 62
     7
100
AcDbLine
 10
10.5
 20
-50.246786
 30
0.0
 11
15.5
 21
-50.246786
 31
0.0
  0
LINE
  5
10D
100
AcDbEntity
  8
0
390
0
  6
Continuous
 62
     7
100
AcDbLine
 10
10.5
 20
-50.246786
 30
0.0
 11
10.5
 21
-50.932162
 31
0.0
  0
LINE
  5
10E
100
AcDbEntity
  8
0
390
0
  6
Continuous
 62
     7
100
AcDbLine
 10
17.0
 20
-50.932162
 30
0.0
 11
19.5
 21
-52.375537
 31
0.0
  0
LINE
  5
10F
100
AcDbEntity
  8
0
390
0
  6
Continuous
 62
     7
100
AcDbLine
 10
19.5
 20
-52.375537
 30
0.0
 11
22.0
 21
-50.932162
 31
0.0
  0
LINE
  5
110
100
AcDbEntity
  8
0
390
0
  6
Continuous
 62
     7
100
AcDbLine
 10
22.0
 20
-50.932162
 30
0.0
 11
22.0
 21
-50.246786
 31
0.0
  0
LINE
  5
111
100
AcDbEntity
  8
0
390
0
  6
Continuous
 62
     7
100
AcDbLine
 10
17.0
 20
-50.246786
 30
0.0
 11
22.0
 21
-50.246786
 31
0.0
  0
LINE
  5
112
100
AcDbEntity
  8
0
390
0
  6
Continuous
 62
     7
100
AcDbLine
 10
17.0
 20
-50.246786
 30
0.0
 11
17.0
 21
-50.932162
 31
0.0
  0
LINE
  5
113
100
AcDbEntity
  8
0
390
0
  6
Continuous
 62
     7
100
AcDbLine
 10
-17.0
 20
-71.246786
 30
0.0
 11
-17.0
 21
-70.56141
 31
0.0
  0
LINE
  5
114
100
AcDbEntity
  8
0
390
0
  6
Continuous
 62
     7
100
AcDbLine
 10
-17.0
 20
-70.56141
 30
0.0
 11
-19.5
 21
-69.118035
 31
0.0
  0
LINE
  5
115
100
AcDbEntity
  8
0
390
0
  6
Continuous
 62
     7
100
AcDbLine
 10
-19.5
 20
-69.118035
 30
0.0
 11
-22.0
 21
-70.56141
 31
0.0
  0
LINE
  5
116
100
AcDbEntity
  8
0
390
0
  6
Continuous
 62
     7
100
AcDbLine
 10
-22.0
 20
-70.56141
 30
0.0
 11
-22.0
 21
-71.246786
 31
0.0
  0
LINE
  5
117
100
AcDbEntity
  8
0
390
0
  6
Continuous
 62
     7
100
AcDbLine
 10
-22.0
 20
-71.246786
 30
0.0
 11
-17.0
 21
-71.246786
 31
0.0
  0
LINE
  5
118
100
AcDbEntity
  8
0
390
0
  6
Continuous
 62
     7
100
AcDbLine
 10
-10.5
 20
-71.246786
 30
0.0
 11
-10.5
 21
-70.56141
 31
0.0
  0
LINE
  5
119
100
AcDbEntity
  8
0
390
0
  6
Continuous
 62
     7
100
AcDbLine
 10
-10.5
 20
-70.56141
 30
0.0
 11
-13.0
 21
-69.118035
 31
0.0
  0
LINE
  5
11A
100
AcDbEntity
  8
0
390
0
  6
Continuous
 62
     7
100
AcDbLine
 10
-13.0
 20
-69.118035
 30
0.0
 11
-15.5
 21
-70.56141
 31
0.0
  0
LINE
  5
11B
100
AcDbEntity
  8
0
390
0
  6
Continuous
 62
     7
100
AcDbLine
 10
-15.5
 20
-70.56141
 30
0.0
 11
-15.5
 21
-71.246786
 31
0.0
  0
LINE
  5
11C
100
AcDbEntity
  8
0
390
0
  6
Continuous
 62
     7
100
AcDbLine
 10
-15.5
 20
-71.246786
 30
0.0
 11
-10.5
 21
-71.246786
 31
0.0
  0
LINE
  5
11D
100
AcDbEntity
  8
0
390
0
  6
Continuous
 62
     7
100
AcDbLine
 10
-4.0
 20
-71.246786
 30
0.0
 11
-4.0
 21
-70.56141
 31
0.0
  0
LINE
  5
11E
100
AcDbEntity
  8
0
390
0
  6
Continuous
 62
     7
100
AcDbLine
 10
-4.0
 20
-70.56141
 30
0.0
 11
-6.5
 21
-69.118035
 31
0.0
  0
LINE
  5
11F
100
AcDbEntity
  8
0
390
0
  6
Continuous
 62
     7
100
AcDbLine
 10
-6.5
 20
-69.118035
 30
0.0
 11
-9.0
 21
-70.56141
 31
0.0
  0
LINE
  5
120
100
AcDbEntity
  8
0
390
0
  6
Continuous
 62
     7
100
AcDbLine
 10
-9.0
 20
-70.56141
 30
0.0
 11
-9.0
 21
-71.246786
 31
0.0
  0
LINE
  5
121
100
AcDbEntity
  8
0
390
0
  6
Continuous
 62
     7
100
AcDbLine
 10
-9.0
 20
-71.246786
 30
0.0
 11
-4.0
 21
-71.246786
 31
0.0
  0
LINE
  5
122
100
AcDbEntity
  8
0
390
0
  6
Continuous
 62
     7
100
AcDbLine
 10
2.5
 20
-71.246786
 30
0.0
 11
2.5
 21
-70.56141
 31
0.0
  0
LINE
  5
123
100
AcDbEntity
  8
0
390
0
  6
Continuous
 62
     7
100
AcDbLine
 10
2.5
 20
-70.56141
 30
0.0
 11
0.0
 21
-69.118035
 31
0.0
  0
LINE
  5
124
100
AcDbEntity
  8
0
390
0
  6
Continuous
 62
     7
100
AcDbLine
 10
0.0
 20
-69.118035
 30
0.0
 11
-2.5
 21
-70.56141
 31
0.0
  0
LINE
  5
125
100
AcDbEntity
  8
0
390
0
  6
Continuous
 62
     7
100
AcDbLine
 10
-2.5
 20
-70.56141
 30
0.0
 11
-2.5
 21
-71.246786
 31
0.0
  0
LINE
  5
126
100
AcDbEntity
  8
0
390
0
  6
Continuous
 62
     7
100
AcDbLine
 10
-2.5
 20
-71.246786
 30
0.0
 11
2.5
 21
-71.246786
 31
0.0
  0
LINE
  5
127
100
AcDbEntity
  8
0
390
0
  6
Continuous
 62
     7
100
AcDbLine
 10
9.0
 20
-71.246786
 30
0.0
 11
9.0
 21
-70.56141
 31
0.0
  0
LINE
  5
128
100
AcDbEntity
  8
0
390
0
  6
Continuous
 62
     7
100
AcDbLine
 10
9.0
 20
-70.56141
 30
0.0
 11
6.5
 21
-69.118035
 31
0.0
  0
LINE
  5
129
100
AcDbEntity
  8
0
390
0
  6
Continuous
 62
     7
100
AcDbLine
 10
6.5
 20
-69.118035
 30
0.0
 11
4.0
 21
-70.56141
 31
0.0
  0
LINE
  5
12A
100
AcDbEntity
  8
0
390
0
  6
Continuous
 62
     7
100
AcDbLine
 10
4.0
 20
-70.56141
 30
0.0
 11
4.0
 21
-71.246786
 31
0.0
  0
LINE
  5
12B
100
AcDbEntity
  8
0
390
0
  6
Continuous
 62
     7
100
AcDbLine
 10
4.0
 20
-71.246786
 30
0.0
 11
9.0
 21
-71.246786
 31
0.0
  0
LINE
  5
12C
100
AcDbEntity
  8
0
390
0
  6
Continuous
 62
     7
100
AcDbLine
 10
15.5
 20
-71.246786
 30
0.0
 11
15.5
 21
-70.56141
 31
0.0
  0
LINE
  5
12D
100
AcDbEntity
  8
0
390
0
  6
Continuous
 62
     7
100
AcDbLine
 10
15.5
 20
-70.56141
 30
0.0
 11
13.0
 21
-69.118035
 31
0.0
  0
LINE
  5
12E
100
AcDbEntity
  8
0
390
0
  6
Continuous
 62
     7
100
AcDbLine
 10
13.0
 20
-69.118035
 30
0.0
 11
10.5
 21
-70.56141
 31
0.0
  0
LINE
  5
12F
100
AcDbEntity
  8
0
390
0
  6
Continuous
 62
     7
100
AcDbLine
 10
10.5
 20
-70.56141
 30
0.0
 11
10.5
 21
-71.246786
 31
0.0
  0
LINE
  5
130
100
AcDbEntity
  8
0
390
0
  6
Continuous
 62
     7
100
AcDbLine
 10
10.5
 20
-71.246786
 30
0.0
 11
15.5
 21
-71.246786
 31
0.0
  0
LINE
  5
131
100
AcDbEntity
  8
0
390
0
  6
Continuous
 62
     7
100
AcDbLine
 10
22.0
 20
-71.246786
 30
0.0
 11
22.0
 21
-70.56141
 31
0.0
  0
LINE
  5
132
100
AcDbEntity
  8
0
390
0
  6
Continuous
 62
     7
100
AcDbLine
 10
22.0
 20
-70.56141
 30
0.0
 11
19.5
 21
-69.118035
 31
0.0
  0
LINE
  5
133
100
AcDbEntity
  8
0
390
0
  6
Continuous
 62
     7
100
AcDbLine
 10
19.5
 20
-69.118035
 30
0.0
 11
17.0
 21
-70.56141
 31
0.0
  0
LINE
  5
134
100
AcDbEntity
  8
0
390
0
  6
Continuous
 62
     7
100
AcDbLine
 10
17.0
 20
-70.56141
 30
0.0
 11
17.0
 21
-71.246786
 31
0.0
  0
LINE
  5
135
100
AcDbEntity
  8
0
390
0
  6
Continuous
 62
     7
100
AcDbLine
 10
17.0
 20
-71.246786
 30
0.0
 11
22.0
 21
-71.246786
 31
0.0
  0
LINE
  5
136
100
AcDbEntity
  8
0
390
0
  6
Continuous
 62
     7
100
AcDbLine
 10
25.0
 20
-53.529908
 30
0.0
 11
22.75
 21
-52.230869
 31
0.0
  0
LINE
  5
137
100
AcDbEntity
  8
0
390
0
  6
Continuous
 62
     7
100
AcDbLine
 10
22.75
 20
-52.230869
 30
0.0
 11
20.25
 21
-53.674245
 31
0.0
  0
LINE
  5
138
100
AcDbEntity
  8
0
390
0
  6
Continuous
 62
     7
100
AcDbLine
 10
20.25
 20
-53.674245
 30
0.0
 11
20.25
 21
-56.560996
 31
0.0
  0
LINE
  5
139
100
AcDbEntity
  8
0
390
0
  6
Continuous
 62
     7
100
AcDbLine
 10
20.25
 20
-56.560996
 30
0.0
 11
22.75
 21
-58.004372
 31
0.0
  0
LINE
  5
13A
100
AcDbEntity
  8
0
390
0
  6
Continuous
 62
     7
100
AcDbLine
 10
22.75
 20
-58.004372
 30
0.0
 11
25.0
 21
-56.705334
 31
0.0
  0
LINE
  5
13B
100
AcDbEntity
  8
0
390
0
  6
Continuous
 62
     7
100
AcDbLine
 10
25.0
 20
-56.705334
 30
0.0
 11
25.0
 21
-53.529908
 31
0.0
  0
LINE
  5
13C
100
AcDbEntity
  8
0
390
0
  6
Continuous
 62
     7
100
AcDbLine
 10
22.75
 20
-63.4892
 30
0.0
 11
25.0
 21
-64.788238
 31
0.0
  0
LINE
  5
13D
100
AcDbEntity
  8
0
390
0
  6
Continuous
 62
     7
100
AcDbLine
 10
20.25
 20
-64.932575
 30
0.0
 11
22.75
 21
-63.4892
 31
0.0
  0
LINE
  5
13E
100
AcDbEntity
  8
0
390
0
  6
Continuous
 62
     7
100
AcDbLine
 10
20.25
 20
-67.819327
 30
0.0
 11
20.25
 21
-64.932575
 31
0.0
  0
LINE
  5
13F
100
AcDbEntity
  8
0
390
0
  6
Continuous
 62
     7
100
AcDbLine
 10
22.75
 20
-69.262702
 30
0.0
 11
20.25
 21
-67.819327
 31
0.0
  0
LINE
  5
140
100
AcDbEntity
  8
0
390
0
  6
Continuous
 62
     7
100
AcDbLine
 10
25.0
 20
-67.963664
 30
0.0
 11
22.75
 21
-69.262702
 31
0.0
  0
LINE
  5
141
100
AcDbEntity
  8
0
390
0
  6
Continuous
 62
     7
100
AcDbLine
 10
25.0
 20
-67.963664
 30
0.0
 11
25.0
 21
-64.788238
 31
0.0
  0
LINE
  5
142
100
AcDbEntity
  8
0
390
0
  6
Continuous
 62
     7
100
AcDbLine
 10
25.0
 20
-58.437385
 30
0.0
 11
23.5
 21
-59.30341
 31
0.0
  0
LINE
  5
143
100
AcDbEntity
  8
0
390
0
  6
Continuous
 62
     7
100
AcDbLine
 10
23.5
 20
-59.30341
 30
0.0
 11
23.5
 21
-62.190162
 31
0.0
  0
LINE
  5
144
100
AcDbEntity
  8
0
390
0
  6
Continuous
 62
     7
100
AcDbLine
 10
23.5
 20
-62.190162
 30
0.0
 11
25.0
 21
-63.056187
 31
0.0
  0
LINE
  5
145
100
AcDbEntity
  8
0
390
0
  6
Continuous
 62
     7
100
AcDbLine
 10
25.0
 20
-63.056187
 30
0.0
 11
25.0
 21
-58.437385
 31
0.0
  0
LINE
  5
146
100
AcDbEntity
  8
0
390
0
  6
Continuous
 62
     7
100
AcDbLine
 10
-22.75
 20
-58.004372
 30
0.0
 11
-20.25
 21
-56.560996
 31
0.0
  0
LINE
  5
147
100
AcDbEntity
  8
0
390
0
  6
Continuous
 62
     7
100
AcDbLine
 10
-20.25
 20
-56.560996
 30
0.0
 11
-20.25
 21
-53.674245
 31
0.0
  0
LINE
  5
148
100
AcDbEntity
  8
0
390
0
  6
Continuous
 62
     7
100
AcDbLine
 10
-20.25
 20
-53.674245
 30
0.0
 11
-22.75
 21
-52.230869
 31
0.0
  0
LINE
  5
149
100
AcDbEntity
  8
0
390
0
  6
Continuous
 62
     7
100
AcDbLine
 10
-22.75
 20
-52.230869
 30
0.0
 11
-25.0
 21
-53.529908
 31
0.0
  0
LINE
  5
14A
100
AcDbEntity
  8
0
390
0
  6
Continuous
 62
     7
100
AcDbLine
 10
-25.0
 20
-56.705334
 30
0.0
 11
-25.0
 21
-53.529908
 31
0.0
  0
LINE
  5
14B
100
AcDbEntity
  8
0
390
0
  6
Continuous
 62
     7
100
AcDbLine
 10
-25.0
 20
-56.705334
 30
0.0
 11
-22.75
 21
-58.004372
 31
0.0
  0
LINE
  5
14C
100
AcDbEntity
  8
0
390
0
  6
Continuous
 62
     7
100
AcDbLine
 10
-23.5
 20
-62.190162
 30
0.0
 11
-23.5
 21
-59.30341
 31
0.0
  0
LINE
  5
14D
100
AcDbEntity
  8
0
390
0
  6
Continuous
 62
     7
100
AcDbLine
 10
-23.5
 20
-59.30341
 30
0.0
 11
-25.0
 21
-58.437385
 31
0.0
  0
LINE
  5
14E
100
AcDbEntity
  8
0
390
0
  6
Continuous
 62
     7
100
AcDbLine
 10
-25.0
 20
-63.056187
 30
0.0
 11
-25.0
 21
-58.437385
 31
0.0
  0
LINE
  5
14F
100
AcDbEntity
  8
0
390
0
  6
Continuous
 62
     7
100
AcDbLine
 10
-25.0
 20
-63.056187
 30
0.0
 11
-23.5
 21
-62.190162
 31
0.0
  0
LINE
  5
150
100
AcDbEntity
  8
0
390
0
  6
Continuous
 62
     7
100
AcDbLine
 10
-20.25
 20
-67.819327
 30
0.0
 11
-22.75
 21
-69.262702
 31
0.0
  0
LINE
  5
151
100
AcDbEntity
  8
0
390
0
  6
Continuous
 62
     7
100
AcDbLine
 10
-20.25
 20
-64.932575
 30
0.0
 11
-20.25
 21
-67.819327
 31
0.0
  0
LINE
  5
152
100
AcDbEntity
  8
0
390
0
  6
Continuous
 62
     7
100
AcDbLine
 10
-22.75
 20
-63.4892
 30
0.0
 11
-20.25
 21
-64.932575
 31
0.0
  0
LINE
  5
153
100
AcDbEntity
  8
0
390
0
  6
Continuous
 62
     7
100
AcDbLine
 10
-25.0
 20
-64.788238
 30
0.0
 11
-22.75
 21
-63.4892
 31
0.0
  0
LINE
  5
154
100
AcDbEntity
  8
0
390
0
  6
Continuous
 62
     7
100
AcDbLine
 10
-25.0
 20
-67.963664
 30
0.0
 11
-25.0
 21
-64.788238
 31
0.0
  0
LINE
  5
155
100
AcDbEntity
  8
0
390
0
  6
Continuous
 62
     7
100
AcDbLine
 10
-22.75
 20
-69.262702
 30
0.0
 11
-25.0
 21
-67.963664
 31
0.0
  0
LINE
  5
156
100
AcDbEntity
  8
0
390
0
  6
Continuous
 62
     7
100
AcDbLine
 10
22.75
 20
-68.778973
 30
0.0
 11
22.75
 21
-69.262702
 31
0.0
  0
LINE
  5
157
100
AcDbEntity
  8
0
390
0
  6
Continuous
 62
     7
100
AcDbLine
 10
22.75
 20
-68.778973
 30
0.0
 11
24.831078
 21
-67.577462
 31
0.0
  0
LINE
  5
158
100
AcDbEntity
  8
0
390
0
  6
Continuous
 62
     7
100
AcDbLine
 10
24.831078
 20
-67.577462
 30
0.0
 11
25.0
 21
-67.674989
 31
0.0
  0
LINE
  5
159
100
AcDbEntity
  8
0
390
0
  6
Continuous
 62
     7
100
AcDbLine
 10
-21.581078
 20
-70.803275
 30
0.0
 11
-22.0
 21
-70.56141
 31
0.0
  0
LINE
  5
15A
100
AcDbEntity
  8
0
390
0
  6
Continuous
 62
     7
100
AcDbLine
 10
-21.581078
 20
-71.246786
 30
0.0
 11
-21.581078
 21
-70.803275
 31
0.0
  0
LINE
  5
15B
100
AcDbEntity
  8
0
390
0
  6
Continuous
 62
     7
100
AcDbLine
 10
-23.918922
 20
-61.948297
 30
0.0
 11
-23.5
 21
-62.190162
 31
0.0
  0
LINE
  5
15C
100
AcDbEntity
  8
0
390
0
  6
Continuous
 62
     7
100
AcDbLine
 10
-23.918922
 20
-61.948297
 30
0.0
 11
-25.0
 21
-62.572458
 31
0.0
  0
LINE
  5
15D
100
AcDbEntity
  8
0
390
0
  6
Continuous
 62
     7
100
AcDbLine
 10
-21.581078
 20
-50.690297
 30
0.0
 11
-22.0
 21
-50.932162
 31
0.0
  0
LINE
  5
15E
100
AcDbEntity
  8
0
390
0
  6
Continuous
 62
     7
100
AcDbLine
 10
-21.581078
 20
-50.690297
 30
0.0
 11
-21.581078
 21
-50.246786
 31
0.0
  0
LINE
  5
15F
100
AcDbEntity
  8
0
390
0
  6
Continuous
 62
     7
100
AcDbLine
 10
21.581078
 20
-50.690297
 30
0.0
 11
22.0
 21
-50.932162
 31
0.0
  0
LINE
  5
160
100
AcDbEntity
  8
0
390
0
  6
Continuous
 62
     7
100
AcDbLine
 10
21.581078
 20
-50.246786
 30
0.0
 11
21.581078
 21
-50.690297
 31
0.0
  0
LINE
  5
161
100
AcDbEntity
  8
0
390
0
  6
Continuous
 62
     7
100
AcDbLine
 10
4.301577
 20
-50.758046
 30
0.0
 11
4.301577
 21
-50.246786
 31
0.0
  0
LINE
  5
162
100
AcDbEntity
  8
0
390
0
  6
Continuous
 62
     7
100
AcDbLine
 10
4.301577
 20
-50.758046
 30
0.0
 11
4.0
 21
-50.932162
 31
0.0
  0
LINE
  5
163
100
AcDbEntity
  8
0
390
0
  6
Continuous
 62
     7
100
AcDbLine
 10
17.381604
 20
-50.711842
 30
0.0
 11
17.381604
 21
-50.246786
 31
0.0
  0
LINE
  5
164
100
AcDbEntity
  8
0
390
0
  6
Continuous
 62
     7
100
AcDbLine
 10
17.381604
 20
-50.711842
 30
0.0
 11
17.0
 21
-50.932162
 31
0.0
  0
LINE
  5
165
100
AcDbEntity
  8
0
390
0
  6
Continuous
 62
     7
100
AcDbLine
 10
8.683279
 20
-50.749303
 30
0.0
 11
9.0
 21
-50.932162
 31
0.0
  0
LINE
  5
166
100
AcDbEntity
  8
0
390
0
  6
Continuous
 62
     7
100
AcDbLine
 10
8.683279
 20
-50.246786
 30
0.0
 11
8.683279
 21
-50.749303
 31
0.0
  0
LINE
  5
167
100
AcDbEntity
  8
0
390
0
  6
Continuous
 62
     7
100
AcDbLine
 10
-2.201999
 20
-50.760111
 30
0.0
 11
-2.201999
 21
-50.246786
 31
0.0
  0
LINE
  5
168
100
AcDbEntity
  8
0
390
0
  6
Continuous
 62
     7
100
AcDbLine
 10
-2.201999
 20
-50.760111
 30
0.0
 11
-2.5
 21
-50.932162
 31
0.0
  0
LINE
  5
169
100
AcDbEntity
  8
0
390
0
  6
Continuous
 62
     7
100
AcDbLine
 10
2.201999
 20
-50.760111
 30
0.0
 11
2.5
 21
-50.932162
 31
0.0
  0
LINE
  5
16A
100
AcDbEntity
  8
0
390
0
  6
Continuous
 62
     7
100
AcDbLine
 10
2.201999
 20
-50.246786
 30
0.0
 11
2.201999
 21
-50.760111
 31
0.0
  0
LINE
  5
16B
100
AcDbEntity
  8
0
390
0
  6
Continuous
 62
     7
100
AcDbLine
 10
-15.140138
 20
-50.724395
 30
0.0
 11
-15.140138
 21
-50.246786
 31
0.0
  0
LINE
  5
16C
100
AcDbEntity
  8
0
390
0
  6
Continuous
 62
     7
100
AcDbLine
 10
-15.140138
 20
-50.724395
 30
0.0
 11
-15.5
 21
-50.932162
 31
0.0
  0
LINE
  5
16D
100
AcDbEntity
  8
0
390
0
  6
Continuous
 62
     7
100
AcDbLine
 10
10.828124
 20
-50.742719
 30
0.0
 11
10.828124
 21
-50.246786
 31
0.0
  0
LINE
  5
16E
100
AcDbEntity
  8
0
390
0
  6
Continuous
 62
     7
100
AcDbLine
 10
10.828124
 20
-50.742719
 30
0.0
 11
10.5
 21
-50.932162
 31
0.0
  0
LINE
  5
16F
100
AcDbEntity
  8
0
390
0
  6
Continuous
 62
     7
100
AcDbLine
 10
-10.828125
 20
-50.742719
 30
0.0
 11
-10.5
 21
-50.932162
 31
0.0
  0
LINE
  5
170
100
AcDbEntity
  8
0
390
0
  6
Continuous
 62
     7
100
AcDbLine
 10
-10.828125
 20
-50.246786
 30
0.0
 11
-10.828125
 21
-50.742719
 31
0.0
  0
LINE
  5
171
100
AcDbEntity
  8
0
390
0
  6
Continuous
 62
     7
100
AcDbLine
 10
-17.381604
 20
-50.711842
 30
0.0
 11
-17.0
 21
-50.932162
 31
0.0
  0
LINE
  5
172
100
AcDbEntity
  8
0
390
0
  6
Continuous
 62
     7
100
AcDbLine
 10
-17.381604
 20
-50.246786
 30
0.0
 11
-17.381604
 21
-50.711842
 31
0.0
  0
LINE
  5
173
100
AcDbEntity
  8
0
390
0
  6
Continuous
 62
     7
100
AcDbLine
 10
-4.301577
 20
-50.758046
 30
0.0
 11
-4.0
 21
-50.932162
 31
0.0
  0
LINE
  5
174
100
AcDbEntity
  8
0
390
0
  6
Continuous
 62
     7
100
AcDbLine
 10
-4.301577
 20
-50.246786
 30
0.0
 11
-4.301577
 21
-50.758046
 31
0.0
  0
LINE
  5
175
100
AcDbEntity
  8
0
390
0
  6
Continuous
 62
     7
100
AcDbLine
 10
15.140138
 20
-50.724395
 30
0.0
 11
15.5
 21
-50.932162
 31
0.0
  0
LINE
  5
176
100
AcDbEntity
  8
0
390
0
  6
Continuous
 62
     7
100
AcDbLine
 10
15.140138
 20
-50.246786
 30
0.0
 11
15.140138
 21
-50.724395
 31
0.0
  0
LINE
  5
177
100
AcDbEntity
  8
0
390
0
  6
Continuous
 62
     7
100
AcDbLine
 10
-8.683279
 20
-50.749303
 30
0.0
 11
-8.683279
 21
-50.246786
 31
0.0
  0
LINE
  5
178
100
AcDbEntity
  8
0
390
0
  6
Continuous
 62
     7
100
AcDbLine
 10
-8.683279
 20
-50.749303
 30
0.0
 11
-9.0
 21
-50.932162
 31
0.0
  0
LINE
  5
179
100
AcDbEntity
  8
0
390
0
  6
Continuous
 62
     7
100
AcDbLine
 10
-19.5
 20
-51.906717
 30
0.0
 11
-19.5
 21
-52.375537
 31
0.0
  0
LINE
  5
17A
100
AcDbEntity
  8
0
390
0
  6
Continuous
 62
     7
100
AcDbLine
 10
-20.493902
 20
-51.317979
 30
0.0
 11
-21.581078
 21
-50.690297
 31
0.0
  0
ELLIPSE
  5
17B
100
AcDbEntity
  8
0
390
0
  6
Continuous
 62
     7
100
AcDbEllipse
 10
0.0
 20
-62.616021
 30
0.0
 11
-33.498723645173285
 21
19.346391109741763
 31
0.0
210
0.0
220
0.0
230
1.0
 40
0.015115
 41
0.9212442471487944
 42
0.9582295171957016
  0
LINE
  5
17C
100
AcDbEntity
  8
0
390
0
  6
Continuous
 62
     7
100
AcDbLine
 10
19.5
 20
-51.906717
 30
0.0
 11
19.5
 21
-52.375537
 31
0.0
  0
ELLIPSE
  5
17D
100
AcDbEntity
  8
0
390
0
  6
Continuous
 62
     7
100
AcDbEllipse
 10
0.0
 20
-62.616021
 30
0.0
 11
33.498723645173285
 21
19.346391109741706
 31
0.0
210
0.0
220
0.0
230
1.0
 40
0.015115
 41
5.3249557899838855
 42
5.3619410600307926
  0
LINE
  5
17E
100
AcDbEntity
  8
0
390
0
  6
Continuous
 62
     7
100
AcDbLine
 10
21.581078
 20
-50.690297
 30
0.0
 11
20.493901
 21
-51.317979
 31
0.0
  0
LINE
  5
17F
100
AcDbEntity
  8
0
390
0
  6
Continuous
 62
     7
100
AcDbLine
 10
-13.0
 20
-51.979983
 30
0.0
 11
-13.0
 21
-52.375537
 31
0.0
  0
ELLIPSE
  5
180
100
AcDbEntity
  8
0
390
0
  6
Continuous
 62
     7
100
AcDbEllipse
 10
0.0
 20
-43.852137
 30
0.0
 11
33.498723645173285
 21
19.346391109741706
 31
0.0
210
0.0
220
0.0
230
1.0
 40
0.015115
 41
4.3051342982266627
 42
4.3745214887225767
  0
LINE
  5
181
100
AcDbEntity
  8
0
390
0
  6
Continuous
 62
     7
100
AcDbLine
 10
6.5
 20
-52.020064
 30
0.0
 11
6.5
 21
-52.375537
 31
0.0
  0
ELLIPSE
  5
182
100
AcDbEntity
  8
0
390
0
  6
Continuous
 62
     7
100
AcDbEllipse
 10
0.0
 20
-47.604914
 30
0.0
 11
-33.498723645173285
 21
19.346391109741734
 31
0.0
210
0.0
220
0.0
230
1.0
 40
0.015115
 41
1.708286408172313
 42
1.774794041910541
  0
ELLIPSE
  5
183
100
AcDbEntity
  8
0
390
0
  6
Continuous
 62
     7
100
AcDbEllipse
 10
0.0
 20
-58.863244
 30
0.0
 11
-33.498723645173285
 21
19.346391109741734
 31
0.0
210
0.0
220
0.0
230
1.0
 40
0.015115
 41
1.1105817513900889
 42
1.1810002553536305
  0
ELLIPSE
  5
184
100
AcDbEntity
  8
0
390
0
  6
Continuous
 62
     7
100
AcDbEllipse
 10
0.0
 20
-40.099361
 30
0.0
 11
33.498723645173285
 21
19.346391109741706
 31
0.0
210
0.0
220
0.0
230
1.0
 40
0.015115
 41
4.0823635600687327
 42
4.1581500034539509
  0
ELLIPSE
  5
185
100
AcDbEntity
  8
0
390
0
  6
Continuous
 62
     7
100
AcDbEllipse
 10
0.0
 20
-40.099361
 30
0.0
 11
-33.498723645173285
 21
19.346391109741734
 31
0.0
210
0.0
220
0.0
230
1.0
 40
0.015115
 41
2.1250353037256362
 42
2.200821747110854
  0
LINE
  5
186
100
AcDbEntity
  8
0
390
0
  6
Continuous
 62
     7
100
AcDbLine
 10
-6.5
 20
-52.020064
 30
0.0
 11
-6.5
 21
-52.375537
 31
0.0
  0
ELLIPSE
  5
187
100
AcDbEntity
  8
0
390
0
  6
Continuous
 62
     7
100
AcDbEllipse
 10
0.0
 20
-47.604914
 30
0.0
 11
33.498723645173285
 21
19.346391109741706
 31
0.0
210
0.0
220
0.0
230
1.0
 40
0.015115
 41
4.5083912652690463
 42
4.5748988990072759
  0
LINE
  5
188
100
AcDbEntity
  8
0
390
0
  6
Continuous
 62
     7
100
AcDbLine
 10
0.0
 20
-52.032896
 30
0.0
 11
0.0
 21
-52.375537
 31
0.0
  0
ELLIPSE
  5
189
100
AcDbEntity
  8
0
390
0
  6
Continuous
 62
     7
100
AcDbEllipse
 10
0.0
 20
-51.357691
 30
0.0
 11
-33.498723645173285
 21
19.346391109741734
 31
0.0
210
0.0
220
0.0
230
1.0
 40
0.015115
 41
1.5137468842135207
 42
1.5795256321532782
  0
ELLIPSE
  5
18A
100
AcDbEntity
  8
0
390
0
  6
Continuous
 62
     7
100
AcDbEllipse
 10
0.0
 20
-55.110468
 30
0.0
 11
-33.498723645173285
 21
19.346391109741734
 31
0.0
210
0.0
220
0.0
230
1.0
 40
0.015115
 41
1.3173293852783476
 42
1.3842572223960155
  0
LINE
  5
18B
100
AcDbEntity
  8
0
390
0
  6
Continuous
 62
     7
100
AcDbLine
 10
13.0
 20
-51.979983
 30
0.0
 11
13.0
 21
-52.375537
 31
0.0
  0
ELLIPSE
  5
18C
100
AcDbEntity
  8
0
390
0
  6
Continuous
 62
     7
100
AcDbEllipse
 10
0.0
 20
-58.863244
 30
0.0
 11
33.498723645173285
 21
19.346391109741706
 31
0.0
210
0.0
220
0.0
230
1.0
 40
0.015115
 41
5.1021850518259573
 42
5.1726035557894985
  0
ELLIPSE
  5
18D
100
AcDbEntity
  8
0
390
0
  6
Continuous
 62
     7
100
AcDbEllipse
 10
0.0
 20
-55.110468
 30
0.0
 11
33.498723645173285
 21
19.346391109741706
 31
0.0
210
0.0
220
0.0
230
1.0
 40
0.015115
 41
4.8989280847835719
 42
4.9658559219012401
  0
ELLIPSE
  5
18E
100
AcDbEntity
  8
0
390
0
  6
Continuous
 62
     7
100
AcDbEllipse
 10
0.0
 20
-43.852137
 30
0.0
 11
-33.498723645173285
 21
19.346391109741734
 31
0.0
210
0.0
220
0.0
230
1.0
 40
0.015115
 41
1.9086638184570102
 42
1.9780510089529255
  0
ELLIPSE
  5
18F
100
AcDbEntity
  8
0
390
0
  6
Continuous
 62
     7
100
AcDbEllipse
 10
0.0
 20
-51.357691
 30
0.0
 11
33.498723645173285
 21
19.346391109741706
 31
0.0
210
0.0
220
0.0
230
1.0
 40
0.015115
 41
4.7036596750263096
 42
4.7694384229660658
  0
LINE
  5
190
100
AcDbEntity
  8
0
390
0
  6
Continuous
 62
     7
100
AcDbLine
 10
-11.915028
 20
-53.867641
 30
0.0
 11
-12.25
 21
-53.674245
 31
0.0
  0
LINE
  5
191
100
AcDbEntity
  8
0
390
0
  6
Continuous
 62
     7
100
AcDbLine
 10
-9.75
 20
-52.602741
 30
0.0
 11
-9.75
 21
-52.230869
 31
0.0
  0
ELLIPSE
  5
192
100
AcDbEntity
  8
0
390
0
  6
Continuous
 62
     7
100
AcDbEllipse
 10
0.0
 20
-47.619551
 30
0.0
 11
33.498723645173285
 21
19.346391109741734
 31
0.0
210
0.0
220
0.0
230
1.0
 40
0.015115
 41
1.8573857297183853
 42
1.9257005118590491
  0
LINE
  5
193
100
AcDbEntity
  8
0
390
0
  6
Continuous
 62
     7
100
AcDbLine
 10
-7.561828
 20
-53.854279
 30
0.0
 11
-7.25
 21
-53.674245
 31
0.0
  0
ELLIPSE
  5
194
100
AcDbEntity
  8
0
390
0
  6
Continuous
 62
     7
100
AcDbEllipse
 10
0.0
 20
-58.877881
 30
0.0
 11
-33.498723645173285
 21
19.346391109741763
 31
0.0
210
0.0
220
0.0
230
1.0
 40
0.015115
 41
4.9488067031548928
 42
5.0164369940249394
  0
LINE
  5
195
100
AcDbEntity
  8
0
390
0
  6
Continuous
 62
     7
100
AcDbLine
 10
1.047022
 20
-53.845731
 30
0.0
 11
0.75
 21
-53.674245
 31
0.0
  0
LINE
  5
196
100
AcDbEntity
  8
0
390
0
  6
Continuous
 62
     7
100
AcDbLine
 10
3.25
 20
-52.576696
 30
0.0
 11
3.25
 21
-52.230869
 31
0.0
  0
ELLIPSE
  5
197
100
AcDbEntity
  8
0
390
0
  6
Continuous
 62
     7
100
AcDbEllipse
 10
0.0
 20
-55.125104
 30
0.0
 11
33.498723645173285
 21
19.346391109741734
 31
0.0
210
0.0
220
0.0
230
1.0
 40
0.015115
 41
1.4648992654890767
 42
1.5308075494977258
  0
LINE
  5
198
100
AcDbEntity
  8
0
390
0
  6
Continuous
 62
     7
100
AcDbLine
 10
7.561828
 20
-53.854279
 30
0.0
 11
7.25
 21
-53.674245
 31
0.0
  0
LINE
  5
199
100
AcDbEntity
  8
0
390
0
  6
Continuous
 62
     7
100
AcDbLine
 10
9.75
 20
-52.602741
 30
0.0
 11
9.75
 21
-52.230869
 31
0.0
  0
ELLIPSE
  5
19A
100
AcDbEntity
  8
0
390
0
  6
Continuous
 62
     7
100
AcDbEllipse
 10
0.0
 20
-58.877881
 30
0.0
 11
33.498723645173285
 21
19.346391109741734
 31
0.0
210
0.0
220
0.0
230
1.0
 40
0.015115
 41
1.2667483131546469
 42
1.3343786040246914
  0
LINE
  5
19B
100
AcDbEntity
  8
0
390
0
  6
Continuous
 62
     7
100
AcDbLine
 10
5.445487
 20
-53.850056
 30
0.0
 11
5.75
 21
-53.674245
 31
0.0
  0
ELLIPSE
  5
19C
100
AcDbEntity
  8
0
390
0
  6
Continuous
 62
     7
100
AcDbEllipse
 10
0.0
 20
-51.372327
 30
0.0
 11
-33.498723645173285
 21
19.346391109741763
 31
0.0
210
0.0
220
0.0
230
1.0
 40
0.015115
 41
4.5578419390188873
 42
4.6239505297956311
  0
LINE
  5
19D
100
AcDbEntity
  8
0
390
0
  6
Continuous
 62
     7
100
AcDbLine
 10
24.831078
 20
-53.91611
 30
0.0
 11
25.0
 21
-53.818583
 31
0.0
  0
LINE
  5
19E
100
AcDbEntity
  8
0
390
0
  6
Continuous
 62
     7
100
AcDbLine
 10
22.75
 20
-52.714598
 30
0.0
 11
24.831078
 21
-53.91611
 31
0.0
  0
LINE
  5
19F
100
AcDbEntity
  8
0
390
0
  6
Continuous
 62
     7
100
AcDbLine
 10
22.75
 20
-52.714598
 30
0.0
 11
22.75
 21
-52.230869
 31
0.0
  0
LINE
  5
1A0
100
AcDbEntity
  8
0
390
0
  6
Continuous
 62
     7
100
AcDbLine
 10
-18.35765
 20
-53.900769
 30
0.0
 11
-18.75
 21
-53.674245
 31
0.0
  0
LINE
  5
1A1
100
AcDbEntity
  8
0
390
0
  6
Continuous
 62
     7
100
AcDbLine
 10
-16.25
 20
-52.658267
 30
0.0
 11
-16.25
 21
-52.230869
 31
0.0
  0
ELLIPSE
  5
1A2
100
AcDbEntity
  8
0
390
0
  6
Continuous
 62
     7
100
AcDbEllipse
 10
0.0
 20
-43.866774
 30
0.0
 11
33.498723645173285
 21
19.346391109741734
 31
0.0
210
0.0
220
0.0
230
1.0
 40
0.015115
 41
2.0685155263646879
 42
2.1420258963297205
  0
LINE
  5
1A3
100
AcDbEntity
  8
0
390
0
  6
Continuous
 62
     7
100
AcDbLine
 10
-14.101062
 20
-53.876931
 30
0.0
 11
-13.75
 21
-53.674245
 31
0.0
  0
ELLIPSE
  5
1A4
100
AcDbEntity
  8
0
390
0
  6
Continuous
 62
     7
100
AcDbEllipse
 10
0.0
 20
-62.630658
 30
0.0
 11
-33.498723645173285
 21
19.346391109741763
 31
0.0
210
0.0
220
0.0
230
1.0
 40
0.015115
 41
5.1555855598570517
 42
5.2275667906712426
  0
LINE
  5
1A5
100
AcDbEntity
  8
0
390
0
  6
Continuous
 62
     7
100
AcDbLine
 10
14.101062
 20
-53.876931
 30
0.0
 11
13.75
 21
-53.674245
 31
0.0
  0
LINE
  5
1A6
100
AcDbEntity
  8
0
390
0
  6
Continuous
 62
     7
100
AcDbLine
 10
16.25
 20
-52.658267
 30
0.0
 11
16.25
 21
-52.230869
 31
0.0
  0
ELLIPSE
  5
1A7
100
AcDbEntity
  8
0
390
0
  6
Continuous
 62
     7
100
AcDbEllipse
 10
0.0
 20
-62.630658
 30
0.0
 11
33.498723645173285
 21
19.346391109741734
 31
0.0
210
0.0
220
0.0
230
1.0
 40
0.015115
 41
1.055618516508344
 42
1.1275997473225337
  0
LINE
  5
1A8
100
AcDbEntity
  8
0
390
0
  6
Continuous
 62
     7
100
AcDbLine
 10
18.357649
 20
-53.900769
 30
0.0
 11
18.75
 21
-53.674245
 31
0.0
  0
ELLIPSE
  5
1A9
100
AcDbEntity
  8
0
390
0
  6
Continuous
 62
     7
100
AcDbEllipse
 10
0.0
 20
-43.866774
 30
0.0
 11
-33.498723645173285
 21
19.346391109741763
 31
0.0
210
0.0
220
0.0
230
1.0
 40
0.015115
 41
4.1411594108498671
 42
4.2146697808148987
  0
LINE
  5
1AA
100
AcDbEntity
  8
0
390
0
  6
Continuous
 62
     7
100
AcDbLine
 10
20.668922
 20
-53.91611
 30
0.0
 11
20.25
 21
-53.674245
 31
0.0
  0
LINE
  5
1AB
100
AcDbEntity
  8
0
390
0
  6
Continuous
 62
     7
100
AcDbLine
 10
20.668922
 20
-53.91611
 30
0.0
 11
22.75
 21
-52.714598
 31
0.0
  0
LINE
  5
1AC
100
AcDbEntity
  8
0
390
0
  6
Continuous
 62
     7
100
AcDbLine
 10
-22.75
 20
-52.714598
 30
0.0
 11
-22.75
 21
-52.230869
 31
0.0
  0
LINE
  5
1AD
100
AcDbEntity
  8
0
390
0
  6
Continuous
 62
     7
100
AcDbLine
 10
-24.831078
 20
-53.91611
 30
0.0
 11
-22.75
 21
-52.714598
 31
0.0
  0
LINE
  5
1AE
100
AcDbEntity
  8
0
390
0
  6
Continuous
 62
     7
100
AcDbLine
 10
-24.831078
 20
-53.91611
 30
0.0
 11
-25.0
 21
-53.818583
 31
0.0
  0
LINE
  5
1AF
100
AcDbEntity
  8
0
390
0
  6
Continuous
 62
     7
100
AcDbLine
 10
-5.445487
 20
-53.850056
 30
0.0
 11
-5.75
 21
-53.674245
 31
0.0
  0
LINE
  5
1B0
100
AcDbEntity
  8
0
390
0
  6
Continuous
 62
     7
100
AcDbLine
 10
-3.25
 20
-52.576696
 30
0.0
 11
-3.25
 21
-52.230869
 31
0.0
  0
ELLIPSE
  5
1B1
100
AcDbEntity
  8
0
390
0
  6
Continuous
 62
     7
100
AcDbEllipse
 10
0.0
 20
-51.372327
 30
0.0
 11
33.498723645173285
 21
19.346391109741734
 31
0.0
210
0.0
220
0.0
230
1.0
 40
0.015115
 41
1.6592347773839553
 42
1.7253433681606993
  0
LINE
  5
1B2
100
AcDbEntity
  8
0
390
0
  6
Continuous
 62
     7
100
AcDbLine
 10
11.915028
 20
-53.867641
 30
0.0
 11
12.25
 21
-53.674245
 31
0.0
  0
ELLIPSE
  5
1B3
100
AcDbEntity
  8
0
390
0
  6
Continuous
 62
     7
100
AcDbEllipse
 10
0.0
 20
-47.619551
 30
0.0
 11
-33.498723645173285
 21
19.346391109741763
 31
0.0
210
0.0
220
0.0
230
1.0
 40
0.015115
 41
4.3574847953205378
 42
4.4257995774612011
  0
LINE
  5
1B4
100
AcDbEntity
  8
0
390
0
  6
Continuous
 62
     7
100
AcDbLine
 10
-1.047022
 20
-53.845731
 30
0.0
 11
-0.75
 21
-53.674245
 31
0.0
  0
ELLIPSE
  5
1B5
100
AcDbEntity
  8
0
390
0
  6
Continuous
 62
     7
100
AcDbEllipse
 10
0.0
 20
-55.125104
 30
0.0
 11
-33.498723645173285
 21
19.346391109741763
 31
0.0
210
0.0
220
0.0
230
1.0
 40
0.015115
 41
4.7523777576818595
 42
4.8182860416905093
  0
LINE
  5
1B6
100
AcDbEntity
  8
0
390
0
  6
Continuous
 62
     7
100
AcDbLine
 10
-20.668922
 20
-53.91611
 30
0.0
 11
-20.25
 21
-53.674245
 31
0.0
  0
LINE
  5
1B7
100
AcDbEntity
  8
0
390
0
  6
Continuous
 62
     7
100
AcDbLine
 10
-22.75
 20
-52.714598
 30
0.0
 11
-20.668922
 21
-53.91611
 31
0.0
  0
LINE
  5
1B8
100
AcDbEntity
  8
0
390
0
  6
Continuous
 62
     7
100
AcDbLine
 10
-7.561828
 20
-56.380963
 30
0.0
 11
-7.25
 21
-56.560996
 31
0.0
  0
LINE
  5
1B9
100
AcDbEntity
  8
0
390
0
  6
Continuous
 62
     7
100
AcDbLine
 10
-7.561828
 20
-53.854279
 30
0.0
 11
-7.561828
 21
-56.380963
 31
0.0
  0
LINE
  5
1BA
100
AcDbEntity
  8
0
390
0
  6
Continuous
 62
     7
100
AcDbLine
 10
-11.915028
 20
-56.3676
 30
0.0
 11
-12.25
 21
-56.560996
 31
0.0
  0
LINE
  5
1BB
100
AcDbEntity
  8
0
390
0
  6
Continuous
 62
     7
100
AcDbLine
 10
-11.915028
 20
-56.3676
 30
0.0
 11
-11.915028
 21
-53.867641
 31
0.0
  0
LINE
  5
1BC
100
AcDbEntity
  8
0
390
0
  6
Continuous
 62
     7
100
AcDbLine
 10
7.561828
 20
-56.380963
 30
0.0
 11
7.25
 21
-56.560996
 31
0.0
  0
LINE
  5
1BD
100
AcDbEntity
  8
0
390
0
  6
Continuous
 62
     7
100
AcDbLine
 10
7.561828
 20
-56.380963
 30
0.0
 11
7.561828
 21
-53.854279
 31
0.0
  0
LINE
  5
1BE
100
AcDbEntity
  8
0
390
0
  6
Continuous
 62
     7
100
AcDbLine
 10
-18.35765
 20
-56.334473
 30
0.0
 11
-18.75
 21
-56.560996
 31
0.0
  0
LINE
  5
1BF
100
AcDbEntity
  8
0
390
0
  6
Continuous
 62
     7
100
AcDbLine
 10
-18.35765
 20
-56.334473
 30
0.0
 11
-18.35765
 21
-53.900769
 31
0.0
  0
LINE
  5
1C0
100
AcDbEntity
  8
0
390
0
  6
Continuous
 62
     7
100
AcDbLine
 10
5.445487
 20
-56.385186
 30
0.0
 11
5.75
 21
-56.560996
 31
0.0
  0
LINE
  5
1C1
100
AcDbEntity
  8
0
390
0
  6
Continuous
 62
     7
100
AcDbLine
 10
5.445487
 20
-53.850056
 30
0.0
 11
5.445487
 21
-56.385186
 31
0.0
  0
LINE
  5
1C2
100
AcDbEntity
  8
0
390
0
  6
Continuous
 62
     7
100
AcDbLine
 10
11.915028
 20
-56.3676
 30
0.0
 11
12.25
 21
-56.560996
 31
0.0
  0
LINE
  5
1C3
100
AcDbEntity
  8
0
390
0
  6
Continuous
 62
     7
100
AcDbLine
 10
11.915028
 20
-53.867641
 30
0.0
 11
11.915028
 21
-56.3676
 31
0.0
  0
LINE
  5
1C4
100
AcDbEntity
  8
0
390
0
  6
Continuous
 62
     7
100
AcDbLine
 10
-5.445487
 20
-56.385186
 30
0.0
 11
-5.75
 21
-56.560996
 31
0.0
  0
LINE
  5
1C5
100
AcDbEntity
  8
0
390
0
  6
Continuous
 62
     7
100
AcDbLine
 10
-5.445487
 20
-56.385186
 30
0.0
 11
-5.445487
 21
-53.850056
 31
0.0
  0
LINE
  5
1C6
100
AcDbEntity
  8
0
390
0
  6
Continuous
 62
     7
100
AcDbLine
 10
20.668922
 20
-56.319132
 30
0.0
 11
20.25
 21
-56.560996
 31
0.0
  0
LINE
  5
1C7
100
AcDbEntity
  8
0
390
0
  6
Continuous
 62
     7
100
AcDbLine
 10
20.668922
 20
-56.319132
 30
0.0
 11
20.668922
 21
-53.91611
 31
0.0
  0
LINE
  5
1C8
100
AcDbEntity
  8
0
390
0
  6
Continuous
 62
     7
100
AcDbLine
 10
-1.047022
 20
-56.389511
 30
0.0
 11
-0.75
 21
-56.560996
 31
0.0
  0
LINE
  5
1C9
100
AcDbEntity
  8
0
390
0
  6
Continuous
 62
     7
100
AcDbLine
 10
-1.047022
 20
-53.845731
 30
0.0
 11
-1.047022
 21
-56.389511
 31
0.0
  0
LINE
  5
1CA
100
AcDbEntity
  8
0
390
0
  6
Continuous
 62
     7
100
AcDbLine
 10
18.357649
 20
-56.334473
 30
0.0
 11
18.75
 21
-56.560996
 31
0.0
  0
LINE
  5
1CB
100
AcDbEntity
  8
0
390
0
  6
Continuous
 62
     7
100
AcDbLine
 10
18.357649
 20
-53.900769
 30
0.0
 11
18.357649
 21
-56.334473
 31
0.0
  0
LINE
  5
1CC
100
AcDbEntity
  8
0
390
0
  6
Continuous
 62
     7
100
AcDbLine
 10
-14.101062
 20
-56.358311
 30
0.0
 11
-13.75
 21
-56.560996
 31
0.0
  0
LINE
  5
1CD
100
AcDbEntity
  8
0
390
0
  6
Continuous
 62
     7
100
AcDbLine
 10
-14.101062
 20
-53.876931
 30
0.0
 11
-14.101062
 21
-56.358311
 31
0.0
  0
LINE
  5
1CE
100
AcDbEntity
  8
0
390
0
  6
Continuous
 62
     7
100
AcDbLine
 10
1.047022
 20
-56.389511
 30
0.0
 11
0.75
 21
-56.560996
 31
0.0
  0
LINE
  5
1CF
100
AcDbEntity
  8
0
390
0
  6
Continuous
 62
     7
100
AcDbLine
 10
1.047022
 20
-56.389511
 30
0.0
 11
1.047022
 21
-53.845731
 31
0.0
  0
LINE
  5
1D0
100
AcDbEntity
  8
0
390
0
  6
Continuous
 62
     7
100
AcDbLine
 10
14.101062
 20
-56.358311
 30
0.0
 11
13.75
 21
-56.560996
 31
0.0
  0
LINE
  5
1D1
100
AcDbEntity
  8
0
390
0
  6
Continuous
 62
     7
100
AcDbLine
 10
14.101062
 20
-56.358311
 30
0.0
 11
14.101062
 21
-53.876931
 31
0.0
  0
LINE
  5
1D2
100
AcDbEntity
  8
0
390
0
  6
Continuous
 62
     7
100
AcDbLine
 10
-20.668922
 20
-56.319132
 30
0.0
 11
-20.25
 21
-56.560996
 31
0.0
  0
LINE
  5
1D3
100
AcDbEntity
  8
0
390
0
  6
Continuous
 62
     7
100
AcDbLine
 10
-20.668922
 20
-53.91611
 30
0.0
 11
-20.668922
 21
-56.319132
 31
0.0
  0
LINE
  5
1D4
100
AcDbEntity
  8
0
390
0
  6
Continuous
 62
     7
100
AcDbLine
 10
-24.831078
 20
-56.319132
 30
0.0
 11
-25.0
 21
-56.416659
 31
0.0
  0
LINE
  5
1D5
100
AcDbEntity
  8
0
390
0
  6
Continuous
 62
     7
100
AcDbLine
 10
-22.75
 20
-57.520643
 30
0.0
 11
-24.831078
 21
-56.319132
 31
0.0
  0
LINE
  5
1D6
100
AcDbEntity
  8
0
390
0
  6
Continuous
 62
     7
100
AcDbLine
 10
-22.75
 20
-57.520643
 30
0.0
 11
-22.75
 21
-58.004372
 31
0.0
  0
LINE
  5
1D7
100
AcDbEntity
  8
0
390
0
  6
Continuous
 62
     7
100
AcDbLine
 10
22.75
 20
-57.520643
 30
0.0
 11
22.75
 21
-58.004372
 31
0.0
  0
LINE
  5
1D8
100
AcDbEntity
  8
0
390
0
  6
Continuous
 62
     7
100
AcDbLine
 10
24.831078
 20
-56.319132
 30
0.0
 11
22.75
 21
-57.520643
 31
0.0
  0
LINE
  5
1D9
100
AcDbEntity
  8
0
390
0
  6
Continuous
 62
     7
100
AcDbLine
 10
24.831078
 20
-56.319132
 30
0.0
 11
25.0
 21
-56.416659
 31
0.0
  0
LINE
  5
1DA
100
AcDbEntity
  8
0
390
0
  6
Continuous
 62
     7
100
AcDbLine
 10
16.25
 20
-57.576974
 30
0.0
 11
16.25
 21
-58.004372
 31
0.0
  0
ELLIPSE
  5
1DB
100
AcDbEntity
  8
0
390
0
  6
Continuous
 62
     7
100
AcDbEllipse
 10
0.0
 20
-66.368468
 30
0.0
 11
33.498723645173285
 21
19.346391109741706
 31
0.0
210
0.0
220
0.0
230
1.0
 40
0.015115
 41
5.2101081799544824
 42
5.2836185499195132
  0
LINE
  5
1DC
100
AcDbEntity
  8
0
390
0
  6
Continuous
 62
     7
100
AcDbLine
 10
-16.25
 20
-57.576974
 30
0.0
 11
-16.25
 21
-58.004372
 31
0.0
  0
ELLIPSE
  5
1DD
100
AcDbEntity
  8
0
390
0
  6
Continuous
 62
     7
100
AcDbEllipse
 10
0.0
 20
-66.368468
 30
0.0
 11
-33.498723645173285
 21
19.346391109741734
 31
0.0
210
0.0
220
0.0
230
1.0
 40
0.015115
 41
0.9995667572600739
 42
1.0730771272251052
  0
LINE
  5
1DE
100
AcDbEntity
  8
0
390
0
  6
Continuous
 62
     7
100
AcDbLine
 10
22.75
 20
-57.520643
 30
0.0
 11
20.668922
 21
-56.319132
 31
0.0
  0
LINE
  5
1DF
100
AcDbEntity
  8
0
390
0
  6
Continuous
 62
     7
100
AcDbLine
 10
-20.668922
 20
-56.319132
 30
0.0
 11
-22.75
 21
-57.520643
 31
0.0
  0
LINE
  5
1E0
100
AcDbEntity
  8
0
390
0
  6
Continuous
 62
     7
100
AcDbLine
 10
9.75
 20
-57.632501
 30
0.0
 11
9.75
 21
-58.004372
 31
0.0
  0
ELLIPSE
  5
1E1
100
AcDbEntity
  8
0
390
0
  6
Continuous
 62
     7
100
AcDbEllipse
 10
0.0
 20
-51.357361
 30
0.0
 11
-33.498723645173285
 21
19.346391109741734
 31
0.0
210
0.0
220
0.0
230
1.0
 40
0.015115
 41
1.8072140495651017
 42
1.8748443404351476
  0
LINE
  5
1E2
100
AcDbEntity
  8
0
390
0
  6
Continuous
 62
     7
100
AcDbLine
 10
-3.25
 20
-57.658546
 30
0.0
 11
-3.25
 21
-58.004372
 31
0.0
  0
ELLIPSE
  5
1E3
100
AcDbEntity
  8
0
390
0
  6
Continuous
 62
     7
100
AcDbEllipse
 10
0.0
 20
-58.862914
 30
0.0
 11
-33.498723645173285
 21
19.346391109741734
 31
0.0
210
0.0
220
0.0
230
1.0
 40
0.015115
 41
1.4162492854290949
 42
1.4823578762058389
  0
ELLIPSE
  5
1E4
100
AcDbEntity
  8
0
390
0
  6
Continuous
 62
     7
100
AcDbEllipse
 10
0.0
 20
-62.615691
 30
0.0
 11
33.498723645173285
 21
19.346391109741706
 31
0.0
210
0.0
220
0.0
230
1.0
 40
0.015115
 41
4.99897838330818
 42
5.0672931654488425
  0
ELLIPSE
  5
1E5
100
AcDbEntity
  8
0
390
0
  6
Continuous
 62
     7
100
AcDbEllipse
 10
0.0
 20
-55.110137
 30
0.0
 11
33.498723645173285
 21
19.346391109741706
 31
0.0
210
0.0
220
0.0
230
1.0
 40
0.015115
 41
4.6064919190788709
 42
4.6724002030875198
  0
LINE
  5
1E6
100
AcDbEntity
  8
0
390
0
  6
Continuous
 62
     7
100
AcDbLine
 10
3.25
 20
-57.658546
 30
0.0
 11
3.25
 21
-58.004372
 31
0.0
  0
ELLIPSE
  5
1E7
100
AcDbEntity
  8
0
390
0
  6
Continuous
 62
     7
100
AcDbEllipse
 10
0.0
 20
-55.110137
 30
0.0
 11
-33.498723645173285
 21
19.346391109741734
 31
0.0
210
0.0
220
0.0
230
1.0
 40
0.015115
 41
1.6107851040920675
 42
1.6766933881007176
  0
ELLIPSE
  5
1E8
100
AcDbEntity
  8
0
390
0
  6
Continuous
 62
     7
100
AcDbEllipse
 10
0.0
 20
-58.862914
 30
0.0
 11
33.498723645173285
 21
19.346391109741706
 31
0.0
210
0.0
220
0.0
230
1.0
 40
0.015115
 41
4.80082743097375
 42
4.866936021750492
  0
LINE
  5
1E9
100
AcDbEntity
  8
0
390
0
  6
Continuous
 62
     7
100
AcDbLine
 10
-9.75
 20
-57.632501
 30
0.0
 11
-9.75
 21
-58.004372
 31
0.0
  0
ELLIPSE
  5
1EA
100
AcDbEntity
  8
0
390
0
  6
Continuous
 62
     7
100
AcDbEllipse
 10
0.0
 20
-62.615691
 30
0.0
 11
-33.498723645173285
 21
19.346391109741734
 31
0.0
210
0.0
220
0.0
230
1.0
 40
0.015115
 41
1.2158921417307451
 42
1.2842069238714082
  0
ELLIPSE
  5
1EB
100
AcDbEntity
  8
0
390
0
  6
Continuous
 62
     7
100
AcDbEllipse
 10
0.0
 20
-51.357361
 30
0.0
 11
33.498723645173285
 21
19.346391109741706
 31
0.0
210
0.0
220
0.0
230
1.0
 40
0.015115
 41
4.40834096674444
 42
4.4759712576144866
  0
ELLIPSE
  5
1EC
100
AcDbEntity
  8
0
390
0
  6
Continuous
 62
     7
100
AcDbEllipse
 10
0.0
 20
-47.604584
 30
0.0
 11
33.498723645173285
 21
19.346391109741706
 31
0.0
210
0.0
220
0.0
230
1.0
 40
0.015115
 41
4.1972111700981376
 42
4.2691924009123277
  0
ELLIPSE
  5
1ED
100
AcDbEntity
  8
0
390
0
  6
Continuous
 62
     7
100
AcDbEllipse
 10
0.0
 20
-47.604584
 30
0.0
 11
-33.498723645173285
 21
19.346391109741734
 31
0.0
210
0.0
220
0.0
230
1.0
 40
0.015115
 41
2.0139929062672599
 42
2.08597413708145
  0
ELLIPSE
  5
1EE
100
AcDbEntity
  8
0
390
0
  6
Continuous
 62
     7
100
AcDbEllipse
 10
0.0
 20
-47.619551
 30
0.0
 11
-33.498723645173285
 21
19.346391109741734
 31
0.0
210
0.0
220
0.0
230
1.0
 40
0.015115
 41
4.0628369007385867
 42
4.0998221707854938
  0
LINE
  5
1EF
100
AcDbEntity
  8
0
390
0
  6
Continuous
 62
     7
100
AcDbLine
 10
19.5
 20
-58.328855
 30
0.0
 11
19.5
 21
-57.860035
 31
0.0
  0
LINE
  5
1F0
100
AcDbEntity
  8
0
390
0
  6
Continuous
 62
     7
100
AcDbLine
 10
21.581078
 20
-59.545275
 30
0.0
 11
22.0
 21
-59.30341
 31
0.0
  0
LINE
  5
1F1
100
AcDbEntity
  8
0
390
0
  6
Continuous
 62
     7
100
AcDbLine
 10
20.493901
 20
-58.917593
 30
0.0
 11
21.581078
 21
-59.545275
 31
0.0
  0
LINE
  5
1F2
100
AcDbEntity
  8
0
390
0
  6
Continuous
 62
     7
100
AcDbLine
 10
-15.140138
 20
-59.511176
 30
0.0
 11
-15.5
 21
-59.30341
 31
0.0
  0
LINE
  5
1F3
100
AcDbEntity
  8
0
390
0
  6
Continuous
 62
     7
100
AcDbLine
 10
-13.0
 20
-58.255589
 30
0.0
 11
-13.0
 21
-57.860035
 31
0.0
  0
ELLIPSE
  5
1F4
100
AcDbEntity
  8
0
390
0
  6
Continuous
 62
     7
100
AcDbEllipse
 10
0.0
 20
-51.372327
 30
0.0
 11
33.498723645173314
 21
19.346391109741734
 31
0.0
210
0.0
220
0.0
230
1.0
 40
0.015115
 41
1.9605923982361639
 42
2.0310109021997049
  0
LINE
  5
1F5
100
AcDbEntity
  8
0
390
0
  6
Continuous
 62
     7
100
AcDbLine
 10
-6.5
 20
-58.215508
 30
0.0
 11
-6.5
 21
-57.860035
 31
0.0
  0
LINE
  5
1F6
100
AcDbEntity
  8
0
390
0
  6
Continuous
 62
     7
100
AcDbLine
 10
-4.301577
 20
-59.477526
 30
0.0
 11
-4.0
 21
-59.30341
 31
0.0
  0
ELLIPSE
  5
1F7
100
AcDbEntity
  8
0
390
0
  6
Continuous
 62
     7
100
AcDbEllipse
 10
0.0
 20
-62.630658
 30
0.0
 11
-33.498723645173285
 21
19.346391109741734
 31
0.0
210
0.0
220
0.0
230
1.0
 40
0.015115
 41
4.8498790617621053
 42
4.9163866955003321
  0
LINE
  5
1F8
100
AcDbEntity
  8
0
390
0
  6
Continuous
 62
     7
100
AcDbLine
 10
-2.201999
 20
-59.475461
 30
0.0
 11
-2.5
 21
-59.30341
 31
0.0
  0
LINE
  5
1F9
100
AcDbEntity
  8
0
390
0
  6
Continuous
 62
     7
100
AcDbLine
 10
0.0
 20
-58.202676
 30
0.0
 11
0.0
 21
-57.860035
 31
0.0
  0
ELLIPSE
  5
1FA
100
AcDbEntity
  8
0
390
0
  6
Continuous
 62
     7
100
AcDbEllipse
 10
0.0
 20
-58.877881
 30
0.0
 11
33.498723645173314
 21
19.346391109741734
 31
0.0
210
0.0
220
0.0
230
1.0
 40
0.015115
 41
1.562067021436516
 42
1.6278457693762722
  0
LINE
  5
1FB
100
AcDbEntity
  8
0
390
0
  6
Continuous
 62
     7
100
AcDbLine
 10
2.201999
 20
-59.475461
 30
0.0
 11
2.5
 21
-59.30341
 31
0.0
  0
ELLIPSE
  5
1FC
100
AcDbEntity
  8
0
390
0
  6
Continuous
 62
     7
100
AcDbEllipse
 10
0.0
 20
-58.877881
 30
0.0
 11
-33.498723645173285
 21
19.346391109741734
 31
0.0
210
0.0
220
0.0
230
1.0
 40
0.015115
 41
4.6553395378033136
 42
4.7211182857430707
  0
LINE
  5
1FD
100
AcDbEntity
  8
0
390
0
  6
Continuous
 62
     7
100
AcDbLine
 10
-21.581078
 20
-59.545275
 30
0.0
 11
-22.0
 21
-59.30341
 31
0.0
  0
LINE
  5
1FE
100
AcDbEntity
  8
0
390
0
  6
Continuous
 62
     7
100
AcDbLine
 10
-19.5
 20
-58.328855
 30
0.0
 11
-19.5
 21
-57.860035
 31
0.0
  0
ELLIPSE
  5
1FF
100
AcDbEntity
  8
0
390
0
  6
Continuous
 62
     7
100
AcDbEllipse
 10
0.0
 20
-47.619551
 30
0.0
 11
33.498723645173314
 21
19.346391109741734
 31
0.0
210
0.0
220
0.0
230
1.0
 40
0.015115
 41
2.183363136394092
 42
2.2203484064409991
  0
LINE
  5
200
100
AcDbEntity
  8
0
390
0
  6
Continuous
 62
     7
100
AcDbLine
 10
-21.581078
 20
-59.545275
 30
0.0
 11
-20.493902
 21
-58.917593
 31
0.0
  0
LINE
  5
201
100
AcDbEntity
  8
0
390
0
  6
Continuous
 62
     7
100
AcDbLine
 10
4.301577
 20
-59.477526
 30
0.0
 11
4.0
 21
-59.30341
 31
0.0
  0
LINE
  5
202
100
AcDbEntity
  8
0
390
0
  6
Continuous
 62
     7
100
AcDbLine
 10
6.5
 20
-58.215508
 30
0.0
 11
6.5
 21
-57.860035
 31
0.0
  0
ELLIPSE
  5
203
100
AcDbEntity
  8
0
390
0
  6
Continuous
 62
     7
100
AcDbEllipse
 10
0.0
 20
-62.630658
 30
0.0
 11
33.498723645173314
 21
19.346391109741734
 31
0.0
210
0.0
220
0.0
230
1.0
 40
0.015115
 41
1.3667986116792532
 42
1.4333062454174803
  0
LINE
  5
204
100
AcDbEntity
  8
0
390
0
  6
Continuous
 62
     7
100
AcDbLine
 10
10.828124
 20
-59.492853
 30
0.0
 11
10.5
 21
-59.30341
 31
0.0
  0
LINE
  5
205
100
AcDbEntity
  8
0
390
0
  6
Continuous
 62
     7
100
AcDbLine
 10
13.0
 20
-58.255589
 30
0.0
 11
13.0
 21
-57.860035
 31
0.0
  0
ELLIPSE
  5
206
100
AcDbEntity
  8
0
390
0
  6
Continuous
 62
     7
100
AcDbEllipse
 10
0.0
 20
-66.383434
 30
0.0
 11
33.498723645173314
 21
19.346391109741734
 31
0.0
210
0.0
220
0.0
230
1.0
 40
0.015115
 41
1.1635416446368685
 42
1.232928835132783
  0
LINE
  5
207
100
AcDbEntity
  8
0
390
0
  6
Continuous
 62
     7
100
AcDbLine
 10
-17.381604
 20
-59.52373
 30
0.0
 11
-17.0
 21
-59.30341
 31
0.0
  0
ELLIPSE
  5
208
100
AcDbEntity
  8
0
390
0
  6
Continuous
 62
     7
100
AcDbEllipse
 10
0.0
 20
-70.136211
 30
0.0
 11
-33.498723645173285
 21
19.346391109741734
 31
0.0
210
0.0
220
0.0
230
1.0
 40
0.015115
 41
5.2666279573154284
 42
5.3424144007006458
  0
LINE
  5
209
100
AcDbEntity
  8
0
390
0
  6
Continuous
 62
     7
100
AcDbLine
 10
-10.828125
 20
-59.492853
 30
0.0
 11
-10.5
 21
-59.30341
 31
0.0
  0
ELLIPSE
  5
20A
100
AcDbEntity
  8
0
390
0
  6
Continuous
 62
     7
100
AcDbEllipse
 10
0.0
 20
-66.383434
 30
0.0
 11
-33.498723645173285
 21
19.346391109741734
 31
0.0
210
0.0
220
0.0
230
1.0
 40
0.015115
 41
5.0502564720468026
 42
5.1196436625427193
  0
LINE
  5
20B
100
AcDbEntity
  8
0
390
0
  6
Continuous
 62
     7
100
AcDbLine
 10
8.683279
 20
-59.486269
 30
0.0
 11
9.0
 21
-59.30341
 31
0.0
  0
ELLIPSE
  5
20C
100
AcDbEntity
  8
0
390
0
  6
Continuous
 62
     7
100
AcDbEllipse
 10
0.0
 20
-55.125104
 30
0.0
 11
-33.498723645173285
 21
19.346391109741734
 31
0.0
210
0.0
220
0.0
230
1.0
 40
0.015115
 41
4.4589220388681401
 42
4.5258498759858083
  0
LINE
  5
20D
100
AcDbEntity
  8
0
390
0
  6
Continuous
 62
     7
100
AcDbLine
 10
15.140138
 20
-59.511176
 30
0.0
 11
15.5
 21
-59.30341
 31
0.0
  0
ELLIPSE
  5
20E
100
AcDbEntity
  8
0
390
0
  6
Continuous
 62
     7
100
AcDbEllipse
 10
0.0
 20
-51.372327
 30
0.0
 11
-33.498723645173285
 21
19.346391109741734
 31
0.0
210
0.0
220
0.0
230
1.0
 40
0.015115
 41
4.2521744049798817
 42
4.322592908943423
  0
LINE
  5
20F
100
AcDbEntity
  8
0
390
0
  6
Continuous
 62
     7
100
AcDbLine
 10
-8.683279
 20
-59.486269
 30
0.0
 11
-9.0
 21
-59.30341
 31
0.0
  0
ELLIPSE
  5
210
100
AcDbEntity
  8
0
390
0
  6
Continuous
 62
     7
100
AcDbEllipse
 10
0.0
 20
-55.125104
 30
0.0
 11
33.498723645173314
 21
19.346391109741734
 31
0.0
210
0.0
220
0.0
230
1.0
 40
0.015115
 41
1.7573354311937781
 42
1.8242632683114461
  0
LINE
  5
211
100
AcDbEntity
  8
0
390
0
  6
Continuous
 62
     7
100
AcDbLine
 10
17.381604
 20
-59.52373
 30
0.0
 11
17.0
 21
-59.30341
 31
0.0
  0
ELLIPSE
  5
212
100
AcDbEntity
  8
0
390
0
  6
Continuous
 62
     7
100
AcDbEllipse
 10
0.0
 20
-70.136211
 30
0.0
 11
33.498723645173314
 21
19.346391109741734
 31
0.0
210
0.0
220
0.0
230
1.0
 40
0.015115
 41
0.9407709064789405
 42
1.0165573498641569
  0
LINE
  5
213
100
AcDbEntity
  8
0
390
0
  6
Continuous
 62
     7
100
AcDbLine
 10
23.918922
 20
-59.545275
 30
0.0
 11
25.0
 21
-58.921114
 31
0.0
  0
LINE
  5
214
100
AcDbEntity
  8
0
390
0
  6
Continuous
 62
     7
100
AcDbLine
 10
23.918922
 20
-59.545275
 30
0.0
 11
23.5
 21
-59.30341
 31
0.0
  0
LINE
  5
215
100
AcDbEntity
  8
0
390
0
  6
Continuous
 62
     7
100
AcDbLine
 10
-23.918922
 20
-59.545275
 30
0.0
 11
-23.5
 21
-59.30341
 31
0.0
  0
LINE
  5
216
100
AcDbEntity
  8
0
390
0
  6
Continuous
 62
     7
100
AcDbLine
 10
-25.0
 20
-58.921114
 30
0.0
 11
-23.918922
 21
-59.545275
 31
0.0
  0
LINE
  5
217
100
AcDbEntity
  8
0
390
0
  6
Continuous
 62
     7
100
AcDbLine
 10
23.918922
 20
-61.948297
 30
0.0
 11
23.5
 21
-62.190162
 31
0.0
  0
LINE
  5
218
100
AcDbEntity
  8
0
390
0
  6
Continuous
 62
     7
100
AcDbLine
 10
23.918922
 20
-61.948297
 30
0.0
 11
23.918922
 21
-59.545275
 31
0.0
  0
LINE
  5
219
100
AcDbEntity
  8
0
390
0
  6
Continuous
 62
     7
100
AcDbLine
 10
-23.918922
 20
-59.545275
 30
0.0
 11
-23.918922
 21
-61.948297
 31
0.0
  0
LINE
  5
21A
100
AcDbEntity
  8
0
390
0
  6
Continuous
 62
     7
100
AcDbLine
 10
10.828124
 20
-62.000719
 30
0.0
 11
10.5
 21
-62.190162
 31
0.0
  0
LINE
  5
21B
100
AcDbEntity
  8
0
390
0
  6
Continuous
 62
     7
100
AcDbLine
 10
10.828124
 20
-62.000719
 30
0.0
 11
10.828124
 21
-59.492853
 31
0.0
  0
LINE
  5
21C
100
AcDbEntity
  8
0
390
0
  6
Continuous
 62
     7
100
AcDbLine
 10
-8.683279
 20
-62.007303
 30
0.0
 11
-9.0
 21
-62.190162
 31
0.0
  0
LINE
  5
21D
100
AcDbEntity
  8
0
390
0
  6
Continuous
 62
     7
100
AcDbLine
 10
-8.683279
 20
-62.007303
 30
0.0
 11
-8.683279
 21
-59.486269
 31
0.0
  0
LINE
  5
21E
100
AcDbEntity
  8
0
390
0
  6
Continuous
 62
     7
100
AcDbLine
 10
-15.140138
 20
-61.982395
 30
0.0
 11
-15.5
 21
-62.190162
 31
0.0
  0
LINE
  5
21F
100
AcDbEntity
  8
0
390
0
  6
Continuous
 62
     7
100
AcDbLine
 10
-15.140138
 20
-61.982395
 30
0.0
 11
-15.140138
 21
-59.511176
 31
0.0
  0
LINE
  5
220
100
AcDbEntity
  8
0
390
0
  6
Continuous
 62
     7
100
AcDbLine
 10
-17.381604
 20
-61.969842
 30
0.0
 11
-17.0
 21
-62.190162
 31
0.0
  0
LINE
  5
221
100
AcDbEntity
  8
0
390
0
  6
Continuous
 62
     7
100
AcDbLine
 10
-17.381604
 20
-59.52373
 30
0.0
 11
-17.381604
 21
-61.969842
 31
0.0
  0
LINE
  5
222
100
AcDbEntity
  8
0
390
0
  6
Continuous
 62
     7
100
AcDbLine
 10
4.301577
 20
-62.016046
 30
0.0
 11
4.0
 21
-62.190162
 31
0.0
  0
LINE
  5
223
100
AcDbEntity
  8
0
390
0
  6
Continuous
 62
     7
100
AcDbLine
 10
4.301577
 20
-62.016046
 30
0.0
 11
4.301577
 21
-59.477526
 31
0.0
  0
LINE
  5
224
100
AcDbEntity
  8
0
390
0
  6
Continuous
 62
     7
100
AcDbLine
 10
21.581078
 20
-61.948297
 30
0.0
 11
22.0
 21
-62.190162
 31
0.0
  0
LINE
  5
225
100
AcDbEntity
  8
0
390
0
  6
Continuous
 62
     7
100
AcDbLine
 10
21.581078
 20
-59.545275
 30
0.0
 11
21.581078
 21
-61.948297
 31
0.0
  0
LINE
  5
226
100
AcDbEntity
  8
0
390
0
  6
Continuous
 62
     7
100
AcDbLine
 10
17.381604
 20
-61.969842
 30
0.0
 11
17.0
 21
-62.190162
 31
0.0
  0
LINE
  5
227
100
AcDbEntity
  8
0
390
0
  6
Continuous
 62
     7
100
AcDbLine
 10
17.381604
 20
-61.969842
 30
0.0
 11
17.381604
 21
-59.52373
 31
0.0
  0
LINE
  5
228
100
AcDbEntity
  8
0
390
0
  6
Continuous
 62
     7
100
AcDbLine
 10
-10.828125
 20
-62.000719
 30
0.0
 11
-10.5
 21
-62.190162
 31
0.0
  0
LINE
  5
229
100
AcDbEntity
  8
0
390
0
  6
Continuous
 62
     7
100
AcDbLine
 10
-10.828125
 20
-59.492853
 30
0.0
 11
-10.828125
 21
-62.000719
 31
0.0
  0
LINE
  5
22A
100
AcDbEntity
  8
0
390
0
  6
Continuous
 62
     7
100
AcDbLine
 10
-2.201999
 20
-62.018111
 30
0.0
 11
-2.5
 21
-62.190162
 31
0.0
  0
LINE
  5
22B
100
AcDbEntity
  8
0
390
0
  6
Continuous
 62
     7
100
AcDbLine
 10
-2.201999
 20
-62.018111
 30
0.0
 11
-2.201999
 21
-59.475461
 31
0.0
  0
LINE
  5
22C
100
AcDbEntity
  8
0
390
0
  6
Continuous
 62
     7
100
AcDbLine
 10
-4.301577
 20
-62.016046
 30
0.0
 11
-4.0
 21
-62.190162
 31
0.0
  0
LINE
  5
22D
100
AcDbEntity
  8
0
390
0
  6
Continuous
 62
     7
100
AcDbLine
 10
-4.301577
 20
-59.477526
 30
0.0
 11
-4.301577
 21
-62.016046
 31
0.0
  0
LINE
  5
22E
100
AcDbEntity
  8
0
390
0
  6
Continuous
 62
     7
100
AcDbLine
 10
8.683279
 20
-62.007303
 30
0.0
 11
9.0
 21
-62.190162
 31
0.0
  0
LINE
  5
22F
100
AcDbEntity
  8
0
390
0
  6
Continuous
 62
     7
100
AcDbLine
 10
8.683279
 20
-59.486269
 30
0.0
 11
8.683279
 21
-62.007303
 31
0.0
  0
LINE
  5
230
100
AcDbEntity
  8
0
390
0
  6
Continuous
 62
     7
100
AcDbLine
 10
15.140138
 20
-61.982395
 30
0.0
 11
15.5
 21
-62.190162
 31
0.0
  0
LINE
  5
231
100
AcDbEntity
  8
0
390
0
  6
Continuous
 62
     7
100
AcDbLine
 10
15.140138
 20
-59.511176
 30
0.0
 11
15.140138
 21
-61.982395
 31
0.0
  0
LINE
  5
232
100
AcDbEntity
  8
0
390
0
  6
Continuous
 62
     7
100
AcDbLine
 10
-21.581078
 20
-61.948297
 30
0.0
 11
-22.0
 21
-62.190162
 31
0.0
  0
LINE
  5
233
100
AcDbEntity
  8
0
390
0
  6
Continuous
 62
     7
100
AcDbLine
 10
-21.581078
 20
-61.948297
 30
0.0
 11
-21.581078
 21
-59.545275
 31
0.0
  0
LINE
  5
234
100
AcDbEntity
  8
0
390
0
  6
Continuous
 62
     7
100
AcDbLine
 10
2.201999
 20
-62.018111
 30
0.0
 11
2.5
 21
-62.190162
 31
0.0
  0
LINE
  5
235
100
AcDbEntity
  8
0
390
0
  6
Continuous
 62
     7
100
AcDbLine
 10
2.201999
 20
-59.475461
 30
0.0
 11
2.201999
 21
-62.018111
 31
0.0
  0
LINE
  5
236
100
AcDbEntity
  8
0
390
0
  6
Continuous
 62
     7
100
AcDbLine
 10
13.0
 20
-63.237983
 30
0.0
 11
13.0
 21
-63.633537
 31
0.0
  0
ELLIPSE
  5
237
100
AcDbEntity
  8
0
390
0
  6
Continuous
 62
     7
100
AcDbEllipse
 10
0.0
 20
-70.121244
 30
0.0
 11
33.498723645173285
 21
19.346391109741706
 31
0.0
210
0.0
220
0.0
230
1.0
 40
0.015115
 41
5.1021850518259573
 42
5.1726035557894985
  0
ELLIPSE
  5
238
100
AcDbEntity
  8
0
390
0
  6
Continuous
 62
     7
100
AcDbEllipse
 10
0.0
 20
-73.874021
 30
0.0
 11
-33.498723645173285
 21
19.346391109741763
 31
0.0
210
0.0
220
0.0
230
1.0
 40
0.015115
 41
0.9212442471487944
 42
0.9582295171957016
  0
LINE
  5
239
100
AcDbEntity
  8
0
390
0
  6
Continuous
 62
     7
100
AcDbLine
 10
-19.5
 20
-63.164717
 30
0.0
 11
-19.5
 21
-63.633537
 31
0.0
  0
LINE
  5
23A
100
AcDbEntity
  8
0
390
0
  6
Continuous
 62
     7
100
AcDbLine
 10
-20.493902
 20
-62.575979
 30
0.0
 11
-21.581078
 21
-61.948297
 31
0.0
  0
ELLIPSE
  5
23B
100
AcDbEntity
  8
0
390
0
  6
Continuous
 62
     7
100
AcDbEllipse
 10
0.0
 20
-51.357361
 30
0.0
 11
33.498723645173285
 21
19.346391109741706
 31
0.0
210
0.0
220
0.0
230
1.0
 40
0.015115
 41
4.0823635600687336
 42
4.1581500034539509
  0
LINE
  5
23C
100
AcDbEntity
  8
0
390
0
  6
Continuous
 62
     7
100
AcDbLine
 10
25.0
 20
-62.572458
 30
0.0
 11
23.918922
 21
-61.948297
 31
0.0
  0
LINE
  5
23D
100
AcDbEntity
  8
0
390
0
  6
Continuous
 62
     7
100
AcDbLine
 10
-13.0
 20
-63.237983
 30
0.0
 11
-13.0
 21
-63.633537
 31
0.0
  0
ELLIPSE
  5
23E
100
AcDbEntity
  8
0
390
0
  6
Continuous
 62
     7
100
AcDbEllipse
 10
0.0
 20
-70.121244
 30
0.0
 11
-33.498723645173285
 21
19.346391109741763
 31
0.0
210
0.0
220
0.0
230
1.0
 40
0.015115
 41
1.1105817513900889
 42
1.1810002553536305
  0
LINE
  5
23F
100
AcDbEntity
  8
0
390
0
  6
Continuous
 62
     7
100
AcDbLine
 10
19.5
 20
-63.164717
 30
0.0
 11
19.5
 21
-63.633537
 31
0.0
  0
ELLIPSE
  5
240
100
AcDbEntity
  8
0
390
0
  6
Continuous
 62
     7
100
AcDbEllipse
 10
0.0
 20
-73.874021
 30
0.0
 11
33.498723645173285
 21
19.346391109741706
 31
0.0
210
0.0
220
0.0
230
1.0
 40
0.015115
 41
5.3249557899838855
 42
5.3619410600307926
  0
LINE
  5
241
100
AcDbEntity
  8
0
390
0
  6
Continuous
 62
     7
100
AcDbLine
 10
21.581078
 20
-61.948297
 30
0.0
 11
20.493901
 21
-62.575979
 31
0.0
  0
ELLIPSE
  5
242
100
AcDbEntity
  8
0
390
0
  6
Continuous
 62
     7
100
AcDbEllipse
 10
0.0
 20
-51.357361
 30
0.0
 11
-33.498723645173285
 21
19.346391109741734
 31
0.0
210
0.0
220
0.0
230
1.0
 40
0.015115
 41
2.1250353037256362
 42
2.2008217471108549
  0
ELLIPSE
  5
243
100
AcDbEntity
  8
0
390
0
  6
Continuous
 62
     7
100
AcDbEllipse
 10
0.0
 20
-55.110137
 30
0.0
 11
-33.498723645173285
 21
19.346391109741734
 31
0.0
210
0.0
220
0.0
230
1.0
 40
0.015115
 41
1.9086638184570102
 42
1.9780510089529255
  0
LINE
  5
244
100
AcDbEntity
  8
0
390
0
  6
Continuous
 62
     7
100
AcDbLine
 10
0.0
 20
-63.290896
 30
0.0
 11
0.0
 21
-63.633537
 31
0.0
  0
ELLIPSE
  5
245
100
AcDbEntity
  8
0
390
0
  6
Continuous
 62
     7
100
AcDbEllipse
 10
0.0
 20
-62.615691
 30
0.0
 11
-33.498723645173285
 21
19.346391109741763
 31
0.0
210
0.0
220
0.0
230
1.0
 40
0.015115
 41
1.513746884213522
 42
1.5795256321532773
  0
LINE
  5
246
100
AcDbEntity
  8
0
390
0
  6
Continuous
 62
     7
100
AcDbLine
 10
6.5
 20
-63.278064
 30
0.0
 11
6.5
 21
-63.633537
 31
0.0
  0
ELLIPSE
  5
247
100
AcDbEntity
  8
0
390
0
  6
Continuous
 62
     7
100
AcDbEllipse
 10
0.0
 20
-58.862914
 30
0.0
 11
-33.498723645173285
 21
19.346391109741734
 31
0.0
210
0.0
220
0.0
230
1.0
 40
0.015115
 41
1.708286408172313
 42
1.774794041910541
  0
ELLIPSE
  5
248
100
AcDbEntity
  8
0
390
0
  6
Continuous
 62
     7
100
AcDbEllipse
 10
0.0
 20
-62.615691
 30
0.0
 11
33.498723645173285
 21
19.346391109741706
 31
0.0
210
0.0
220
0.0
230
1.0
 40
0.015115
 41
4.7036596750263096
 42
4.7694384229660658
  0
LINE
  5
249
100
AcDbEntity
  8
0
390
0
  6
Continuous
 62
     7
100
AcDbLine
 10
-6.5
 20
-63.278064
 30
0.0
 11
-6.5
 21
-63.633537
 31
0.0
  0
ELLIPSE
  5
24A
100
AcDbEntity
  8
0
390
0
  6
Continuous
 62
     7
100
AcDbEllipse
 10
0.0
 20
-66.368468
 30
0.0
 11
-33.498723645173285
 21
19.346391109741763
 31
0.0
210
0.0
220
0.0
230
1.0
 40
0.015115
 41
1.3173293852783483
 42
1.3842572223960155
  0
ELLIPSE
  5
24B
100
AcDbEntity
  8
0
390
0
  6
Continuous
 62
     7
100
AcDbEllipse
 10
0.0
 20
-58.862914
 30
0.0
 11
33.498723645173285
 21
19.346391109741706
 31
0.0
210
0.0
220
0.0
230
1.0
 40
0.015115
 41
4.5083912652690463
 42
4.5748988990072759
  0
ELLIPSE
  5
24C
100
AcDbEntity
  8
0
390
0
  6
Continuous
 62
     7
100
AcDbEllipse
 10
0.0
 20
-66.368468
 30
0.0
 11
33.498723645173285
 21
19.346391109741706
 31
0.0
210
0.0
220
0.0
230
1.0
 40
0.015115
 41
4.8989280847835719
 42
4.9658559219012401
  0
ELLIPSE
  5
24D
100
AcDbEntity
  8
0
390
0
  6
Continuous
 62
     7
100
AcDbEllipse
 10
0.0
 20
-55.110137
 30
0.0
 11
33.498723645173285
 21
19.346391109741706
 31
0.0
210
0.0
220
0.0
230
1.0
 40
0.015115
 41
4.3051342982266627
 42
4.3745214887225767
  0
LINE
  5
24E
100
AcDbEntity
  8
0
390
0
  6
Continuous
 62
     7
100
AcDbLine
 10
-20.668922
 20
-65.17444
 30
0.0
 11
-22.75
 21
-63.972929
 31
0.0
  0
LINE
  5
24F
100
AcDbEntity
  8
0
390
0
  6
Continuous
 62
     7
100
AcDbLine
 10
-22.75
 20
-63.972929
 30
0.0
 11
-22.75
 21
-63.4892
 31
0.0
  0
LINE
  5
250
100
AcDbEntity
  8
0
390
0
  6
Continuous
 62
     7
100
AcDbLine
 10
-20.668922
 20
-65.17444
 30
0.0
 11
-20.25
 21
-64.932575
 31
0.0
  0
ELLIPSE
  5
251
100
AcDbEntity
  8
0
390
0
  6
Continuous
 62
     7
100
AcDbEllipse
 10
0.0
 20
-62.630658
 30
0.0
 11
-33.498723645173285
 21
19.346391109741734
 31
0.0
210
0.0
220
0.0
230
1.0
 40
0.015115
 41
4.5578419390188873
 42
4.6239505297956311
  0
LINE
  5
252
100
AcDbEntity
  8
0
390
0
  6
Continuous
 62
     7
100
AcDbLine
 10
3.25
 20
-63.835026
 30
0.0
 11
3.25
 21
-63.4892
 31
0.0
  0
LINE
  5
253
100
AcDbEntity
  8
0
390
0
  6
Continuous
 62
     7
100
AcDbLine
 10
5.445487
 20
-65.108386
 30
0.0
 11
5.75
 21
-64.932575
 31
0.0
  0
ELLIPSE
  5
254
100
AcDbEntity
  8
0
390
0
  6
Continuous
 62
     7
100
AcDbEllipse
 10
0.0
 20
-66.383434
 30
0.0
 11
-33.498723645173314
 21
19.346391109741734
 31
0.0
210
0.0
220
0.0
230
1.0
 40
0.015115
 41
4.7523777576818595
 42
4.8182860416905093
  0
LINE
  5
255
100
AcDbEntity
  8
0
390
0
  6
Continuous
 62
     7
100
AcDbLine
 10
-3.25
 20
-63.835026
 30
0.0
 11
-3.25
 21
-63.4892
 31
0.0
  0
LINE
  5
256
100
AcDbEntity
  8
0
390
0
  6
Continuous
 62
     7
100
AcDbLine
 10
-1.047022
 20
-65.104061
 30
0.0
 11
-0.75
 21
-64.932575
 31
0.0
  0
ELLIPSE
  5
257
100
AcDbEntity
  8
0
390
0
  6
Continuous
 62
     7
100
AcDbEllipse
 10
0.0
 20
-58.877881
 30
0.0
 11
33.498723645173285
 21
19.346391109741706
 31
0.0
210
0.0
220
0.0
230
1.0
 40
0.015115
 41
1.8573857297183853
 42
1.9257005118590489
  0
LINE
  5
258
100
AcDbEntity
  8
0
390
0
  6
Continuous
 62
     7
100
AcDbLine
 10
-11.915028
 20
-65.125972
 30
0.0
 11
-12.25
 21
-64.932575
 31
0.0
  0
LINE
  5
259
100
AcDbEntity
  8
0
390
0
  6
Continuous
 62
     7
100
AcDbLine
 10
-9.75
 20
-63.861071
 30
0.0
 11
-9.75
 21
-63.4892
 31
0.0
  0
ELLIPSE
  5
25A
100
AcDbEntity
  8
0
390
0
  6
Continuous
 62
     7
100
AcDbEllipse
 10
0.0
 20
-70.136211
 30
0.0
 11
-33.498723645173285
 21
19.346391109741734
 31
0.0
210
0.0
220
0.0
230
1.0
 40
0.015115
 41
4.9488067031548937
 42
5.0164369940249394
  0
LINE
  5
25B
100
AcDbEntity
  8
0
390
0
  6
Continuous
 62
     7
100
AcDbLine
 10
-7.561828
 20
-65.112609
 30
0.0
 11
-7.25
 21
-64.932575
 31
0.0
  0
LINE
  5
25C
100
AcDbEntity
  8
0
390
0
  6
Continuous
 62
     7
100
AcDbLine
 10
22.75
 20
-63.972929
 30
0.0
 11
20.668922
 21
-65.17444
 31
0.0
  0
LINE
  5
25D
100
AcDbEntity
  8
0
390
0
  6
Continuous
 62
     7
100
AcDbLine
 10
20.668922
 20
-65.17444
 30
0.0
 11
20.25
 21
-64.932575
 31
0.0
  0
LINE
  5
25E
100
AcDbEntity
  8
0
390
0
  6
Continuous
 62
     7
100
AcDbLine
 10
22.75
 20
-63.972929
 30
0.0
 11
22.75
 21
-63.4892
 31
0.0
  0
LINE
  5
25F
100
AcDbEntity
  8
0
390
0
  6
Continuous
 62
     7
100
AcDbLine
 10
-22.75
 20
-63.972929
 30
0.0
 11
-24.831078
 21
-65.17444
 31
0.0
  0
LINE
  5
260
100
AcDbEntity
  8
0
390
0
  6
Continuous
 62
     7
100
AcDbLine
 10
-24.831078
 20
-65.17444
 30
0.0
 11
-25.0
 21
-65.076913
 31
0.0
  0
ELLIPSE
  5
261
100
AcDbEntity
  8
0
390
0
  6
Continuous
 62
     7
100
AcDbEllipse
 10
0.0
 20
-55.125104
 30
0.0
 11
33.498723645173285
 21
19.346391109741706
 31
0.0
210
0.0
220
0.0
230
1.0
 40
0.015115
 41
2.0685155263646884
 42
2.1420258963297196
  0
LINE
  5
262
100
AcDbEntity
  8
0
390
0
  6
Continuous
 62
     7
100
AcDbLine
 10
-18.35765
 20
-65.159099
 30
0.0
 11
-18.75
 21
-64.932575
 31
0.0
  0
LINE
  5
263
100
AcDbEntity
  8
0
390
0
  6
Continuous
 62
     7
100
AcDbLine
 10
-16.25
 20
-63.916598
 30
0.0
 11
-16.25
 21
-63.4892
 31
0.0
  0
ELLIPSE
  5
264
100
AcDbEntity
  8
0
390
0
  6
Continuous
 62
     7
100
AcDbEllipse
 10
0.0
 20
-62.630658
 30
0.0
 11
33.498723645173285
 21
19.346391109741706
 31
0.0
210
0.0
220
0.0
230
1.0
 40
0.015115
 41
1.6592347773839549
 42
1.7253433681606989
  0
LINE
  5
265
100
AcDbEntity
  8
0
390
0
  6
Continuous
 62
     7
100
AcDbLine
 10
-5.445487
 20
-65.108386
 30
0.0
 11
-5.75
 21
-64.932575
 31
0.0
  0
LINE
  5
266
100
AcDbEntity
  8
0
390
0
  6
Continuous
 62
     7
100
AcDbLine
 10
24.831078
 20
-65.17444
 30
0.0
 11
25.0
 21
-65.076913
 31
0.0
  0
LINE
  5
267
100
AcDbEntity
  8
0
390
0
  6
Continuous
 62
     7
100
AcDbLine
 10
24.831078
 20
-65.17444
 30
0.0
 11
22.75
 21
-63.972929
 31
0.0
  0
ELLIPSE
  5
268
100
AcDbEntity
  8
0
390
0
  6
Continuous
 62
     7
100
AcDbEllipse
 10
0.0
 20
-73.888988
 30
0.0
 11
33.498723645173285
 21
19.346391109741706
 31
0.0
210
0.0
220
0.0
230
1.0
 40
0.015115
 41
1.0556185165083432
 42
1.1275997473225341
  0
LINE
  5
269
100
AcDbEntity
  8
0
390
0
  6
Continuous
 62
     7
100
AcDbLine
 10
14.101062
 20
-65.135261
 30
0.0
 11
13.75
 21
-64.932575
 31
0.0
  0
LINE
  5
26A
100
AcDbEntity
  8
0
390
0
  6
Continuous
 62
     7
100
AcDbLine
 10
16.25
 20
-63.916598
 30
0.0
 11
16.25
 21
-63.4892
 31
0.0
  0
ELLIPSE
  5
26B
100
AcDbEntity
  8
0
390
0
  6
Continuous
 62
     7
100
AcDbEllipse
 10
0.0
 20
-70.136211
 30
0.0
 11
33.498723645173285
 21
19.346391109741706
 31
0.0
210
0.0
220
0.0
230
1.0
 40
0.015115
 41
1.2667483131546462
 42
1.3343786040246925
  0
LINE
  5
26C
100
AcDbEntity
  8
0
390
0
  6
Continuous
 62
     7
100
AcDbLine
 10
7.561828
 20
-65.112609
 30
0.0
 11
7.25
 21
-64.932575
 31
0.0
  0
LINE
  5
26D
100
AcDbEntity
  8
0
390
0
  6
Continuous
 62
     7
100
AcDbLine
 10
9.75
 20
-63.861071
 30
0.0
 11
9.75
 21
-63.4892
 31
0.0
  0
ELLIPSE
  5
26E
100
AcDbEntity
  8
0
390
0
  6
Continuous
 62
     7
100
AcDbEllipse
 10
0.0
 20
-55.125104
 30
0.0
 11
-33.498723645173285
 21
19.346391109741734
 31
0.0
210
0.0
220
0.0
230
1.0
 40
0.015115
 41
4.1411594108498653
 42
4.214669780814897
  0
LINE
  5
26F
100
AcDbEntity
  8
0
390
0
  6
Continuous
 62
     7
100
AcDbLine
 10
18.357649
 20
-65.159099
 30
0.0
 11
18.75
 21
-64.932575
 31
0.0
  0
ELLIPSE
  5
270
100
AcDbEntity
  8
0
390
0
  6
Continuous
 62
     7
100
AcDbEllipse
 10
0.0
 20
-58.877881
 30
0.0
 11
-33.498723645173314
 21
19.346391109741734
 31
0.0
210
0.0
220
0.0
230
1.0
 40
0.015115
 41
4.3574847953205369
 42
4.4257995774612002
  0
LINE
  5
271
100
AcDbEntity
  8
0
390
0
  6
Continuous
 62
     7
100
AcDbLine
 10
11.915028
 20
-65.125972
 30
0.0
 11
12.25
 21
-64.932575
 31
0.0
  0
ELLIPSE
  5
272
100
AcDbEntity
  8
0
390
0
  6
Continuous
 62
     7
100
AcDbEllipse
 10
0.0
 20
-66.383434
 30
0.0
 11
33.498723645173285
 21
19.346391109741706
 31
0.0
210
0.0
220
0.0
230
1.0
 40
0.015115
 41
1.4648992654890765
 42
1.530807549497726
  0
LINE
  5
273
100
AcDbEntity
  8
0
390
0
  6
Continuous
 62
     7
100
AcDbLine
 10
1.047022
 20
-65.104061
 30
0.0
 11
0.75
 21
-64.932575
 31
0.0
  0
ELLIPSE
  5
274
100
AcDbEntity
  8
0
390
0
  6
Continuous
 62
     7
100
AcDbEllipse
 10
0.0
 20
-73.888988
 30
0.0
 11
-33.498723645173285
 21
19.346391109741734
 31
0.0
210
0.0
220
0.0
230
1.0
 40
0.015115
 41
5.1555855598570517
 42
5.2275667906712426
  0
LINE
  5
275
100
AcDbEntity
  8
0
390
0
  6
Continuous
 62
     7
100
AcDbLine
 10
-14.101062
 20
-65.135261
 30
0.0
 11
-13.75
 21
-64.932575
 31
0.0
  0
LINE
  5
276
100
AcDbEntity
  8
0
390
0
  6
Continuous
 62
     7
100
AcDbLine
 10
11.915028
 20
-67.62593
 30
0.0
 11
11.915028
 21
-65.125972
 31
0.0
  0
LINE
  5
277
100
AcDbEntity
  8
0
390
0
  6
Continuous
 62
     7
100
AcDbLine
 10
11.915028
 20
-67.62593
 30
0.0
 11
12.25
 21
-67.819327
 31
0.0
  0
LINE
  5
278
100
AcDbEntity
  8
0
390
0
  6
Continuous
 62
     7
100
AcDbLine
 10
5.445487
 20
-67.643516
 30
0.0
 11
5.445487
 21
-65.108386
 31
0.0
  0
LINE
  5
279
100
AcDbEntity
  8
0
390
0
  6
Continuous
 62
     7
100
AcDbLine
 10
5.445487
 20
-67.643516
 30
0.0
 11
5.75
 21
-67.819327
 31
0.0
  0
LINE
  5
27A
100
AcDbEntity
  8
0
390
0
  6
Continuous
 62
     7
100
AcDbLine
 10
-20.668922
 20
-67.577462
 30
0.0
 11
-20.668922
 21
-65.17444
 31
0.0
  0
LINE
  5
27B
100
AcDbEntity
  8
0
390
0
  6
Continuous
 62
     7
100
AcDbLine
 10
-20.668922
 20
-67.577462
 30
0.0
 11
-20.25
 21
-67.819327
 31
0.0
  0
LINE
  5
27C
100
AcDbEntity
  8
0
390
0
  6
Continuous
 62
     7
100
AcDbLine
 10
20.668922
 20
-65.17444
 30
0.0
 11
20.668922
 21
-67.577462
 31
0.0
  0
LINE
  5
27D
100
AcDbEntity
  8
0
390
0
  6
Continuous
 62
     7
100
AcDbLine
 10
20.668922
 20
-67.577462
 30
0.0
 11
20.25
 21
-67.819327
 31
0.0
  0
LINE
  5
27E
100
AcDbEntity
  8
0
390
0
  6
Continuous
 62
     7
100
AcDbLine
 10
7.561828
 20
-65.112609
 30
0.0
 11
7.561828
 21
-67.639293
 31
0.0
  0
LINE
  5
27F
100
AcDbEntity
  8
0
390
0
  6
Continuous
 62
     7
100
AcDbLine
 10
7.561828
 20
-67.639293
 30
0.0
 11
7.25
 21
-67.819327
 31
0.0
  0
LINE
  5
280
100
AcDbEntity
  8
0
390
0
  6
Continuous
 62
     7
100
AcDbLine
 10
-5.445487
 20
-65.108386
 30
0.0
 11
-5.445487
 21
-67.643516
 31
0.0
  0
LINE
  5
281
100
AcDbEntity
  8
0
390
0
  6
Continuous
 62
     7
100
AcDbLine
 10
-5.445487
 20
-67.643516
 30
0.0
 11
-5.75
 21
-67.819327
 31
0.0
  0
LINE
  5
282
100
AcDbEntity
  8
0
390
0
  6
Continuous
 62
     7
100
AcDbLine
 10
18.357649
 20
-67.592803
 30
0.0
 11
18.357649
 21
-65.159099
 31
0.0
  0
LINE
  5
283
100
AcDbEntity
  8
0
390
0
  6
Continuous
 62
     7
100
AcDbLine
 10
18.357649
 20
-67.592803
 30
0.0
 11
18.75
 21
-67.819327
 31
0.0
  0
LINE
  5
284
100
AcDbEntity
  8
0
390
0
  6
Continuous
 62
     7
100
AcDbLine
 10
-1.047022
 20
-67.647841
 30
0.0
 11
-1.047022
 21
-65.104061
 31
0.0
  0
LINE
  5
285
100
AcDbEntity
  8
0
390
0
  6
Continuous
 62
     7
100
AcDbLine
 10
-1.047022
 20
-67.647841
 30
0.0
 11
-0.75
 21
-67.819327
 31
0.0
  0
LINE
  5
286
100
AcDbEntity
  8
0
390
0
  6
Continuous
 62
     7
100
AcDbLine
 10
-18.35765
 20
-65.159099
 30
0.0
 11
-18.35765
 21
-67.592803
 31
0.0
  0
LINE
  5
287
100
AcDbEntity
  8
0
390
0
  6
Continuous
 62
     7
100
AcDbLine
 10
-18.35765
 20
-67.592803
 30
0.0
 11
-18.75
 21
-67.819327
 31
0.0
  0
LINE
  5
288
100
AcDbEntity
  8
0
390
0
  6
Continuous
 62
     7
100
AcDbLine
 10
14.101062
 20
-65.135261
 30
0.0
 11
14.101062
 21
-67.616641
 31
0.0
  0
LINE
  5
289
100
AcDbEntity
  8
0
390
0
  6
Continuous
 62
     7
100
AcDbLine
 10
14.101062
 20
-67.616641
 30
0.0
 11
13.75
 21
-67.819327
 31
0.0
  0
LINE
  5
28A
100
AcDbEntity
  8
0
390
0
  6
Continuous
 62
     7
100
AcDbLine
 10
-11.915028
 20
-65.125972
 30
0.0
 11
-11.915028
 21
-67.62593
 31
0.0
  0
LINE
  5
28B
100
AcDbEntity
  8
0
390
0
  6
Continuous
 62
     7
100
AcDbLine
 10
-11.915028
 20
-67.62593
 30
0.0
 11
-12.25
 21
-67.819327
 31
0.0
  0
LINE
  5
28C
100
AcDbEntity
  8
0
390
0
  6
Continuous
 62
     7
100
AcDbLine
 10
-14.101062
 20
-67.616641
 30
0.0
 11
-14.101062
 21
-65.135261
 31
0.0
  0
LINE
  5
28D
100
AcDbEntity
  8
0
390
0
  6
Continuous
 62
     7
100
AcDbLine
 10
-14.101062
 20
-67.616641
 30
0.0
 11
-13.75
 21
-67.819327
 31
0.0
  0
LINE
  5
28E
100
AcDbEntity
  8
0
390
0
  6
Continuous
 62
     7
100
AcDbLine
 10
1.047022
 20
-65.104061
 30
0.0
 11
1.047022
 21
-67.647841
 31
0.0
  0
LINE
  5
28F
100
AcDbEntity
  8
0
390
0
  6
Continuous
 62
     7
100
AcDbLine
 10
1.047022
 20
-67.647841
 30
0.0
 11
0.75
 21
-67.819327
 31
0.0
  0
LINE
  5
290
100
AcDbEntity
  8
0
390
0
  6
Continuous
 62
     7
100
AcDbLine
 10
-7.561828
 20
-67.639293
 30
0.0
 11
-7.561828
 21
-65.112609
 31
0.0
  0
LINE
  5
291
100
AcDbEntity
  8
0
390
0
  6
Continuous
 62
     7
100
AcDbLine
 10
-7.561828
 20
-67.639293
 30
0.0
 11
-7.25
 21
-67.819327
 31
0.0
  0
ELLIPSE
  5
292
100
AcDbEntity
  8
0
390
0
  6
Continuous
 62
     7
100
AcDbEllipse
 10
0.0
 20
-58.862914
 30
0.0
 11
33.498723645173285
 21
19.346391109741734
 31
0.0
210
0.0
220
0.0
230
1.0
 40
0.015115
 41
4.1972111700981376
 42
4.2691924009123277
  0
LINE
  5
293
100
AcDbEntity
  8
0
390
0
  6
Continuous
 62
     7
100
AcDbLine
 10
-16.25
 20
-68.835304
 30
0.0
 11
-16.25
 21
-69.262702
 31
0.0
  0
LINE
  5
294
100
AcDbEntity
  8
0
390
0
  6
Continuous
 62
     7
100
AcDbLine
 10
20.668922
 20
-67.577462
 30
0.0
 11
22.75
 21
-68.778973
 31
0.0
  0
ELLIPSE
  5
295
100
AcDbEntity
  8
0
390
0
  6
Continuous
 62
     7
100
AcDbEllipse
 10
0.0
 20
-77.626798
 30
0.0
 11
-33.498723645173285
 21
19.346391109741763
 31
0.0
210
0.0
220
0.0
230
1.0
 40
0.015115
 41
0.9995667572600738
 42
1.0730771272251056
  0
LINE
  5
296
100
AcDbEntity
  8
0
390
0
  6
Continuous
 62
     7
100
AcDbLine
 10
-22.75
 20
-68.778973
 30
0.0
 11
-20.668922
 21
-67.577462
 31
0.0
  0
LINE
  5
297
100
AcDbEntity
  8
0
390
0
  6
Continuous
 62
     7
100
AcDbLine
 10
-22.75
 20
-68.778973
 30
0.0
 11
-22.75
 21
-69.262702
 31
0.0
  0
LINE
  5
298
100
AcDbEntity
  8
0
390
0
  6
Continuous
 62
     7
100
AcDbLine
 10
-24.831078
 20
-67.577462
 30
0.0
 11
-22.75
 21
-68.778973
 31
0.0
  0
LINE
  5
299
100
AcDbEntity
  8
0
390
0
  6
Continuous
 62
     7
100
AcDbLine
 10
-24.831078
 20
-67.577462
 30
0.0
 11
-25.0
 21
-67.674989
 31
0.0
  0
ELLIPSE
  5
29A
100
AcDbEntity
  8
0
390
0
  6
Continuous
 62
     7
100
AcDbEllipse
 10
0.0
 20
-73.874021
 30
0.0
 11
-33.498723645173285
 21
19.346391109741763
 31
0.0
210
0.0
220
0.0
230
1.0
 40
0.015115
 41
1.2158921417307449
 42
1.2842069238714078
  0
LINE
  5
29B
100
AcDbEntity
  8
0
390
0
  6
Continuous
 62
     7
100
AcDbLine
 10
-9.75
 20
-68.890831
 30
0.0
 11
-9.75
 21
-69.262702
 31
0.0
  0
ELLIPSE
  5
29C
100
AcDbEntity
  8
0
390
0
  6
Continuous
 62
     7
100
AcDbEllipse
 10
0.0
 20
-77.626798
 30
0.0
 11
33.498723645173285
 21
19.346391109741734
 31
0.0
210
0.0
220
0.0
230
1.0
 40
0.015115
 41
5.2101081799544824
 42
5.2836185499195132
  0
LINE
  5
29D
100
AcDbEntity
  8
0
390
0
  6
Continuous
 62
     7
100
AcDbLine
 10
16.25
 20
-68.835304
 30
0.0
 11
16.25
 21
-69.262702
 31
0.0
  0
ELLIPSE
  5
29E
100
AcDbEntity
  8
0
390
0
  6
Continuous
 62
     7
100
AcDbEllipse
 10
0.0
 20
-73.874021
 30
0.0
 11
33.498723645173285
 21
19.346391109741734
 31
0.0
210
0.0
220
0.0
230
1.0
 40
0.015115
 41
4.9989783833081782
 42
5.0672931654488425
  0
LINE
  5
29F
100
AcDbEntity
  8
0
390
0
  6
Continuous
 62
     7
100
AcDbLine
 10
9.75
 20
-68.890831
 30
0.0
 11
9.75
 21
-69.262702
 31
0.0
  0
ELLIPSE
  5
2A0
100
AcDbEntity
  8
0
390
0
  6
Continuous
 62
     7
100
AcDbEllipse
 10
0.0
 20
-58.862914
 30
0.0
 11
-33.498723645173285
 21
19.346391109741763
 31
0.0
210
0.0
220
0.0
230
1.0
 40
0.015115
 41
2.0139929062672595
 42
2.08597413708145
  0
ELLIPSE
  5
2A1
100
AcDbEntity
  8
0
390
0
  6
Continuous
 62
     7
100
AcDbEllipse
 10
0.0
 20
-70.121244
 30
0.0
 11
33.498723645173285
 21
19.346391109741734
 31
0.0
210
0.0
220
0.0
230
1.0
 40
0.015115
 41
4.80082743097375
 42
4.866936021750492
  0
LINE
  5
2A2
100
AcDbEntity
  8
0
390
0
  6
Continuous
 62
     7
100
AcDbLine
 10
3.25
 20
-68.916876
 30
0.0
 11
3.25
 21
-69.262702
 31
0.0
  0
ELLIPSE
  5
2A3
100
AcDbEntity
  8
0
390
0
  6
Continuous
 62
     7
100
AcDbEllipse
 10
0.0
 20
-62.615691
 30
0.0
 11
33.498723645173285
 21
19.346391109741734
 31
0.0
210
0.0
220
0.0
230
1.0
 40
0.015115
 41
4.40834096674444
 42
4.4759712576144857
  0
ELLIPSE
  5
2A4
100
AcDbEntity
  8
0
390
0
  6
Continuous
 62
     7
100
AcDbEllipse
 10
0.0
 20
-70.121244
 30
0.0
 11
-33.498723645173285
 21
19.346391109741763
 31
0.0
210
0.0
220
0.0
230
1.0
 40
0.015115
 41
1.4162492854290945
 42
1.4823578762058383
  0
LINE
  5
2A5
100
AcDbEntity
  8
0
390
0
  6
Continuous
 62
     7
100
AcDbLine
 10
-3.25
 20
-68.916876
 30
0.0
 11
-3.25
 21
-69.262702
 31
0.0
  0
ELLIPSE
  5
2A6
100
AcDbEntity
  8
0
390
0
  6
Continuous
 62
     7
100
AcDbEllipse
 10
0.0
 20
-66.368468
 30
0.0
 11
33.498723645173285
 21
19.346391109741734
 31
0.0
210
0.0
220
0.0
230
1.0
 40
0.015115
 41
4.60649191907887
 42
4.6724002030875198
  0
ELLIPSE
  5
2A7
100
AcDbEntity
  8
0
390
0
  6
Continuous
 62
     7
100
AcDbEllipse
 10
0.0
 20
-62.615691
 30
0.0
 11
-33.498723645173285
 21
19.346391109741763
 31
0.0
210
0.0
220
0.0
230
1.0
 40
0.015115
 41
1.807214049565101
 42
1.8748443404351469
  0
ELLIPSE
  5
2A8
100
AcDbEntity
  8
0
390
0
  6
Continuous
 62
     7
100
AcDbEllipse
 10
0.0
 20
-66.368468
 30
0.0
 11
-33.498723645173285
 21
19.346391109741763
 31
0.0
210
0.0
220
0.0
230
1.0
 40
0.015115
 41
1.6107851040920673
 42
1.6766933881007167
  0
LINE
  5
2A9
100
AcDbEntity
  8
0
390
0
  6
Continuous
 62
     7
100
AcDbLine
 10
-15.140138
 20
-70.769176
 30
0.0
 11
-15.5
 21
-70.56141
 31
0.0
  0
LINE
  5
2AA
100
AcDbEntity
  8
0
390
0
  6
Continuous
 62
     7
100
AcDbLine
 10
-13.0
 20
-69.513589
 30
0.0
 11
-13.0
 21
-69.118035
 31
0.0
  0
ELLIPSE
  5
2AB
100
AcDbEntity
  8
0
390
0
  6
Continuous
 62
     7
100
AcDbEllipse
 10
0.0
 20
-62.630327
 30
0.0
 11
33.498723645173314
 21
19.346391109741734
 31
0.0
210
0.0
220
0.0
230
1.0
 40
0.015115
 41
1.960592398236163
 42
2.0310109021997049
  0
LINE
  5
2AC
100
AcDbEntity
  8
0
390
0
  6
Continuous
 62
     7
100
AcDbLine
 10
6.5
 20
-69.473508
 30
0.0
 11
6.5
 21
-69.118035
 31
0.0
  0
LINE
  5
2AD
100
AcDbEntity
  8
0
390
0
  6
Continuous
 62
     7
100
AcDbLine
 10
8.683279
 20
-70.744269
 30
0.0
 11
9.0
 21
-70.56141
 31
0.0
  0
ELLIPSE
  5
2AE
100
AcDbEntity
  8
0
390
0
  6
Continuous
 62
     7
100
AcDbEllipse
 10
0.0
 20
-66.383104
 30
0.0
 11
-33.498723645173285
 21
19.346391109741734
 31
0.0
210
0.0
220
0.0
230
1.0
 40
0.015115
 41
4.4589220388681401
 42
4.5258498759858083
  0
ELLIPSE
  5
2AF
100
AcDbEntity
  8
0
390
0
  6
Continuous
 62
     7
100
AcDbEllipse
 10
0.0
 20
-58.877551
 30
0.0
 11
-33.498723645173285
 21
19.346391109741734
 31
0.0
210
0.0
220
0.0
230
1.0
 40
0.015115
 41
4.0628369007385867
 42
4.0998221707854938
  0
LINE
  5
2B0
100
AcDbEntity
  8
0
390
0
  6
Continuous
 62
     7
100
AcDbLine
 10
19.5
 20
-69.586855
 30
0.0
 11
19.5
 21
-69.118035
 31
0.0
  0
LINE
  5
2B1
100
AcDbEntity
  8
0
390
0
  6
Continuous
 62
     7
100
AcDbLine
 10
21.581078
 20
-70.803275
 30
0.0
 11
22.0
 21
-70.56141
 31
0.0
  0
LINE
  5
2B2
100
AcDbEntity
  8
0
390
0
  6
Continuous
 62
     7
100
AcDbLine
 10
20.493901
 20
-70.175593
 30
0.0
 11
21.581078
 21
-70.803275
 31
0.0
  0
LINE
  5
2B3
100
AcDbEntity
  8
0
390
0
  6
Continuous
 62
     7
100
AcDbLine
 10
-19.5
 20
-69.586855
 30
0.0
 11
-19.5
 21
-69.118035
 31
0.0
  0
LINE
  5
2B4
100
AcDbEntity
  8
0
390
0
  6
Continuous
 62
     7
100
AcDbLine
 10
-17.381604
 20
-70.78173
 30
0.0
 11
-17.0
 21
-70.56141
 31
0.0
  0
ELLIPSE
  5
2B5
100
AcDbEntity
  8
0
390
0
  6
Continuous
 62
     7
100
AcDbEllipse
 10
0.0
 20
-81.394211
 30
0.0
 11
-33.498723645173285
 21
19.346391109741734
 31
0.0
210
0.0
220
0.0
230
1.0
 40
0.015115
 41
5.2666279573154284
 42
5.3424144007006458
  0
LINE
  5
2B6
100
AcDbEntity
  8
0
390
0
  6
Continuous
 62
     7
100
AcDbLine
 10
4.301577
 20
-70.735526
 30
0.0
 11
4.0
 21
-70.56141
 31
0.0
  0
ELLIPSE
  5
2B7
100
AcDbEntity
  8
0
390
0
  6
Continuous
 62
     7
100
AcDbEllipse
 10
0.0
 20
-73.888658
 30
0.0
 11
33.498723645173314
 21
19.346391109741734
 31
0.0
210
0.0
220
0.0
230
1.0
 40
0.015115
 41
1.3667986116792523
 42
1.4333062454174803
  0
LINE
  5
2B8
100
AcDbEntity
  8
0
390
0
  6
Continuous
 62
     7
100
AcDbLine
 10
-6.5
 20
-69.473508
 30
0.0
 11
-6.5
 21
-69.118035
 31
0.0
  0
LINE
  5
2B9
100
AcDbEntity
  8
0
390
0
  6
Continuous
 62
     7
100
AcDbLine
 10
-4.301577
 20
-70.735526
 30
0.0
 11
-4.0
 21
-70.56141
 31
0.0
  0
ELLIPSE
  5
2BA
100
AcDbEntity
  8
0
390
0
  6
Continuous
 62
     7
100
AcDbEllipse
 10
0.0
 20
-73.888658
 30
0.0
 11
-33.498723645173285
 21
19.346391109741734
 31
0.0
210
0.0
220
0.0
230
1.0
 40
0.015115
 41
4.8498790617621053
 42
4.916386695500333
  0
LINE
  5
2BB
100
AcDbEntity
  8
0
390
0
  6
Continuous
 62
     7
100
AcDbLine
 10
-8.683279
 20
-70.744269
 30
0.0
 11
-9.0
 21
-70.56141
 31
0.0
  0
ELLIPSE
  5
2BC
100
AcDbEntity
  8
0
390
0
  6
Continuous
 62
     7
100
AcDbEllipse
 10
0.0
 20
-66.383104
 30
0.0
 11
33.498723645173314
 21
19.346391109741734
 31
0.0
210
0.0
220
0.0
230
1.0
 40
0.015115
 41
1.7573354311937788
 42
1.8242632683114461
  0
LINE
  5
2BD
100
AcDbEntity
  8
0
390
0
  6
Continuous
 62
     7
100
AcDbLine
 10
17.381604
 20
-70.78173
 30
0.0
 11
17.0
 21
-70.56141
 31
0.0
  0
ELLIPSE
  5
2BE
100
AcDbEntity
  8
0
390
0
  6
Continuous
 62
     7
100
AcDbEllipse
 10
0.0
 20
-81.394211
 30
0.0
 11
33.498723645173314
 21
19.346391109741734
 31
0.0
210
0.0
220
0.0
230
1.0
 40
0.015115
 41
0.9407709064789395
 42
1.0165573498641569
  0
LINE
  5
2BF
100
AcDbEntity
  8
0
390
0
  6
Continuous
 62
     7
100
AcDbLine
 10
-21.581078
 20
-70.803275
 30
0.0
 11
-20.493902
 21
-70.175593
 31
0.0
  0
ELLIPSE
  5
2C0
100
AcDbEntity
  8
0
390
0
  6
Continuous
 62
     7
100
AcDbEllipse
 10
0.0
 20
-58.877551
 30
0.0
 11
33.498723645173314
 21
19.346391109741734
 31
0.0
210
0.0
220
0.0
230
1.0
 40
0.015115
 41
2.183363136394092
 42
2.2203484064409991
  0
LINE
  5
2C1
100
AcDbEntity
  8
0
390
0
  6
Continuous
 62
     7
100
AcDbLine
 10
10.828124
 20
-70.750853
 30
0.0
 11
10.5
 21
-70.56141
 31
0.0
  0
LINE
  5
2C2
100
AcDbEntity
  8
0
390
0
  6
Continuous
 62
     7
100
AcDbLine
 10
13.0
 20
-69.513589
 30
0.0
 11
13.0
 21
-69.118035
 31
0.0
  0
ELLIPSE
  5
2C3
100
AcDbEntity
  8
0
390
0
  6
Continuous
 62
     7
100
AcDbEllipse
 10
0.0
 20
-77.641434
 30
0.0
 11
33.498723645173314
 21
19.346391109741734
 31
0.0
210
0.0
220
0.0
230
1.0
 40
0.015115
 41
1.1635416446368676
 42
1.232928835132783
  0
LINE
  5
2C4
100
AcDbEntity
  8
0
390
0
  6
Continuous
 62
     7
100
AcDbLine
 10
0.0
 20
-69.460676
 30
0.0
 11
0.0
 21
-69.118035
 31
0.0
  0
LINE
  5
2C5
100
AcDbEntity
  8
0
390
0
  6
Continuous
 62
     7
100
AcDbLine
 10
2.201999
 20
-70.733461
 30
0.0
 11
2.5
 21
-70.56141
 31
0.0
  0
ELLIPSE
  5
2C6
100
AcDbEntity
  8
0
390
0
  6
Continuous
 62
     7
100
AcDbEllipse
 10
0.0
 20
-70.135881
 30
0.0
 11
-33.498723645173285
 21
19.346391109741734
 31
0.0
210
0.0
220
0.0
230
1.0
 40
0.015115
 41
4.6553395378033136
 42
4.7211182857430707
  0
LINE
  5
2C7
100
AcDbEntity
  8
0
390
0
  6
Continuous
 62
     7
100
AcDbLine
 10
-10.828125
 20
-70.750853
 30
0.0
 11
-10.5
 21
-70.56141
 31
0.0
  0
ELLIPSE
  5
2C8
100
AcDbEntity
  8
0
390
0
  6
Continuous
 62
     7
100
AcDbEllipse
 10
0.0
 20
-77.641434
 30
0.0
 11
-33.498723645173285
 21
19.346391109741734
 31
0.0
210
0.0
220
0.0
230
1.0
 40
0.015115
 41
5.0502564720468026
 42
5.1196436625427166
  0
LINE
  5
2C9
100
AcDbEntity
  8
0
390
0
  6
Continuous
 62
     7
100
AcDbLine
 10
-2.201999
 20
-70.733461
 30
0.0
 11
-2.5
 21
-70.56141
 31
0.0
  0
ELLIPSE
  5
2CA
100
AcDbEntity
  8
0
390
0
  6
Continuous
 62
     7
100
AcDbEllipse
 10
0.0
 20
-70.135881
 30
0.0
 11
33.498723645173314
 21
19.346391109741734
 31
0.0
210
0.0
220
0.0
230
1.0
 40
0.015115
 41
1.562067021436516
 42
1.6278457693762722
  0
LINE
  5
2CB
100
AcDbEntity
  8
0
390
0
  6
Continuous
 62
     7
100
AcDbLine
 10
15.140138
 20
-70.769176
 30
0.0
 11
15.5
 21
-70.56141
 31
0.0
  0
ELLIPSE
  5
2CC
100
AcDbEntity
  8
0
390
0
  6
Continuous
 62
     7
100
AcDbEllipse
 10
0.0
 20
-62.630327
 30
0.0
 11
-33.498723645173285
 21
19.346391109741734
 31
0.0
210
0.0
220
0.0
230
1.0
 40
0.015115
 41
4.2521744049798809
 42
4.3225929089434221
  0
LINE
  5
2CD
100
AcDbEntity
  8
0
390
0
  6
Continuous
 62
     7
100
AcDbLine
 10
8.683279
 20
-70.744269
 30
0.0
 11
8.683279
 21
-71.246786
 31
0.0
  0
LINE
  5
2CE
100
AcDbEntity
  8
0
390
0
  6
Continuous
 62
     7
100
AcDbLine
 10
-8.683279
 20
-71.246786
 30
0.0
 11
-8.683279
 21
-70.744269
 31
0.0
  0
LINE
  5
2CF
100
AcDbEntity
  8
0
390
0
  6
Continuous
 62
     7
100
AcDbLine
 10
-15.140138
 20
-71.246786
 30
0.0
 11
-15.140138
 21
-70.769176
 31
0.0
  0
LINE
  5
2D0
100
AcDbEntity
  8
0
390
0
  6
Continuous
 62
     7
100
AcDbLine
 10
-10.828125
 20
-70.750853
 30
0.0
 11
-10.828125
 21
-71.246786
 31
0.0
  0
LINE
  5
2D1
100
AcDbEntity
  8
0
390
0
  6
Continuous
 62
     7
100
AcDbLine
 10
-4.301577
 20
-70.735526
 30
0.0
 11
-4.301577
 21
-71.246786
 31
0.0
  0
LINE
  5
2D2
100
AcDbEntity
  8
0
390
0
  6
Continuous
 62
     7
100
AcDbLine
 10
15.140138
 20
-70.769176
 30
0.0
 11
15.140138
 21
-71.246786
 31
0.0
  0
LINE
  5
2D3
100
AcDbEntity
  8
0
390
0
  6
Continuous
 62
     7
100
AcDbLine
 10
10.828124
 20
-71.246786
 30
0.0
 11
10.828124
 21
-70.750853
 31
0.0
  0
LINE
  5
2D4
100
AcDbEntity
  8
0
390
0
  6
Continuous
 62
     7
100
AcDbLine
 10
-17.381604
 20
-70.78173
 30
0.0
 11
-17.381604
 21
-71.246786
 31
0.0
  0
LINE
  5
2D5
100
AcDbEntity
  8
0
390
0
  6
Continuous
 62
     7
100
AcDbLine
 10
-2.201999
 20
-71.246786
 30
0.0
 11
-2.201999
 21
-70.733461
 31
0.0
  0
LINE
  5
2D6
100
AcDbEntity
  8
0
390
0
  6
Continuous
 62
     7
100
AcDbLine
 10
2.201999
 20
-70.733461
 30
0.0
 11
2.201999
 21
-71.246786
 31
0.0
  0
LINE
  5
2D7
100
AcDbEntity
  8
0
390
0
  6
Continuous
 62
     7
100
AcDbLine
 10
4.301577
 20
-71.246786
 30
0.0
 11
4.301577
 21
-70.735526
 31
0.0
  0
LINE
  5
2D8
100
AcDbEntity
  8
0
390
0
  6
Continuous
 62
     7
100
AcDbLine
 10
17.381604
 20
-71.246786
 30
0.0
 11
17.381604
 21
-70.78173
 31
0.0
  0
LINE
  5
2D9
100
AcDbEntity
  8
0
390
0
  6
Continuous
 62
     7
100
AcDbLine
 10
21.581078
 20
-70.803275
 30
0.0
 11
21.581078
 21
-71.246786
 31
0.0
  0
LINE
  5
2DA
100
AcDbEntity
  8
0
390
0
  6
Continuous
 62
     7
100
AcDbLine
 10
-1.657622
 20
-48.046786
 30
0.0
 11
-0.821505
 21
-48.046786
 31
0.0
  0
LINE
  5
2DB
100
AcDbEntity
  8
0
390
0
  6
Continuous
 62
     7
100
AcDbLine
 10
-0.821505
 20
-48.046786
 30
0.0
 11
-0.821505
 21
-48.246786
 31
0.0
  0
LINE
  5
2DC
100
AcDbEntity
  8
0
390
0
  6
Continuous
 62
     7
100
AcDbLine
 10
1.176561
 20
-48.046786
 30
0.0
 11
1.176561
 21
-48.246786
 31
0.0
  0
LINE
  5
2DD
100
AcDbEntity
  8
0
390
0
  6
Continuous
 62
     7
100
AcDbLine
 10
1.176561
 20
-48.046786
 30
0.0
 11
2.404897
 21
-48.046786
 31
0.0
  0
LINE
  5
2DE
100
AcDbEntity
  8
0
390
0
  6
Continuous
 62
     7
100
AcDbLine
 10
2.404897
 20
-48.046786
 30
0.0
 11
2.404897
 21
-48.246786
 31
0.0
  0
LINE
  5
2DF
100
AcDbEntity
  8
0
390
0
  6
Continuous
 62
     7
100
AcDbLine
 10
-6.35364
 20
-48.046786
 30
0.0
 11
-6.35364
 21
-48.246786
 31
0.0
  0
LINE
  5
2E0
100
AcDbEntity
  8
0
390
0
  6
Continuous
 62
     7
100
AcDbLine
 10
-6.35364
 20
-48.046786
 30
0.0
 11
-5.191998
 21
-48.046786
 31
0.0
  0
LINE
  5
2E1
100
AcDbEntity
  8
0
390
0
  6
Continuous
 62
     7
100
AcDbLine
 10
-5.191998
 20
-48.046786
 30
0.0
 11
-5.191998
 21
-48.246786
 31
0.0
  0
LINE
  5
2E2
100
AcDbEntity
  8
0
390
0
  6
Continuous
 62
     7
100
AcDbLine
 10
-0.821505
 20
-48.046786
 30
0.0
 11
0.340474
 21
-48.046786
 31
0.0
  0
LINE
  5
2E3
100
AcDbEntity
  8
0
390
0
  6
Continuous
 62
     7
100
AcDbLine
 10
0.340474
 20
-48.046786
 30
0.0
 11
0.340474
 21
-48.246786
 31
0.0
  0
LINE
  5
2E4
100
AcDbEntity
  8
0
390
0
  6
Continuous
 62
     7
100
AcDbLine
 10
-4.772085
 20
-48.046786
 30
0.0
 11
-4.772085
 21
-48.246786
 31
0.0
  0
LINE
  5
2E5
100
AcDbEntity
  8
0
390
0
  6
Continuous
 62
     7
100
AcDbLine
 10
-5.191998
 20
-48.046786
 30
0.0
 11
-4.772085
 21
-48.046786
 31
0.0
  0
LINE
  5
2E6
100
AcDbEntity
  8
0
390
0
  6
Continuous
 62
     7
100
AcDbLine
 10
4.819075
 20
-48.046786
 30
0.0
 11
4.819075
 21
-48.246786
 31
0.0
  0
LINE
  5
2E7
100
AcDbEntity
  8
0
390
0
  6
Continuous
 62
     7
100
AcDbLine
 10
6.319075
 20
-48.046786
 30
0.0
 11
6.319075
 21
-48.246786
 31
0.0
  0
LINE
  5
2E8
100
AcDbEntity
  8
0
390
0
  6
Continuous
 62
     7
100
AcDbLine
 10
4.819075
 20
-48.046786
 30
0.0
 11
6.319075
 21
-48.046786
 31
0.0
  0
LINE
  5
2E9
100
AcDbEntity
  8
0
390
0
  6
Continuous
 62
     7
100
AcDbLine
 10
2.404897
 20
-48.046786
 30
0.0
 11
3.240983
 21
-48.046786
 31
0.0
  0
LINE
  5
2EA
100
AcDbEntity
  8
0
390
0
  6
Continuous
 62
     7
100
AcDbLine
 10
3.240983
 20
-48.046786
 30
0.0
 11
3.240983
 21
-48.246786
 31
0.0
  0
LINE
  5
2EB
100
AcDbEntity
  8
0
390
0
  6
Continuous
 62
     7
100
AcDbLine
 10
3.240983
 20
-48.046786
 30
0.0
 11
4.819075
 21
-48.046786
 31
0.0
  0
LINE
  5
2EC
100
AcDbEntity
  8
0
390
0
  6
Continuous
 62
     7
100
AcDbLine
 10
0.340474
 20
-48.046786
 30
0.0
 11
1.176561
 21
-48.046786
 31
0.0
  0
LINE
  5
2ED
100
AcDbEntity
  8
0
390
0
  6
Continuous
 62
     7
100
AcDbLine
 10
-2.819519
 20
-48.046786
 30
0.0
 11
-2.819519
 21
-48.246786
 31
0.0
  0
LINE
  5
2EE
100
AcDbEntity
  8
0
390
0
  6
Continuous
 62
     7
100
AcDbLine
 10
-4.049501
 20
-48.046786
 30
0.0
 11
-2.819519
 21
-48.046786
 31
0.0
  0
LINE
  5
2EF
100
AcDbEntity
  8
0
390
0
  6
Continuous
 62
     7
100
AcDbLine
 10
-1.657622
 20
-48.046786
 30
0.0
 11
-1.657622
 21
-48.246786
 31
0.0
  0
LINE
  5
2F0
100
AcDbEntity
  8
0
390
0
  6
Continuous
 62
     7
100
AcDbLine
 10
-2.819519
 20
-48.046786
 30
0.0
 11
-1.657622
 21
-48.046786
 31
0.0
  0
LINE
  5
2F1
100
AcDbEntity
  8
0
390
0
  6
Continuous
 62
     7
100
AcDbLine
 10
-4.049501
 20
-48.046786
 30
0.0
 11
-4.049501
 21
-48.246786
 31
0.0
  0
LINE
  5
2F2
100
AcDbEntity
  8
0
390
0
  6
Continuous
 62
     7
100
AcDbLine
 10
-4.772085
 20
-48.046786
 30
0.0
 11
-4.049501
 21
-48.046786
 31
0.0
  0
LINE
  5
2F3
100
AcDbEntity
  8
0
390
0
  6
Continuous
 62
     7
100
AcDbLine
 10
-24.831078
 20
-65.17444
 30
0.0
 11
-24.831078
 21
-67.577462
 31
0.0
  0
LINE
  5
2F4
100
AcDbEntity
  8
0
390
0
  6
Continuous
 62
     7
100
AcDbLine
 10
-24.831078
 20
-56.319132
 30
0.0
 11
-24.831078
 21
-53.91611
 31
0.0
  0
LINE
  5
2F5
100
AcDbEntity
  8
0
390
0
  6
Continuous
 62
     7
100
AcDbLine
 10
24.831078
 20
-67.577462
 30
0.0
 11
24.831078
 21
-65.17444
 31
0.0
  0
LINE
  5
2F6
100
AcDbEntity
  8
0
390
0
  6
Continuous
 62
     7
100
AcDbLine
 10
24.831078
 20
-53.91611
 30
0.0
 11
24.831078
 21
-56.319132
 31
0.0
  0
LINE
  5
2F7
100
AcDbEntity
  8
0
390
0
  6
Continuous
 62
     7
100
AcDbLine
 10
-20.493902
 20
-62.575979
 30
0.0
 11
-20.493902
 21
-58.917593
 31
0.0
  0
LINE
  5
2F8
100
AcDbEntity
  8
0
390
0
  6
Continuous
 62
     7
100
AcDbLine
 10
-20.493902
 20
-71.246786
 30
0.0
 11
-20.493902
 21
-70.175593
 31
0.0
  0
LINE
  5
2F9
100
AcDbEntity
  8
0
390
0
  6
Continuous
 62
     7
100
AcDbLine
 10
20.493901
 20
-62.575979
 30
0.0
 11
20.493901
 21
-58.917593
 31
0.0
  0
LINE
  5
2FA
100
AcDbEntity
  8
0
390
0
  6
Continuous
 62
     7
100
AcDbLine
 10
-20.493902
 20
-51.317979
 30
0.0
 11
-20.493902
 21
-50.246786
 31
0.0
  0
LINE
  5
2FB
100
AcDbEntity
  8
0
390
0
  6
Continuous
 62
     7
100
AcDbLine
 10
20.493901
 20
-71.246786
 30
0.0
 11
20.493901
 21
-70.175593
 31
0.0
  0
LINE
  5
2FC
100
AcDbEntity
  8
0
390
0
  6
Continuous
 62
     7
100
AcDbLine
 10
20.493901
 20
-51.317979
 30
0.0
 11
20.493901
 21
-50.246786
 31
0.0
  0
POINT
  5
2FD
100
AcDbEntity
  8
0
390
0
 62
     7
100
AcDbPoint
 10
0.0
 20
0.0
 30
0.0
  0
ENDSEC
  0
SECTION
  2
OBJECTS
  0
DICTIONARY
  5
19
100
AcDbDictionary
280
     0
281
     1
  3
ACAD_GROUP
350
1A
  3
ACAD_MLINESTYLE
350
1B
  3
ACAD_LAYOUT
350
1E
  3
ACAD_PLOTSETTINGS
350
22
  3
ACAD_PLOTSTYLENAME
350
1F
  3
ACAD_WIPEOUT_VARS
350
23
  0
DICTIONARY
  5
1A
102
{ACAD_REACTORS
330
19
102
}
100
AcDbDictionary
280
     0
281
     1
  0
DICTIONARY
  5
1B
102
{ACAD_REACTORS
330
19
102
}
100
AcDbDictionary
280
     0
281
     1
  3
Standard
350
1C
  0
MLINESTYLE
  5
1C
102
{ACAD_REACTORS
330
1B
102
}
100
AcDbMlineStyle
  2
Standard
 70
     0
  3

 62
     0
 51
90.0
 52
90.0
 71
     2
 49
0.5
 62
   256
  6
ByLayer
 49
-0.5
 62
   256
  6
ByLayer
  0
ACDBDICTIONARYWDFLT
  5
1F
102
{ACAD_REACTORS
330
19
102
}
100
AcDbDictionary
281
     1
  3
Normal
350
1D
100
AcDbDictionaryWithDefault
340
1D
  0
ACDBPLACEHOLDER
  5
1D
102
{ACAD_REACTORS
330
1F
102
}
  0
LAYOUT
  5
20
102
{ACAD_REACTORS
330
1E
102
}
100
AcDbPlotSettings
  1

  2

  4

  6

 40
0.0
 41
0.0
 42
0.0
 43
0.0
 44
0.0
 45
0.0
 46
0.0
 47
0.0
 48
0.0
 49
0.0
140
0.0
141
0.0
142
1.0
143
1.0
 70
  1024
 72
     0
 73
     0
 74
     0
  7

 75
     0
147
1.0
148
0.0
149
0.0
100
AcDbLayout
  1
Model
 70
     0
 71
     1
 10
0.0
 20
0.0
 11
0.0
 21
0.0
 12
0.0
 22
0.0
 32
0.0
 14
0.0
 24
0.0
 34
0.0
 15
0.0
 25
0.0
 35
0.0
146
0.0
 13
0.0
 23
0.0
 33
0.0
 16
0.0
 26
0.0
 36
0.0
 17
0.0
 27
0.0
 37
0.0
 76
     0
330
A
331
0
345
0
346
0
  0
LAYOUT
  5
21
102
{ACAD_REACTORS
330
1E
102
}
100
AcDbPlotSettings
  1

  2

  4

  6

 40
0.0
 41
0.0
 42
0.0
 43
0.0
 44
0.0
 45
0.0
 46
0.0
 47
0.0
 48
0.0
 49
0.0
140
0.0
141
0.0
142
1.0
143
1.0
 70
     0
 72
     0
 73
     0
 74
     0
  7

 75
     0
147
1.0
148
0.0
149
0.0
100
AcDbLayout
  1
Layout1
 70
     0
 71
     2
 10
0.0
 20
0.0
 11
0.0
 21
0.0
 12
0.0
 22
0.0
 32
0.0
 14
0.0
 24
0.0
 34
0.0
 15
0.0
 25
0.0
 35
0.0
146
0.0
 13
0.0
 23
0.0
 33
0.0
 16
0.0
 26
0.0
 36
0.0
 17
0.0
 27
0.0
 37
0.0
 76
     0
330
B
331
0
345
0
346
0
  0
DICTIONARY
  5
1E
102
{ACAD_REACTORS
330
19
102
}
100
AcDbDictionary
280
     0
281
     1
  3
Layout1
350
21
  3
Model
350
20
  0
DICTIONARY
  5
22
102
{ACAD_REACTORS
330
19
102
}
100
AcDbDictionary
280
     0
281
     1
  0
WIPEOUTVARIABLES
  5
23
100
AcDbWipeoutVariables
 70
     1
  0
ENDSEC
  0
EOF
