  0
SECTION
  2
HEADER
  9
$ACADVER
  1
AC1015
  9
$ACADMAINTVER
 70
     6
  9
$DWGCODEPAGE
  3
DOS932
  9
$INSBASE
 10
0.0
 20
0.0
 30
0.0
  9
$EXTMIN
 10
-46.0
 20
-75.422352
 30
0.0
  9
$EXTMAX
 10
343.927364
 20
256.966327
 30
9.906
  9
$LIMMIN
 10
-46.0
 20
-75.422352
  9
$LIMMAX
 10
343.927364
 20
256.966327
  9
$ORTHOMODE
 70
     0
  9
$REGENMODE
 70
     1
  9
$FILLMODE
 70
     1
  9
$QTEXTMODE
 70
     0
  9
$MIRRTEXT
 70
     1
  9
$LTSCALE
 40
10.0
  9
$ATTMODE
 70
     1
  9
$TEXTSIZE
 40
0.2
  9
$TRACEWID
 40
0.05
  9
$TEXTSTYLE
  7
Standard
  9
$CLAYER
  8
0
  9
$CELTYPE
  6
Continuous
  9
$CECOLOR
 62
   256
  9
$CELTSCALE
 40
1.0
  9
$DISPSILH
 70
     0
  9
$DIMSCALE
 40
1.0
  9
$DIMASZ
 40
1.40208
  9
$DIMEXO
 40
1.40208
  9
$DIMDLI
 40
0.38
  9
$DIMRND
 40
0.0
  9
$DIMDLE
 40
0.0
  9
$DIMEXE
 40
1.05156
  9
$DIMTP
 40
0.0
  9
$DIMTM
 40
0.0
  9
$DIMTXT
 40
3.5052
  9
$DIMCEN
 40
0.09
  9
$DIMTSZ
 40
0.0
  9
$DIMTOL
 70
     0
  9
$DIMLIM
 70
     0
  9
$DIMTIH
 70
     0
  9
$DIMTOH
 70
     0
  9
$DIMSE1
 70
     0
  9
$DIMSE2
 70
     0
  9
$DIMTAD
 70
     1
  9
$DIMZIN
 70
     0
  9
$DIMBLK
  1

  9
$DIMASO
 70
     1
  9
$DIMSHO
 70
     1
  9
$DIMPOST
  1

  9
$DIMAPOST
  1

  9
$DIMALT
 70
     0
  9
$DIMALTD
 70
     2
  9
$DIMALTF
 40
25.4
  9
$DIMLFAC
 40
1.0
  9
$DIMTOFL
 70
     0
  9
$DIMTVP
 40
0.0
  9
$DIMTIX
 70
     0
  9
$DIMSOXD
 70
     0
  9
$DIMSAH
 70
     0
  9
$DIMBLK1
  1

  9
$DIMBLK2
  1

  9
$DIMSTYLE
  2
Standard
  9
$DIMCLRD
 70
     7
  9
$DIMCLRE
 70
     7
  9
$DIMCLRT
 70
     7
  9
$DIMTFAC
 40
0.5
  9
$DIMGAP
 40
1.7526
  9
$DIMJUST
 70
     0
  9
$DIMSD1
 70
     0
  9
$DIMSD2
 70
     0
  9
$DIMTOLJ
 70
     1
  9
$DIMTZIN
 70
     0
  9
$DIMALTZ
 70
     0
  9
$DIMALTTZ
 70
     0
  9
$DIMUPT
 70
     0
  9
$DIMDEC
 70
     2
  9
$DIMTDEC
 70
     4
  9
$DIMALTU
 70
     2
  9
$DIMALTTD
 70
     2
  9
$DIMTXSTY
  7
Standard
  9
$DIMAUNIT
 70
     0
  9
$DIMADEC
 70
     0
  9
$DIMALTRND
 40
0.0
  9
$DIMAZIN
 70
     0
  9
$DIMDSEP
 70
     0
  9
$DIMATFIT
 70
     3
  9
$DIMFRAC
 70
     0
  9
$DIMLDRBLK
  1

  9
$DIMLUNIT
 70
     2
  9
$DIMLWD
 70
     0
  9
$DIMLWE
 70
     0
  9
$DIMTMOVE
 70
     0
  9
$LUNITS
 70
     2
  9
$LUPREC
 70
     4
  9
$SKETCHINC
 40
0.1
  9
$FILLETRAD
 40
0.0
  9
$AUNITS
 70
     0
  9
$AUPREC
 70
     0
  9
$MENU
  1
acad
  9
$ELEVATION
 40
0.0
  9
$PELEVATION
 40
0.0
  9
$THICKNESS
 40
0.0
  9
$LIMCHECK
 70
     0
  9
$CHAMFERA
 40
0.0
  9
$CHAMFERB
 40
0.0
  9
$CHAMFERC
 40
0.0
  9
$CHAMFERD
 40
0.0
  9
$SKPOLY
 70
     0
  9
$TDCREATE
 40
2459780.610509259
  9
$TDUCREATE
 40
0.000000000
  9
$TDUPDATE
 40
2459780.235439815
  9
$TDUUPDATE
 40
0.000000000
  9
$TDINDWG
 40
0.0000000000
  9
$TDUSRTIMER
 40
0.0000000000
  9
$USRTIMER
 70
     1
  9
$ANGBASE
 50
0.0
  9
$ANGDIR
 70
     0
  9
$PDMODE
 70
     0
  9
$PDSIZE
 40
0.0
  9
$PLINEWID
 40
0.0
  9
$SPLFRAME
 70
     0
  9
$SPLINETYPE
 70
     6
  9
$SPLINESEGS
 70
     8
  9
$HANDSEED
  5
275
  9
$SURFTAB1
 70
     6
  9
$SURFTAB2
 70
     6
  9
$SURFTYPE
 70
     6
  9
$SURFU
 70
     6
  9
$SURFV
 70
     6
  9
$UCSBASE
  2

  9
$UCSNAME
  2

  9
$UCSORG
 10
0.0
 20
0.0
 30
0.0
  9
$UCSXDIR
 10
1.0
 20
0.0
 30
0.0
  9
$UCSYDIR
 10
0.0
 20
1.0
 30
0.0
  9
$UCSORTHOREF
  2

  9
$UCSORTHOVIEW
 70
     0
  9
$UCSORGTOP
 10
0.0
 20
0.0
 30
0.0
  9
$UCSORGBOTTOM
 10
0.0
 20
0.0
 30
0.0
  9
$UCSORGLEFT
 10
0.0
 20
0.0
 30
0.0
  9
$UCSORGRIGHT
 10
0.0
 20
0.0
 30
0.0
  9
$UCSORGFRONT
 10
0.0
 20
0.0
 30
0.0
  9
$UCSORGBACK
 10
0.0
 20
0.0
 30
0.0
  9
$PUCSBASE
  2

  9
$PUCSNAME
  2

  9
$PUCSORG
 10
0.0
 20
0.0
 30
0.0
  9
$PUCSXDIR
 10
1.0
 20
0.0
 30
0.0
  9
$PUCSYDIR
 10
0.0
 20
1.0
 30
0.0
  9
$PUCSORTHOREF
  2

  9
$PUCSORTHOVIEW
 70
     0
  9
$PUCSORGTOP
 10
0.0
 20
0.0
 30
0.0
  9
$PUCSORGBOTTOM
 10
0.0
 20
0.0
 30
0.0
  9
$PUCSORGLEFT
 10
0.0
 20
0.0
 30
0.0
  9
$PUCSORGRIGHT
 10
0.0
 20
0.0
 30
0.0
  9
$PUCSORGFRONT
 10
0.0
 20
0.0
 30
0.0
  9
$PUCSORGBACK
 10
0.0
 20
0.0
 30
0.0
  9
$USERI1
 70
     0
  9
$USERI2
 70
     0
  9
$USERI3
 70
     0
  9
$USERI4
 70
     0
  9
$USERI5
 70
     0
  9
$USERR1
 40
0.0
  9
$USERR2
 40
0.0
  9
$USERR3
 40
0.0
  9
$USERR4
 40
0.0
  9
$USERR5
 40
0.0
  9
$WORLDVIEW
 70
     1
  9
$SHADEDGE
 70
     3
  9
$SHADEDIF
 70
    70
  9
$TILEMODE
 70
     1
  9
$MAXACTVP
 70
    16
  9
$PINSBASE
 10
0.0
 20
0.0
 30
0.0
  9
$PLIMCHECK
 70
     0
  9
$PEXTMIN
 10
1.000000E+20
 20
1.000000E+20
 30
1.000000E+20
  9
$PEXTMAX
 10
-1.000000E+20
 20
-1.000000E+20
 30
-1.000000E+20
  9
$PLIMMIN
 10
0.0
 20
0.0
  9
$PLIMMAX
 10
12.0
 20
9.0
  9
$UNITMODE
 70
     0
  9
$VISRETAIN
 70
     0
  9
$PLINEGEN
 70
     1
  9
$PSLTSCALE
 70
     0
  9
$TREEDEPTH
 70
  3020
  9
$CMLSTYLE
  2
Standard
  9
$CMLJUST
 70
     0
  9
$CMLSCALE
 40
1.0
  9
$PROXYGRAPHICS
 70
     0
  9
$MEASUREMENT
 70
     0
  9
$CELWEIGHT
370
     0
  9
$ENDCAPS
280
     0
  9
$JOINSTYLE
280
     0
  9
$LWDISPLAY
290
     0
  9
$INSUNITS
 70
     0
  9
$HYPERLINKBASE
  1

  9
$STYLESHEET
  1

  9
$XEDIT
290
     1
  9
$CEPSNTYPE
380
     0
  9
$PSTYLEMODE
290
     1
  9
$FINGERPRINTGUID
  2

  9
$VERSIONGUID
  2

  9
$EXTNAMES
290
     1
  9
$PSVPSCALE
 40
0.0
  0
ENDSEC
  0
SECTION
  2
CLASSES
  0
CLASS
  1
LWPOLYLINE
  2
AcDbPolyline
  3
AutoCAD 2000
 90
        0
280
     0
281
     1
  0
CLASS
  1
IMAGE
  2
AcDbRasterImage
  3
ISM
 90
      127
280
     0
281
     1
  0
CLASS
  1
OLE2FRAME
  2
AcDbOle2Frame
  3
AutoCAD 2000
 90
        0
280
     0
281
     1
  0
CLASS
  1
HATCH
  2
AcDbHatch
  3
AutoCAD 2000
 90
        0
280
     0
281
     1
  0
CLASS
  1
DICTIONARYVAR
  2
AcDbDictionaryVar
  3
AutoCAD 2000
 90
        0
280
     0
281
     0
  0
CLASS
  1
RASTERVARIABLES
  2
AcDbRasterVariables
  3
ISM
 90
        0
280
     0
281
     0
  0
CLASS
  1
IMAGEDEF
  2
AcDbRasterImageDef
  3
ISM
 90
        0
280
     0
281
     0
  0
CLASS
  1
IMAGEDEF_REACTOR
  2
AcDbRasterImageDefReactor
  3
ISM
 90
        1
280
     0
281
     0
  0
CLASS
  1
IDBUFFER
  2
AcDbIdBuffer
  3
AutoCAD 2000
 90
        0
280
     0
281
     0
  0
CLASS
  1
SPATIAL_FILTER
  2
AcDbSpatialFilter
  3
AutoCAD 2000
 90
        0
280
     0
281
     0
  0
CLASS
  1
XRECORD
  2
AcDbXrecord
  3
AutoCAD 2000
 90
        0
280
     0
281
     0
  0
CLASS
  1
SORTENTSTABLE
  2
AcDbSortentsTable
  3
AutoCAD 2000
 90
        0
280
     0
281
     0
  0
CLASS
  1
LAYER_INDEX
  2
AcDbLayerIndex
  3
AutoCAD 2000
 90
        0
280
     0
281
     0
  0
CLASS
  1
SPATIAL_INDEX
  2
AcDbSpatialIndex
  3
AutoCAD 2000
 90
        0
280
     0
281
     0
  0
CLASS
  1
OBJECT_PTR
  2
CAseDLPNTableRecord
  3
"ASE-LPNTableRecord"
 90
        1
280
     0
281
     0
  0
CLASS
  1
LAYOUT
  2
AcDbLayout
  3
AutoCAD 2000
 90
        0
280
     0
281
     0
  0
CLASS
  1
PLOTSETTINGS
  2
AcDbPlotSettings
  3
AutoCAD 2000
 90
        0
280
     0
281
     0
  0
CLASS
  1
ACDBDICTIONARYWDFLT
  2
AcDbDictionaryWithDefault
  3
AutoCAD 2000
 90
        0
280
     0
281
     0
  0
CLASS
  1
ACDBPLACEHOLDER
  2
AcDbPlaceHolder
  3
AutoCAD 2000
 90
        0
280
     0
281
     0
  0
CLASS
  1
VBA_PROJECT
  2
AcDbVbaProject
  3
acadvba
 90
        0
280
     0
281
     0
  0
CLASS
  1
WIPEOUT
  2
AcDbWipeout
  3
WipeOut|AutoCAD Express Tool|expresstools@autodesk.com
 90
      127
280
     0
281
     1
  0
CLASS
  1
WIPEOUTVARIABLES
  2
AcDbWipeoutVariables
  3
WipeOut|AutoCAD Express Tool|expresstools@autodesk.com
 90
        0
280
     0
281
     0
  0
CLASS
  1
RTEXT
  2
RText
  3
RText|AutoCAD Express Tool|expresstools@autodesk.com
 90
        0
280
     0
281
     1
  0
CLASS
  1
ARCALIGNEDTEXT
  2
AcDbArcAlignedText
  3
ATEXT|AutoCAD Express Tool|expresstools@autodesk.com
 90
        0
280
     0
281
     1
  0
ENDSEC
  0
SECTION
  2
TABLES
  0
TABLE
  2
VPORT
  5
7
100
AcDbSymbolTable
 70
     1
  0
VPORT
  5
15
100
AcDbSymbolTableRecord
100
AcDbViewportTableRecord
  2
*ACTIVE
 70
     0
 10
0.0
 20
0.0
 11
1.0
 21
1.0
 12
6.591288
 22
4.579184
 13
0.0
 23
0.0
 14
1.0
 24
1.0
 15
0.0
 25
0.0
 16
0.0
 26
0.0
 36
1.0
 17
0.0
 27
0.0
 37
0.0
 40
9.158369
 41
0.688564
 42
50.0
 43
0.0
 44
0.0
 50
0.0
 51
0.0
 71
     0
 72
   100
 73
     1
 74
     1
 75
     0
 76
     0
 77
     0
 78
     0
281
     0
 65
     0
110
0.0
120
0.0
130
0.0
111
1.0
121
0.0
131
0.0
112
0.0
122
1.0
132
0.0
345
0
346
0
 79
     0
146
0.0
  0
ENDTAB
  0
TABLE
  2
LTYPE
  5
4
100
AcDbSymbolTable
 70
     3
  0
LTYPE
  5
11
100
AcDbSymbolTableRecord
100
AcDbLinetypeTableRecord
  2
ByBlock
 70
    64
  3

 72
    65
 73
     0
 40
0.0
  0
LTYPE
  5
12
100
AcDbSymbolTableRecord
100
AcDbLinetypeTableRecord
  2
ByLayer
 70
    64
  3

 72
    65
 73
     0
 40
0.0
  0
LTYPE
  5
13
100
AcDbSymbolTableRecord
100
AcDbLinetypeTableRecord
  2
Continuous
 70
    64
  3
Solid line
 72
    65
 73
     0
 40
0.0
  0
ENDTAB
  0
TABLE
  2
LAYER
  5
2
100
AcDbSymbolTable
 70
     1
  0
LAYER
  5
14
100
AcDbSymbolTableRecord
100
AcDbLayerTableRecord
  2
0
 70
     0
 62
     7
  6
Continuous
290
     1
370
    -3
390
1D
  0
ENDTAB
  0
TABLE
  2
STYLE
  5
3
100
AcDbSymbolTable
 70
     1
  0
STYLE
  5
17
100
AcDbSymbolTableRecord
100
AcDbTextStyleTableRecord
  2
Standard
 70
     0
 40
0.0
 41
1.0
 50
0.0
 71
     0
 42
0.0
  3
FG教科書体NT-M
  4

1001
ACAD
1000
FG教科書体NT-M
1071
        0
  0
ENDTAB
  0
TABLE
  2
VIEW
  5
5
100
AcDbSymbolTable
 70
     0
  0
ENDTAB
  0
TABLE
  2
UCS
  5
6
100
AcDbSymbolTable
 70
     0
  0
ENDTAB
  0
TABLE
  2
APPID
  5
8
100
AcDbSymbolTable
 70
     2
  0
APPID
  5
16
100
AcDbSymbolTableRecord
100
AcDbRegAppTableRecord
  2
ACAD
 70
     0
  0
APPID
  5
26
100
AcDbSymbolTableRecord
100
AcDbRegAppTableRecord
  2
TOPsolid_Design
 70
     0
  0
ENDTAB
  0
TABLE
  2
DIMSTYLE
  5
9
100
AcDbSymbolTable
 70
     1
100
AcDbDimStyleTable
 71
     0
  0
DIMSTYLE
105
18
100
AcDbSymbolTableRecord
100
AcDbDimStyleTableRecord
  2
Standard
 70
     0
  3

  4

 40
1.0
 41
1.40208
 42
1.40208
 43
0.38
 44
1.05156
 45
0.0
 46
0.0
 47
0.0
 48
0.0
 71
     0
 72
     0
 73
     0
 74
     0
 75
     0
 76
     0
 77
     1
 78
     0
 79
     0
140
3.5052
141
0.09
142
0.0
143
25.4
144
1.0
145
0.0
146
0.5
147
1.7526
148
0.0
170
     0
171
     2
172
     0
173
     0
174
     0
175
     0
176
     7
177
     7
178
     7
179
     0
271
     2
272
     4
273
     2
274
     2
275
     0
276
     0
277
     2
278
    46
279
     0
280
     0
281
     0
282
     0
283
     1
284
     0
285
     0
286
     0
288
     0
289
     3
340
17
341
0
342
0
343
0
344
0
371
    -2
372
    -2
  0
ENDTAB
  0
TABLE
  2
BLOCK_RECORD
  5
1
100
AcDbSymbolTable
 70
     0
  0
BLOCK_RECORD
  5
A
100
AcDbSymbolTableRecord
100
AcDbBlockTableRecord
  2
*MODEL_SPACE
340
20
  0
BLOCK_RECORD
  5
B
100
AcDbSymbolTableRecord
100
AcDbBlockTableRecord
  2
*PAPER_SPACE
340
21
  0
ENDTAB
  0
ENDSEC
  0
SECTION
  2
BLOCKS
  0
BLOCK
  5
D
100
AcDbEntity
  8
0
390
0
100
AcDbBlockBegin
  2
*MODEL_SPACE
 70
     0
 10
0.0
 20
0.0
 30
0.0
  3
*MODEL_SPACE
  1

  0
ENDBLK
  5
E
100
AcDbEntity
  8
0
390
0
100
AcDbBlockEnd
  0
BLOCK
  5
F
100
AcDbEntity
 67
     1
  8
0
390
0
100
AcDbBlockBegin
  2
*PAPER_SPACE
 70
     0
 10
0.0
 20
0.0
 30
0.0
  3
*PAPER_SPACE
  1

  0
ENDBLK
  5
10
100
AcDbEntity
 67
     1
  8
0
390
0
100
AcDbBlockEnd
  0
ENDSEC
  0
SECTION
  2
ENTITIES
  0
LINE
  5
27
100
AcDbEntity
  8
0
390
0
  6
Continuous
 62
     7
100
AcDbLine
 10
1.17656
 20
7.75
 30
0.0
 11
2.404897
 21
7.75
 31
0.0
  0
LINE
  5
28
100
AcDbEntity
  8
0
390
0
  6
Continuous
 62
     7
100
AcDbLine
 10
0.250796
 20
10.040946
 30
0.0
 11
1.17656
 21
7.75
 31
0.0
  0
LINE
  5
29
100
AcDbEntity
  8
0
390
0
  6
Continuous
 62
     7
100
AcDbLine
 10
0.831794
 20
11.479217
 30
0.0
 11
0.250796
 21
10.040946
 31
0.0
  0
LINE
  5
2A
100
AcDbEntity
  8
0
390
0
  6
Continuous
 62
     7
100
AcDbLine
 10
1.790601
 20
9.106196
 30
0.0
 11
0.831794
 21
11.479217
 31
0.0
  0
LINE
  5
2B
100
AcDbEntity
  8
0
390
0
  6
Continuous
 62
     7
100
AcDbLine
 10
3.059599
 20
12.246707
 30
0.0
 11
1.790601
 21
9.106196
 31
0.0
  0
LINE
  5
2C
100
AcDbEntity
  8
0
390
0
  6
Continuous
 62
     7
100
AcDbLine
 10
4.221594
 20
12.246707
 30
0.0
 11
3.059599
 21
12.246707
 31
0.0
  0
LINE
  5
2D
100
AcDbEntity
  8
0
390
0
  6
Continuous
 62
     7
100
AcDbLine
 10
2.404897
 20
7.75
 30
0.0
 11
4.221594
 21
12.246707
 31
0.0
  0
LINE
  5
2E
100
AcDbEntity
  8
0
390
0
  6
Continuous
 62
     7
100
AcDbLine
 10
3.240983
 20
7.75
 30
0.0
 11
4.819074
 21
7.75
 31
0.0
  0
LINE
  5
2F
100
AcDbEntity
  8
0
390
0
  6
Continuous
 62
     7
100
AcDbLine
 10
3.505178
 20
8.403906
 30
0.0
 11
3.240983
 21
7.75
 31
0.0
  0
LINE
  5
30
100
AcDbEntity
  8
0
390
0
  6
Continuous
 62
     7
100
AcDbLine
 10
4.143902
 20
8.403906
 30
0.0
 11
3.505178
 21
8.403906
 31
0.0
  0
ARC
  5
31
100
AcDbEntity
  8
0
390
0
  6
Continuous
 62
     7
100
AcDbCircle
 10
4.143902
 20
9.403906
 30
0.0
 40
1.0
210
0.0
220
0.0
230
1.0
100
AcDbArc
 50
270.0
 51
360.0
  0
LINE
  5
32
100
AcDbEntity
  8
0
390
0
  6
Continuous
 62
     7
100
AcDbLine
 10
5.143902
 20
12.246707
 30
0.0
 11
5.143902
 21
9.403906
 31
0.0
  0
LINE
  5
33
100
AcDbEntity
  8
0
390
0
  6
Continuous
 62
     7
100
AcDbLine
 10
6.319074
 20
12.246707
 30
0.0
 11
5.143902
 21
12.246707
 31
0.0
  0
LINE
  5
34
100
AcDbEntity
  8
0
390
0
  6
Continuous
 62
     7
100
AcDbLine
 10
6.319074
 20
9.25
 30
0.0
 11
6.319074
 21
12.246707
 31
0.0
  0
ARC
  5
35
100
AcDbEntity
  8
0
390
0
  6
Continuous
 62
     7
100
AcDbCircle
 10
4.819074
 20
9.25
 30
0.0
 40
1.5
210
0.0
220
0.0
230
1.0
100
AcDbArc
 50
270.0
 51
360.0
  0
LINE
  5
36
100
AcDbEntity
  8
0
390
0
  6
Continuous
 62
     7
100
AcDbLine
 10
-6.35364
 20
7.75
 30
0.0
 11
-5.191999
 21
7.75
 31
0.0
  0
LINE
  5
37
100
AcDbEntity
  8
0
390
0
  6
Continuous
 62
     7
100
AcDbLine
 10
-4.991636
 20
11.121512
 30
0.0
 11
-6.35364
 21
7.75
 31
0.0
  0
LINE
  5
38
100
AcDbEntity
  8
0
390
0
  6
Continuous
 62
     7
100
AcDbLine
 10
-4.049501
 20
8.788567
 30
0.0
 11
-4.991636
 21
11.121512
 31
0.0
  0
LINE
  5
39
100
AcDbEntity
  8
0
390
0
  6
Continuous
 62
     7
100
AcDbLine
 10
-4.772085
 20
8.788567
 30
0.0
 11
-4.049501
 21
8.788567
 31
0.0
  0
LINE
  5
3A
100
AcDbEntity
  8
0
390
0
  6
Continuous
 62
     7
100
AcDbLine
 10
-5.191999
 20
7.75
 30
0.0
 11
-4.772085
 21
8.788567
 31
0.0
  0
LINE
  5
3B
100
AcDbEntity
  8
0
390
0
  6
Continuous
 62
     7
100
AcDbLine
 10
-0.821506
 20
7.75
 30
0.0
 11
0.340474
 21
7.75
 31
0.0
  0
LINE
  5
3C
100
AcDbEntity
  8
0
390
0
  6
Continuous
 62
     7
100
AcDbLine
 10
-2.638488
 20
12.246707
 30
0.0
 11
-0.821506
 21
7.75
 31
0.0
  0
LINE
  5
3D
100
AcDbEntity
  8
0
390
0
  6
Continuous
 62
     7
100
AcDbLine
 10
-1.476508
 20
12.246707
 30
0.0
 11
-2.638488
 21
12.246707
 31
0.0
  0
LINE
  5
3E
100
AcDbEntity
  8
0
390
0
  6
Continuous
 62
     7
100
AcDbLine
 10
0.340474
 20
7.75
 30
0.0
 11
-1.476508
 21
12.246707
 31
0.0
  0
LINE
  5
3F
100
AcDbEntity
  8
0
390
0
  6
Continuous
 62
     7
100
AcDbLine
 10
-2.819519
 20
7.75
 30
0.0
 11
-1.657622
 21
7.75
 31
0.0
  0
LINE
  5
40
100
AcDbEntity
  8
0
390
0
  6
Continuous
 62
     7
100
AcDbLine
 10
-4.636246
 20
12.246707
 30
0.0
 11
-2.819519
 21
7.75
 31
0.0
  0
LINE
  5
41
100
AcDbEntity
  8
0
390
0
  6
Continuous
 62
     7
100
AcDbLine
 10
-1.657622
 20
7.75
 30
0.0
 11
-3.474604
 21
12.246707
 31
0.0
  0
LINE
  5
42
100
AcDbEntity
  8
0
390
0
  6
Continuous
 62
     7
100
AcDbLine
 10
-3.474604
 20
12.246707
 30
0.0
 11
-4.636246
 21
12.246707
 31
0.0
  0
LINE
  5
43
100
AcDbEntity
  8
0
390
0
  6
Continuous
 62
     7
100
AcDbLine
 10
16.0
 20
25.0
 30
0.0
 11
19.5
 21
25.0
 31
0.0
  0
ARC
  5
44
100
AcDbEntity
  8
0
390
0
  6
Continuous
 62
     7
100
AcDbCircle
 10
19.5
 20
23.5
 30
0.0
 40
1.5
210
0.0
220
0.0
230
1.0
100
AcDbArc
 50
0.0
 51
90.0
  0
LINE
  5
45
100
AcDbEntity
  8
0
390
0
  6
Continuous
 62
     7
100
AcDbLine
 10
21.0
 20
23.5
 30
0.0
 11
16.0
 21
23.5
 31
0.0
  0
LINE
  5
46
100
AcDbEntity
  8
0
390
0
  6
Continuous
 62
     7
100
AcDbLine
 10
16.0
 20
23.5
 30
0.0
 11
16.0
 21
25.0
 31
0.0
  0
LINE
  5
47
100
AcDbEntity
  8
0
390
0
  6
Continuous
 62
     7
100
AcDbLine
 10
16.0
 20
23.5
 30
0.0
 11
15.264337
 21
23.5
 31
0.0
  0
LINE
  5
48
100
AcDbEntity
  8
0
390
0
  6
Continuous
 62
     7
100
AcDbLine
 10
16.0
 20
2.0
 30
0.0
 11
16.0
 21
23.5
 31
0.0
  0
LINE
  5
49
100
AcDbEntity
  8
0
390
0
  6
Continuous
 62
     7
100
AcDbLine
 10
33.5
 20
2.0
 30
0.0
 11
16.0
 21
2.0
 31
0.0
  0
LINE
  5
4A
100
AcDbEntity
  8
0
390
0
  6
Continuous
 62
     7
100
AcDbLine
 10
33.5
 20
0.0
 30
0.0
 11
33.5
 21
2.0
 31
0.0
  0
LINE
  5
4B
100
AcDbEntity
  8
0
390
0
  6
Continuous
 62
     7
100
AcDbLine
 10
-33.5
 20
0.0
 30
0.0
 11
33.5
 21
0.0
 31
0.0
  0
LINE
  5
4C
100
AcDbEntity
  8
0
390
0
  6
Continuous
 62
     7
100
AcDbLine
 10
-33.5
 20
2.0
 30
0.0
 11
-33.5
 21
0.0
 31
0.0
  0
LINE
  5
4D
100
AcDbEntity
  8
0
390
0
  6
Continuous
 62
     7
100
AcDbLine
 10
-16.0
 20
2.0
 30
0.0
 11
-33.5
 21
2.0
 31
0.0
  0
LINE
  5
4E
100
AcDbEntity
  8
0
390
0
  6
Continuous
 62
     7
100
AcDbLine
 10
-16.0
 20
23.5
 30
0.0
 11
-16.0
 21
2.0
 31
0.0
  0
LINE
  5
4F
100
AcDbEntity
  8
0
390
0
  6
Continuous
 62
     7
100
AcDbLine
 10
-15.264338
 20
23.5
 30
0.0
 11
-16.0
 21
23.5
 31
0.0
  0
ARC
  5
50
100
AcDbEntity
  8
0
390
0
  6
Continuous
 62
     7
100
AcDbCircle
 10
0.0
 20
44.3
 30
0.0
 40
25.8
210
0.0
220
0.0
230
1.0
100
AcDbArc
 50
233.726456
 51
306.273544
  0
LINE
  5
51
100
AcDbEntity
  8
0
390
0
  6
Continuous
 62
     7
100
AcDbLine
 10
-33.5
 20
0.0
 30
0.0
 11
-46.0
 21
0.0
 31
0.0
  0
LINE
  5
52
100
AcDbEntity
  8
0
390
0
  6
Continuous
 62
     7
100
AcDbLine
 10
-46.0
 20
2.0
 30
0.0
 11
-46.0
 21
0.0
 31
0.0
  0
LINE
  5
53
100
AcDbEntity
  8
0
390
0
  6
Continuous
 62
     7
100
AcDbLine
 10
-46.0
 20
2.0
 30
0.0
 11
-33.5
 21
2.0
 31
0.0
  0
LINE
  5
54
100
AcDbEntity
  8
0
390
0
  6
Continuous
 62
     7
100
AcDbLine
 10
15.264337
 20
23.5
 30
0.0
 11
15.264337
 21
25.0
 31
0.0
  0
LINE
  5
55
100
AcDbEntity
  8
0
390
0
  6
Continuous
 62
     7
100
AcDbLine
 10
15.264337
 20
25.0
 30
0.0
 11
16.0
 21
25.0
 31
0.0
  0
LINE
  5
56
100
AcDbEntity
  8
0
390
0
  6
Continuous
 62
     7
100
AcDbLine
 10
33.5
 20
2.0
 30
0.0
 11
46.0
 21
2.0
 31
0.0
  0
LINE
  5
57
100
AcDbEntity
  8
0
390
0
  6
Continuous
 62
     7
100
AcDbLine
 10
46.0
 20
0.0
 30
0.0
 11
46.0
 21
2.0
 31
0.0
  0
LINE
  5
58
100
AcDbEntity
  8
0
390
0
  6
Continuous
 62
     7
100
AcDbLine
 10
46.0
 20
0.0
 30
0.0
 11
33.5
 21
0.0
 31
0.0
  0
ARC
  5
59
100
AcDbEntity
  8
0
390
0
  6
Continuous
 62
     7
100
AcDbCircle
 10
15.264337
 20
23.5
 30
0.0
 40
1.5
210
0.0
220
0.0
230
1.0
100
AcDbArc
 50
90.0
 51
126.273544
  0
LINE
  5
5A
100
AcDbEntity
  8
0
390
0
  6
Continuous
 62
     7
100
AcDbLine
 10
15.264337
 20
23.5
 30
0.0
 11
14.376876
 21
24.709302
 31
0.0
  0
ARC
  5
5B
100
AcDbEntity
  8
0
390
0
  6
Continuous
 62
     7
100
AcDbCircle
 10
-15.264338
 20
23.5
 30
0.0
 40
1.5
210
0.0
220
0.0
230
1.0
100
AcDbArc
 50
53.726456
 51
90.0
  0
LINE
  5
5C
100
AcDbEntity
  8
0
390
0
  6
Continuous
 62
     7
100
AcDbLine
 10
-15.264338
 20
23.5
 30
0.0
 11
-14.376876
 21
24.709302
 31
0.0
  0
LINE
  5
5D
100
AcDbEntity
  8
0
390
0
  6
Continuous
 62
     7
100
AcDbLine
 10
-15.264338
 20
23.5
 30
0.0
 11
-15.264338
 21
25.0
 31
0.0
  0
LINE
  5
5E
100
AcDbEntity
  8
0
390
0
  6
Continuous
 62
     7
100
AcDbLine
 10
-21.0
 20
2.0
 30
0.0
 11
-21.0
 21
23.5
 31
0.0
  0
LINE
  5
5F
100
AcDbEntity
  8
0
390
0
  6
Continuous
 62
     7
100
AcDbLine
 10
-16.0
 20
23.5
 30
0.0
 11
-21.0
 21
23.5
 31
0.0
  0
ARC
  5
60
100
AcDbEntity
  8
0
390
0
  6
Continuous
 62
     7
100
AcDbCircle
 10
0.0
 20
44.3
 30
0.0
 40
24.3
210
0.0
220
0.0
230
1.0
100
AcDbArc
 50
233.726456
 51
306.273544
  0
ARC
  5
61
100
AcDbEntity
  8
0
390
0
  6
Continuous
 62
     7
100
AcDbCircle
 10
-19.5
 20
23.5
 30
0.0
 40
1.5
210
0.0
220
0.0
230
1.0
100
AcDbArc
 50
90.0
 51
180.0
  0
LINE
  5
62
100
AcDbEntity
  8
0
390
0
  6
Continuous
 62
     7
100
AcDbLine
 10
-19.5
 20
25.0
 30
0.0
 11
-16.0
 21
25.0
 31
0.0
  0
LINE
  5
63
100
AcDbEntity
  8
0
390
0
  6
Continuous
 62
     7
100
AcDbLine
 10
-16.0
 20
23.5
 30
0.0
 11
-16.0
 21
25.0
 31
0.0
  0
LINE
  5
64
100
AcDbEntity
  8
0
390
0
  6
Continuous
 62
     7
100
AcDbLine
 10
-16.0
 20
25.0
 30
0.0
 11
-15.264338
 21
25.0
 31
0.0
  0
LINE
  5
65
100
AcDbEntity
  8
0
390
0
  6
Continuous
 62
     7
100
AcDbLine
 10
21.0
 20
23.5
 30
0.0
 11
21.0
 21
2.0
 31
0.0
  0
LINE
  5
66
100
AcDbEntity
  8
0
390
0
  6
Continuous
 62
     7
100
AcDbLine
 10
122.94115
 20
2.0
 30
0.0
 11
135.44115
 21
2.0
 31
0.0
  0
LINE
  5
67
100
AcDbEntity
  8
0
390
0
  6
Continuous
 62
     7
100
AcDbLine
 10
135.44115
 20
2.0
 30
0.0
 11
135.44115
 21
0.0
 31
0.0
  0
LINE
  5
68
100
AcDbEntity
  8
0
390
0
  6
Continuous
 62
     7
100
AcDbLine
 10
135.44115
 20
0.0
 30
0.0
 11
122.94115
 21
0.0
 31
0.0
  0
LINE
  5
69
100
AcDbEntity
  8
0
390
0
  6
Continuous
 62
     7
100
AcDbLine
 10
122.94115
 20
0.0
 30
0.0
 11
122.94115
 21
2.0
 31
0.0
  0
LINE
  5
6A
100
AcDbEntity
  8
0
390
0
  6
Continuous
 62
     7
100
AcDbLine
 10
110.44115
 20
0.0
 30
0.0
 11
110.44115
 21
2.0
 31
0.0
  0
LINE
  5
6B
100
AcDbEntity
  8
0
390
0
  6
Continuous
 62
     7
100
AcDbLine
 10
110.44115
 20
2.0
 30
0.0
 11
122.94115
 21
2.0
 31
0.0
  0
LINE
  5
6C
100
AcDbEntity
  8
0
390
0
  6
Continuous
 62
     7
100
AcDbLine
 10
122.94115
 20
0.0
 30
0.0
 11
110.44115
 21
0.0
 31
0.0
  0
LINE
  5
6D
100
AcDbEntity
  8
0
390
0
  6
Continuous
 62
     7
100
AcDbLine
 10
115.44115
 20
25.0
 30
0.0
 11
130.44115
 21
25.0
 31
0.0
  0
LINE
  5
6E
100
AcDbEntity
  8
0
390
0
  6
Continuous
 62
     7
100
AcDbLine
 10
130.44115
 20
25.0
 30
0.0
 11
130.44115
 21
23.5
 31
0.0
  0
LINE
  5
6F
100
AcDbEntity
  8
0
390
0
  6
Continuous
 62
     7
100
AcDbLine
 10
130.44115
 20
23.5
 30
0.0
 11
115.44115
 21
23.5
 31
0.0
  0
LINE
  5
70
100
AcDbEntity
  8
0
390
0
  6
Continuous
 62
     7
100
AcDbLine
 10
115.44115
 20
25.0
 30
0.0
 11
115.44115
 21
23.5
 31
0.0
  0
LINE
  5
71
100
AcDbEntity
  8
0
390
0
  6
Continuous
 62
     7
100
AcDbLine
 10
111.94115
 20
25.0
 30
0.0
 11
115.44115
 21
25.0
 31
0.0
  0
LINE
  5
72
100
AcDbEntity
  8
0
390
0
  6
Continuous
 62
     7
100
AcDbLine
 10
115.44115
 20
23.5
 30
0.0
 11
110.44115
 21
23.5
 31
0.0
  0
ARC
  5
73
100
AcDbEntity
  8
0
390
0
  6
Continuous
 62
     7
100
AcDbCircle
 10
111.94115
 20
23.5
 30
0.0
 40
1.5
210
0.0
220
0.0
230
1.0
100
AcDbArc
 50
90.0
 51
180.0
  0
LINE
  5
74
100
AcDbEntity
  8
0
390
0
  6
Continuous
 62
     7
100
AcDbLine
 10
115.44115
 20
23.5
 30
0.0
 11
115.44115
 21
2.0
 31
0.0
  0
LINE
  5
75
100
AcDbEntity
  8
0
390
0
  6
Continuous
 62
     7
100
AcDbLine
 10
110.44115
 20
2.0
 30
0.0
 11
110.44115
 21
23.5
 31
0.0
  0
LINE
  5
76
100
AcDbEntity
  8
0
390
0
  6
Continuous
 62
     7
100
AcDbLine
 10
130.44115
 20
2.0
 30
0.0
 11
130.44115
 21
23.5
 31
0.0
  0
LINE
  5
77
100
AcDbEntity
  8
0
390
0
  6
Continuous
 62
     7
100
AcDbLine
 10
135.44115
 20
23.5
 30
0.0
 11
130.44115
 21
23.5
 31
0.0
  0
LINE
  5
78
100
AcDbEntity
  8
0
390
0
  6
Continuous
 62
     7
100
AcDbLine
 10
135.44115
 20
23.5
 30
0.0
 11
135.44115
 21
2.0
 31
0.0
  0
LINE
  5
79
100
AcDbEntity
  8
0
390
0
  6
Continuous
 62
     7
100
AcDbLine
 10
130.44115
 20
25.0
 30
0.0
 11
133.94115
 21
25.0
 31
0.0
  0
ARC
  5
7A
100
AcDbEntity
  8
0
390
0
  6
Continuous
 62
     7
100
AcDbCircle
 10
133.94115
 20
23.5
 30
0.0
 40
1.5
210
0.0
220
0.0
230
1.0
100
AcDbArc
 50
0.0
 51
90.0
  0
LINE
  5
7B
100
AcDbEntity
  8
0
390
0
  6
Continuous
 62
     7
100
AcDbLine
 10
135.44115
 20
18.5
 30
0.0
 11
135.44115
 21
23.5
 31
0.0
  0
LINE
  5
7C
100
AcDbEntity
  8
0
390
0
  6
Continuous
 62
     7
100
AcDbLine
 10
110.44115
 20
23.5
 30
0.0
 11
110.44115
 21
18.5
 31
0.0
  0
LINE
  5
7D
100
AcDbEntity
  8
0
390
0
  6
Continuous
 62
     7
100
AcDbLine
 10
110.24115
 20
7.75
 30
0.0
 11
110.44115
 21
7.75
 31
0.0
  0
LINE
  5
7E
100
AcDbEntity
  8
0
390
0
  6
Continuous
 62
     7
100
AcDbLine
 10
110.24115
 20
9.25
 30
0.0
 11
110.44115
 21
9.25
 31
0.0
  0
LINE
  5
7F
100
AcDbEntity
  8
0
390
0
  6
Continuous
 62
     7
100
AcDbLine
 10
110.24115
 20
7.75
 30
0.0
 11
110.24115
 21
9.25
 31
0.0
  0
LINE
  5
80
100
AcDbEntity
  8
0
390
0
  6
Continuous
 62
     7
100
AcDbLine
 10
110.24115
 20
12.246707
 30
0.0
 11
110.44115
 21
12.246707
 31
0.0
  0
LINE
  5
81
100
AcDbEntity
  8
0
390
0
  6
Continuous
 62
     7
100
AcDbLine
 10
110.24115
 20
9.25
 30
0.0
 11
110.24115
 21
12.246707
 31
0.0
  0
LINE
  5
82
100
AcDbEntity
  8
0
390
0
  6
Continuous
 62
     7
100
AcDbLine
 10
13.75
 20
-67.108141
 30
0.0
 11
16.25
 21
-65.664766
 31
0.0
  0
LINE
  5
83
100
AcDbEntity
  8
0
390
0
  6
Continuous
 62
     7
100
AcDbLine
 10
13.75
 20
-69.994893
 30
0.0
 11
13.75
 21
-67.108141
 31
0.0
  0
LINE
  5
84
100
AcDbEntity
  8
0
390
0
  6
Continuous
 62
     7
100
AcDbLine
 10
16.25
 20
-71.438268
 30
0.0
 11
13.75
 21
-69.994893
 31
0.0
  0
LINE
  5
85
100
AcDbEntity
  8
0
390
0
  6
Continuous
 62
     7
100
AcDbLine
 10
18.75
 20
-69.994893
 30
0.0
 11
16.25
 21
-71.438268
 31
0.0
  0
LINE
  5
86
100
AcDbEntity
  8
0
390
0
  6
Continuous
 62
     7
100
AcDbLine
 10
18.75
 20
-67.108141
 30
0.0
 11
18.75
 21
-69.994893
 31
0.0
  0
LINE
  5
87
100
AcDbEntity
  8
0
390
0
  6
Continuous
 62
     7
100
AcDbLine
 10
16.25
 20
-65.664766
 30
0.0
 11
18.75
 21
-67.108141
 31
0.0
  0
LINE
  5
88
100
AcDbEntity
  8
0
390
0
  6
Continuous
 62
     7
100
AcDbLine
 10
0.75
 20
-67.108141
 30
0.0
 11
3.25
 21
-65.664766
 31
0.0
  0
LINE
  5
89
100
AcDbEntity
  8
0
390
0
  6
Continuous
 62
     7
100
AcDbLine
 10
0.75
 20
-69.994893
 30
0.0
 11
0.75
 21
-67.108141
 31
0.0
  0
LINE
  5
8A
100
AcDbEntity
  8
0
390
0
  6
Continuous
 62
     7
100
AcDbLine
 10
3.25
 20
-71.438268
 30
0.0
 11
0.75
 21
-69.994893
 31
0.0
  0
LINE
  5
8B
100
AcDbEntity
  8
0
390
0
  6
Continuous
 62
     7
100
AcDbLine
 10
5.75
 20
-69.994893
 30
0.0
 11
3.25
 21
-71.438268
 31
0.0
  0
LINE
  5
8C
100
AcDbEntity
  8
0
390
0
  6
Continuous
 62
     7
100
AcDbLine
 10
5.75
 20
-67.108141
 30
0.0
 11
5.75
 21
-69.994893
 31
0.0
  0
LINE
  5
8D
100
AcDbEntity
  8
0
390
0
  6
Continuous
 62
     7
100
AcDbLine
 10
3.25
 20
-65.664766
 30
0.0
 11
5.75
 21
-67.108141
 31
0.0
  0
LINE
  5
8E
100
AcDbEntity
  8
0
390
0
  6
Continuous
 62
     7
100
AcDbLine
 10
-12.25
 20
-67.108141
 30
0.0
 11
-9.75
 21
-65.664766
 31
0.0
  0
LINE
  5
8F
100
AcDbEntity
  8
0
390
0
  6
Continuous
 62
     7
100
AcDbLine
 10
-12.25
 20
-69.994893
 30
0.0
 11
-12.25
 21
-67.108141
 31
0.0
  0
LINE
  5
90
100
AcDbEntity
  8
0
390
0
  6
Continuous
 62
     7
100
AcDbLine
 10
-9.75
 20
-71.438268
 30
0.0
 11
-12.25
 21
-69.994893
 31
0.0
  0
LINE
  5
91
100
AcDbEntity
  8
0
390
0
  6
Continuous
 62
     7
100
AcDbLine
 10
-7.25
 20
-69.994893
 30
0.0
 11
-9.75
 21
-71.438268
 31
0.0
  0
LINE
  5
92
100
AcDbEntity
  8
0
390
0
  6
Continuous
 62
     7
100
AcDbLine
 10
-7.25
 20
-67.108141
 30
0.0
 11
-7.25
 21
-69.994893
 31
0.0
  0
LINE
  5
93
100
AcDbEntity
  8
0
390
0
  6
Continuous
 62
     7
100
AcDbLine
 10
-9.75
 20
-65.664766
 30
0.0
 11
-7.25
 21
-67.108141
 31
0.0
  0
LINE
  5
94
100
AcDbEntity
  8
0
390
0
  6
Continuous
 62
     7
100
AcDbLine
 10
2.5
 20
-61.478976
 30
0.0
 11
0.0
 21
-60.035601
 31
0.0
  0
LINE
  5
95
100
AcDbEntity
  8
0
390
0
  6
Continuous
 62
     7
100
AcDbLine
 10
0.0
 20
-60.035601
 30
0.0
 11
-2.5
 21
-61.478976
 31
0.0
  0
LINE
  5
96
100
AcDbEntity
  8
0
390
0
  6
Continuous
 62
     7
100
AcDbLine
 10
-2.5
 20
-61.478976
 30
0.0
 11
-2.5
 21
-64.365728
 31
0.0
  0
LINE
  5
97
100
AcDbEntity
  8
0
390
0
  6
Continuous
 62
     7
100
AcDbLine
 10
-2.5
 20
-64.365728
 30
0.0
 11
0.0
 21
-65.809103
 31
0.0
  0
LINE
  5
98
100
AcDbEntity
  8
0
390
0
  6
Continuous
 62
     7
100
AcDbLine
 10
0.0
 20
-65.809103
 30
0.0
 11
2.5
 21
-64.365728
 31
0.0
  0
LINE
  5
99
100
AcDbEntity
  8
0
390
0
  6
Continuous
 62
     7
100
AcDbLine
 10
2.5
 20
-64.365728
 30
0.0
 11
2.5
 21
-61.478976
 31
0.0
  0
LINE
  5
9A
100
AcDbEntity
  8
0
390
0
  6
Continuous
 62
     7
100
AcDbLine
 10
9.0
 20
-61.478976
 30
0.0
 11
6.5
 21
-60.035601
 31
0.0
  0
LINE
  5
9B
100
AcDbEntity
  8
0
390
0
  6
Continuous
 62
     7
100
AcDbLine
 10
6.5
 20
-60.035601
 30
0.0
 11
4.0
 21
-61.478976
 31
0.0
  0
LINE
  5
9C
100
AcDbEntity
  8
0
390
0
  6
Continuous
 62
     7
100
AcDbLine
 10
4.0
 20
-61.478976
 30
0.0
 11
4.0
 21
-64.365728
 31
0.0
  0
LINE
  5
9D
100
AcDbEntity
  8
0
390
0
  6
Continuous
 62
     7
100
AcDbLine
 10
4.0
 20
-64.365728
 30
0.0
 11
6.5
 21
-65.809103
 31
0.0
  0
LINE
  5
9E
100
AcDbEntity
  8
0
390
0
  6
Continuous
 62
     7
100
AcDbLine
 10
6.5
 20
-65.809103
 30
0.0
 11
9.0
 21
-64.365728
 31
0.0
  0
LINE
  5
9F
100
AcDbEntity
  8
0
390
0
  6
Continuous
 62
     7
100
AcDbLine
 10
9.0
 20
-64.365728
 30
0.0
 11
9.0
 21
-61.478976
 31
0.0
  0
LINE
  5
A0
100
AcDbEntity
  8
0
390
0
  6
Continuous
 62
     7
100
AcDbLine
 10
15.5
 20
-61.478976
 30
0.0
 11
13.0
 21
-60.035601
 31
0.0
  0
LINE
  5
A1
100
AcDbEntity
  8
0
390
0
  6
Continuous
 62
     7
100
AcDbLine
 10
13.0
 20
-60.035601
 30
0.0
 11
10.5
 21
-61.478976
 31
0.0
  0
LINE
  5
A2
100
AcDbEntity
  8
0
390
0
  6
Continuous
 62
     7
100
AcDbLine
 10
10.5
 20
-61.478976
 30
0.0
 11
10.5
 21
-64.365728
 31
0.0
  0
LINE
  5
A3
100
AcDbEntity
  8
0
390
0
  6
Continuous
 62
     7
100
AcDbLine
 10
10.5
 20
-64.365728
 30
0.0
 11
13.0
 21
-65.809103
 31
0.0
  0
LINE
  5
A4
100
AcDbEntity
  8
0
390
0
  6
Continuous
 62
     7
100
AcDbLine
 10
13.0
 20
-65.809103
 30
0.0
 11
15.5
 21
-64.365728
 31
0.0
  0
LINE
  5
A5
100
AcDbEntity
  8
0
390
0
  6
Continuous
 62
     7
100
AcDbLine
 10
15.5
 20
-64.365728
 30
0.0
 11
15.5
 21
-61.478976
 31
0.0
  0
LINE
  5
A6
100
AcDbEntity
  8
0
390
0
  6
Continuous
 62
     7
100
AcDbLine
 10
-4.0
 20
-61.478976
 30
0.0
 11
-6.5
 21
-60.035601
 31
0.0
  0
LINE
  5
A7
100
AcDbEntity
  8
0
390
0
  6
Continuous
 62
     7
100
AcDbLine
 10
-6.5
 20
-60.035601
 30
0.0
 11
-9.0
 21
-61.478976
 31
0.0
  0
LINE
  5
A8
100
AcDbEntity
  8
0
390
0
  6
Continuous
 62
     7
100
AcDbLine
 10
-9.0
 20
-61.478976
 30
0.0
 11
-9.0
 21
-64.365728
 31
0.0
  0
LINE
  5
A9
100
AcDbEntity
  8
0
390
0
  6
Continuous
 62
     7
100
AcDbLine
 10
-9.0
 20
-64.365728
 30
0.0
 11
-6.5
 21
-65.809103
 31
0.0
  0
LINE
  5
AA
100
AcDbEntity
  8
0
390
0
  6
Continuous
 62
     7
100
AcDbLine
 10
-6.5
 20
-65.809103
 30
0.0
 11
-4.0
 21
-64.365728
 31
0.0
  0
LINE
  5
AB
100
AcDbEntity
  8
0
390
0
  6
Continuous
 62
     7
100
AcDbLine
 10
-4.0
 20
-64.365728
 30
0.0
 11
-4.0
 21
-61.478976
 31
0.0
  0
LINE
  5
AC
100
AcDbEntity
  8
0
390
0
  6
Continuous
 62
     7
100
AcDbLine
 10
-10.5
 20
-61.478976
 30
0.0
 11
-13.0
 21
-60.035601
 31
0.0
  0
LINE
  5
AD
100
AcDbEntity
  8
0
390
0
  6
Continuous
 62
     7
100
AcDbLine
 10
-13.0
 20
-60.035601
 30
0.0
 11
-15.5
 21
-61.478976
 31
0.0
  0
LINE
  5
AE
100
AcDbEntity
  8
0
390
0
  6
Continuous
 62
     7
100
AcDbLine
 10
-15.5
 20
-61.478976
 30
0.0
 11
-15.5
 21
-64.365728
 31
0.0
  0
LINE
  5
AF
100
AcDbEntity
  8
0
390
0
  6
Continuous
 62
     7
100
AcDbLine
 10
-15.5
 20
-64.365728
 30
0.0
 11
-13.0
 21
-65.809103
 31
0.0
  0
LINE
  5
B0
100
AcDbEntity
  8
0
390
0
  6
Continuous
 62
     7
100
AcDbLine
 10
-13.0
 20
-65.809103
 30
0.0
 11
-10.5
 21
-64.365728
 31
0.0
  0
LINE
  5
B1
100
AcDbEntity
  8
0
390
0
  6
Continuous
 62
     7
100
AcDbLine
 10
-10.5
 20
-64.365728
 30
0.0
 11
-10.5
 21
-61.478976
 31
0.0
  0
LINE
  5
B2
100
AcDbEntity
  8
0
390
0
  6
Continuous
 62
     7
100
AcDbLine
 10
5.75
 20
-55.849811
 30
0.0
 11
3.25
 21
-54.406435
 31
0.0
  0
LINE
  5
B3
100
AcDbEntity
  8
0
390
0
  6
Continuous
 62
     7
100
AcDbLine
 10
3.25
 20
-54.406435
 30
0.0
 11
0.75
 21
-55.849811
 31
0.0
  0
LINE
  5
B4
100
AcDbEntity
  8
0
390
0
  6
Continuous
 62
     7
100
AcDbLine
 10
0.75
 20
-55.849811
 30
0.0
 11
0.75
 21
-58.736562
 31
0.0
  0
LINE
  5
B5
100
AcDbEntity
  8
0
390
0
  6
Continuous
 62
     7
100
AcDbLine
 10
0.75
 20
-58.736562
 30
0.0
 11
3.25
 21
-60.179938
 31
0.0
  0
LINE
  5
B6
100
AcDbEntity
  8
0
390
0
  6
Continuous
 62
     7
100
AcDbLine
 10
3.25
 20
-60.179938
 30
0.0
 11
5.75
 21
-58.736562
 31
0.0
  0
LINE
  5
B7
100
AcDbEntity
  8
0
390
0
  6
Continuous
 62
     7
100
AcDbLine
 10
5.75
 20
-58.736562
 30
0.0
 11
5.75
 21
-55.849811
 31
0.0
  0
LINE
  5
B8
100
AcDbEntity
  8
0
390
0
  6
Continuous
 62
     7
100
AcDbLine
 10
12.25
 20
-55.849811
 30
0.0
 11
9.75
 21
-54.406435
 31
0.0
  0
LINE
  5
B9
100
AcDbEntity
  8
0
390
0
  6
Continuous
 62
     7
100
AcDbLine
 10
9.75
 20
-54.406435
 30
0.0
 11
7.25
 21
-55.849811
 31
0.0
  0
LINE
  5
BA
100
AcDbEntity
  8
0
390
0
  6
Continuous
 62
     7
100
AcDbLine
 10
7.25
 20
-55.849811
 30
0.0
 11
7.25
 21
-58.736562
 31
0.0
  0
LINE
  5
BB
100
AcDbEntity
  8
0
390
0
  6
Continuous
 62
     7
100
AcDbLine
 10
7.25
 20
-58.736562
 30
0.0
 11
9.75
 21
-60.179938
 31
0.0
  0
LINE
  5
BC
100
AcDbEntity
  8
0
390
0
  6
Continuous
 62
     7
100
AcDbLine
 10
9.75
 20
-60.179938
 30
0.0
 11
12.25
 21
-58.736562
 31
0.0
  0
LINE
  5
BD
100
AcDbEntity
  8
0
390
0
  6
Continuous
 62
     7
100
AcDbLine
 10
12.25
 20
-58.736562
 30
0.0
 11
12.25
 21
-55.849811
 31
0.0
  0
LINE
  5
BE
100
AcDbEntity
  8
0
390
0
  6
Continuous
 62
     7
100
AcDbLine
 10
18.75
 20
-55.849811
 30
0.0
 11
16.25
 21
-54.406435
 31
0.0
  0
LINE
  5
BF
100
AcDbEntity
  8
0
390
0
  6
Continuous
 62
     7
100
AcDbLine
 10
16.25
 20
-54.406435
 30
0.0
 11
13.75
 21
-55.849811
 31
0.0
  0
LINE
  5
C0
100
AcDbEntity
  8
0
390
0
  6
Continuous
 62
     7
100
AcDbLine
 10
13.75
 20
-55.849811
 30
0.0
 11
13.75
 21
-58.736562
 31
0.0
  0
LINE
  5
C1
100
AcDbEntity
  8
0
390
0
  6
Continuous
 62
     7
100
AcDbLine
 10
13.75
 20
-58.736562
 30
0.0
 11
16.25
 21
-60.179938
 31
0.0
  0
LINE
  5
C2
100
AcDbEntity
  8
0
390
0
  6
Continuous
 62
     7
100
AcDbLine
 10
16.25
 20
-60.179938
 30
0.0
 11
18.75
 21
-58.736562
 31
0.0
  0
LINE
  5
C3
100
AcDbEntity
  8
0
390
0
  6
Continuous
 62
     7
100
AcDbLine
 10
18.75
 20
-58.736562
 30
0.0
 11
18.75
 21
-55.849811
 31
0.0
  0
LINE
  5
C4
100
AcDbEntity
  8
0
390
0
  6
Continuous
 62
     7
100
AcDbLine
 10
-0.75
 20
-55.849811
 30
0.0
 11
-3.25
 21
-54.406435
 31
0.0
  0
LINE
  5
C5
100
AcDbEntity
  8
0
390
0
  6
Continuous
 62
     7
100
AcDbLine
 10
-3.25
 20
-54.406435
 30
0.0
 11
-5.75
 21
-55.849811
 31
0.0
  0
LINE
  5
C6
100
AcDbEntity
  8
0
390
0
  6
Continuous
 62
     7
100
AcDbLine
 10
-5.75
 20
-55.849811
 30
0.0
 11
-5.75
 21
-58.736562
 31
0.0
  0
LINE
  5
C7
100
AcDbEntity
  8
0
390
0
  6
Continuous
 62
     7
100
AcDbLine
 10
-5.75
 20
-58.736562
 30
0.0
 11
-3.25
 21
-60.179938
 31
0.0
  0
LINE
  5
C8
100
AcDbEntity
  8
0
390
0
  6
Continuous
 62
     7
100
AcDbLine
 10
-3.25
 20
-60.179938
 30
0.0
 11
-0.75
 21
-58.736562
 31
0.0
  0
LINE
  5
C9
100
AcDbEntity
  8
0
390
0
  6
Continuous
 62
     7
100
AcDbLine
 10
-0.75
 20
-58.736562
 30
0.0
 11
-0.75
 21
-55.849811
 31
0.0
  0
LINE
  5
CA
100
AcDbEntity
  8
0
390
0
  6
Continuous
 62
     7
100
AcDbLine
 10
-7.25
 20
-55.849811
 30
0.0
 11
-9.75
 21
-54.406435
 31
0.0
  0
LINE
  5
CB
100
AcDbEntity
  8
0
390
0
  6
Continuous
 62
     7
100
AcDbLine
 10
-9.75
 20
-54.406435
 30
0.0
 11
-12.25
 21
-55.849811
 31
0.0
  0
LINE
  5
CC
100
AcDbEntity
  8
0
390
0
  6
Continuous
 62
     7
100
AcDbLine
 10
-12.25
 20
-55.849811
 30
0.0
 11
-12.25
 21
-58.736562
 31
0.0
  0
LINE
  5
CD
100
AcDbEntity
  8
0
390
0
  6
Continuous
 62
     7
100
AcDbLine
 10
-12.25
 20
-58.736562
 30
0.0
 11
-9.75
 21
-60.179938
 31
0.0
  0
LINE
  5
CE
100
AcDbEntity
  8
0
390
0
  6
Continuous
 62
     7
100
AcDbLine
 10
-9.75
 20
-60.179938
 30
0.0
 11
-7.25
 21
-58.736562
 31
0.0
  0
LINE
  5
CF
100
AcDbEntity
  8
0
390
0
  6
Continuous
 62
     7
100
AcDbLine
 10
-7.25
 20
-58.736562
 30
0.0
 11
-7.25
 21
-55.849811
 31
0.0
  0
LINE
  5
D0
100
AcDbEntity
  8
0
390
0
  6
Continuous
 62
     7
100
AcDbLine
 10
-13.75
 20
-55.849811
 30
0.0
 11
-16.25
 21
-54.406435
 31
0.0
  0
LINE
  5
D1
100
AcDbEntity
  8
0
390
0
  6
Continuous
 62
     7
100
AcDbLine
 10
-16.25
 20
-54.406435
 30
0.0
 11
-18.75
 21
-55.849811
 31
0.0
  0
LINE
  5
D2
100
AcDbEntity
  8
0
390
0
  6
Continuous
 62
     7
100
AcDbLine
 10
-18.75
 20
-55.849811
 30
0.0
 11
-18.75
 21
-58.736562
 31
0.0
  0
LINE
  5
D3
100
AcDbEntity
  8
0
390
0
  6
Continuous
 62
     7
100
AcDbLine
 10
-18.75
 20
-58.736562
 30
0.0
 11
-16.25
 21
-60.179938
 31
0.0
  0
LINE
  5
D4
100
AcDbEntity
  8
0
390
0
  6
Continuous
 62
     7
100
AcDbLine
 10
-16.25
 20
-60.179938
 30
0.0
 11
-13.75
 21
-58.736562
 31
0.0
  0
LINE
  5
D5
100
AcDbEntity
  8
0
390
0
  6
Continuous
 62
     7
100
AcDbLine
 10
-13.75
 20
-58.736562
 30
0.0
 11
-13.75
 21
-55.849811
 31
0.0
  0
LINE
  5
D6
100
AcDbEntity
  8
0
390
0
  6
Continuous
 62
     7
100
AcDbLine
 10
-18.75
 20
-67.108141
 30
0.0
 11
-16.25
 21
-65.664766
 31
0.0
  0
LINE
  5
D7
100
AcDbEntity
  8
0
390
0
  6
Continuous
 62
     7
100
AcDbLine
 10
-18.75
 20
-69.994893
 30
0.0
 11
-18.75
 21
-67.108141
 31
0.0
  0
LINE
  5
D8
100
AcDbEntity
  8
0
390
0
  6
Continuous
 62
     7
100
AcDbLine
 10
-16.25
 20
-71.438268
 30
0.0
 11
-18.75
 21
-69.994893
 31
0.0
  0
LINE
  5
D9
100
AcDbEntity
  8
0
390
0
  6
Continuous
 62
     7
100
AcDbLine
 10
-13.75
 20
-69.994893
 30
0.0
 11
-16.25
 21
-71.438268
 31
0.0
  0
LINE
  5
DA
100
AcDbEntity
  8
0
390
0
  6
Continuous
 62
     7
100
AcDbLine
 10
-13.75
 20
-67.108141
 30
0.0
 11
-13.75
 21
-69.994893
 31
0.0
  0
LINE
  5
DB
100
AcDbEntity
  8
0
390
0
  6
Continuous
 62
     7
100
AcDbLine
 10
-16.25
 20
-65.664766
 30
0.0
 11
-13.75
 21
-67.108141
 31
0.0
  0
LINE
  5
DC
100
AcDbEntity
  8
0
390
0
  6
Continuous
 62
     7
100
AcDbLine
 10
-5.75
 20
-67.108141
 30
0.0
 11
-3.25
 21
-65.664766
 31
0.0
  0
LINE
  5
DD
100
AcDbEntity
  8
0
390
0
  6
Continuous
 62
     7
100
AcDbLine
 10
-5.75
 20
-69.994893
 30
0.0
 11
-5.75
 21
-67.108141
 31
0.0
  0
LINE
  5
DE
100
AcDbEntity
  8
0
390
0
  6
Continuous
 62
     7
100
AcDbLine
 10
-3.25
 20
-71.438268
 30
0.0
 11
-5.75
 21
-69.994893
 31
0.0
  0
LINE
  5
DF
100
AcDbEntity
  8
0
390
0
  6
Continuous
 62
     7
100
AcDbLine
 10
-0.75
 20
-69.994893
 30
0.0
 11
-3.25
 21
-71.438268
 31
0.0
  0
LINE
  5
E0
100
AcDbEntity
  8
0
390
0
  6
Continuous
 62
     7
100
AcDbLine
 10
-0.75
 20
-67.108141
 30
0.0
 11
-0.75
 21
-69.994893
 31
0.0
  0
LINE
  5
E1
100
AcDbEntity
  8
0
390
0
  6
Continuous
 62
     7
100
AcDbLine
 10
-3.25
 20
-65.664766
 30
0.0
 11
-0.75
 21
-67.108141
 31
0.0
  0
LINE
  5
E2
100
AcDbEntity
  8
0
390
0
  6
Continuous
 62
     7
100
AcDbLine
 10
7.25
 20
-67.108141
 30
0.0
 11
9.75
 21
-65.664766
 31
0.0
  0
LINE
  5
E3
100
AcDbEntity
  8
0
390
0
  6
Continuous
 62
     7
100
AcDbLine
 10
7.25
 20
-69.994893
 30
0.0
 11
7.25
 21
-67.108141
 31
0.0
  0
LINE
  5
E4
100
AcDbEntity
  8
0
390
0
  6
Continuous
 62
     7
100
AcDbLine
 10
9.75
 20
-71.438268
 30
0.0
 11
7.25
 21
-69.994893
 31
0.0
  0
LINE
  5
E5
100
AcDbEntity
  8
0
390
0
  6
Continuous
 62
     7
100
AcDbLine
 10
12.25
 20
-69.994893
 30
0.0
 11
9.75
 21
-71.438268
 31
0.0
  0
LINE
  5
E6
100
AcDbEntity
  8
0
390
0
  6
Continuous
 62
     7
100
AcDbLine
 10
12.25
 20
-67.108141
 30
0.0
 11
12.25
 21
-69.994893
 31
0.0
  0
LINE
  5
E7
100
AcDbEntity
  8
0
390
0
  6
Continuous
 62
     7
100
AcDbLine
 10
9.75
 20
-65.664766
 30
0.0
 11
12.25
 21
-67.108141
 31
0.0
  0
ARC
  5
E8
100
AcDbEntity
  8
0
390
0
  6
Continuous
 62
     7
100
AcDbCircle
 10
33.0
 20
-62.922352
 30
0.0
 40
5.5
210
0.0
220
0.0
230
1.0
100
AcDbArc
 50
270.0
 51
360.0
  0
ARC
  5
E9
100
AcDbEntity
  8
0
390
0
  6
Continuous
 62
     7
100
AcDbCircle
 10
33.0
 20
-62.922352
 30
0.0
 40
5.5
210
0.0
220
0.0
230
1.0
100
AcDbArc
 50
0.0
 51
90.0
  0
LINE
  5
EA
100
AcDbEntity
  8
0
390
0
  6
Continuous
 62
     7
100
AcDbLine
 10
33.0
 20
-57.422352
 30
0.0
 11
29.0
 21
-57.422352
 31
0.0
  0
ARC
  5
EB
100
AcDbEntity
  8
0
390
0
  6
Continuous
 62
     7
100
AcDbCircle
 10
29.0
 20
-62.922352
 30
0.0
 40
5.5
210
0.0
220
0.0
230
1.0
100
AcDbArc
 50
90.0
 51
180.0
  0
ARC
  5
EC
100
AcDbEntity
  8
0
390
0
  6
Continuous
 62
     7
100
AcDbCircle
 10
29.0
 20
-62.922352
 30
0.0
 40
5.5
210
0.0
220
0.0
230
1.0
100
AcDbArc
 50
180.0
 51
270.0
  0
LINE
  5
ED
100
AcDbEntity
  8
0
390
0
  6
Continuous
 62
     7
100
AcDbLine
 10
29.0
 20
-68.422352
 30
0.0
 11
33.0
 21
-68.422352
 31
0.0
  0
ARC
  5
EE
100
AcDbEntity
  8
0
390
0
  6
Continuous
 62
     7
100
AcDbCircle
 10
33.5
 20
-62.922352
 30
0.0
 40
12.5
210
0.0
220
0.0
230
1.0
100
AcDbArc
 50
0.0
 51
90.0
  0
ARC
  5
EF
100
AcDbEntity
  8
0
390
0
  6
Continuous
 62
     7
100
AcDbCircle
 10
33.5
 20
-62.922352
 30
0.0
 40
12.5
210
0.0
220
0.0
230
1.0
100
AcDbArc
 50
270.0
 51
360.0
  0
LINE
  5
F0
100
AcDbEntity
  8
0
390
0
  6
Continuous
 62
     7
100
AcDbLine
 10
-33.5
 20
-75.422352
 30
0.0
 11
33.5
 21
-75.422352
 31
0.0
  0
ARC
  5
F1
100
AcDbEntity
  8
0
390
0
  6
Continuous
 62
     7
100
AcDbCircle
 10
-33.5
 20
-62.922352
 30
0.0
 40
12.5
210
0.0
220
0.0
230
1.0
100
AcDbArc
 50
180.0
 51
270.0
  0
LINE
  5
F2
100
AcDbEntity
  8
0
390
0
  6
Continuous
 62
     7
100
AcDbLine
 10
-15.5
 20
-52.422352
 30
0.0
 11
-15.5
 21
-53.107728
 31
0.0
  0
LINE
  5
F3
100
AcDbEntity
  8
0
390
0
  6
Continuous
 62
     7
100
AcDbLine
 10
-15.5
 20
-53.107728
 30
0.0
 11
-13.0
 21
-54.551103
 31
0.0
  0
LINE
  5
F4
100
AcDbEntity
  8
0
390
0
  6
Continuous
 62
     7
100
AcDbLine
 10
-13.0
 20
-54.551103
 30
0.0
 11
-10.5
 21
-53.107728
 31
0.0
  0
LINE
  5
F5
100
AcDbEntity
  8
0
390
0
  6
Continuous
 62
     7
100
AcDbLine
 10
-10.5
 20
-53.107728
 30
0.0
 11
-10.5
 21
-52.422352
 31
0.0
  0
LINE
  5
F6
100
AcDbEntity
  8
0
390
0
  6
Continuous
 62
     7
100
AcDbLine
 10
-15.5
 20
-52.422352
 30
0.0
 11
-10.5
 21
-52.422352
 31
0.0
  0
ARC
  5
F7
100
AcDbEntity
  8
0
390
0
  6
Continuous
 62
     7
100
AcDbCircle
 10
-29.0
 20
-62.922352
 30
0.0
 40
5.5
210
0.0
220
0.0
230
1.0
100
AcDbArc
 50
270.0
 51
360.0
  0
ARC
  5
F8
100
AcDbEntity
  8
0
390
0
  6
Continuous
 62
     7
100
AcDbCircle
 10
-29.0
 20
-62.922352
 30
0.0
 40
5.5
210
0.0
220
0.0
230
1.0
100
AcDbArc
 50
0.0
 51
90.0
  0
LINE
  5
F9
100
AcDbEntity
  8
0
390
0
  6
Continuous
 62
     7
100
AcDbLine
 10
-29.0
 20
-57.422352
 30
0.0
 11
-33.0
 21
-57.422352
 31
0.0
  0
ARC
  5
FA
100
AcDbEntity
  8
0
390
0
  6
Continuous
 62
     7
100
AcDbCircle
 10
-33.0
 20
-62.922352
 30
0.0
 40
5.5
210
0.0
220
0.0
230
1.0
100
AcDbArc
 50
90.0
 51
180.0
  0
ARC
  5
FB
100
AcDbEntity
  8
0
390
0
  6
Continuous
 62
     7
100
AcDbCircle
 10
-33.0
 20
-62.922352
 30
0.0
 40
5.5
210
0.0
220
0.0
230
1.0
100
AcDbArc
 50
180.0
 51
270.0
  0
LINE
  5
FC
100
AcDbEntity
  8
0
390
0
  6
Continuous
 62
     7
100
AcDbLine
 10
-33.0
 20
-68.422352
 30
0.0
 11
-29.0
 21
-68.422352
 31
0.0
  0
LINE
  5
FD
100
AcDbEntity
  8
0
390
0
  6
Continuous
 62
     7
100
AcDbLine
 10
-9.0
 20
-53.107728
 30
0.0
 11
-6.5
 21
-54.551103
 31
0.0
  0
LINE
  5
FE
100
AcDbEntity
  8
0
390
0
  6
Continuous
 62
     7
100
AcDbLine
 10
-6.5
 20
-54.551103
 30
0.0
 11
-4.0
 21
-53.107728
 31
0.0
  0
LINE
  5
FF
100
AcDbEntity
  8
0
390
0
  6
Continuous
 62
     7
100
AcDbLine
 10
-4.0
 20
-53.107728
 30
0.0
 11
-4.0
 21
-52.422352
 31
0.0
  0
LINE
  5
100
100
AcDbEntity
  8
0
390
0
  6
Continuous
 62
     7
100
AcDbLine
 10
-9.0
 20
-52.422352
 30
0.0
 11
-4.0
 21
-52.422352
 31
0.0
  0
LINE
  5
101
100
AcDbEntity
  8
0
390
0
  6
Continuous
 62
     7
100
AcDbLine
 10
-9.0
 20
-52.422352
 30
0.0
 11
-9.0
 21
-53.107728
 31
0.0
  0
LINE
  5
102
100
AcDbEntity
  8
0
390
0
  6
Continuous
 62
     7
100
AcDbLine
 10
-2.5
 20
-53.107728
 30
0.0
 11
0.0
 21
-54.551103
 31
0.0
  0
LINE
  5
103
100
AcDbEntity
  8
0
390
0
  6
Continuous
 62
     7
100
AcDbLine
 10
0.0
 20
-54.551103
 30
0.0
 11
2.5
 21
-53.107728
 31
0.0
  0
LINE
  5
104
100
AcDbEntity
  8
0
390
0
  6
Continuous
 62
     7
100
AcDbLine
 10
2.5
 20
-53.107728
 30
0.0
 11
2.5
 21
-52.422352
 31
0.0
  0
LINE
  5
105
100
AcDbEntity
  8
0
390
0
  6
Continuous
 62
     7
100
AcDbLine
 10
-2.5
 20
-52.422352
 30
0.0
 11
2.5
 21
-52.422352
 31
0.0
  0
LINE
  5
106
100
AcDbEntity
  8
0
390
0
  6
Continuous
 62
     7
100
AcDbLine
 10
-2.5
 20
-52.422352
 30
0.0
 11
-2.5
 21
-53.107728
 31
0.0
  0
LINE
  5
107
100
AcDbEntity
  8
0
390
0
  6
Continuous
 62
     7
100
AcDbLine
 10
4.0
 20
-53.107728
 30
0.0
 11
6.5
 21
-54.551103
 31
0.0
  0
LINE
  5
108
100
AcDbEntity
  8
0
390
0
  6
Continuous
 62
     7
100
AcDbLine
 10
6.5
 20
-54.551103
 30
0.0
 11
9.0
 21
-53.107728
 31
0.0
  0
LINE
  5
109
100
AcDbEntity
  8
0
390
0
  6
Continuous
 62
     7
100
AcDbLine
 10
9.0
 20
-53.107728
 30
0.0
 11
9.0
 21
-52.422352
 31
0.0
  0
LINE
  5
10A
100
AcDbEntity
  8
0
390
0
  6
Continuous
 62
     7
100
AcDbLine
 10
4.0
 20
-52.422352
 30
0.0
 11
9.0
 21
-52.422352
 31
0.0
  0
LINE
  5
10B
100
AcDbEntity
  8
0
390
0
  6
Continuous
 62
     7
100
AcDbLine
 10
4.0
 20
-52.422352
 30
0.0
 11
4.0
 21
-53.107728
 31
0.0
  0
LINE
  5
10C
100
AcDbEntity
  8
0
390
0
  6
Continuous
 62
     7
100
AcDbLine
 10
10.5
 20
-53.107728
 30
0.0
 11
13.0
 21
-54.551103
 31
0.0
  0
LINE
  5
10D
100
AcDbEntity
  8
0
390
0
  6
Continuous
 62
     7
100
AcDbLine
 10
13.0
 20
-54.551103
 30
0.0
 11
15.5
 21
-53.107728
 31
0.0
  0
LINE
  5
10E
100
AcDbEntity
  8
0
390
0
  6
Continuous
 62
     7
100
AcDbLine
 10
15.5
 20
-53.107728
 30
0.0
 11
15.5
 21
-52.422352
 31
0.0
  0
LINE
  5
10F
100
AcDbEntity
  8
0
390
0
  6
Continuous
 62
     7
100
AcDbLine
 10
10.5
 20
-52.422352
 30
0.0
 11
15.5
 21
-52.422352
 31
0.0
  0
LINE
  5
110
100
AcDbEntity
  8
0
390
0
  6
Continuous
 62
     7
100
AcDbLine
 10
10.5
 20
-52.422352
 30
0.0
 11
10.5
 21
-53.107728
 31
0.0
  0
LINE
  5
111
100
AcDbEntity
  8
0
390
0
  6
Continuous
 62
     7
100
AcDbLine
 10
-10.5
 20
-73.422352
 30
0.0
 11
-10.5
 21
-72.736976
 31
0.0
  0
LINE
  5
112
100
AcDbEntity
  8
0
390
0
  6
Continuous
 62
     7
100
AcDbLine
 10
-10.5
 20
-72.736976
 30
0.0
 11
-13.0
 21
-71.293601
 31
0.0
  0
LINE
  5
113
100
AcDbEntity
  8
0
390
0
  6
Continuous
 62
     7
100
AcDbLine
 10
-13.0
 20
-71.293601
 30
0.0
 11
-15.5
 21
-72.736976
 31
0.0
  0
LINE
  5
114
100
AcDbEntity
  8
0
390
0
  6
Continuous
 62
     7
100
AcDbLine
 10
-15.5
 20
-72.736976
 30
0.0
 11
-15.5
 21
-73.422352
 31
0.0
  0
LINE
  5
115
100
AcDbEntity
  8
0
390
0
  6
Continuous
 62
     7
100
AcDbLine
 10
-15.5
 20
-73.422352
 30
0.0
 11
-10.5
 21
-73.422352
 31
0.0
  0
LINE
  5
116
100
AcDbEntity
  8
0
390
0
  6
Continuous
 62
     7
100
AcDbLine
 10
-4.0
 20
-73.422352
 30
0.0
 11
-4.0
 21
-72.736976
 31
0.0
  0
LINE
  5
117
100
AcDbEntity
  8
0
390
0
  6
Continuous
 62
     7
100
AcDbLine
 10
-4.0
 20
-72.736976
 30
0.0
 11
-6.5
 21
-71.293601
 31
0.0
  0
LINE
  5
118
100
AcDbEntity
  8
0
390
0
  6
Continuous
 62
     7
100
AcDbLine
 10
-6.5
 20
-71.293601
 30
0.0
 11
-9.0
 21
-72.736976
 31
0.0
  0
LINE
  5
119
100
AcDbEntity
  8
0
390
0
  6
Continuous
 62
     7
100
AcDbLine
 10
-9.0
 20
-72.736976
 30
0.0
 11
-9.0
 21
-73.422352
 31
0.0
  0
LINE
  5
11A
100
AcDbEntity
  8
0
390
0
  6
Continuous
 62
     7
100
AcDbLine
 10
-9.0
 20
-73.422352
 30
0.0
 11
-4.0
 21
-73.422352
 31
0.0
  0
LINE
  5
11B
100
AcDbEntity
  8
0
390
0
  6
Continuous
 62
     7
100
AcDbLine
 10
2.5
 20
-73.422352
 30
0.0
 11
2.5
 21
-72.736976
 31
0.0
  0
LINE
  5
11C
100
AcDbEntity
  8
0
390
0
  6
Continuous
 62
     7
100
AcDbLine
 10
2.5
 20
-72.736976
 30
0.0
 11
0.0
 21
-71.293601
 31
0.0
  0
LINE
  5
11D
100
AcDbEntity
  8
0
390
0
  6
Continuous
 62
     7
100
AcDbLine
 10
0.0
 20
-71.293601
 30
0.0
 11
-2.5
 21
-72.736976
 31
0.0
  0
LINE
  5
11E
100
AcDbEntity
  8
0
390
0
  6
Continuous
 62
     7
100
AcDbLine
 10
-2.5
 20
-72.736976
 30
0.0
 11
-2.5
 21
-73.422352
 31
0.0
  0
LINE
  5
11F
100
AcDbEntity
  8
0
390
0
  6
Continuous
 62
     7
100
AcDbLine
 10
-2.5
 20
-73.422352
 30
0.0
 11
2.5
 21
-73.422352
 31
0.0
  0
LINE
  5
120
100
AcDbEntity
  8
0
390
0
  6
Continuous
 62
     7
100
AcDbLine
 10
9.0
 20
-73.422352
 30
0.0
 11
9.0
 21
-72.736976
 31
0.0
  0
LINE
  5
121
100
AcDbEntity
  8
0
390
0
  6
Continuous
 62
     7
100
AcDbLine
 10
9.0
 20
-72.736976
 30
0.0
 11
6.5
 21
-71.293601
 31
0.0
  0
LINE
  5
122
100
AcDbEntity
  8
0
390
0
  6
Continuous
 62
     7
100
AcDbLine
 10
6.5
 20
-71.293601
 30
0.0
 11
4.0
 21
-72.736976
 31
0.0
  0
LINE
  5
123
100
AcDbEntity
  8
0
390
0
  6
Continuous
 62
     7
100
AcDbLine
 10
4.0
 20
-72.736976
 30
0.0
 11
4.0
 21
-73.422352
 31
0.0
  0
LINE
  5
124
100
AcDbEntity
  8
0
390
0
  6
Continuous
 62
     7
100
AcDbLine
 10
4.0
 20
-73.422352
 30
0.0
 11
9.0
 21
-73.422352
 31
0.0
  0
LINE
  5
125
100
AcDbEntity
  8
0
390
0
  6
Continuous
 62
     7
100
AcDbLine
 10
15.5
 20
-73.422352
 30
0.0
 11
15.5
 21
-72.736976
 31
0.0
  0
LINE
  5
126
100
AcDbEntity
  8
0
390
0
  6
Continuous
 62
     7
100
AcDbLine
 10
15.5
 20
-72.736976
 30
0.0
 11
13.0
 21
-71.293601
 31
0.0
  0
LINE
  5
127
100
AcDbEntity
  8
0
390
0
  6
Continuous
 62
     7
100
AcDbLine
 10
13.0
 20
-71.293601
 30
0.0
 11
10.5
 21
-72.736976
 31
0.0
  0
LINE
  5
128
100
AcDbEntity
  8
0
390
0
  6
Continuous
 62
     7
100
AcDbLine
 10
10.5
 20
-72.736976
 30
0.0
 11
10.5
 21
-73.422352
 31
0.0
  0
LINE
  5
129
100
AcDbEntity
  8
0
390
0
  6
Continuous
 62
     7
100
AcDbLine
 10
10.5
 20
-73.422352
 30
0.0
 11
15.5
 21
-73.422352
 31
0.0
  0
LINE
  5
12A
100
AcDbEntity
  8
0
390
0
  6
Continuous
 62
     7
100
AcDbLine
 10
19.0
 20
-60.324276
 30
0.0
 11
17.0
 21
-61.478976
 31
0.0
  0
LINE
  5
12B
100
AcDbEntity
  8
0
390
0
  6
Continuous
 62
     7
100
AcDbLine
 10
17.0
 20
-61.478976
 30
0.0
 11
17.0
 21
-64.365728
 31
0.0
  0
LINE
  5
12C
100
AcDbEntity
  8
0
390
0
  6
Continuous
 62
     7
100
AcDbLine
 10
17.0
 20
-64.365728
 30
0.0
 11
19.0
 21
-65.520428
 31
0.0
  0
LINE
  5
12D
100
AcDbEntity
  8
0
390
0
  6
Continuous
 62
     7
100
AcDbLine
 10
19.0
 20
-65.520428
 30
0.0
 11
19.0
 21
-60.324276
 31
0.0
  0
LINE
  5
12E
100
AcDbEntity
  8
0
390
0
  6
Continuous
 62
     7
100
AcDbLine
 10
-17.0
 20
-64.365728
 30
0.0
 11
-17.0
 21
-61.478976
 31
0.0
  0
LINE
  5
12F
100
AcDbEntity
  8
0
390
0
  6
Continuous
 62
     7
100
AcDbLine
 10
-17.0
 20
-61.478976
 30
0.0
 11
-19.0
 21
-60.324276
 31
0.0
  0
LINE
  5
130
100
AcDbEntity
  8
0
390
0
  6
Continuous
 62
     7
100
AcDbLine
 10
-19.0
 20
-65.520428
 30
0.0
 11
-19.0
 21
-60.324276
 31
0.0
  0
LINE
  5
131
100
AcDbEntity
  8
0
390
0
  6
Continuous
 62
     7
100
AcDbLine
 10
-19.0
 20
-65.520428
 30
0.0
 11
-17.0
 21
-64.365728
 31
0.0
  0
ARC
  5
132
100
AcDbEntity
  8
0
390
0
  6
Continuous
 62
     7
100
AcDbCircle
 10
-33.5
 20
-62.922352
 30
0.0
 40
12.5
210
0.0
220
0.0
230
1.0
100
AcDbArc
 50
90.0
 51
180.0
  0
LINE
  5
133
100
AcDbEntity
  8
0
390
0
  6
Continuous
 62
     7
100
AcDbLine
 10
-33.5
 20
-50.422352
 30
0.0
 11
33.5
 21
-50.422352
 31
0.0
  0
LINE
  5
134
100
AcDbEntity
  8
0
390
0
  6
Continuous
 62
     7
100
AcDbLine
 10
-4.302692
 20
-52.932968
 30
0.0
 11
-4.0
 21
-53.107728
 31
0.0
  0
LINE
  5
135
100
AcDbEntity
  8
0
390
0
  6
Continuous
 62
     7
100
AcDbLine
 10
-4.302692
 20
-52.422352
 30
0.0
 11
-4.302692
 21
-52.932968
 31
0.0
  0
LINE
  5
136
100
AcDbEntity
  8
0
390
0
  6
Continuous
 62
     7
100
AcDbLine
 10
10.83588
 20
-52.913807
 30
0.0
 11
10.83588
 21
-52.422352
 31
0.0
  0
LINE
  5
137
100
AcDbEntity
  8
0
390
0
  6
Continuous
 62
     7
100
AcDbLine
 10
10.83588
 20
-52.913807
 30
0.0
 11
10.5
 21
-53.107728
 31
0.0
  0
LINE
  5
138
100
AcDbEntity
  8
0
390
0
  6
Continuous
 62
     7
100
AcDbLine
 10
-8.678545
 20
-52.922135
 30
0.0
 11
-8.678545
 21
-52.422352
 31
0.0
  0
LINE
  5
139
100
AcDbEntity
  8
0
390
0
  6
Continuous
 62
     7
100
AcDbLine
 10
-8.678545
 20
-52.922135
 30
0.0
 11
-9.0
 21
-53.107728
 31
0.0
  0
LINE
  5
13A
100
AcDbEntity
  8
0
390
0
  6
Continuous
 62
     7
100
AcDbLine
 10
-10.835881
 20
-52.913807
 30
0.0
 11
-10.5
 21
-53.107728
 31
0.0
  0
LINE
  5
13B
100
AcDbEntity
  8
0
390
0
  6
Continuous
 62
     7
100
AcDbLine
 10
-10.835881
 20
-52.422352
 30
0.0
 11
-10.835881
 21
-52.913807
 31
0.0
  0
LINE
  5
13C
100
AcDbEntity
  8
0
390
0
  6
Continuous
 62
     7
100
AcDbLine
 10
-15.123463
 20
-52.890334
 30
0.0
 11
-15.5
 21
-53.107728
 31
0.0
  0
LINE
  5
13D
100
AcDbEntity
  8
0
390
0
  6
Continuous
 62
     7
100
AcDbLine
 10
-15.123463
 20
-52.890334
 30
0.0
 11
-15.123463
 21
-52.422352
 31
0.0
  0
LINE
  5
13E
100
AcDbEntity
  8
0
390
0
  6
Continuous
 62
     7
100
AcDbLine
 10
2.201711
 20
-52.935511
 30
0.0
 11
2.5
 21
-53.107728
 31
0.0
  0
LINE
  5
13F
100
AcDbEntity
  8
0
390
0
  6
Continuous
 62
     7
100
AcDbLine
 10
2.201711
 20
-52.422352
 30
0.0
 11
2.201711
 21
-52.935511
 31
0.0
  0
LINE
  5
140
100
AcDbEntity
  8
0
390
0
  6
Continuous
 62
     7
100
AcDbLine
 10
-2.201712
 20
-52.935511
 30
0.0
 11
-2.201712
 21
-52.422352
 31
0.0
  0
LINE
  5
141
100
AcDbEntity
  8
0
390
0
  6
Continuous
 62
     7
100
AcDbLine
 10
-2.201712
 20
-52.935511
 30
0.0
 11
-2.5
 21
-53.107728
 31
0.0
  0
LINE
  5
142
100
AcDbEntity
  8
0
390
0
  6
Continuous
 62
     7
100
AcDbLine
 10
15.123462
 20
-52.890334
 30
0.0
 11
15.5
 21
-53.107728
 31
0.0
  0
LINE
  5
143
100
AcDbEntity
  8
0
390
0
  6
Continuous
 62
     7
100
AcDbLine
 10
15.123462
 20
-52.422352
 30
0.0
 11
15.123462
 21
-52.890334
 31
0.0
  0
LINE
  5
144
100
AcDbEntity
  8
0
390
0
  6
Continuous
 62
     7
100
AcDbLine
 10
4.302692
 20
-52.932968
 30
0.0
 11
4.302692
 21
-52.422352
 31
0.0
  0
LINE
  5
145
100
AcDbEntity
  8
0
390
0
  6
Continuous
 62
     7
100
AcDbLine
 10
4.302692
 20
-52.932968
 30
0.0
 11
4.0
 21
-53.107728
 31
0.0
  0
LINE
  5
146
100
AcDbEntity
  8
0
390
0
  6
Continuous
 62
     7
100
AcDbLine
 10
8.678544
 20
-52.922135
 30
0.0
 11
9.0
 21
-53.107728
 31
0.0
  0
LINE
  5
147
100
AcDbEntity
  8
0
390
0
  6
Continuous
 62
     7
100
AcDbLine
 10
8.678544
 20
-52.422352
 30
0.0
 11
8.678544
 21
-52.922135
 31
0.0
  0
LINE
  5
148
100
AcDbEntity
  8
0
390
0
  6
Continuous
 62
     7
100
AcDbLine
 10
-6.5
 20
-54.192638
 30
0.0
 11
-6.5
 21
-54.551103
 31
0.0
  0
ELLIPSE
  5
149
100
AcDbEntity
  8
0
390
0
  6
Continuous
 62
     7
100
AcDbEllipse
 10
0.0
 20
-49.905443
 30
0.0
 11
27.298959866066593
 21
15.765864993908918
 31
0.0
210
0.0
220
0.0
230
1.0
 40
0.015115
 41
4.4632554582570494
 42
4.5453920122370288
  0
LINE
  5
14A
100
AcDbEntity
  8
0
390
0
  6
Continuous
 62
     7
100
AcDbLine
 10
6.5
 20
-54.192638
 30
0.0
 11
6.5
 21
-54.551103
 31
0.0
  0
ELLIPSE
  5
14B
100
AcDbEntity
  8
0
390
0
  6
Continuous
 62
     7
100
AcDbEllipse
 10
0.0
 20
-57.410997
 30
0.0
 11
27.298959866066593
 21
15.765864993908918
 31
0.0
210
0.0
220
0.0
230
1.0
 40
0.015115
 41
4.9440638917955679
 42
5.0271685941907513
  0
ELLIPSE
  5
14C
100
AcDbEntity
  8
0
390
0
  6
Continuous
 62
     7
100
AcDbEllipse
 10
0.0
 20
-49.905443
 30
0.0
 11
-27.298959866066596
 21
15.765864993908945
 31
0.0
210
0.0
220
0.0
230
1.0
 40
0.015115
 41
1.7377932949425572
 42
1.8199298489225366
  0
ELLIPSE
  5
14D
100
AcDbEntity
  8
0
390
0
  6
Continuous
 62
     7
100
AcDbEllipse
 10
0.0
 20
-57.410997
 30
0.0
 11
-27.298959866066596
 21
15.765864993908945
 31
0.0
210
0.0
220
0.0
230
1.0
 40
0.015115
 41
1.256016712988834
 42
1.3391214153840172
  0
LINE
  5
14E
100
AcDbEntity
  8
0
390
0
  6
Continuous
 62
     7
100
AcDbLine
 10
0.0
 20
-54.208462
 30
0.0
 11
0.0
 21
-54.551103
 31
0.0
  0
ELLIPSE
  5
14F
100
AcDbEntity
  8
0
390
0
  6
Continuous
 62
     7
100
AcDbEllipse
 10
0.0
 20
-53.65822
 30
0.0
 11
27.298959866066593
 21
15.765864993908918
 31
0.0
210
0.0
220
0.0
230
1.0
 40
0.015115
 41
4.7036596750263096
 42
4.7843961369960404
  0
LINE
  5
150
100
AcDbEntity
  8
0
390
0
  6
Continuous
 62
     7
100
AcDbLine
 10
-13.0
 20
-54.142071
 30
0.0
 11
-13.0
 21
-54.551103
 31
0.0
  0
ELLIPSE
  5
151
100
AcDbEntity
  8
0
390
0
  6
Continuous
 62
     7
100
AcDbEllipse
 10
0.0
 20
-61.163774
 30
0.0
 11
-27.298959866066596
 21
15.765864993908945
 31
0.0
210
0.0
220
0.0
230
1.0
 40
0.015115
 41
0.9923967618003485
 42
1.0832082700278109
  0
ELLIPSE
  5
152
100
AcDbEntity
  8
0
390
0
  6
Continuous
 62
     7
100
AcDbEllipse
 10
0.0
 20
-46.152667
 30
0.0
 11
27.298959866066593
 21
15.765864993908922
 31
0.0
210
0.0
220
0.0
230
1.0
 40
0.015115
 41
4.2073423129008418
 42
4.2955023389434137
  0
ELLIPSE
  5
153
100
AcDbEntity
  8
0
390
0
  6
Continuous
 62
     7
100
AcDbEllipse
 10
0.0
 20
-53.65822
 30
0.0
 11
-27.298959866066596
 21
15.765864993908945
 31
0.0
210
0.0
220
0.0
230
1.0
 40
0.015115
 41
1.4987891701835439
 42
1.5795256321532773
  0
LINE
  5
154
100
AcDbEntity
  8
0
390
0
  6
Continuous
 62
     7
100
AcDbLine
 10
13.0
 20
-54.142071
 30
0.0
 11
13.0
 21
-54.551103
 31
0.0
  0
ELLIPSE
  5
155
100
AcDbEntity
  8
0
390
0
  6
Continuous
 62
     7
100
AcDbEllipse
 10
0.0
 20
-46.152667
 30
0.0
 11
-27.298959866066596
 21
15.765864993908945
 31
0.0
210
0.0
220
0.0
230
1.0
 40
0.015115
 41
1.9876829682361716
 42
2.0758429942787435
  0
ELLIPSE
  5
156
100
AcDbEntity
  8
0
390
0
  6
Continuous
 62
     7
100
AcDbEllipse
 10
0.0
 20
-61.163774
 30
0.0
 11
27.298959866066593
 21
15.765864993908918
 31
0.0
210
0.0
220
0.0
230
1.0
 40
0.015115
 41
5.1999770371517755
 42
5.2907885453792369
  0
LINE
  5
157
100
AcDbEntity
  8
0
390
0
  6
Continuous
 62
     7
100
AcDbLine
 10
-3.25
 20
-54.75299
 30
0.0
 11
-3.25
 21
-54.406435
 31
0.0
  0
LINE
  5
158
100
AcDbEntity
  8
0
390
0
  6
Continuous
 62
     7
100
AcDbLine
 10
-1.047087
 20
-56.021334
 30
0.0
 11
-0.75
 21
-55.849811
 31
0.0
  0
ELLIPSE
  5
159
100
AcDbEntity
  8
0
390
0
  6
Continuous
 62
     7
100
AcDbEllipse
 10
0.0
 20
-57.175707
 30
0.0
 11
-27.298959866066596
 21
15.765864993908945
 31
0.0
210
0.0
220
0.0
230
1.0
 40
0.015115
 41
4.7594825214483514
 42
4.8404489105506974
  0
LINE
  5
15A
100
AcDbEntity
  8
0
390
0
  6
Continuous
 62
     7
100
AcDbLine
 10
9.75
 20
-54.785365
 30
0.0
 11
9.75
 21
-54.406435
 31
0.0
  0
LINE
  5
15B
100
AcDbEntity
  8
0
390
0
  6
Continuous
 62
     7
100
AcDbLine
 10
11.905563
 20
-56.048672
 30
0.0
 11
12.25
 21
-55.849811
 31
0.0
  0
ELLIPSE
  5
15C
100
AcDbEntity
  8
0
390
0
  6
Continuous
 62
     7
100
AcDbEllipse
 10
0.0
 20
-49.670153
 30
0.0
 11
-27.298959866066596
 21
15.765864993908945
 31
0.0
210
0.0
220
0.0
230
1.0
 40
0.015115
 41
4.2698566754542373
 42
4.3559110644527044
  0
LINE
  5
15D
100
AcDbEntity
  8
0
390
0
  6
Continuous
 62
     7
100
AcDbLine
 10
-11.905563
 20
-56.048672
 30
0.0
 11
-12.25
 21
-55.849811
 31
0.0
  0
LINE
  5
15E
100
AcDbEntity
  8
0
390
0
  6
Continuous
 62
     7
100
AcDbLine
 10
-9.75
 20
-54.785365
 30
0.0
 11
-9.75
 21
-54.406435
 31
0.0
  0
ELLIPSE
  5
15F
100
AcDbEntity
  8
0
390
0
  6
Continuous
 62
     7
100
AcDbEllipse
 10
0.0
 20
-49.670153
 30
0.0
 11
27.298959866066596
 21
15.765864993908945
 31
0.0
210
0.0
220
0.0
230
1.0
 40
0.015115
 41
1.9272742427268836
 42
2.0133286317253511
  0
LINE
  5
160
100
AcDbEntity
  8
0
390
0
  6
Continuous
 62
     7
100
AcDbLine
 10
3.25
 20
-54.75299
 30
0.0
 11
3.25
 21
-54.406435
 31
0.0
  0
LINE
  5
161
100
AcDbEntity
  8
0
390
0
  6
Continuous
 62
     7
100
AcDbLine
 10
5.443694
 20
-56.026657
 30
0.0
 11
5.75
 21
-55.849811
 31
0.0
  0
ELLIPSE
  5
162
100
AcDbEntity
  8
0
390
0
  6
Continuous
 62
     7
100
AcDbEllipse
 10
0.0
 20
-53.42293
 30
0.0
 11
-27.298959866066596
 21
15.765864993908945
 31
0.0
210
0.0
220
0.0
230
1.0
 40
0.015115
 41
4.5203699263205195
 42
4.601787660935444
  0
LINE
  5
163
100
AcDbEntity
  8
0
390
0
  6
Continuous
 62
     7
100
AcDbLine
 10
-18.365989
 20
-56.07152
 30
0.0
 11
-18.75
 21
-55.849811
 31
0.0
  0
LINE
  5
164
100
AcDbEntity
  8
0
390
0
  6
Continuous
 62
     7
100
AcDbLine
 10
-16.25
 20
-54.849854
 30
0.0
 11
-16.25
 21
-54.406435
 31
0.0
  0
LINE
  5
165
100
AcDbEntity
  8
0
390
0
  6
Continuous
 62
     7
100
AcDbLine
 10
-18.365989
 20
-56.07152
 30
0.0
 11
-16.25
 21
-54.849854
 31
0.0
  0
LINE
  5
166
100
AcDbEntity
  8
0
390
0
  6
Continuous
 62
     7
100
AcDbLine
 10
1.047086
 20
-56.021334
 30
0.0
 11
0.75
 21
-55.849811
 31
0.0
  0
ELLIPSE
  5
167
100
AcDbEntity
  8
0
390
0
  6
Continuous
 62
     7
100
AcDbEllipse
 10
0.0
 20
-57.175707
 30
0.0
 11
27.298959866066596
 21
15.765864993908945
 31
0.0
210
0.0
220
0.0
230
1.0
 40
0.015115
 41
1.44273639662889
 42
1.5237027857312355
  0
LINE
  5
168
100
AcDbEntity
  8
0
390
0
  6
Continuous
 62
     7
100
AcDbLine
 10
-7.565399
 20
-56.031907
 30
0.0
 11
-7.25
 21
-55.849811
 31
0.0
  0
ELLIPSE
  5
169
100
AcDbEntity
  8
0
390
0
  6
Continuous
 62
     7
100
AcDbEllipse
 10
0.0
 20
-60.928484
 30
0.0
 11
-27.298959866066596
 21
15.765864993908945
 31
0.0
210
0.0
220
0.0
230
1.0
 40
0.015115
 41
5.0019145825790163
 42
5.0863255070334379
  0
LINE
  5
16A
100
AcDbEntity
  8
0
390
0
  6
Continuous
 62
     7
100
AcDbLine
 10
7.565399
 20
-56.031907
 30
0.0
 11
7.25
 21
-55.849811
 31
0.0
  0
ELLIPSE
  5
16B
100
AcDbEntity
  8
0
390
0
  6
Continuous
 62
     7
100
AcDbEllipse
 10
0.0
 20
-60.928484
 30
0.0
 11
27.298959866066596
 21
15.765864993908945
 31
0.0
210
0.0
220
0.0
230
1.0
 40
0.015115
 41
1.1968598001461495
 42
1.2812707246005717
  0
ELLIPSE
  5
16C
100
AcDbEntity
  8
0
390
0
  6
Continuous
 62
     7
100
AcDbEllipse
 10
0.0
 20
-64.68126
 30
0.0
 11
27.298959866066596
 21
15.765864993908945
 31
0.0
210
0.0
220
0.0
230
1.0
 40
0.015115
 41
0.9471994002868166
 42
1.0186699291230976
  0
LINE
  5
16D
100
AcDbEntity
  8
0
390
0
  6
Continuous
 62
     7
100
AcDbLine
 10
14.115376
 20
-56.060761
 30
0.0
 11
13.75
 21
-55.849811
 31
0.0
  0
LINE
  5
16E
100
AcDbEntity
  8
0
390
0
  6
Continuous
 62
     7
100
AcDbLine
 10
16.25
 20
-54.849854
 30
0.0
 11
16.25
 21
-54.406435
 31
0.0
  0
LINE
  5
16F
100
AcDbEntity
  8
0
390
0
  6
Continuous
 62
     7
100
AcDbLine
 10
15.748015
 20
-55.139674
 30
0.0
 11
16.25
 21
-54.849854
 31
0.0
  0
LINE
  5
170
100
AcDbEntity
  8
0
390
0
  6
Continuous
 62
     7
100
AcDbLine
 10
-14.115376
 20
-56.060761
 30
0.0
 11
-13.75
 21
-55.849811
 31
0.0
  0
ELLIPSE
  5
171
100
AcDbEntity
  8
0
390
0
  6
Continuous
 62
     7
100
AcDbEllipse
 10
0.0
 20
-64.68126
 30
0.0
 11
-27.298959866066596
 21
15.765864993908945
 31
0.0
210
0.0
220
0.0
230
1.0
 40
0.015115
 41
5.2645153780564895
 42
5.3359859068927697
  0
LINE
  5
172
100
AcDbEntity
  8
0
390
0
  6
Continuous
 62
     7
100
AcDbLine
 10
-16.25
 20
-54.849854
 30
0.0
 11
-15.748016
 21
-55.139674
 31
0.0
  0
LINE
  5
173
100
AcDbEntity
  8
0
390
0
  6
Continuous
 62
     7
100
AcDbLine
 10
18.365988
 20
-56.07152
 30
0.0
 11
18.75
 21
-55.849811
 31
0.0
  0
LINE
  5
174
100
AcDbEntity
  8
0
390
0
  6
Continuous
 62
     7
100
AcDbLine
 10
16.25
 20
-54.849854
 30
0.0
 11
18.365988
 21
-56.07152
 31
0.0
  0
LINE
  5
175
100
AcDbEntity
  8
0
390
0
  6
Continuous
 62
     7
100
AcDbLine
 10
-5.443694
 20
-56.026657
 30
0.0
 11
-5.75
 21
-55.849811
 31
0.0
  0
ELLIPSE
  5
176
100
AcDbEntity
  8
0
390
0
  6
Continuous
 62
     7
100
AcDbEllipse
 10
0.0
 20
-53.42293
 30
0.0
 11
27.298959866066596
 21
15.765864993908945
 31
0.0
210
0.0
220
0.0
230
1.0
 40
0.015115
 41
1.6813976462441431
 42
1.7628153808590694
  0
LINE
  5
177
100
AcDbEntity
  8
0
390
0
  6
Continuous
 62
     7
100
AcDbLine
 10
5.443694
 20
-58.559717
 30
0.0
 11
5.75
 21
-58.736562
 31
0.0
  0
LINE
  5
178
100
AcDbEntity
  8
0
390
0
  6
Continuous
 62
     7
100
AcDbLine
 10
5.443694
 20
-56.026657
 30
0.0
 11
5.443694
 21
-58.559717
 31
0.0
  0
LINE
  5
179
100
AcDbEntity
  8
0
390
0
  6
Continuous
 62
     7
100
AcDbLine
 10
-18.365989
 20
-58.514853
 30
0.0
 11
-18.75
 21
-58.736562
 31
0.0
  0
LINE
  5
17A
100
AcDbEntity
  8
0
390
0
  6
Continuous
 62
     7
100
AcDbLine
 10
-18.365989
 20
-58.514853
 30
0.0
 11
-18.365989
 21
-56.07152
 31
0.0
  0
LINE
  5
17B
100
AcDbEntity
  8
0
390
0
  6
Continuous
 62
     7
100
AcDbLine
 10
-1.047087
 20
-58.565039
 30
0.0
 11
-0.75
 21
-58.736562
 31
0.0
  0
LINE
  5
17C
100
AcDbEntity
  8
0
390
0
  6
Continuous
 62
     7
100
AcDbLine
 10
-1.047087
 20
-56.021334
 30
0.0
 11
-1.047087
 21
-58.565039
 31
0.0
  0
LINE
  5
17D
100
AcDbEntity
  8
0
390
0
  6
Continuous
 62
     7
100
AcDbLine
 10
-11.905563
 20
-58.537702
 30
0.0
 11
-12.25
 21
-58.736562
 31
0.0
  0
LINE
  5
17E
100
AcDbEntity
  8
0
390
0
  6
Continuous
 62
     7
100
AcDbLine
 10
-11.905563
 20
-58.537702
 30
0.0
 11
-11.905563
 21
-56.048672
 31
0.0
  0
LINE
  5
17F
100
AcDbEntity
  8
0
390
0
  6
Continuous
 62
     7
100
AcDbLine
 10
11.905563
 20
-58.537702
 30
0.0
 11
12.25
 21
-58.736562
 31
0.0
  0
LINE
  5
180
100
AcDbEntity
  8
0
390
0
  6
Continuous
 62
     7
100
AcDbLine
 10
11.905563
 20
-56.048672
 30
0.0
 11
11.905563
 21
-58.537702
 31
0.0
  0
LINE
  5
181
100
AcDbEntity
  8
0
390
0
  6
Continuous
 62
     7
100
AcDbLine
 10
18.365988
 20
-58.514853
 30
0.0
 11
18.75
 21
-58.736562
 31
0.0
  0
LINE
  5
182
100
AcDbEntity
  8
0
390
0
  6
Continuous
 62
     7
100
AcDbLine
 10
18.365988
 20
-56.07152
 30
0.0
 11
18.365988
 21
-58.514853
 31
0.0
  0
LINE
  5
183
100
AcDbEntity
  8
0
390
0
  6
Continuous
 62
     7
100
AcDbLine
 10
-7.565399
 20
-58.554467
 30
0.0
 11
-7.25
 21
-58.736562
 31
0.0
  0
LINE
  5
184
100
AcDbEntity
  8
0
390
0
  6
Continuous
 62
     7
100
AcDbLine
 10
-7.565399
 20
-56.031907
 30
0.0
 11
-7.565399
 21
-58.554467
 31
0.0
  0
LINE
  5
185
100
AcDbEntity
  8
0
390
0
  6
Continuous
 62
     7
100
AcDbLine
 10
-14.115376
 20
-58.525613
 30
0.0
 11
-13.75
 21
-58.736562
 31
0.0
  0
LINE
  5
186
100
AcDbEntity
  8
0
390
0
  6
Continuous
 62
     7
100
AcDbLine
 10
-14.115376
 20
-56.060761
 30
0.0
 11
-14.115376
 21
-58.525613
 31
0.0
  0
LINE
  5
187
100
AcDbEntity
  8
0
390
0
  6
Continuous
 62
     7
100
AcDbLine
 10
14.115376
 20
-58.525613
 30
0.0
 11
13.75
 21
-58.736562
 31
0.0
  0
LINE
  5
188
100
AcDbEntity
  8
0
390
0
  6
Continuous
 62
     7
100
AcDbLine
 10
14.115376
 20
-58.525613
 30
0.0
 11
14.115376
 21
-56.060761
 31
0.0
  0
LINE
  5
189
100
AcDbEntity
  8
0
390
0
  6
Continuous
 62
     7
100
AcDbLine
 10
7.565399
 20
-58.554467
 30
0.0
 11
7.25
 21
-58.736562
 31
0.0
  0
LINE
  5
18A
100
AcDbEntity
  8
0
390
0
  6
Continuous
 62
     7
100
AcDbLine
 10
7.565399
 20
-58.554467
 30
0.0
 11
7.565399
 21
-56.031907
 31
0.0
  0
LINE
  5
18B
100
AcDbEntity
  8
0
390
0
  6
Continuous
 62
     7
100
AcDbLine
 10
-5.443694
 20
-58.559717
 30
0.0
 11
-5.75
 21
-58.736562
 31
0.0
  0
LINE
  5
18C
100
AcDbEntity
  8
0
390
0
  6
Continuous
 62
     7
100
AcDbLine
 10
-5.443694
 20
-58.559717
 30
0.0
 11
-5.443694
 21
-56.026657
 31
0.0
  0
LINE
  5
18D
100
AcDbEntity
  8
0
390
0
  6
Continuous
 62
     7
100
AcDbLine
 10
1.047086
 20
-58.565039
 30
0.0
 11
0.75
 21
-58.736562
 31
0.0
  0
LINE
  5
18E
100
AcDbEntity
  8
0
390
0
  6
Continuous
 62
     7
100
AcDbLine
 10
1.047086
 20
-58.565039
 30
0.0
 11
1.047086
 21
-56.021334
 31
0.0
  0
LINE
  5
18F
100
AcDbEntity
  8
0
390
0
  6
Continuous
 62
     7
100
AcDbLine
 10
16.25
 20
-59.73652
 30
0.0
 11
16.25
 21
-60.179938
 31
0.0
  0
LINE
  5
190
100
AcDbEntity
  8
0
390
0
  6
Continuous
 62
     7
100
AcDbLine
 10
18.365988
 20
-58.514853
 30
0.0
 11
16.25
 21
-59.73652
 31
0.0
  0
LINE
  5
191
100
AcDbEntity
  8
0
390
0
  6
Continuous
 62
     7
100
AcDbLine
 10
-16.25
 20
-59.73652
 30
0.0
 11
-16.25
 21
-60.179938
 31
0.0
  0
LINE
  5
192
100
AcDbEntity
  8
0
390
0
  6
Continuous
 62
     7
100
AcDbLine
 10
-16.25
 20
-59.73652
 30
0.0
 11
-18.365989
 21
-58.514853
 31
0.0
  0
LINE
  5
193
100
AcDbEntity
  8
0
390
0
  6
Continuous
 62
     7
100
AcDbLine
 10
-9.75
 20
-59.801008
 30
0.0
 11
-9.75
 21
-60.179938
 31
0.0
  0
ELLIPSE
  5
194
100
AcDbEntity
  8
0
390
0
  6
Continuous
 62
     7
100
AcDbEllipse
 10
0.0
 20
-64.91622
 30
0.0
 11
-27.298959866066596
 21
15.765864993908945
 31
0.0
210
0.0
220
0.0
230
1.0
 40
0.015115
 41
1.128264021864444
 42
1.2143184108629106
  0
ELLIPSE
  5
195
100
AcDbEntity
  8
0
390
0
  6
Continuous
 62
     7
100
AcDbEllipse
 10
0.0
 20
-49.905113
 30
0.0
 11
-27.298959866066596
 21
15.765864993908945
 31
0.0
210
0.0
220
0.0
230
1.0
 40
0.015115
 41
2.1229227244666955
 42
2.1943932533029775
  0
LINE
  5
196
100
AcDbEntity
  8
0
390
0
  6
Continuous
 62
     7
100
AcDbLine
 10
16.25
 20
-59.73652
 30
0.0
 11
15.748015
 21
-59.446699
 31
0.0
  0
LINE
  5
197
100
AcDbEntity
  8
0
390
0
  6
Continuous
 62
     7
100
AcDbLine
 10
9.75
 20
-59.801008
 30
0.0
 11
9.75
 21
-60.179938
 31
0.0
  0
ELLIPSE
  5
198
100
AcDbEntity
  8
0
390
0
  6
Continuous
 62
     7
100
AcDbEllipse
 10
0.0
 20
-53.65789
 30
0.0
 11
-27.298959866066596
 21
15.765864993908945
 31
0.0
210
0.0
220
0.0
230
1.0
 40
0.015115
 41
1.8603219289892228
 42
1.9447328534436439
  0
LINE
  5
199
100
AcDbEntity
  8
0
390
0
  6
Continuous
 62
     7
100
AcDbLine
 10
-3.25
 20
-59.833384
 30
0.0
 11
-3.25
 21
-60.179938
 31
0.0
  0
ELLIPSE
  5
19A
100
AcDbEntity
  8
0
390
0
  6
Continuous
 62
     7
100
AcDbEllipse
 10
0.0
 20
-57.410667
 30
0.0
 11
27.298959866066596
 21
15.765864993908945
 31
0.0
210
0.0
220
0.0
230
1.0
 40
0.015115
 41
4.584329050218682
 42
4.6652954393210271
  0
ELLIPSE
  5
19B
100
AcDbEntity
  8
0
390
0
  6
Continuous
 62
     7
100
AcDbEllipse
 10
0.0
 20
-61.163443
 30
0.0
 11
-27.298959866066596
 21
15.765864993908945
 31
0.0
210
0.0
220
0.0
230
1.0
 40
0.015115
 41
1.378777272730725
 42
1.4601950073456509
  0
ELLIPSE
  5
19C
100
AcDbEntity
  8
0
390
0
  6
Continuous
 62
     7
100
AcDbEllipse
 10
0.0
 20
-64.91622
 30
0.0
 11
27.298959866066596
 21
15.765864993908945
 31
0.0
210
0.0
220
0.0
230
1.0
 40
0.015115
 41
5.0688668963166759
 42
5.1549212853151429
  0
LINE
  5
19D
100
AcDbEntity
  8
0
390
0
  6
Continuous
 62
     7
100
AcDbLine
 10
3.25
 20
-59.833384
 30
0.0
 11
3.25
 21
-60.179938
 31
0.0
  0
ELLIPSE
  5
19E
100
AcDbEntity
  8
0
390
0
  6
Continuous
 62
     7
100
AcDbEllipse
 10
0.0
 20
-57.410667
 30
0.0
 11
-27.298959866066596
 21
15.765864993908945
 31
0.0
210
0.0
220
0.0
230
1.0
 40
0.015115
 41
1.6178898678585578
 42
1.6988562569609034
  0
ELLIPSE
  5
19F
100
AcDbEntity
  8
0
390
0
  6
Continuous
 62
     7
100
AcDbEllipse
 10
0.0
 20
-49.905113
 30
0.0
 11
27.298959866066618
 21
15.765864993908945
 31
0.0
210
0.0
220
0.0
230
1.0
 40
0.015115
 41
4.0887920538766105
 42
4.1602625827128898
  0
LINE
  5
1A0
100
AcDbEntity
  8
0
390
0
  6
Continuous
 62
     7
100
AcDbLine
 10
-15.748016
 20
-59.446699
 30
0.0
 11
-16.25
 21
-59.73652
 31
0.0
  0
ELLIPSE
  5
1A1
100
AcDbEntity
  8
0
390
0
  6
Continuous
 62
     7
100
AcDbEllipse
 10
0.0
 20
-61.163443
 30
0.0
 11
27.298959866066618
 21
15.765864993908945
 31
0.0
210
0.0
220
0.0
230
1.0
 40
0.015115
 41
4.8229902998339353
 42
4.9044080344488616
  0
ELLIPSE
  5
1A2
100
AcDbEntity
  8
0
390
0
  6
Continuous
 62
     7
100
AcDbEllipse
 10
0.0
 20
-53.65789
 30
0.0
 11
27.298959866066618
 21
15.765864993908945
 31
0.0
210
0.0
220
0.0
230
1.0
 40
0.015115
 41
4.3384524537359415
 42
4.4228633781903639
  0
LINE
  5
1A3
100
AcDbEntity
  8
0
390
0
  6
Continuous
 62
     7
100
AcDbLine
 10
13.0
 20
-60.444633
 30
0.0
 11
13.0
 21
-60.035601
 31
0.0
  0
LINE
  5
1A4
100
AcDbEntity
  8
0
390
0
  6
Continuous
 62
     7
100
AcDbLine
 10
15.123462
 20
-61.69637
 30
0.0
 11
15.5
 21
-61.478976
 31
0.0
  0
ELLIPSE
  5
1A5
100
AcDbEntity
  8
0
390
0
  6
Continuous
 62
     7
100
AcDbEllipse
 10
0.0
 20
-53.42293
 30
0.0
 11
-27.298959866066596
 21
15.765864993908945
 31
0.0
210
0.0
220
0.0
230
1.0
 40
0.015115
 41
4.1339894153901424
 42
4.2248009236176047
  0
LINE
  5
1A6
100
AcDbEntity
  8
0
390
0
  6
Continuous
 62
     7
100
AcDbLine
 10
6.5
 20
-60.394066
 30
0.0
 11
6.5
 21
-60.035601
 31
0.0
  0
LINE
  5
1A7
100
AcDbEntity
  8
0
390
0
  6
Continuous
 62
     7
100
AcDbLine
 10
8.678544
 20
-61.664569
 30
0.0
 11
9.0
 21
-61.478976
 31
0.0
  0
ELLIPSE
  5
1A8
100
AcDbEntity
  8
0
390
0
  6
Continuous
 62
     7
100
AcDbEllipse
 10
0.0
 20
-57.175707
 30
0.0
 11
-27.298959866066596
 21
15.765864993908945
 31
0.0
210
0.0
220
0.0
230
1.0
 40
0.015115
 41
4.397609366578628
 42
4.4807140689738114
  0
LINE
  5
1A9
100
AcDbEntity
  8
0
390
0
  6
Continuous
 62
     7
100
AcDbLine
 10
-13.0
 20
-60.444633
 30
0.0
 11
-13.0
 21
-60.035601
 31
0.0
  0
LINE
  5
1AA
100
AcDbEntity
  8
0
390
0
  6
Continuous
 62
     7
100
AcDbLine
 10
-10.835881
 20
-61.672897
 30
0.0
 11
-10.5
 21
-61.478976
 31
0.0
  0
ELLIPSE
  5
1AB
100
AcDbEntity
  8
0
390
0
  6
Continuous
 62
     7
100
AcDbEllipse
 10
0.0
 20
-68.434037
 30
0.0
 11
-27.298959866066596
 21
15.765864993908945
 31
0.0
210
0.0
220
0.0
230
1.0
 40
0.015115
 41
5.1292756218259656
 42
5.2174356478685375
  0
LINE
  5
1AC
100
AcDbEntity
  8
0
390
0
  6
Continuous
 62
     7
100
AcDbLine
 10
-15.123463
 20
-61.69637
 30
0.0
 11
-15.5
 21
-61.478976
 31
0.0
  0
ELLIPSE
  5
1AD
100
AcDbEntity
  8
0
390
0
  6
Continuous
 62
     7
100
AcDbEllipse
 10
0.0
 20
-53.42293
 30
0.0
 11
27.298959866066618
 21
15.765864993908918
 31
0.0
210
0.0
220
0.0
230
1.0
 40
0.015115
 41
2.0583843835619837
 42
2.1491958917894451
  0
LINE
  5
1AE
100
AcDbEntity
  8
0
390
0
  6
Continuous
 62
     7
100
AcDbLine
 10
-2.201712
 20
-61.651193
 30
0.0
 11
-2.5
 21
-61.478976
 31
0.0
  0
LINE
  5
1AF
100
AcDbEntity
  8
0
390
0
  6
Continuous
 62
     7
100
AcDbLine
 10
0.0
 20
-60.378242
 30
0.0
 11
0.0
 21
-60.035601
 31
0.0
  0
ELLIPSE
  5
1B0
100
AcDbEntity
  8
0
390
0
  6
Continuous
 62
     7
100
AcDbEllipse
 10
0.0
 20
-60.928484
 30
0.0
 11
27.298959866066618
 21
15.765864993908918
 31
0.0
210
0.0
220
0.0
230
1.0
 40
0.015115
 41
1.5620670214365169
 42
1.6428034834062497
  0
LINE
  5
1B1
100
AcDbEntity
  8
0
390
0
  6
Continuous
 62
     7
100
AcDbLine
 10
2.201711
 20
-61.651193
 30
0.0
 11
2.5
 21
-61.478976
 31
0.0
  0
ELLIPSE
  5
1B2
100
AcDbEntity
  8
0
390
0
  6
Continuous
 62
     7
100
AcDbEllipse
 10
0.0
 20
-60.928484
 30
0.0
 11
-27.298959866066596
 21
15.765864993908945
 31
0.0
210
0.0
220
0.0
230
1.0
 40
0.015115
 41
4.640381823773339
 42
4.7211182857430716
  0
LINE
  5
1B3
100
AcDbEntity
  8
0
390
0
  6
Continuous
 62
     7
100
AcDbLine
 10
10.83588
 20
-61.672897
 30
0.0
 11
10.5
 21
-61.478976
 31
0.0
  0
ELLIPSE
  5
1B4
100
AcDbEntity
  8
0
390
0
  6
Continuous
 62
     7
100
AcDbEllipse
 10
0.0
 20
-68.434037
 30
0.0
 11
27.298959866066618
 21
15.765864993908918
 31
0.0
210
0.0
220
0.0
230
1.0
 40
0.015115
 41
1.0657496593110496
 42
1.1539096853536217
  0
LINE
  5
1B5
100
AcDbEntity
  8
0
390
0
  6
Continuous
 62
     7
100
AcDbLine
 10
-8.678545
 20
-61.664569
 30
0.0
 11
-9.0
 21
-61.478976
 31
0.0
  0
LINE
  5
1B6
100
AcDbEntity
  8
0
390
0
  6
Continuous
 62
     7
100
AcDbLine
 10
-6.5
 20
-60.394066
 30
0.0
 11
-6.5
 21
-60.035601
 31
0.0
  0
ELLIPSE
  5
1B7
100
AcDbEntity
  8
0
390
0
  6
Continuous
 62
     7
100
AcDbEllipse
 10
0.0
 20
-57.175707
 30
0.0
 11
27.298959866066618
 21
15.765864993908945
 31
0.0
210
0.0
220
0.0
230
1.0
 40
0.015115
 41
1.8024712382057759
 42
1.8855759406009596
  0
LINE
  5
1B8
100
AcDbEntity
  8
0
390
0
  6
Continuous
 62
     7
100
AcDbLine
 10
-4.302692
 20
-61.653735
 30
0.0
 11
-4.0
 21
-61.478976
 31
0.0
  0
ELLIPSE
  5
1B9
100
AcDbEntity
  8
0
390
0
  6
Continuous
 62
     7
100
AcDbEllipse
 10
0.0
 20
-64.68126
 30
0.0
 11
-27.298959866066596
 21
15.765864993908945
 31
0.0
210
0.0
220
0.0
230
1.0
 40
0.015115
 41
4.8793859485323514
 42
4.9615225025123308
  0
LINE
  5
1BA
100
AcDbEntity
  8
0
390
0
  6
Continuous
 62
     7
100
AcDbLine
 10
4.302692
 20
-61.653735
 30
0.0
 11
4.0
 21
-61.478976
 31
0.0
  0
ELLIPSE
  5
1BB
100
AcDbEntity
  8
0
390
0
  6
Continuous
 62
     7
100
AcDbEllipse
 10
0.0
 20
-64.68126
 30
0.0
 11
27.298959866066618
 21
15.765864993908918
 31
0.0
210
0.0
220
0.0
230
1.0
 40
0.015115
 41
1.3216628046672569
 42
1.4037993586472362
  0
LINE
  5
1BC
100
AcDbEntity
  8
0
390
0
  6
Continuous
 62
     7
100
AcDbLine
 10
-17.384012
 20
-61.700685
 30
0.0
 11
-17.0
 21
-61.478976
 31
0.0
  0
LINE
  5
1BD
100
AcDbEntity
  8
0
390
0
  6
Continuous
 62
     7
100
AcDbLine
 10
-19.0
 20
-60.767694
 30
0.0
 11
-17.384012
 21
-61.700685
 31
0.0
  0
LINE
  5
1BE
100
AcDbEntity
  8
0
390
0
  6
Continuous
 62
     7
100
AcDbLine
 10
17.384011
 20
-61.700685
 30
0.0
 11
19.0
 21
-60.767694
 31
0.0
  0
LINE
  5
1BF
100
AcDbEntity
  8
0
390
0
  6
Continuous
 62
     7
100
AcDbLine
 10
17.384011
 20
-61.700685
 30
0.0
 11
17.0
 21
-61.478976
 31
0.0
  0
LINE
  5
1C0
100
AcDbEntity
  8
0
390
0
  6
Continuous
 62
     7
100
AcDbLine
 10
17.384011
 20
-64.144018
 30
0.0
 11
17.0
 21
-64.365728
 31
0.0
  0
LINE
  5
1C1
100
AcDbEntity
  8
0
390
0
  6
Continuous
 62
     7
100
AcDbLine
 10
17.384011
 20
-64.144018
 30
0.0
 11
17.384011
 21
-61.700685
 31
0.0
  0
LINE
  5
1C2
100
AcDbEntity
  8
0
390
0
  6
Continuous
 62
     7
100
AcDbLine
 10
-15.123463
 20
-64.148334
 30
0.0
 11
-15.5
 21
-64.365728
 31
0.0
  0
LINE
  5
1C3
100
AcDbEntity
  8
0
390
0
  6
Continuous
 62
     7
100
AcDbLine
 10
-15.123463
 20
-64.148334
 30
0.0
 11
-15.123463
 21
-61.69637
 31
0.0
  0
LINE
  5
1C4
100
AcDbEntity
  8
0
390
0
  6
Continuous
 62
     7
100
AcDbLine
 10
-10.835881
 20
-64.171807
 30
0.0
 11
-10.5
 21
-64.365728
 31
0.0
  0
LINE
  5
1C5
100
AcDbEntity
  8
0
390
0
  6
Continuous
 62
     7
100
AcDbLine
 10
-10.835881
 20
-61.672897
 30
0.0
 11
-10.835881
 21
-64.171807
 31
0.0
  0
LINE
  5
1C6
100
AcDbEntity
  8
0
390
0
  6
Continuous
 62
     7
100
AcDbLine
 10
-4.302692
 20
-64.190968
 30
0.0
 11
-4.0
 21
-64.365728
 31
0.0
  0
LINE
  5
1C7
100
AcDbEntity
  8
0
390
0
  6
Continuous
 62
     7
100
AcDbLine
 10
-4.302692
 20
-61.653735
 30
0.0
 11
-4.302692
 21
-64.190968
 31
0.0
  0
LINE
  5
1C8
100
AcDbEntity
  8
0
390
0
  6
Continuous
 62
     7
100
AcDbLine
 10
15.123462
 20
-64.148334
 30
0.0
 11
15.5
 21
-64.365728
 31
0.0
  0
LINE
  5
1C9
100
AcDbEntity
  8
0
390
0
  6
Continuous
 62
     7
100
AcDbLine
 10
15.123462
 20
-61.69637
 30
0.0
 11
15.123462
 21
-64.148334
 31
0.0
  0
LINE
  5
1CA
100
AcDbEntity
  8
0
390
0
  6
Continuous
 62
     7
100
AcDbLine
 10
10.83588
 20
-64.171807
 30
0.0
 11
10.5
 21
-64.365728
 31
0.0
  0
LINE
  5
1CB
100
AcDbEntity
  8
0
390
0
  6
Continuous
 62
     7
100
AcDbLine
 10
10.83588
 20
-64.171807
 30
0.0
 11
10.83588
 21
-61.672897
 31
0.0
  0
LINE
  5
1CC
100
AcDbEntity
  8
0
390
0
  6
Continuous
 62
     7
100
AcDbLine
 10
-17.384012
 20
-64.144018
 30
0.0
 11
-17.0
 21
-64.365728
 31
0.0
  0
LINE
  5
1CD
100
AcDbEntity
  8
0
390
0
  6
Continuous
 62
     7
100
AcDbLine
 10
-17.384012
 20
-61.700685
 30
0.0
 11
-17.384012
 21
-64.144018
 31
0.0
  0
LINE
  5
1CE
100
AcDbEntity
  8
0
390
0
  6
Continuous
 62
     7
100
AcDbLine
 10
2.201711
 20
-64.193511
 30
0.0
 11
2.5
 21
-64.365728
 31
0.0
  0
LINE
  5
1CF
100
AcDbEntity
  8
0
390
0
  6
Continuous
 62
     7
100
AcDbLine
 10
2.201711
 20
-61.651193
 30
0.0
 11
2.201711
 21
-64.193511
 31
0.0
  0
LINE
  5
1D0
100
AcDbEntity
  8
0
390
0
  6
Continuous
 62
     7
100
AcDbLine
 10
4.302692
 20
-64.190968
 30
0.0
 11
4.0
 21
-64.365728
 31
0.0
  0
LINE
  5
1D1
100
AcDbEntity
  8
0
390
0
  6
Continuous
 62
     7
100
AcDbLine
 10
4.302692
 20
-64.190968
 30
0.0
 11
4.302692
 21
-61.653735
 31
0.0
  0
LINE
  5
1D2
100
AcDbEntity
  8
0
390
0
  6
Continuous
 62
     7
100
AcDbLine
 10
-2.201712
 20
-64.193511
 30
0.0
 11
-2.5
 21
-64.365728
 31
0.0
  0
LINE
  5
1D3
100
AcDbEntity
  8
0
390
0
  6
Continuous
 62
     7
100
AcDbLine
 10
-2.201712
 20
-64.193511
 30
0.0
 11
-2.201712
 21
-61.651193
 31
0.0
  0
LINE
  5
1D4
100
AcDbEntity
  8
0
390
0
  6
Continuous
 62
     7
100
AcDbLine
 10
8.678544
 20
-64.180135
 30
0.0
 11
9.0
 21
-64.365728
 31
0.0
  0
LINE
  5
1D5
100
AcDbEntity
  8
0
390
0
  6
Continuous
 62
     7
100
AcDbLine
 10
8.678544
 20
-61.664569
 30
0.0
 11
8.678544
 21
-64.180135
 31
0.0
  0
LINE
  5
1D6
100
AcDbEntity
  8
0
390
0
  6
Continuous
 62
     7
100
AcDbLine
 10
-8.678545
 20
-64.180135
 30
0.0
 11
-9.0
 21
-64.365728
 31
0.0
  0
LINE
  5
1D7
100
AcDbEntity
  8
0
390
0
  6
Continuous
 62
     7
100
AcDbLine
 10
-8.678545
 20
-64.180135
 30
0.0
 11
-8.678545
 21
-61.664569
 31
0.0
  0
LINE
  5
1D8
100
AcDbEntity
  8
0
390
0
  6
Continuous
 62
     7
100
AcDbLine
 10
-13.0
 20
-65.400071
 30
0.0
 11
-13.0
 21
-65.809103
 31
0.0
  0
ELLIPSE
  5
1D9
100
AcDbEntity
  8
0
390
0
  6
Continuous
 62
     7
100
AcDbEllipse
 10
0.0
 20
-72.421774
 30
0.0
 11
-27.298959866066596
 21
15.765864993908945
 31
0.0
210
0.0
220
0.0
230
1.0
 40
0.015115
 41
0.9923967618003474
 42
1.0832082700278098
  0
LINE
  5
1DA
100
AcDbEntity
  8
0
390
0
  6
Continuous
 62
     7
100
AcDbLine
 10
-17.384012
 20
-64.144018
 30
0.0
 11
-19.0
 21
-65.07701
 31
0.0
  0
LINE
  5
1DB
100
AcDbEntity
  8
0
390
0
  6
Continuous
 62
     7
100
AcDbLine
 10
13.0
 20
-65.400071
 30
0.0
 11
13.0
 21
-65.809103
 31
0.0
  0
ELLIPSE
  5
1DC
100
AcDbEntity
  8
0
390
0
  6
Continuous
 62
     7
100
AcDbEllipse
 10
0.0
 20
-72.421774
 30
0.0
 11
27.298959866066593
 21
15.765864993908918
 31
0.0
210
0.0
220
0.0
230
1.0
 40
0.015115
 41
5.1999770371517746
 42
5.2907885453792369
  0
LINE
  5
1DD
100
AcDbEntity
  8
0
390
0
  6
Continuous
 62
     7
100
AcDbLine
 10
19.0
 20
-65.07701
 30
0.0
 11
17.384011
 21
-64.144018
 31
0.0
  0
LINE
  5
1DE
100
AcDbEntity
  8
0
390
0
  6
Continuous
 62
     7
100
AcDbLine
 10
0.0
 20
-65.466462
 30
0.0
 11
0.0
 21
-65.809103
 31
0.0
  0
ELLIPSE
  5
1DF
100
AcDbEntity
  8
0
390
0
  6
Continuous
 62
     7
100
AcDbEllipse
 10
0.0
 20
-64.91622
 30
0.0
 11
27.298959866066593
 21
15.765864993908918
 31
0.0
210
0.0
220
0.0
230
1.0
 40
0.015115
 41
4.7036596750263078
 42
4.7843961369960404
  0
ELLIPSE
  5
1E0
100
AcDbEntity
  8
0
390
0
  6
Continuous
 62
     7
100
AcDbEllipse
 10
0.0
 20
-57.410667
 30
0.0
 11
-27.298959866066596
 21
15.765864993908945
 31
0.0
210
0.0
220
0.0
230
1.0
 40
0.015115
 41
1.9876829682361716
 42
2.0758429942787435
  0
LINE
  5
1E1
100
AcDbEntity
  8
0
390
0
  6
Continuous
 62
     7
100
AcDbLine
 10
6.5
 20
-65.450638
 30
0.0
 11
6.5
 21
-65.809103
 31
0.0
  0
ELLIPSE
  5
1E2
100
AcDbEntity
  8
0
390
0
  6
Continuous
 62
     7
100
AcDbEllipse
 10
0.0
 20
-68.668997
 30
0.0
 11
27.298959866066593
 21
15.765864993908918
 31
0.0
210
0.0
220
0.0
230
1.0
 40
0.015115
 41
4.9440638917955679
 42
5.0271685941907513
  0
LINE
  5
1E3
100
AcDbEntity
  8
0
390
0
  6
Continuous
 62
     7
100
AcDbLine
 10
-6.5
 20
-65.450638
 30
0.0
 11
-6.5
 21
-65.809103
 31
0.0
  0
ELLIPSE
  5
1E4
100
AcDbEntity
  8
0
390
0
  6
Continuous
 62
     7
100
AcDbEllipse
 10
0.0
 20
-61.163443
 30
0.0
 11
27.298959866066593
 21
15.765864993908918
 31
0.0
210
0.0
220
0.0
230
1.0
 40
0.015115
 41
4.4632554582570494
 42
4.5453920122370288
  0
ELLIPSE
  5
1E5
100
AcDbEntity
  8
0
390
0
  6
Continuous
 62
     7
100
AcDbEllipse
 10
0.0
 20
-57.410667
 30
0.0
 11
27.298959866066593
 21
15.765864993908918
 31
0.0
210
0.0
220
0.0
230
1.0
 40
0.015115
 41
4.2073423129008418
 42
4.2955023389434137
  0
ELLIPSE
  5
1E6
100
AcDbEntity
  8
0
390
0
  6
Continuous
 62
     7
100
AcDbEllipse
 10
0.0
 20
-64.91622
 30
0.0
 11
-27.298959866066596
 21
15.765864993908945
 31
0.0
210
0.0
220
0.0
230
1.0
 40
0.015115
 41
1.4987891701835458
 42
1.5795256321532773
  0
ELLIPSE
  5
1E7
100
AcDbEntity
  8
0
390
0
  6
Continuous
 62
     7
100
AcDbEllipse
 10
0.0
 20
-61.163443
 30
0.0
 11
-27.298959866066596
 21
15.765864993908945
 31
0.0
210
0.0
220
0.0
230
1.0
 40
0.015115
 41
1.7377932949425572
 42
1.8199298489225366
  0
ELLIPSE
  5
1E8
100
AcDbEntity
  8
0
390
0
  6
Continuous
 62
     7
100
AcDbEllipse
 10
0.0
 20
-68.668997
 30
0.0
 11
-27.298959866066596
 21
15.765864993908945
 31
0.0
210
0.0
220
0.0
230
1.0
 40
0.015115
 41
1.256016712988834
 42
1.3391214153840172
  0
LINE
  5
1E9
100
AcDbEntity
  8
0
390
0
  6
Continuous
 62
     7
100
AcDbLine
 10
-15.748016
 20
-66.398005
 30
0.0
 11
-16.25
 21
-66.108184
 31
0.0
  0
LINE
  5
1EA
100
AcDbEntity
  8
0
390
0
  6
Continuous
 62
     7
100
AcDbLine
 10
-16.25
 20
-66.108184
 30
0.0
 11
-16.25
 21
-65.664766
 31
0.0
  0
LINE
  5
1EB
100
AcDbEntity
  8
0
390
0
  6
Continuous
 62
     7
100
AcDbLine
 10
-14.115376
 20
-67.319091
 30
0.0
 11
-13.75
 21
-67.108141
 31
0.0
  0
ELLIPSE
  5
1EC
100
AcDbEntity
  8
0
390
0
  6
Continuous
 62
     7
100
AcDbEllipse
 10
0.0
 20
-75.939591
 30
0.0
 11
-27.298959866066596
 21
15.765864993908945
 31
0.0
210
0.0
220
0.0
230
1.0
 40
0.015115
 41
5.2645153780564895
 42
5.3359859068927697
  0
ELLIPSE
  5
1ED
100
AcDbEntity
  8
0
390
0
  6
Continuous
 62
     7
100
AcDbEllipse
 10
0.0
 20
-72.186814
 30
0.0
 11
27.298959866066618
 21
15.765864993908945
 31
0.0
210
0.0
220
0.0
230
1.0
 40
0.015115
 41
1.1968598001461499
 42
1.2812707246005717
  0
LINE
  5
1EE
100
AcDbEntity
  8
0
390
0
  6
Continuous
 62
     7
100
AcDbLine
 10
7.565399
 20
-67.290237
 30
0.0
 11
7.25
 21
-67.108141
 31
0.0
  0
LINE
  5
1EF
100
AcDbEntity
  8
0
390
0
  6
Continuous
 62
     7
100
AcDbLine
 10
9.75
 20
-66.043696
 30
0.0
 11
9.75
 21
-65.664766
 31
0.0
  0
ELLIPSE
  5
1F0
100
AcDbEntity
  8
0
390
0
  6
Continuous
 62
     7
100
AcDbEllipse
 10
0.0
 20
-68.434037
 30
0.0
 11
27.298959866066618
 21
15.765864993908945
 31
0.0
210
0.0
220
0.0
230
1.0
 40
0.015115
 41
1.4427363966288902
 42
1.5237027857312357
  0
LINE
  5
1F1
100
AcDbEntity
  8
0
390
0
  6
Continuous
 62
     7
100
AcDbLine
 10
1.047086
 20
-67.279664
 30
0.0
 11
0.75
 21
-67.108141
 31
0.0
  0
LINE
  5
1F2
100
AcDbEntity
  8
0
390
0
  6
Continuous
 62
     7
100
AcDbLine
 10
3.25
 20
-66.01132
 30
0.0
 11
3.25
 21
-65.664766
 31
0.0
  0
ELLIPSE
  5
1F3
100
AcDbEntity
  8
0
390
0
  6
Continuous
 62
     7
100
AcDbEllipse
 10
0.0
 20
-60.928484
 30
0.0
 11
-27.298959866066596
 21
15.765864993908945
 31
0.0
210
0.0
220
0.0
230
1.0
 40
0.015115
 41
4.2698566754542373
 42
4.3559110644527044
  0
LINE
  5
1F4
100
AcDbEntity
  8
0
390
0
  6
Continuous
 62
     7
100
AcDbLine
 10
11.905563
 20
-67.307002
 30
0.0
 11
12.25
 21
-67.108141
 31
0.0
  0
ELLIPSE
  5
1F5
100
AcDbEntity
  8
0
390
0
  6
Continuous
 62
     7
100
AcDbEllipse
 10
0.0
 20
-75.939591
 30
0.0
 11
27.298959866066618
 21
15.765864993908945
 31
0.0
210
0.0
220
0.0
230
1.0
 40
0.015115
 41
0.9471994002868166
 42
1.0186699291230981
  0
LINE
  5
1F6
100
AcDbEntity
  8
0
390
0
  6
Continuous
 62
     7
100
AcDbLine
 10
14.115376
 20
-67.319091
 30
0.0
 11
13.75
 21
-67.108141
 31
0.0
  0
LINE
  5
1F7
100
AcDbEntity
  8
0
390
0
  6
Continuous
 62
     7
100
AcDbLine
 10
16.25
 20
-66.108184
 30
0.0
 11
16.25
 21
-65.664766
 31
0.0
  0
LINE
  5
1F8
100
AcDbEntity
  8
0
390
0
  6
Continuous
 62
     7
100
AcDbLine
 10
16.25
 20
-66.108184
 30
0.0
 11
15.748015
 21
-66.398005
 31
0.0
  0
ELLIPSE
  5
1F9
100
AcDbEntity
  8
0
390
0
  6
Continuous
 62
     7
100
AcDbEllipse
 10
0.0
 20
-64.68126
 30
0.0
 11
27.298959866066618
 21
15.765864993908945
 31
0.0
210
0.0
220
0.0
230
1.0
 40
0.015115
 41
1.6813976462441431
 42
1.7628153808590694
  0
LINE
  5
1FA
100
AcDbEntity
  8
0
390
0
  6
Continuous
 62
     7
100
AcDbLine
 10
-5.443694
 20
-67.284987
 30
0.0
 11
-5.75
 21
-67.108141
 31
0.0
  0
LINE
  5
1FB
100
AcDbEntity
  8
0
390
0
  6
Continuous
 62
     7
100
AcDbLine
 10
-3.25
 20
-66.01132
 30
0.0
 11
-3.25
 21
-65.664766
 31
0.0
  0
ELLIPSE
  5
1FC
100
AcDbEntity
  8
0
390
0
  6
Continuous
 62
     7
100
AcDbEllipse
 10
0.0
 20
-60.928484
 30
0.0
 11
27.298959866066618
 21
15.765864993908945
 31
0.0
210
0.0
220
0.0
230
1.0
 40
0.015115
 41
1.9272742427268832
 42
2.0133286317253511
  0
LINE
  5
1FD
100
AcDbEntity
  8
0
390
0
  6
Continuous
 62
     7
100
AcDbLine
 10
-11.905563
 20
-67.307002
 30
0.0
 11
-12.25
 21
-67.108141
 31
0.0
  0
LINE
  5
1FE
100
AcDbEntity
  8
0
390
0
  6
Continuous
 62
     7
100
AcDbLine
 10
-9.75
 20
-66.043696
 30
0.0
 11
-9.75
 21
-65.664766
 31
0.0
  0
LINE
  5
1FF
100
AcDbEntity
  8
0
390
0
  6
Continuous
 62
     7
100
AcDbLine
 10
18.365988
 20
-67.32985
 30
0.0
 11
16.25
 21
-66.108184
 31
0.0
  0
LINE
  5
200
100
AcDbEntity
  8
0
390
0
  6
Continuous
 62
     7
100
AcDbLine
 10
18.365988
 20
-67.32985
 30
0.0
 11
18.75
 21
-67.108141
 31
0.0
  0
ELLIPSE
  5
201
100
AcDbEntity
  8
0
390
0
  6
Continuous
 62
     7
100
AcDbEllipse
 10
0.0
 20
-68.434037
 30
0.0
 11
-27.298959866066596
 21
15.765864993908945
 31
0.0
210
0.0
220
0.0
230
1.0
 40
0.015115
 41
4.7594825214483514
 42
4.8404489105506974
  0
LINE
  5
202
100
AcDbEntity
  8
0
390
0
  6
Continuous
 62
     7
100
AcDbLine
 10
-1.047087
 20
-67.279664
 30
0.0
 11
-0.75
 21
-67.108141
 31
0.0
  0
ELLIPSE
  5
203
100
AcDbEntity
  8
0
390
0
  6
Continuous
 62
     7
100
AcDbEllipse
 10
0.0
 20
-64.68126
 30
0.0
 11
-27.298959866066618
 21
15.765864993908945
 31
0.0
210
0.0
220
0.0
230
1.0
 40
0.015115
 41
4.5203699263205195
 42
4.601787660935444
  0
LINE
  5
204
100
AcDbEntity
  8
0
390
0
  6
Continuous
 62
     7
100
AcDbLine
 10
5.443694
 20
-67.284987
 30
0.0
 11
5.75
 21
-67.108141
 31
0.0
  0
ELLIPSE
  5
205
100
AcDbEntity
  8
0
390
0
  6
Continuous
 62
     7
100
AcDbEllipse
 10
0.0
 20
-72.186814
 30
0.0
 11
-27.298959866066596
 21
15.765864993908945
 31
0.0
210
0.0
220
0.0
230
1.0
 40
0.015115
 41
5.0019145825790163
 42
5.0863255070334379
  0
LINE
  5
206
100
AcDbEntity
  8
0
390
0
  6
Continuous
 62
     7
100
AcDbLine
 10
-7.565399
 20
-67.290237
 30
0.0
 11
-7.25
 21
-67.108141
 31
0.0
  0
LINE
  5
207
100
AcDbEntity
  8
0
390
0
  6
Continuous
 62
     7
100
AcDbLine
 10
-16.25
 20
-66.108184
 30
0.0
 11
-18.365989
 21
-67.32985
 31
0.0
  0
LINE
  5
208
100
AcDbEntity
  8
0
390
0
  6
Continuous
 62
     7
100
AcDbLine
 10
-18.365989
 20
-67.32985
 30
0.0
 11
-18.75
 21
-67.108141
 31
0.0
  0
LINE
  5
209
100
AcDbEntity
  8
0
390
0
  6
Continuous
 62
     7
100
AcDbLine
 10
-11.905563
 20
-67.307002
 30
0.0
 11
-11.905563
 21
-69.796032
 31
0.0
  0
LINE
  5
20A
100
AcDbEntity
  8
0
390
0
  6
Continuous
 62
     7
100
AcDbLine
 10
-11.905563
 20
-69.796032
 30
0.0
 11
-12.25
 21
-69.994893
 31
0.0
  0
LINE
  5
20B
100
AcDbEntity
  8
0
390
0
  6
Continuous
 62
     7
100
AcDbLine
 10
14.115376
 20
-67.319091
 30
0.0
 11
14.115376
 21
-69.783943
 31
0.0
  0
LINE
  5
20C
100
AcDbEntity
  8
0
390
0
  6
Continuous
 62
     7
100
AcDbLine
 10
14.115376
 20
-69.783943
 30
0.0
 11
13.75
 21
-69.994893
 31
0.0
  0
LINE
  5
20D
100
AcDbEntity
  8
0
390
0
  6
Continuous
 62
     7
100
AcDbLine
 10
18.365988
 20
-69.773184
 30
0.0
 11
18.365988
 21
-67.32985
 31
0.0
  0
LINE
  5
20E
100
AcDbEntity
  8
0
390
0
  6
Continuous
 62
     7
100
AcDbLine
 10
18.365988
 20
-69.773184
 30
0.0
 11
18.75
 21
-69.994893
 31
0.0
  0
LINE
  5
20F
100
AcDbEntity
  8
0
390
0
  6
Continuous
 62
     7
100
AcDbLine
 10
7.565399
 20
-67.290237
 30
0.0
 11
7.565399
 21
-69.812797
 31
0.0
  0
LINE
  5
210
100
AcDbEntity
  8
0
390
0
  6
Continuous
 62
     7
100
AcDbLine
 10
7.565399
 20
-69.812797
 30
0.0
 11
7.25
 21
-69.994893
 31
0.0
  0
LINE
  5
211
100
AcDbEntity
  8
0
390
0
  6
Continuous
 62
     7
100
AcDbLine
 10
-14.115376
 20
-69.783943
 30
0.0
 11
-14.115376
 21
-67.319091
 31
0.0
  0
LINE
  5
212
100
AcDbEntity
  8
0
390
0
  6
Continuous
 62
     7
100
AcDbLine
 10
-14.115376
 20
-69.783943
 30
0.0
 11
-13.75
 21
-69.994893
 31
0.0
  0
LINE
  5
213
100
AcDbEntity
  8
0
390
0
  6
Continuous
 62
     7
100
AcDbLine
 10
11.905563
 20
-69.796032
 30
0.0
 11
11.905563
 21
-67.307002
 31
0.0
  0
LINE
  5
214
100
AcDbEntity
  8
0
390
0
  6
Continuous
 62
     7
100
AcDbLine
 10
11.905563
 20
-69.796032
 30
0.0
 11
12.25
 21
-69.994893
 31
0.0
  0
LINE
  5
215
100
AcDbEntity
  8
0
390
0
  6
Continuous
 62
     7
100
AcDbLine
 10
1.047086
 20
-67.279664
 30
0.0
 11
1.047086
 21
-69.82337
 31
0.0
  0
LINE
  5
216
100
AcDbEntity
  8
0
390
0
  6
Continuous
 62
     7
100
AcDbLine
 10
1.047086
 20
-69.82337
 30
0.0
 11
0.75
 21
-69.994893
 31
0.0
  0
LINE
  5
217
100
AcDbEntity
  8
0
390
0
  6
Continuous
 62
     7
100
AcDbLine
 10
-1.047087
 20
-69.82337
 30
0.0
 11
-1.047087
 21
-67.279664
 31
0.0
  0
LINE
  5
218
100
AcDbEntity
  8
0
390
0
  6
Continuous
 62
     7
100
AcDbLine
 10
-1.047087
 20
-69.82337
 30
0.0
 11
-0.75
 21
-69.994893
 31
0.0
  0
LINE
  5
219
100
AcDbEntity
  8
0
390
0
  6
Continuous
 62
     7
100
AcDbLine
 10
-5.443694
 20
-67.284987
 30
0.0
 11
-5.443694
 21
-69.818047
 31
0.0
  0
LINE
  5
21A
100
AcDbEntity
  8
0
390
0
  6
Continuous
 62
     7
100
AcDbLine
 10
-5.443694
 20
-69.818047
 30
0.0
 11
-5.75
 21
-69.994893
 31
0.0
  0
LINE
  5
21B
100
AcDbEntity
  8
0
390
0
  6
Continuous
 62
     7
100
AcDbLine
 10
-18.365989
 20
-67.32985
 30
0.0
 11
-18.365989
 21
-69.773184
 31
0.0
  0
LINE
  5
21C
100
AcDbEntity
  8
0
390
0
  6
Continuous
 62
     7
100
AcDbLine
 10
-18.365989
 20
-69.773184
 30
0.0
 11
-18.75
 21
-69.994893
 31
0.0
  0
LINE
  5
21D
100
AcDbEntity
  8
0
390
0
  6
Continuous
 62
     7
100
AcDbLine
 10
5.443694
 20
-69.818047
 30
0.0
 11
5.443694
 21
-67.284987
 31
0.0
  0
LINE
  5
21E
100
AcDbEntity
  8
0
390
0
  6
Continuous
 62
     7
100
AcDbLine
 10
5.443694
 20
-69.818047
 30
0.0
 11
5.75
 21
-69.994893
 31
0.0
  0
LINE
  5
21F
100
AcDbEntity
  8
0
390
0
  6
Continuous
 62
     7
100
AcDbLine
 10
-7.565399
 20
-69.812797
 30
0.0
 11
-7.565399
 21
-67.290237
 31
0.0
  0
LINE
  5
220
100
AcDbEntity
  8
0
390
0
  6
Continuous
 62
     7
100
AcDbLine
 10
-7.565399
 20
-69.812797
 30
0.0
 11
-7.25
 21
-69.994893
 31
0.0
  0
ELLIPSE
  5
221
100
AcDbEntity
  8
0
390
0
  6
Continuous
 62
     7
100
AcDbEllipse
 10
0.0
 20
-76.17455
 30
0.0
 11
27.298959866066596
 21
15.765864993908945
 31
0.0
210
0.0
220
0.0
230
1.0
 40
0.015115
 41
5.068866896316675
 42
5.1549212853151429
  0
LINE
  5
222
100
AcDbEntity
  8
0
390
0
  6
Continuous
 62
     7
100
AcDbLine
 10
9.75
 20
-71.059338
 30
0.0
 11
9.75
 21
-71.438268
 31
0.0
  0
ELLIPSE
  5
223
100
AcDbEntity
  8
0
390
0
  6
Continuous
 62
     7
100
AcDbEllipse
 10
0.0
 20
-76.17455
 30
0.0
 11
-27.298959866066596
 21
15.765864993908945
 31
0.0
210
0.0
220
0.0
230
1.0
 40
0.015115
 41
1.1282640218644426
 42
1.2143184108629101
  0
LINE
  5
224
100
AcDbEntity
  8
0
390
0
  6
Continuous
 62
     7
100
AcDbLine
 10
-9.75
 20
-71.059338
 30
0.0
 11
-9.75
 21
-71.438268
 31
0.0
  0
ELLIPSE
  5
225
100
AcDbEntity
  8
0
390
0
  6
Continuous
 62
     7
100
AcDbEllipse
 10
0.0
 20
-64.91622
 30
0.0
 11
-27.298959866066596
 21
15.765864993908945
 31
0.0
210
0.0
220
0.0
230
1.0
 40
0.015115
 41
1.8603219289892214
 42
1.9447328534436432
  0
ELLIPSE
  5
226
100
AcDbEntity
  8
0
390
0
  6
Continuous
 62
     7
100
AcDbEllipse
 10
0.0
 20
-61.163443
 30
0.0
 11
-27.298959866066596
 21
15.765864993908945
 31
0.0
210
0.0
220
0.0
230
1.0
 40
0.015115
 41
2.1229227244666951
 42
2.1943932533029775
  0
LINE
  5
227
100
AcDbEntity
  8
0
390
0
  6
Continuous
 62
     7
100
AcDbLine
 10
15.748015
 20
-70.705029
 30
0.0
 11
16.25
 21
-70.99485
 31
0.0
  0
LINE
  5
228
100
AcDbEntity
  8
0
390
0
  6
Continuous
 62
     7
100
AcDbLine
 10
16.25
 20
-70.99485
 30
0.0
 11
16.25
 21
-71.438268
 31
0.0
  0
LINE
  5
229
100
AcDbEntity
  8
0
390
0
  6
Continuous
 62
     7
100
AcDbLine
 10
-16.25
 20
-70.99485
 30
0.0
 11
-15.748016
 21
-70.705029
 31
0.0
  0
ELLIPSE
  5
22A
100
AcDbEntity
  8
0
390
0
  6
Continuous
 62
     7
100
AcDbEllipse
 10
0.0
 20
-61.163443
 30
0.0
 11
27.298959866066596
 21
15.765864993908945
 31
0.0
210
0.0
220
0.0
230
1.0
 40
0.015115
 41
4.0887920538766096
 42
4.1602625827128898
  0
LINE
  5
22B
100
AcDbEntity
  8
0
390
0
  6
Continuous
 62
     7
100
AcDbLine
 10
-16.25
 20
-70.99485
 30
0.0
 11
-16.25
 21
-71.438268
 31
0.0
  0
LINE
  5
22C
100
AcDbEntity
  8
0
390
0
  6
Continuous
 62
     7
100
AcDbLine
 10
16.25
 20
-70.99485
 30
0.0
 11
18.365988
 21
-69.773184
 31
0.0
  0
LINE
  5
22D
100
AcDbEntity
  8
0
390
0
  6
Continuous
 62
     7
100
AcDbLine
 10
-18.365989
 20
-69.773184
 30
0.0
 11
-16.25
 21
-70.99485
 31
0.0
  0
ELLIPSE
  5
22E
100
AcDbEntity
  8
0
390
0
  6
Continuous
 62
     7
100
AcDbEllipse
 10
0.0
 20
-64.91622
 30
0.0
 11
27.298959866066596
 21
15.765864993908945
 31
0.0
210
0.0
220
0.0
230
1.0
 40
0.015115
 41
4.3384524537359415
 42
4.422863378190363
  0
ELLIPSE
  5
22F
100
AcDbEntity
  8
0
390
0
  6
Continuous
 62
     7
100
AcDbEllipse
 10
0.0
 20
-72.421774
 30
0.0
 11
27.298959866066596
 21
15.765864993908945
 31
0.0
210
0.0
220
0.0
230
1.0
 40
0.015115
 41
4.8229902998339353
 42
4.9044080344488616
  0
LINE
  5
230
100
AcDbEntity
  8
0
390
0
  6
Continuous
 62
     7
100
AcDbLine
 10
3.25
 20
-71.091714
 30
0.0
 11
3.25
 21
-71.438268
 31
0.0
  0
ELLIPSE
  5
231
100
AcDbEntity
  8
0
390
0
  6
Continuous
 62
     7
100
AcDbEllipse
 10
0.0
 20
-68.668997
 30
0.0
 11
27.298959866066596
 21
15.765864993908945
 31
0.0
210
0.0
220
0.0
230
1.0
 40
0.015115
 41
4.584329050218682
 42
4.6652954393210271
  0
LINE
  5
232
100
AcDbEntity
  8
0
390
0
  6
Continuous
 62
     7
100
AcDbLine
 10
-3.25
 20
-71.091714
 30
0.0
 11
-3.25
 21
-71.438268
 31
0.0
  0
ELLIPSE
  5
233
100
AcDbEntity
  8
0
390
0
  6
Continuous
 62
     7
100
AcDbEllipse
 10
0.0
 20
-68.668997
 30
0.0
 11
-27.298959866066596
 21
15.765864993908945
 31
0.0
210
0.0
220
0.0
230
1.0
 40
0.015115
 41
1.6178898678585578
 42
1.6988562569609034
  0
ELLIPSE
  5
234
100
AcDbEntity
  8
0
390
0
  6
Continuous
 62
     7
100
AcDbEllipse
 10
0.0
 20
-72.421774
 30
0.0
 11
-27.298959866066596
 21
15.765864993908945
 31
0.0
210
0.0
220
0.0
230
1.0
 40
0.015115
 41
1.3787772727307239
 42
1.4601950073456502
  0
LINE
  5
235
100
AcDbEntity
  8
0
390
0
  6
Continuous
 62
     7
100
AcDbLine
 10
-2.201712
 20
-72.909193
 30
0.0
 11
-2.5
 21
-72.736976
 31
0.0
  0
LINE
  5
236
100
AcDbEntity
  8
0
390
0
  6
Continuous
 62
     7
100
AcDbLine
 10
0.0
 20
-71.636242
 30
0.0
 11
0.0
 21
-71.293601
 31
0.0
  0
ELLIPSE
  5
237
100
AcDbEntity
  8
0
390
0
  6
Continuous
 62
     7
100
AcDbEllipse
 10
0.0
 20
-72.186484
 30
0.0
 11
27.298959866066618
 21
15.765864993908945
 31
0.0
210
0.0
220
0.0
230
1.0
 40
0.015115
 41
1.562067021436516
 42
1.6428034834062497
  0
LINE
  5
238
100
AcDbEntity
  8
0
390
0
  6
Continuous
 62
     7
100
AcDbLine
 10
2.201711
 20
-72.909193
 30
0.0
 11
2.5
 21
-72.736976
 31
0.0
  0
ELLIPSE
  5
239
100
AcDbEntity
  8
0
390
0
  6
Continuous
 62
     7
100
AcDbEllipse
 10
0.0
 20
-72.186484
 30
0.0
 11
-27.298959866066596
 21
15.765864993908945
 31
0.0
210
0.0
220
0.0
230
1.0
 40
0.015115
 41
4.640381823773339
 42
4.7211182857430707
  0
LINE
  5
23A
100
AcDbEntity
  8
0
390
0
  6
Continuous
 62
     7
100
AcDbLine
 10
10.83588
 20
-72.930897
 30
0.0
 11
10.5
 21
-72.736976
 31
0.0
  0
LINE
  5
23B
100
AcDbEntity
  8
0
390
0
  6
Continuous
 62
     7
100
AcDbLine
 10
13.0
 20
-71.702633
 30
0.0
 11
13.0
 21
-71.293601
 31
0.0
  0
ELLIPSE
  5
23C
100
AcDbEntity
  8
0
390
0
  6
Continuous
 62
     7
100
AcDbEllipse
 10
0.0
 20
-79.692037
 30
0.0
 11
27.298959866066618
 21
15.765864993908945
 31
0.0
210
0.0
220
0.0
230
1.0
 40
0.015115
 41
1.0657496593110496
 42
1.1539096853536217
  0
LINE
  5
23D
100
AcDbEntity
  8
0
390
0
  6
Continuous
 62
     7
100
AcDbLine
 10
-15.123463
 20
-72.95437
 30
0.0
 11
-15.5
 21
-72.736976
 31
0.0
  0
LINE
  5
23E
100
AcDbEntity
  8
0
390
0
  6
Continuous
 62
     7
100
AcDbLine
 10
-13.0
 20
-71.702633
 30
0.0
 11
-13.0
 21
-71.293601
 31
0.0
  0
ELLIPSE
  5
23F
100
AcDbEntity
  8
0
390
0
  6
Continuous
 62
     7
100
AcDbEllipse
 10
0.0
 20
-64.68093
 30
0.0
 11
27.298959866066618
 21
15.765864993908945
 31
0.0
210
0.0
220
0.0
230
1.0
 40
0.015115
 41
2.0583843835619828
 42
2.1491958917894451
  0
LINE
  5
240
100
AcDbEntity
  8
0
390
0
  6
Continuous
 62
     7
100
AcDbLine
 10
-6.5
 20
-71.652066
 30
0.0
 11
-6.5
 21
-71.293601
 31
0.0
  0
LINE
  5
241
100
AcDbEntity
  8
0
390
0
  6
Continuous
 62
     7
100
AcDbLine
 10
-4.302692
 20
-72.911735
 30
0.0
 11
-4.0
 21
-72.736976
 31
0.0
  0
ELLIPSE
  5
242
100
AcDbEntity
  8
0
390
0
  6
Continuous
 62
     7
100
AcDbEllipse
 10
0.0
 20
-75.93926
 30
0.0
 11
-27.298959866066596
 21
15.765864993908945
 31
0.0
210
0.0
220
0.0
230
1.0
 40
0.015115
 41
4.8793859485323514
 42
4.9615225025123308
  0
LINE
  5
243
100
AcDbEntity
  8
0
390
0
  6
Continuous
 62
     7
100
AcDbLine
 10
-10.835881
 20
-72.930897
 30
0.0
 11
-10.5
 21
-72.736976
 31
0.0
  0
ELLIPSE
  5
244
100
AcDbEntity
  8
0
390
0
  6
Continuous
 62
     7
100
AcDbEllipse
 10
0.0
 20
-79.692037
 30
0.0
 11
-27.298959866066596
 21
15.765864993908945
 31
0.0
210
0.0
220
0.0
230
1.0
 40
0.015115
 41
5.1292756218259656
 42
5.2174356478685366
  0
LINE
  5
245
100
AcDbEntity
  8
0
390
0
  6
Continuous
 62
     7
100
AcDbLine
 10
4.302692
 20
-72.911735
 30
0.0
 11
4.0
 21
-72.736976
 31
0.0
  0
LINE
  5
246
100
AcDbEntity
  8
0
390
0
  6
Continuous
 62
     7
100
AcDbLine
 10
6.5
 20
-71.652066
 30
0.0
 11
6.5
 21
-71.293601
 31
0.0
  0
ELLIPSE
  5
247
100
AcDbEntity
  8
0
390
0
  6
Continuous
 62
     7
100
AcDbEllipse
 10
0.0
 20
-75.93926
 30
0.0
 11
27.298959866066618
 21
15.765864993908945
 31
0.0
210
0.0
220
0.0
230
1.0
 40
0.015115
 41
1.3216628046672569
 42
1.4037993586472362
  0
LINE
  5
248
100
AcDbEntity
  8
0
390
0
  6
Continuous
 62
     7
100
AcDbLine
 10
-8.678545
 20
-72.922569
 30
0.0
 11
-9.0
 21
-72.736976
 31
0.0
  0
ELLIPSE
  5
249
100
AcDbEntity
  8
0
390
0
  6
Continuous
 62
     7
100
AcDbEllipse
 10
0.0
 20
-68.433707
 30
0.0
 11
27.298959866066618
 21
15.765864993908945
 31
0.0
210
0.0
220
0.0
230
1.0
 40
0.015115
 41
1.8024712382057759
 42
1.8855759406009596
  0
LINE
  5
24A
100
AcDbEntity
  8
0
390
0
  6
Continuous
 62
     7
100
AcDbLine
 10
15.123462
 20
-72.95437
 30
0.0
 11
15.5
 21
-72.736976
 31
0.0
  0
ELLIPSE
  5
24B
100
AcDbEntity
  8
0
390
0
  6
Continuous
 62
     7
100
AcDbEllipse
 10
0.0
 20
-64.68093
 30
0.0
 11
-27.298959866066596
 21
15.765864993908945
 31
0.0
210
0.0
220
0.0
230
1.0
 40
0.015115
 41
4.1339894153901424
 42
4.2248009236176047
  0
LINE
  5
24C
100
AcDbEntity
  8
0
390
0
  6
Continuous
 62
     7
100
AcDbLine
 10
8.678544
 20
-72.922569
 30
0.0
 11
9.0
 21
-72.736976
 31
0.0
  0
ELLIPSE
  5
24D
100
AcDbEntity
  8
0
390
0
  6
Continuous
 62
     7
100
AcDbEllipse
 10
0.0
 20
-68.433707
 30
0.0
 11
-27.298959866066596
 21
15.765864993908945
 31
0.0
210
0.0
220
0.0
230
1.0
 40
0.015115
 41
4.397609366578628
 42
4.4807140689738114
  0
LINE
  5
24E
100
AcDbEntity
  8
0
390
0
  6
Continuous
 62
     7
100
AcDbLine
 10
-4.302692
 20
-72.911735
 30
0.0
 11
-4.302692
 21
-73.422352
 31
0.0
  0
LINE
  5
24F
100
AcDbEntity
  8
0
390
0
  6
Continuous
 62
     7
100
AcDbLine
 10
2.201711
 20
-72.909193
 30
0.0
 11
2.201711
 21
-73.422352
 31
0.0
  0
LINE
  5
250
100
AcDbEntity
  8
0
390
0
  6
Continuous
 62
     7
100
AcDbLine
 10
8.678544
 20
-72.922569
 30
0.0
 11
8.678544
 21
-73.422352
 31
0.0
  0
LINE
  5
251
100
AcDbEntity
  8
0
390
0
  6
Continuous
 62
     7
100
AcDbLine
 10
4.302692
 20
-73.422352
 30
0.0
 11
4.302692
 21
-72.911735
 31
0.0
  0
LINE
  5
252
100
AcDbEntity
  8
0
390
0
  6
Continuous
 62
     7
100
AcDbLine
 10
-15.123463
 20
-73.422352
 30
0.0
 11
-15.123463
 21
-72.95437
 31
0.0
  0
LINE
  5
253
100
AcDbEntity
  8
0
390
0
  6
Continuous
 62
     7
100
AcDbLine
 10
-10.835881
 20
-72.930897
 30
0.0
 11
-10.835881
 21
-73.422352
 31
0.0
  0
LINE
  5
254
100
AcDbEntity
  8
0
390
0
  6
Continuous
 62
     7
100
AcDbLine
 10
15.123462
 20
-72.95437
 30
0.0
 11
15.123462
 21
-73.422352
 31
0.0
  0
LINE
  5
255
100
AcDbEntity
  8
0
390
0
  6
Continuous
 62
     7
100
AcDbLine
 10
-2.201712
 20
-73.422352
 30
0.0
 11
-2.201712
 21
-72.909193
 31
0.0
  0
LINE
  5
256
100
AcDbEntity
  8
0
390
0
  6
Continuous
 62
     7
100
AcDbLine
 10
-8.678545
 20
-73.422352
 30
0.0
 11
-8.678545
 21
-72.922569
 31
0.0
  0
LINE
  5
257
100
AcDbEntity
  8
0
390
0
  6
Continuous
 62
     7
100
AcDbLine
 10
10.83588
 20
-73.422352
 30
0.0
 11
10.83588
 21
-72.930897
 31
0.0
  0
LINE
  5
258
100
AcDbEntity
  8
0
390
0
  6
Continuous
 62
     7
100
AcDbLine
 10
-1.657622
 20
-50.222352
 30
0.0
 11
-0.821506
 21
-50.222352
 31
0.0
  0
LINE
  5
259
100
AcDbEntity
  8
0
390
0
  6
Continuous
 62
     7
100
AcDbLine
 10
-0.821506
 20
-50.222352
 30
0.0
 11
-0.821506
 21
-50.422352
 31
0.0
  0
LINE
  5
25A
100
AcDbEntity
  8
0
390
0
  6
Continuous
 62
     7
100
AcDbLine
 10
-2.819519
 20
-50.222352
 30
0.0
 11
-2.819519
 21
-50.422352
 31
0.0
  0
LINE
  5
25B
100
AcDbEntity
  8
0
390
0
  6
Continuous
 62
     7
100
AcDbLine
 10
-2.819519
 20
-50.222352
 30
0.0
 11
-1.657622
 21
-50.222352
 31
0.0
  0
LINE
  5
25C
100
AcDbEntity
  8
0
390
0
  6
Continuous
 62
     7
100
AcDbLine
 10
-1.657622
 20
-50.222352
 30
0.0
 11
-1.657622
 21
-50.422352
 31
0.0
  0
LINE
  5
25D
100
AcDbEntity
  8
0
390
0
  6
Continuous
 62
     7
100
AcDbLine
 10
1.17656
 20
-50.222352
 30
0.0
 11
1.17656
 21
-50.422352
 31
0.0
  0
LINE
  5
25E
100
AcDbEntity
  8
0
390
0
  6
Continuous
 62
     7
100
AcDbLine
 10
0.340474
 20
-50.222352
 30
0.0
 11
1.17656
 21
-50.222352
 31
0.0
  0
LINE
  5
25F
100
AcDbEntity
  8
0
390
0
  6
Continuous
 62
     7
100
AcDbLine
 10
2.404897
 20
-50.222352
 30
0.0
 11
2.404897
 21
-50.422352
 31
0.0
  0
LINE
  5
260
100
AcDbEntity
  8
0
390
0
  6
Continuous
 62
     7
100
AcDbLine
 10
1.17656
 20
-50.222352
 30
0.0
 11
2.404897
 21
-50.222352
 31
0.0
  0
LINE
  5
261
100
AcDbEntity
  8
0
390
0
  6
Continuous
 62
     7
100
AcDbLine
 10
4.819074
 20
-50.222352
 30
0.0
 11
4.819074
 21
-50.422352
 31
0.0
  0
LINE
  5
262
100
AcDbEntity
  8
0
390
0
  6
Continuous
 62
     7
100
AcDbLine
 10
4.819074
 20
-50.222352
 30
0.0
 11
6.319074
 21
-50.222352
 31
0.0
  0
LINE
  5
263
100
AcDbEntity
  8
0
390
0
  6
Continuous
 62
     7
100
AcDbLine
 10
6.319074
 20
-50.222352
 30
0.0
 11
6.319074
 21
-50.422352
 31
0.0
  0
LINE
  5
264
100
AcDbEntity
  8
0
390
0
  6
Continuous
 62
     7
100
AcDbLine
 10
-5.191999
 20
-50.222352
 30
0.0
 11
-5.191999
 21
-50.422352
 31
0.0
  0
LINE
  5
265
100
AcDbEntity
  8
0
390
0
  6
Continuous
 62
     7
100
AcDbLine
 10
-4.772085
 20
-50.222352
 30
0.0
 11
-4.772085
 21
-50.422352
 31
0.0
  0
LINE
  5
266
100
AcDbEntity
  8
0
390
0
  6
Continuous
 62
     7
100
AcDbLine
 10
-5.191999
 20
-50.222352
 30
0.0
 11
-4.772085
 21
-50.222352
 31
0.0
  0
LINE
  5
267
100
AcDbEntity
  8
0
390
0
  6
Continuous
 62
     7
100
AcDbLine
 10
2.404897
 20
-50.222352
 30
0.0
 11
3.240983
 21
-50.222352
 31
0.0
  0
LINE
  5
268
100
AcDbEntity
  8
0
390
0
  6
Continuous
 62
     7
100
AcDbLine
 10
-4.049501
 20
-50.222352
 30
0.0
 11
-2.819519
 21
-50.222352
 31
0.0
  0
LINE
  5
269
100
AcDbEntity
  8
0
390
0
  6
Continuous
 62
     7
100
AcDbLine
 10
3.240983
 20
-50.222352
 30
0.0
 11
4.819074
 21
-50.222352
 31
0.0
  0
LINE
  5
26A
100
AcDbEntity
  8
0
390
0
  6
Continuous
 62
     7
100
AcDbLine
 10
3.240983
 20
-50.222352
 30
0.0
 11
3.240983
 21
-50.422352
 31
0.0
  0
LINE
  5
26B
100
AcDbEntity
  8
0
390
0
  6
Continuous
 62
     7
100
AcDbLine
 10
-0.821506
 20
-50.222352
 30
0.0
 11
0.340474
 21
-50.222352
 31
0.0
  0
LINE
  5
26C
100
AcDbEntity
  8
0
390
0
  6
Continuous
 62
     7
100
AcDbLine
 10
0.340474
 20
-50.222352
 30
0.0
 11
0.340474
 21
-50.422352
 31
0.0
  0
LINE
  5
26D
100
AcDbEntity
  8
0
390
0
  6
Continuous
 62
     7
100
AcDbLine
 10
-6.35364
 20
-50.222352
 30
0.0
 11
-5.191999
 21
-50.222352
 31
0.0
  0
LINE
  5
26E
100
AcDbEntity
  8
0
390
0
  6
Continuous
 62
     7
100
AcDbLine
 10
-6.35364
 20
-50.222352
 30
0.0
 11
-6.35364
 21
-50.422352
 31
0.0
  0
LINE
  5
26F
100
AcDbEntity
  8
0
390
0
  6
Continuous
 62
     7
100
AcDbLine
 10
-4.049501
 20
-50.222352
 30
0.0
 11
-4.049501
 21
-50.422352
 31
0.0
  0
LINE
  5
270
100
AcDbEntity
  8
0
390
0
  6
Continuous
 62
     7
100
AcDbLine
 10
-4.772085
 20
-50.222352
 30
0.0
 11
-4.049501
 21
-50.222352
 31
0.0
  0
LINE
  5
271
100
AcDbEntity
  8
0
390
0
  6
Continuous
 62
     7
100
AcDbLine
 10
15.748015
 20
-70.705029
 30
0.0
 11
15.748015
 21
-66.398005
 31
0.0
  0
LINE
  5
272
100
AcDbEntity
  8
0
390
0
  6
Continuous
 62
     7
100
AcDbLine
 10
15.748015
 20
-59.446699
 30
0.0
 11
15.748015
 21
-55.139674
 31
0.0
  0
LINE
  5
273
100
AcDbEntity
  8
0
390
0
  6
Continuous
 62
     7
100
AcDbLine
 10
-15.748016
 20
-59.446699
 30
0.0
 11
-15.748016
 21
-55.139674
 31
0.0
  0
LINE
  5
274
100
AcDbEntity
  8
0
390
0
  6
Continuous
 62
     7
100
AcDbLine
 10
-15.748016
 20
-70.705029
 30
0.0
 11
-15.748016
 21
-66.398005
 31
0.0
  0
ENDSEC
  0
SECTION
  2
OBJECTS
  0
DICTIONARY
  5
19
100
AcDbDictionary
280
     0
281
     1
  3
ACAD_GROUP
350
1A
  3
ACAD_MLINESTYLE
350
1B
  3
ACAD_LAYOUT
350
1E
  3
ACAD_PLOTSETTINGS
350
22
  3
ACAD_PLOTSTYLENAME
350
1F
  3
ACAD_WIPEOUT_VARS
350
23
  0
DICTIONARY
  5
1A
102
{ACAD_REACTORS
330
19
102
}
100
AcDbDictionary
280
     0
281
     1
  0
DICTIONARY
  5
1B
102
{ACAD_REACTORS
330
19
102
}
100
AcDbDictionary
280
     0
281
     1
  3
Standard
350
1C
  0
MLINESTYLE
  5
1C
102
{ACAD_REACTORS
330
1B
102
}
100
AcDbMlineStyle
  2
Standard
 70
     0
  3

 62
     0
 51
90.0
 52
90.0
 71
     2
 49
0.5
 62
   256
  6
ByLayer
 49
-0.5
 62
   256
  6
ByLayer
  0
ACDBDICTIONARYWDFLT
  5
1F
102
{ACAD_REACTORS
330
19
102
}
100
AcDbDictionary
281
     1
  3
Normal
350
1D
100
AcDbDictionaryWithDefault
340
1D
  0
ACDBPLACEHOLDER
  5
1D
102
{ACAD_REACTORS
330
1F
102
}
  0
LAYOUT
  5
20
102
{ACAD_REACTORS
330
1E
102
}
100
AcDbPlotSettings
  1

  2

  4

  6

 40
0.0
 41
0.0
 42
0.0
 43
0.0
 44
0.0
 45
0.0
 46
0.0
 47
0.0
 48
0.0
 49
0.0
140
0.0
141
0.0
142
1.0
143
1.0
 70
  1024
 72
     0
 73
     0
 74
     0
  7

 75
     0
147
1.0
148
0.0
149
0.0
100
AcDbLayout
  1
Model
 70
     0
 71
     1
 10
0.0
 20
0.0
 11
0.0
 21
0.0
 12
0.0
 22
0.0
 32
0.0
 14
0.0
 24
0.0
 34
0.0
 15
0.0
 25
0.0
 35
0.0
146
0.0
 13
0.0
 23
0.0
 33
0.0
 16
0.0
 26
0.0
 36
0.0
 17
0.0
 27
0.0
 37
0.0
 76
     0
330
A
331
0
345
0
346
0
  0
LAYOUT
  5
21
102
{ACAD_REACTORS
330
1E
102
}
100
AcDbPlotSettings
  1

  2

  4

  6

 40
0.0
 41
0.0
 42
0.0
 43
0.0
 44
0.0
 45
0.0
 46
0.0
 47
0.0
 48
0.0
 49
0.0
140
0.0
141
0.0
142
1.0
143
1.0
 70
     0
 72
     0
 73
     0
 74
     0
  7

 75
     0
147
1.0
148
0.0
149
0.0
100
AcDbLayout
  1
Layout1
 70
     0
 71
     2
 10
0.0
 20
0.0
 11
0.0
 21
0.0
 12
0.0
 22
0.0
 32
0.0
 14
0.0
 24
0.0
 34
0.0
 15
0.0
 25
0.0
 35
0.0
146
0.0
 13
0.0
 23
0.0
 33
0.0
 16
0.0
 26
0.0
 36
0.0
 17
0.0
 27
0.0
 37
0.0
 76
     0
330
B
331
0
345
0
346
0
  0
DICTIONARY
  5
1E
102
{ACAD_REACTORS
330
19
102
}
100
AcDbDictionary
280
     0
281
     1
  3
Layout1
350
21
  3
Model
350
20
  0
DICTIONARY
  5
22
102
{ACAD_REACTORS
330
19
102
}
100
AcDbDictionary
280
     0
281
     1
  0
WIPEOUTVARIABLES
  5
23
100
AcDbWipeoutVariables
 70
     1
  0
ENDSEC
  0
EOF
