  0
SECTION
  2
HEADER
  9
$ACADVER
  1
AC1015
  9
$ACADMAINTVER
 70
     6
  9
$DWGCODEPAGE
  3
DOS932
  9
$INSBASE
 10
0.0
 20
0.0
 30
0.0
  9
$EXTMIN
 10
-19.0
 20
-65.646222
 30
0.0
  9
$EXTMAX
 10
301.435672
 20
266.89692
 30
9.906
  9
$LIMMIN
 10
-19.0
 20
-65.646222
  9
$LIMMAX
 10
301.435672
 20
266.89692
  9
$ORTHOMODE
 70
     0
  9
$REGENMODE
 70
     1
  9
$FILLMODE
 70
     1
  9
$QTEXTMODE
 70
     0
  9
$MIRRTEXT
 70
     1
  9
$LTSCALE
 40
10.0
  9
$ATTMODE
 70
     1
  9
$TEXTSIZE
 40
0.2
  9
$TRACEWID
 40
0.05
  9
$TEXTSTYLE
  7
Standard
  9
$CLAYER
  8
0
  9
$CELTYPE
  6
Continuous
  9
$CECOLOR
 62
   256
  9
$CELTSCALE
 40
1.0
  9
$DISPSILH
 70
     0
  9
$DIMSCALE
 40
1.0
  9
$DIMASZ
 40
1.40208
  9
$DIMEXO
 40
1.40208
  9
$DIMDLI
 40
0.38
  9
$DIMRND
 40
0.0
  9
$DIMDLE
 40
0.0
  9
$DIMEXE
 40
1.05156
  9
$DIMTP
 40
0.0
  9
$DIMTM
 40
0.0
  9
$DIMTXT
 40
3.5052
  9
$DIMCEN
 40
0.09
  9
$DIMTSZ
 40
0.0
  9
$DIMTOL
 70
     0
  9
$DIMLIM
 70
     0
  9
$DIMTIH
 70
     0
  9
$DIMTOH
 70
     0
  9
$DIMSE1
 70
     0
  9
$DIMSE2
 70
     0
  9
$DIMTAD
 70
     1
  9
$DIMZIN
 70
     0
  9
$DIMBLK
  1

  9
$DIMASO
 70
     1
  9
$DIMSHO
 70
     1
  9
$DIMPOST
  1

  9
$DIMAPOST
  1

  9
$DIMALT
 70
     0
  9
$DIMALTD
 70
     2
  9
$DIMALTF
 40
25.4
  9
$DIMLFAC
 40
1.0
  9
$DIMTOFL
 70
     0
  9
$DIMTVP
 40
0.0
  9
$DIMTIX
 70
     0
  9
$DIMSOXD
 70
     0
  9
$DIMSAH
 70
     0
  9
$DIMBLK1
  1

  9
$DIMBLK2
  1

  9
$DIMSTYLE
  2
Standard
  9
$DIMCLRD
 70
     7
  9
$DIMCLRE
 70
     7
  9
$DIMCLRT
 70
     7
  9
$DIMTFAC
 40
0.5
  9
$DIMGAP
 40
1.7526
  9
$DIMJUST
 70
     0
  9
$DIMSD1
 70
     0
  9
$DIMSD2
 70
     0
  9
$DIMTOLJ
 70
     1
  9
$DIMTZIN
 70
     0
  9
$DIMALTZ
 70
     0
  9
$DIMALTTZ
 70
     0
  9
$DIMUPT
 70
     0
  9
$DIMDEC
 70
     2
  9
$DIMTDEC
 70
     4
  9
$DIMALTU
 70
     2
  9
$DIMALTTD
 70
     2
  9
$DIMTXSTY
  7
Standard
  9
$DIMAUNIT
 70
     0
  9
$DIMADEC
 70
     0
  9
$DIMALTRND
 40
0.0
  9
$DIMAZIN
 70
     0
  9
$DIMDSEP
 70
     0
  9
$DIMATFIT
 70
     3
  9
$DIMFRAC
 70
     0
  9
$DIMLDRBLK
  1

  9
$DIMLUNIT
 70
     2
  9
$DIMLWD
 70
     0
  9
$DIMLWE
 70
     0
  9
$DIMTMOVE
 70
     0
  9
$LUNITS
 70
     2
  9
$LUPREC
 70
     4
  9
$SKETCHINC
 40
0.1
  9
$FILLETRAD
 40
0.0
  9
$AUNITS
 70
     0
  9
$AUPREC
 70
     0
  9
$MENU
  1
acad
  9
$ELEVATION
 40
0.0
  9
$PELEVATION
 40
0.0
  9
$THICKNESS
 40
0.0
  9
$LIMCHECK
 70
     0
  9
$CHAMFERA
 40
0.0
  9
$CHAMFERB
 40
0.0
  9
$CHAMFERC
 40
0.0
  9
$CHAMFERD
 40
0.0
  9
$SKPOLY
 70
     0
  9
$TDCREATE
 40
2459781.392777778
  9
$TDUCREATE
 40
0.000000000
  9
$TDUPDATE
 40
2459781.017685185
  9
$TDUUPDATE
 40
0.000000000
  9
$TDINDWG
 40
0.0000000000
  9
$TDUSRTIMER
 40
0.0000000000
  9
$USRTIMER
 70
     1
  9
$ANGBASE
 50
0.0
  9
$ANGDIR
 70
     0
  9
$PDMODE
 70
     0
  9
$PDSIZE
 40
0.0
  9
$PLINEWID
 40
0.0
  9
$SPLFRAME
 70
     0
  9
$SPLINETYPE
 70
     6
  9
$SPLINESEGS
 70
     8
  9
$HANDSEED
  5
250
  9
$SURFTAB1
 70
     6
  9
$SURFTAB2
 70
     6
  9
$SURFTYPE
 70
     6
  9
$SURFU
 70
     6
  9
$SURFV
 70
     6
  9
$UCSBASE
  2

  9
$UCSNAME
  2

  9
$UCSORG
 10
0.0
 20
0.0
 30
0.0
  9
$UCSXDIR
 10
1.0
 20
0.0
 30
0.0
  9
$UCSYDIR
 10
0.0
 20
1.0
 30
0.0
  9
$UCSORTHOREF
  2

  9
$UCSORTHOVIEW
 70
     0
  9
$UCSORGTOP
 10
0.0
 20
0.0
 30
0.0
  9
$UCSORGBOTTOM
 10
0.0
 20
0.0
 30
0.0
  9
$UCSORGLEFT
 10
0.0
 20
0.0
 30
0.0
  9
$UCSORGRIGHT
 10
0.0
 20
0.0
 30
0.0
  9
$UCSORGFRONT
 10
0.0
 20
0.0
 30
0.0
  9
$UCSORGBACK
 10
0.0
 20
0.0
 30
0.0
  9
$PUCSBASE
  2

  9
$PUCSNAME
  2

  9
$PUCSORG
 10
0.0
 20
0.0
 30
0.0
  9
$PUCSXDIR
 10
1.0
 20
0.0
 30
0.0
  9
$PUCSYDIR
 10
0.0
 20
1.0
 30
0.0
  9
$PUCSORTHOREF
  2

  9
$PUCSORTHOVIEW
 70
     0
  9
$PUCSORGTOP
 10
0.0
 20
0.0
 30
0.0
  9
$PUCSORGBOTTOM
 10
0.0
 20
0.0
 30
0.0
  9
$PUCSORGLEFT
 10
0.0
 20
0.0
 30
0.0
  9
$PUCSORGRIGHT
 10
0.0
 20
0.0
 30
0.0
  9
$PUCSORGFRONT
 10
0.0
 20
0.0
 30
0.0
  9
$PUCSORGBACK
 10
0.0
 20
0.0
 30
0.0
  9
$USERI1
 70
     0
  9
$USERI2
 70
     0
  9
$USERI3
 70
     0
  9
$USERI4
 70
     0
  9
$USERI5
 70
     0
  9
$USERR1
 40
0.0
  9
$USERR2
 40
0.0
  9
$USERR3
 40
0.0
  9
$USERR4
 40
0.0
  9
$USERR5
 40
0.0
  9
$WORLDVIEW
 70
     1
  9
$SHADEDGE
 70
     3
  9
$SHADEDIF
 70
    70
  9
$TILEMODE
 70
     1
  9
$MAXACTVP
 70
    16
  9
$PINSBASE
 10
0.0
 20
0.0
 30
0.0
  9
$PLIMCHECK
 70
     0
  9
$PEXTMIN
 10
1.000000E+20
 20
1.000000E+20
 30
1.000000E+20
  9
$PEXTMAX
 10
-1.000000E+20
 20
-1.000000E+20
 30
-1.000000E+20
  9
$PLIMMIN
 10
0.0
 20
0.0
  9
$PLIMMAX
 10
12.0
 20
9.0
  9
$UNITMODE
 70
     0
  9
$VISRETAIN
 70
     0
  9
$PLINEGEN
 70
     1
  9
$PSLTSCALE
 70
     0
  9
$TREEDEPTH
 70
  3020
  9
$CMLSTYLE
  2
Standard
  9
$CMLJUST
 70
     0
  9
$CMLSCALE
 40
1.0
  9
$PROXYGRAPHICS
 70
     0
  9
$MEASUREMENT
 70
     0
  9
$CELWEIGHT
370
     0
  9
$ENDCAPS
280
     0
  9
$JOINSTYLE
280
     0
  9
$LWDISPLAY
290
     0
  9
$INSUNITS
 70
     0
  9
$HYPERLINKBASE
  1

  9
$STYLESHEET
  1

  9
$XEDIT
290
     1
  9
$CEPSNTYPE
380
     0
  9
$PSTYLEMODE
290
     1
  9
$FINGERPRINTGUID
  2

  9
$VERSIONGUID
  2

  9
$EXTNAMES
290
     1
  9
$PSVPSCALE
 40
0.0
  0
ENDSEC
  0
SECTION
  2
CLASSES
  0
CLASS
  1
LWPOLYLINE
  2
AcDbPolyline
  3
AutoCAD 2000
 90
        0
280
     0
281
     1
  0
CLASS
  1
IMAGE
  2
AcDbRasterImage
  3
ISM
 90
      127
280
     0
281
     1
  0
CLASS
  1
OLE2FRAME
  2
AcDbOle2Frame
  3
AutoCAD 2000
 90
        0
280
     0
281
     1
  0
CLASS
  1
HATCH
  2
AcDbHatch
  3
AutoCAD 2000
 90
        0
280
     0
281
     1
  0
CLASS
  1
DICTIONARYVAR
  2
AcDbDictionaryVar
  3
AutoCAD 2000
 90
        0
280
     0
281
     0
  0
CLASS
  1
RASTERVARIABLES
  2
AcDbRasterVariables
  3
ISM
 90
        0
280
     0
281
     0
  0
CLASS
  1
IMAGEDEF
  2
AcDbRasterImageDef
  3
ISM
 90
        0
280
     0
281
     0
  0
CLASS
  1
IMAGEDEF_REACTOR
  2
AcDbRasterImageDefReactor
  3
ISM
 90
        1
280
     0
281
     0
  0
CLASS
  1
IDBUFFER
  2
AcDbIdBuffer
  3
AutoCAD 2000
 90
        0
280
     0
281
     0
  0
CLASS
  1
SPATIAL_FILTER
  2
AcDbSpatialFilter
  3
AutoCAD 2000
 90
        0
280
     0
281
     0
  0
CLASS
  1
XRECORD
  2
AcDbXrecord
  3
AutoCAD 2000
 90
        0
280
     0
281
     0
  0
CLASS
  1
SORTENTSTABLE
  2
AcDbSortentsTable
  3
AutoCAD 2000
 90
        0
280
     0
281
     0
  0
CLASS
  1
LAYER_INDEX
  2
AcDbLayerIndex
  3
AutoCAD 2000
 90
        0
280
     0
281
     0
  0
CLASS
  1
SPATIAL_INDEX
  2
AcDbSpatialIndex
  3
AutoCAD 2000
 90
        0
280
     0
281
     0
  0
CLASS
  1
OBJECT_PTR
  2
CAseDLPNTableRecord
  3
"ASE-LPNTableRecord"
 90
        1
280
     0
281
     0
  0
CLASS
  1
LAYOUT
  2
AcDbLayout
  3
AutoCAD 2000
 90
        0
280
     0
281
     0
  0
CLASS
  1
PLOTSETTINGS
  2
AcDbPlotSettings
  3
AutoCAD 2000
 90
        0
280
     0
281
     0
  0
CLASS
  1
ACDBDICTIONARYWDFLT
  2
AcDbDictionaryWithDefault
  3
AutoCAD 2000
 90
        0
280
     0
281
     0
  0
CLASS
  1
ACDBPLACEHOLDER
  2
AcDbPlaceHolder
  3
AutoCAD 2000
 90
        0
280
     0
281
     0
  0
CLASS
  1
VBA_PROJECT
  2
AcDbVbaProject
  3
acadvba
 90
        0
280
     0
281
     0
  0
CLASS
  1
WIPEOUT
  2
AcDbWipeout
  3
WipeOut|AutoCAD Express Tool|expresstools@autodesk.com
 90
      127
280
     0
281
     1
  0
CLASS
  1
WIPEOUTVARIABLES
  2
AcDbWipeoutVariables
  3
WipeOut|AutoCAD Express Tool|expresstools@autodesk.com
 90
        0
280
     0
281
     0
  0
CLASS
  1
RTEXT
  2
RText
  3
RText|AutoCAD Express Tool|expresstools@autodesk.com
 90
        0
280
     0
281
     1
  0
CLASS
  1
ARCALIGNEDTEXT
  2
AcDbArcAlignedText
  3
ATEXT|AutoCAD Express Tool|expresstools@autodesk.com
 90
        0
280
     0
281
     1
  0
ENDSEC
  0
SECTION
  2
TABLES
  0
TABLE
  2
VPORT
  5
7
100
AcDbSymbolTable
 70
     1
  0
VPORT
  5
15
100
AcDbSymbolTableRecord
100
AcDbViewportTableRecord
  2
*ACTIVE
 70
     0
 10
0.0
 20
0.0
 11
1.0
 21
1.0
 12
6.591288
 22
4.579184
 13
0.0
 23
0.0
 14
1.0
 24
1.0
 15
0.0
 25
0.0
 16
0.0
 26
0.0
 36
1.0
 17
0.0
 27
0.0
 37
0.0
 40
9.158369
 41
0.688564
 42
50.0
 43
0.0
 44
0.0
 50
0.0
 51
0.0
 71
     0
 72
   100
 73
     1
 74
     1
 75
     0
 76
     0
 77
     0
 78
     0
281
     0
 65
     0
110
0.0
120
0.0
130
0.0
111
1.0
121
0.0
131
0.0
112
0.0
122
1.0
132
0.0
345
0
346
0
 79
     0
146
0.0
  0
ENDTAB
  0
TABLE
  2
LTYPE
  5
4
100
AcDbSymbolTable
 70
     3
  0
LTYPE
  5
11
100
AcDbSymbolTableRecord
100
AcDbLinetypeTableRecord
  2
ByBlock
 70
    64
  3

 72
    65
 73
     0
 40
0.0
  0
LTYPE
  5
12
100
AcDbSymbolTableRecord
100
AcDbLinetypeTableRecord
  2
ByLayer
 70
    64
  3

 72
    65
 73
     0
 40
0.0
  0
LTYPE
  5
13
100
AcDbSymbolTableRecord
100
AcDbLinetypeTableRecord
  2
Continuous
 70
    64
  3
Solid line
 72
    65
 73
     0
 40
0.0
  0
ENDTAB
  0
TABLE
  2
LAYER
  5
2
100
AcDbSymbolTable
 70
     1
  0
LAYER
  5
14
100
AcDbSymbolTableRecord
100
AcDbLayerTableRecord
  2
0
 70
     0
 62
     7
  6
Continuous
290
     1
370
    -3
390
1D
  0
ENDTAB
  0
TABLE
  2
STYLE
  5
3
100
AcDbSymbolTable
 70
     1
  0
STYLE
  5
17
100
AcDbSymbolTableRecord
100
AcDbTextStyleTableRecord
  2
Standard
 70
     0
 40
0.0
 41
1.0
 50
0.0
 71
     0
 42
0.0
  3
FG教科書体NT-M
  4

1001
ACAD
1000
FG教科書体NT-M
1071
        0
  0
ENDTAB
  0
TABLE
  2
VIEW
  5
5
100
AcDbSymbolTable
 70
     0
  0
ENDTAB
  0
TABLE
  2
UCS
  5
6
100
AcDbSymbolTable
 70
     0
  0
ENDTAB
  0
TABLE
  2
APPID
  5
8
100
AcDbSymbolTable
 70
     2
  0
APPID
  5
16
100
AcDbSymbolTableRecord
100
AcDbRegAppTableRecord
  2
ACAD
 70
     0
  0
APPID
  5
26
100
AcDbSymbolTableRecord
100
AcDbRegAppTableRecord
  2
TOPsolid_Design
 70
     0
  0
ENDTAB
  0
TABLE
  2
DIMSTYLE
  5
9
100
AcDbSymbolTable
 70
     1
100
AcDbDimStyleTable
 71
     0
  0
DIMSTYLE
105
18
100
AcDbSymbolTableRecord
100
AcDbDimStyleTableRecord
  2
Standard
 70
     0
  3

  4

 40
1.0
 41
1.40208
 42
1.40208
 43
0.38
 44
1.05156
 45
0.0
 46
0.0
 47
0.0
 48
0.0
 71
     0
 72
     0
 73
     0
 74
     0
 75
     0
 76
     0
 77
     1
 78
     0
 79
     0
140
3.5052
141
0.09
142
0.0
143
25.4
144
1.0
145
0.0
146
0.5
147
1.7526
148
0.0
170
     0
171
     2
172
     0
173
     0
174
     0
175
     0
176
     7
177
     7
178
     7
179
     0
271
     2
272
     4
273
     2
274
     2
275
     0
276
     0
277
     2
278
    46
279
     0
280
     0
281
     0
282
     0
283
     1
284
     0
285
     0
286
     0
288
     0
289
     3
340
17
341
0
342
0
343
0
344
0
371
    -2
372
    -2
  0
ENDTAB
  0
TABLE
  2
BLOCK_RECORD
  5
1
100
AcDbSymbolTable
 70
     0
  0
BLOCK_RECORD
  5
A
100
AcDbSymbolTableRecord
100
AcDbBlockTableRecord
  2
*MODEL_SPACE
340
20
  0
BLOCK_RECORD
  5
B
100
AcDbSymbolTableRecord
100
AcDbBlockTableRecord
  2
*PAPER_SPACE
340
21
  0
ENDTAB
  0
ENDSEC
  0
SECTION
  2
BLOCKS
  0
BLOCK
  5
D
100
AcDbEntity
  8
0
390
0
100
AcDbBlockBegin
  2
*MODEL_SPACE
 70
     0
 10
0.0
 20
0.0
 30
0.0
  3
*MODEL_SPACE
  1

  0
ENDBLK
  5
E
100
AcDbEntity
  8
0
390
0
100
AcDbBlockEnd
  0
BLOCK
  5
F
100
AcDbEntity
 67
     1
  8
0
390
0
100
AcDbBlockBegin
  2
*PAPER_SPACE
 70
     0
 10
0.0
 20
0.0
 30
0.0
  3
*PAPER_SPACE
  1

  0
ENDBLK
  5
10
100
AcDbEntity
 67
     1
  8
0
390
0
100
AcDbBlockEnd
  0
ENDSEC
  0
SECTION
  2
ENTITIES
  0
LINE
  5
27
100
AcDbEntity
  8
0
390
0
  6
Continuous
 62
     7
100
AcDbLine
 10
3.059599
 20
12.496708
 30
0.0
 11
1.790601
 21
9.356197
 31
0.0
  0
LINE
  5
28
100
AcDbEntity
  8
0
390
0
  6
Continuous
 62
     7
100
AcDbLine
 10
4.221594
 20
12.496708
 30
0.0
 11
3.059599
 21
12.496708
 31
0.0
  0
LINE
  5
29
100
AcDbEntity
  8
0
390
0
  6
Continuous
 62
     7
100
AcDbLine
 10
2.404897
 20
8.0
 30
0.0
 11
4.221594
 21
12.496708
 31
0.0
  0
LINE
  5
2A
100
AcDbEntity
  8
0
390
0
  6
Continuous
 62
     7
100
AcDbLine
 10
1.176561
 20
8.0
 30
0.0
 11
2.404897
 21
8.0
 31
0.0
  0
LINE
  5
2B
100
AcDbEntity
  8
0
390
0
  6
Continuous
 62
     7
100
AcDbLine
 10
0.250797
 20
10.290947
 30
0.0
 11
1.176561
 21
8.0
 31
0.0
  0
LINE
  5
2C
100
AcDbEntity
  8
0
390
0
  6
Continuous
 62
     7
100
AcDbLine
 10
0.831794
 20
11.729218
 30
0.0
 11
0.250797
 21
10.290947
 31
0.0
  0
LINE
  5
2D
100
AcDbEntity
  8
0
390
0
  6
Continuous
 62
     7
100
AcDbLine
 10
1.790601
 20
9.356197
 30
0.0
 11
0.831794
 21
11.729218
 31
0.0
  0
LINE
  5
2E
100
AcDbEntity
  8
0
390
0
  6
Continuous
 62
     7
100
AcDbLine
 10
-6.35364
 20
8.0
 30
0.0
 11
-5.191998
 21
8.0
 31
0.0
  0
LINE
  5
2F
100
AcDbEntity
  8
0
390
0
  6
Continuous
 62
     7
100
AcDbLine
 10
-4.991636
 20
11.371513
 30
0.0
 11
-6.35364
 21
8.0
 31
0.0
  0
LINE
  5
30
100
AcDbEntity
  8
0
390
0
  6
Continuous
 62
     7
100
AcDbLine
 10
-4.049501
 20
9.038568
 30
0.0
 11
-4.991636
 21
11.371513
 31
0.0
  0
LINE
  5
31
100
AcDbEntity
  8
0
390
0
  6
Continuous
 62
     7
100
AcDbLine
 10
-4.772085
 20
9.038568
 30
0.0
 11
-4.049501
 21
9.038568
 31
0.0
  0
LINE
  5
32
100
AcDbEntity
  8
0
390
0
  6
Continuous
 62
     7
100
AcDbLine
 10
-5.191998
 20
8.0
 30
0.0
 11
-4.772085
 21
9.038568
 31
0.0
  0
LINE
  5
33
100
AcDbEntity
  8
0
390
0
  6
Continuous
 62
     7
100
AcDbLine
 10
-2.819519
 20
8.0
 30
0.0
 11
-1.657622
 21
8.0
 31
0.0
  0
LINE
  5
34
100
AcDbEntity
  8
0
390
0
  6
Continuous
 62
     7
100
AcDbLine
 10
-4.636246
 20
12.496708
 30
0.0
 11
-2.819519
 21
8.0
 31
0.0
  0
LINE
  5
35
100
AcDbEntity
  8
0
390
0
  6
Continuous
 62
     7
100
AcDbLine
 10
-3.474604
 20
12.496708
 30
0.0
 11
-4.636246
 21
12.496708
 31
0.0
  0
LINE
  5
36
100
AcDbEntity
  8
0
390
0
  6
Continuous
 62
     7
100
AcDbLine
 10
-1.657622
 20
8.0
 30
0.0
 11
-3.474604
 21
12.496708
 31
0.0
  0
LINE
  5
37
100
AcDbEntity
  8
0
390
0
  6
Continuous
 62
     7
100
AcDbLine
 10
-0.821505
 20
8.0
 30
0.0
 11
0.340474
 21
8.0
 31
0.0
  0
LINE
  5
38
100
AcDbEntity
  8
0
390
0
  6
Continuous
 62
     7
100
AcDbLine
 10
-2.638488
 20
12.496708
 30
0.0
 11
-0.821505
 21
8.0
 31
0.0
  0
LINE
  5
39
100
AcDbEntity
  8
0
390
0
  6
Continuous
 62
     7
100
AcDbLine
 10
-1.476508
 20
12.496708
 30
0.0
 11
-2.638488
 21
12.496708
 31
0.0
  0
LINE
  5
3A
100
AcDbEntity
  8
0
390
0
  6
Continuous
 62
     7
100
AcDbLine
 10
0.340474
 20
8.0
 30
0.0
 11
-1.476508
 21
12.496708
 31
0.0
  0
LINE
  5
3B
100
AcDbEntity
  8
0
390
0
  6
Continuous
 62
     7
100
AcDbLine
 10
3.240983
 20
8.0
 30
0.0
 11
4.819075
 21
8.0
 31
0.0
  0
LINE
  5
3C
100
AcDbEntity
  8
0
390
0
  6
Continuous
 62
     7
100
AcDbLine
 10
3.505179
 20
8.653907
 30
0.0
 11
3.240983
 21
8.0
 31
0.0
  0
LINE
  5
3D
100
AcDbEntity
  8
0
390
0
  6
Continuous
 62
     7
100
AcDbLine
 10
4.143902
 20
8.653907
 30
0.0
 11
3.505179
 21
8.653907
 31
0.0
  0
ARC
  5
3E
100
AcDbEntity
  8
0
390
0
  6
Continuous
 62
     7
100
AcDbCircle
 10
4.143902
 20
9.653907
 30
0.0
 40
1.0
210
0.0
220
0.0
230
1.0
100
AcDbArc
 50
270.0
 51
360.0
  0
LINE
  5
3F
100
AcDbEntity
  8
0
390
0
  6
Continuous
 62
     7
100
AcDbLine
 10
5.143902
 20
12.496708
 30
0.0
 11
5.143902
 21
9.653907
 31
0.0
  0
LINE
  5
40
100
AcDbEntity
  8
0
390
0
  6
Continuous
 62
     7
100
AcDbLine
 10
6.319075
 20
12.496708
 30
0.0
 11
5.143902
 21
12.496708
 31
0.0
  0
LINE
  5
41
100
AcDbEntity
  8
0
390
0
  6
Continuous
 62
     7
100
AcDbLine
 10
6.319075
 20
9.5
 30
0.0
 11
6.319075
 21
12.496708
 31
0.0
  0
ARC
  5
42
100
AcDbEntity
  8
0
390
0
  6
Continuous
 62
     7
100
AcDbCircle
 10
4.819075
 20
9.5
 30
0.0
 40
1.5
210
0.0
220
0.0
230
1.0
100
AcDbArc
 50
270.0
 51
360.0
  0
LINE
  5
43
100
AcDbEntity
  8
0
390
0
  6
Continuous
 62
     7
100
AcDbLine
 10
-14.0
 20
0.0
 30
0.0
 11
-19.0
 21
0.0
 31
0.0
  0
LINE
  5
44
100
AcDbEntity
  8
0
390
0
  6
Continuous
 62
     7
100
AcDbLine
 10
-19.0
 20
0.0
 30
0.0
 11
-19.0
 21
23.0
 31
0.0
  0
LINE
  5
45
100
AcDbEntity
  8
0
390
0
  6
Continuous
 62
     7
100
AcDbLine
 10
-14.0
 20
23.0
 30
0.0
 11
-19.0
 21
23.0
 31
0.0
  0
LINE
  5
46
100
AcDbEntity
  8
0
390
0
  6
Continuous
 62
     7
100
AcDbLine
 10
-14.0
 20
23.0
 30
0.0
 11
-14.0
 21
0.0
 31
0.0
  0
LINE
  5
47
100
AcDbEntity
  8
0
390
0
  6
Continuous
 62
     7
100
AcDbLine
 10
-13.69854
 20
23.0
 30
0.0
 11
-14.0
 21
23.0
 31
0.0
  0
LINE
  5
48
100
AcDbEntity
  8
0
390
0
  6
Continuous
 62
     7
100
AcDbLine
 10
-14.0
 20
23.0
 30
0.0
 11
-14.0
 21
24.5
 31
0.0
  0
LINE
  5
49
100
AcDbEntity
  8
0
390
0
  6
Continuous
 62
     7
100
AcDbLine
 10
-14.0
 20
24.5
 30
0.0
 11
-13.69854
 21
24.5
 31
0.0
  0
LINE
  5
4A
100
AcDbEntity
  8
0
390
0
  6
Continuous
 62
     7
100
AcDbLine
 10
-13.69854
 20
23.0
 30
0.0
 11
-13.69854
 21
24.5
 31
0.0
  0
LINE
  5
4B
100
AcDbEntity
  8
0
390
0
  6
Continuous
 62
     7
100
AcDbLine
 10
14.0
 20
23.0
 30
0.0
 11
13.69854
 21
23.0
 31
0.0
  0
LINE
  5
4C
100
AcDbEntity
  8
0
390
0
  6
Continuous
 62
     7
100
AcDbLine
 10
14.0
 20
0.0
 30
0.0
 11
14.0
 21
23.0
 31
0.0
  0
ARC
  5
4D
100
AcDbEntity
  8
0
390
0
  6
Continuous
 62
     7
100
AcDbCircle
 10
0.0
 20
41.6
 30
0.0
 40
23.1
210
0.0
220
0.0
230
1.0
100
AcDbArc
 50
233.629073
 51
306.370927
  0
LINE
  5
4E
100
AcDbEntity
  8
0
390
0
  6
Continuous
 62
     7
100
AcDbLine
 10
-14.0
 20
0.0
 30
0.0
 11
14.0
 21
0.0
 31
0.0
  0
ARC
  5
4F
100
AcDbEntity
  8
0
390
0
  6
Continuous
 62
     7
100
AcDbCircle
 10
13.69854
 20
23.0
 30
0.0
 40
1.5
210
0.0
220
0.0
230
1.0
100
AcDbArc
 50
90.0
 51
126.370927
  0
LINE
  5
50
100
AcDbEntity
  8
0
390
0
  6
Continuous
 62
     7
100
AcDbLine
 10
13.69854
 20
23.0
 30
0.0
 11
13.69854
 21
24.5
 31
0.0
  0
LINE
  5
51
100
AcDbEntity
  8
0
390
0
  6
Continuous
 62
     7
100
AcDbLine
 10
13.69854
 20
23.0
 30
0.0
 11
12.809024
 21
24.207793
 31
0.0
  0
LINE
  5
52
100
AcDbEntity
  8
0
390
0
  6
Continuous
 62
     7
100
AcDbLine
 10
14.0
 20
24.5
 30
0.0
 11
17.5
 21
24.5
 31
0.0
  0
ARC
  5
53
100
AcDbEntity
  8
0
390
0
  6
Continuous
 62
     7
100
AcDbCircle
 10
17.5
 20
23.0
 30
0.0
 40
1.5
210
0.0
220
0.0
230
1.0
100
AcDbArc
 50
0.0
 51
90.0
  0
LINE
  5
54
100
AcDbEntity
  8
0
390
0
  6
Continuous
 62
     7
100
AcDbLine
 10
19.0
 20
23.0
 30
0.0
 11
14.0
 21
23.0
 31
0.0
  0
LINE
  5
55
100
AcDbEntity
  8
0
390
0
  6
Continuous
 62
     7
100
AcDbLine
 10
14.0
 20
23.0
 30
0.0
 11
14.0
 21
24.5
 31
0.0
  0
LINE
  5
56
100
AcDbEntity
  8
0
390
0
  6
Continuous
 62
     7
100
AcDbLine
 10
13.69854
 20
24.5
 30
0.0
 11
14.0
 21
24.5
 31
0.0
  0
ARC
  5
57
100
AcDbEntity
  8
0
390
0
  6
Continuous
 62
     7
100
AcDbCircle
 10
-13.69854
 20
23.0
 30
0.0
 40
1.5
210
0.0
220
0.0
230
1.0
100
AcDbArc
 50
53.629073
 51
90.0
  0
LINE
  5
58
100
AcDbEntity
  8
0
390
0
  6
Continuous
 62
     7
100
AcDbLine
 10
-13.69854
 20
23.0
 30
0.0
 11
-12.809025
 21
24.207793
 31
0.0
  0
LINE
  5
59
100
AcDbEntity
  8
0
390
0
  6
Continuous
 62
     7
100
AcDbLine
 10
19.0
 20
23.0
 30
0.0
 11
19.0
 21
0.0
 31
0.0
  0
LINE
  5
5A
100
AcDbEntity
  8
0
390
0
  6
Continuous
 62
     7
100
AcDbLine
 10
19.0
 20
0.0
 30
0.0
 11
14.0
 21
0.0
 31
0.0
  0
ARC
  5
5B
100
AcDbEntity
  8
0
390
0
  6
Continuous
 62
     7
100
AcDbCircle
 10
-17.5
 20
23.0
 30
0.0
 40
1.5
210
0.0
220
0.0
230
1.0
100
AcDbArc
 50
90.0
 51
180.0
  0
LINE
  5
5C
100
AcDbEntity
  8
0
390
0
  6
Continuous
 62
     7
100
AcDbLine
 10
-17.5
 20
24.5
 30
0.0
 11
-14.0
 21
24.5
 31
0.0
  0
ARC
  5
5D
100
AcDbEntity
  8
0
390
0
  6
Continuous
 62
     7
100
AcDbCircle
 10
0.0
 20
41.6
 30
0.0
 40
21.6
210
0.0
220
0.0
230
1.0
100
AcDbArc
 50
233.629073
 51
306.370927
  0
ARC
  5
5E
100
AcDbEntity
  8
0
390
0
  6
Continuous
 62
     7
100
AcDbCircle
 10
-14.0
 20
-60.646222
 30
0.0
 40
5.0
210
0.0
220
0.0
230
1.0
100
AcDbArc
 50
180.0
 51
270.0
  0
LINE
  5
5F
100
AcDbEntity
  8
0
390
0
  6
Continuous
 62
     7
100
AcDbLine
 10
-19.0
 20
-45.646222
 30
0.0
 11
-19.0
 21
-60.646222
 31
0.0
  0
ARC
  5
60
100
AcDbEntity
  8
0
390
0
  6
Continuous
 62
     7
100
AcDbCircle
 10
-14.0
 20
-45.646222
 30
0.0
 40
5.0
210
0.0
220
0.0
230
1.0
100
AcDbArc
 50
90.0
 51
180.0
  0
LINE
  5
61
100
AcDbEntity
  8
0
390
0
  6
Continuous
 62
     7
100
AcDbLine
 10
-14.0
 20
-40.646222
 30
0.0
 11
14.0
 21
-40.646222
 31
0.0
  0
ARC
  5
62
100
AcDbEntity
  8
0
390
0
  6
Continuous
 62
     7
100
AcDbCircle
 10
14.0
 20
-45.646222
 30
0.0
 40
5.0
210
0.0
220
0.0
230
1.0
100
AcDbArc
 50
0.0
 51
90.0
  0
LINE
  5
63
100
AcDbEntity
  8
0
390
0
  6
Continuous
 62
     7
100
AcDbLine
 10
19.0
 20
-60.646222
 30
0.0
 11
19.0
 21
-45.646222
 31
0.0
  0
ARC
  5
64
100
AcDbEntity
  8
0
390
0
  6
Continuous
 62
     7
100
AcDbCircle
 10
14.0
 20
-60.646222
 30
0.0
 40
5.0
210
0.0
220
0.0
230
1.0
100
AcDbArc
 50
270.0
 51
360.0
  0
LINE
  5
65
100
AcDbEntity
  8
0
390
0
  6
Continuous
 62
     7
100
AcDbLine
 10
-14.0
 20
-65.646222
 30
0.0
 11
14.0
 21
-65.646222
 31
0.0
  0
LINE
  5
66
100
AcDbEntity
  8
0
390
0
  6
Continuous
 62
     7
100
AcDbLine
 10
0.75
 20
-57.332011
 30
0.0
 11
3.25
 21
-55.888635
 31
0.0
  0
LINE
  5
67
100
AcDbEntity
  8
0
390
0
  6
Continuous
 62
     7
100
AcDbLine
 10
0.75
 20
-60.218762
 30
0.0
 11
0.75
 21
-57.332011
 31
0.0
  0
LINE
  5
68
100
AcDbEntity
  8
0
390
0
  6
Continuous
 62
     7
100
AcDbLine
 10
3.25
 20
-61.662138
 30
0.0
 11
0.75
 21
-60.218762
 31
0.0
  0
LINE
  5
69
100
AcDbEntity
  8
0
390
0
  6
Continuous
 62
     7
100
AcDbLine
 10
5.75
 20
-60.218762
 30
0.0
 11
3.25
 21
-61.662138
 31
0.0
  0
LINE
  5
6A
100
AcDbEntity
  8
0
390
0
  6
Continuous
 62
     7
100
AcDbLine
 10
5.75
 20
-57.332011
 30
0.0
 11
5.75
 21
-60.218762
 31
0.0
  0
LINE
  5
6B
100
AcDbEntity
  8
0
390
0
  6
Continuous
 62
     7
100
AcDbLine
 10
3.25
 20
-55.888635
 30
0.0
 11
5.75
 21
-57.332011
 31
0.0
  0
LINE
  5
6C
100
AcDbEntity
  8
0
390
0
  6
Continuous
 62
     7
100
AcDbLine
 10
-12.25
 20
-57.332011
 30
0.0
 11
-9.75
 21
-55.888635
 31
0.0
  0
LINE
  5
6D
100
AcDbEntity
  8
0
390
0
  6
Continuous
 62
     7
100
AcDbLine
 10
-12.25
 20
-60.218762
 30
0.0
 11
-12.25
 21
-57.332011
 31
0.0
  0
LINE
  5
6E
100
AcDbEntity
  8
0
390
0
  6
Continuous
 62
     7
100
AcDbLine
 10
-9.75
 20
-61.662138
 30
0.0
 11
-12.25
 21
-60.218762
 31
0.0
  0
LINE
  5
6F
100
AcDbEntity
  8
0
390
0
  6
Continuous
 62
     7
100
AcDbLine
 10
-7.25
 20
-60.218762
 30
0.0
 11
-9.75
 21
-61.662138
 31
0.0
  0
LINE
  5
70
100
AcDbEntity
  8
0
390
0
  6
Continuous
 62
     7
100
AcDbLine
 10
-7.25
 20
-57.332011
 30
0.0
 11
-7.25
 21
-60.218762
 31
0.0
  0
LINE
  5
71
100
AcDbEntity
  8
0
390
0
  6
Continuous
 62
     7
100
AcDbLine
 10
-9.75
 20
-55.888635
 30
0.0
 11
-7.25
 21
-57.332011
 31
0.0
  0
LINE
  5
72
100
AcDbEntity
  8
0
390
0
  6
Continuous
 62
     7
100
AcDbLine
 10
2.5
 20
-51.702846
 30
0.0
 11
0.0
 21
-50.25947
 31
0.0
  0
LINE
  5
73
100
AcDbEntity
  8
0
390
0
  6
Continuous
 62
     7
100
AcDbLine
 10
0.0
 20
-50.25947
 30
0.0
 11
-2.5
 21
-51.702846
 31
0.0
  0
LINE
  5
74
100
AcDbEntity
  8
0
390
0
  6
Continuous
 62
     7
100
AcDbLine
 10
-2.5
 20
-51.702846
 30
0.0
 11
-2.5
 21
-54.589597
 31
0.0
  0
LINE
  5
75
100
AcDbEntity
  8
0
390
0
  6
Continuous
 62
     7
100
AcDbLine
 10
-2.5
 20
-54.589597
 30
0.0
 11
0.0
 21
-56.032973
 31
0.0
  0
LINE
  5
76
100
AcDbEntity
  8
0
390
0
  6
Continuous
 62
     7
100
AcDbLine
 10
0.0
 20
-56.032973
 30
0.0
 11
2.5
 21
-54.589597
 31
0.0
  0
LINE
  5
77
100
AcDbEntity
  8
0
390
0
  6
Continuous
 62
     7
100
AcDbLine
 10
2.5
 20
-54.589597
 30
0.0
 11
2.5
 21
-51.702846
 31
0.0
  0
LINE
  5
78
100
AcDbEntity
  8
0
390
0
  6
Continuous
 62
     7
100
AcDbLine
 10
9.0
 20
-51.702846
 30
0.0
 11
6.5
 21
-50.25947
 31
0.0
  0
LINE
  5
79
100
AcDbEntity
  8
0
390
0
  6
Continuous
 62
     7
100
AcDbLine
 10
6.5
 20
-50.25947
 30
0.0
 11
4.0
 21
-51.702846
 31
0.0
  0
LINE
  5
7A
100
AcDbEntity
  8
0
390
0
  6
Continuous
 62
     7
100
AcDbLine
 10
4.0
 20
-51.702846
 30
0.0
 11
4.0
 21
-54.589597
 31
0.0
  0
LINE
  5
7B
100
AcDbEntity
  8
0
390
0
  6
Continuous
 62
     7
100
AcDbLine
 10
4.0
 20
-54.589597
 30
0.0
 11
6.5
 21
-56.032973
 31
0.0
  0
LINE
  5
7C
100
AcDbEntity
  8
0
390
0
  6
Continuous
 62
     7
100
AcDbLine
 10
6.5
 20
-56.032973
 30
0.0
 11
9.0
 21
-54.589597
 31
0.0
  0
LINE
  5
7D
100
AcDbEntity
  8
0
390
0
  6
Continuous
 62
     7
100
AcDbLine
 10
9.0
 20
-54.589597
 30
0.0
 11
9.0
 21
-51.702846
 31
0.0
  0
LINE
  5
7E
100
AcDbEntity
  8
0
390
0
  6
Continuous
 62
     7
100
AcDbLine
 10
15.5
 20
-51.702846
 30
0.0
 11
13.0
 21
-50.25947
 31
0.0
  0
LINE
  5
7F
100
AcDbEntity
  8
0
390
0
  6
Continuous
 62
     7
100
AcDbLine
 10
13.0
 20
-50.25947
 30
0.0
 11
10.5
 21
-51.702846
 31
0.0
  0
LINE
  5
80
100
AcDbEntity
  8
0
390
0
  6
Continuous
 62
     7
100
AcDbLine
 10
10.5
 20
-51.702846
 30
0.0
 11
10.5
 21
-54.589597
 31
0.0
  0
LINE
  5
81
100
AcDbEntity
  8
0
390
0
  6
Continuous
 62
     7
100
AcDbLine
 10
10.5
 20
-54.589597
 30
0.0
 11
13.0
 21
-56.032973
 31
0.0
  0
LINE
  5
82
100
AcDbEntity
  8
0
390
0
  6
Continuous
 62
     7
100
AcDbLine
 10
13.0
 20
-56.032973
 30
0.0
 11
15.5
 21
-54.589597
 31
0.0
  0
LINE
  5
83
100
AcDbEntity
  8
0
390
0
  6
Continuous
 62
     7
100
AcDbLine
 10
15.5
 20
-54.589597
 30
0.0
 11
15.5
 21
-51.702846
 31
0.0
  0
LINE
  5
84
100
AcDbEntity
  8
0
390
0
  6
Continuous
 62
     7
100
AcDbLine
 10
-4.0
 20
-51.702846
 30
0.0
 11
-6.5
 21
-50.25947
 31
0.0
  0
LINE
  5
85
100
AcDbEntity
  8
0
390
0
  6
Continuous
 62
     7
100
AcDbLine
 10
-6.5
 20
-50.25947
 30
0.0
 11
-9.0
 21
-51.702846
 31
0.0
  0
LINE
  5
86
100
AcDbEntity
  8
0
390
0
  6
Continuous
 62
     7
100
AcDbLine
 10
-9.0
 20
-51.702846
 30
0.0
 11
-9.0
 21
-54.589597
 31
0.0
  0
LINE
  5
87
100
AcDbEntity
  8
0
390
0
  6
Continuous
 62
     7
100
AcDbLine
 10
-9.0
 20
-54.589597
 30
0.0
 11
-6.5
 21
-56.032973
 31
0.0
  0
LINE
  5
88
100
AcDbEntity
  8
0
390
0
  6
Continuous
 62
     7
100
AcDbLine
 10
-6.5
 20
-56.032973
 30
0.0
 11
-4.0
 21
-54.589597
 31
0.0
  0
LINE
  5
89
100
AcDbEntity
  8
0
390
0
  6
Continuous
 62
     7
100
AcDbLine
 10
-4.0
 20
-54.589597
 30
0.0
 11
-4.0
 21
-51.702846
 31
0.0
  0
LINE
  5
8A
100
AcDbEntity
  8
0
390
0
  6
Continuous
 62
     7
100
AcDbLine
 10
-10.5
 20
-51.702846
 30
0.0
 11
-13.0
 21
-50.25947
 31
0.0
  0
LINE
  5
8B
100
AcDbEntity
  8
0
390
0
  6
Continuous
 62
     7
100
AcDbLine
 10
-13.0
 20
-50.25947
 30
0.0
 11
-15.5
 21
-51.702846
 31
0.0
  0
LINE
  5
8C
100
AcDbEntity
  8
0
390
0
  6
Continuous
 62
     7
100
AcDbLine
 10
-15.5
 20
-51.702846
 30
0.0
 11
-15.5
 21
-54.589597
 31
0.0
  0
LINE
  5
8D
100
AcDbEntity
  8
0
390
0
  6
Continuous
 62
     7
100
AcDbLine
 10
-15.5
 20
-54.589597
 30
0.0
 11
-13.0
 21
-56.032973
 31
0.0
  0
LINE
  5
8E
100
AcDbEntity
  8
0
390
0
  6
Continuous
 62
     7
100
AcDbLine
 10
-13.0
 20
-56.032973
 30
0.0
 11
-10.5
 21
-54.589597
 31
0.0
  0
LINE
  5
8F
100
AcDbEntity
  8
0
390
0
  6
Continuous
 62
     7
100
AcDbLine
 10
-10.5
 20
-54.589597
 30
0.0
 11
-10.5
 21
-51.702846
 31
0.0
  0
LINE
  5
90
100
AcDbEntity
  8
0
390
0
  6
Continuous
 62
     7
100
AcDbLine
 10
5.75
 20
-46.073681
 30
0.0
 11
3.25
 21
-44.630305
 31
0.0
  0
LINE
  5
91
100
AcDbEntity
  8
0
390
0
  6
Continuous
 62
     7
100
AcDbLine
 10
3.25
 20
-44.630305
 30
0.0
 11
0.75
 21
-46.073681
 31
0.0
  0
LINE
  5
92
100
AcDbEntity
  8
0
390
0
  6
Continuous
 62
     7
100
AcDbLine
 10
0.75
 20
-46.073681
 30
0.0
 11
0.75
 21
-48.960432
 31
0.0
  0
LINE
  5
93
100
AcDbEntity
  8
0
390
0
  6
Continuous
 62
     7
100
AcDbLine
 10
0.75
 20
-48.960432
 30
0.0
 11
3.25
 21
-50.403808
 31
0.0
  0
LINE
  5
94
100
AcDbEntity
  8
0
390
0
  6
Continuous
 62
     7
100
AcDbLine
 10
3.25
 20
-50.403808
 30
0.0
 11
5.75
 21
-48.960432
 31
0.0
  0
LINE
  5
95
100
AcDbEntity
  8
0
390
0
  6
Continuous
 62
     7
100
AcDbLine
 10
5.75
 20
-48.960432
 30
0.0
 11
5.75
 21
-46.073681
 31
0.0
  0
LINE
  5
96
100
AcDbEntity
  8
0
390
0
  6
Continuous
 62
     7
100
AcDbLine
 10
12.25
 20
-46.073681
 30
0.0
 11
9.75
 21
-44.630305
 31
0.0
  0
LINE
  5
97
100
AcDbEntity
  8
0
390
0
  6
Continuous
 62
     7
100
AcDbLine
 10
9.75
 20
-44.630305
 30
0.0
 11
7.25
 21
-46.073681
 31
0.0
  0
LINE
  5
98
100
AcDbEntity
  8
0
390
0
  6
Continuous
 62
     7
100
AcDbLine
 10
7.25
 20
-46.073681
 30
0.0
 11
7.25
 21
-48.960432
 31
0.0
  0
LINE
  5
99
100
AcDbEntity
  8
0
390
0
  6
Continuous
 62
     7
100
AcDbLine
 10
7.25
 20
-48.960432
 30
0.0
 11
9.75
 21
-50.403808
 31
0.0
  0
LINE
  5
9A
100
AcDbEntity
  8
0
390
0
  6
Continuous
 62
     7
100
AcDbLine
 10
9.75
 20
-50.403808
 30
0.0
 11
12.25
 21
-48.960432
 31
0.0
  0
LINE
  5
9B
100
AcDbEntity
  8
0
390
0
  6
Continuous
 62
     7
100
AcDbLine
 10
12.25
 20
-48.960432
 30
0.0
 11
12.25
 21
-46.073681
 31
0.0
  0
LINE
  5
9C
100
AcDbEntity
  8
0
390
0
  6
Continuous
 62
     7
100
AcDbLine
 10
-0.75
 20
-46.073681
 30
0.0
 11
-3.25
 21
-44.630305
 31
0.0
  0
LINE
  5
9D
100
AcDbEntity
  8
0
390
0
  6
Continuous
 62
     7
100
AcDbLine
 10
-3.25
 20
-44.630305
 30
0.0
 11
-5.75
 21
-46.073681
 31
0.0
  0
LINE
  5
9E
100
AcDbEntity
  8
0
390
0
  6
Continuous
 62
     7
100
AcDbLine
 10
-5.75
 20
-46.073681
 30
0.0
 11
-5.75
 21
-48.960432
 31
0.0
  0
LINE
  5
9F
100
AcDbEntity
  8
0
390
0
  6
Continuous
 62
     7
100
AcDbLine
 10
-5.75
 20
-48.960432
 30
0.0
 11
-3.25
 21
-50.403808
 31
0.0
  0
LINE
  5
A0
100
AcDbEntity
  8
0
390
0
  6
Continuous
 62
     7
100
AcDbLine
 10
-3.25
 20
-50.403808
 30
0.0
 11
-0.75
 21
-48.960432
 31
0.0
  0
LINE
  5
A1
100
AcDbEntity
  8
0
390
0
  6
Continuous
 62
     7
100
AcDbLine
 10
-0.75
 20
-48.960432
 30
0.0
 11
-0.75
 21
-46.073681
 31
0.0
  0
LINE
  5
A2
100
AcDbEntity
  8
0
390
0
  6
Continuous
 62
     7
100
AcDbLine
 10
-7.25
 20
-46.073681
 30
0.0
 11
-9.75
 21
-44.630305
 31
0.0
  0
LINE
  5
A3
100
AcDbEntity
  8
0
390
0
  6
Continuous
 62
     7
100
AcDbLine
 10
-9.75
 20
-44.630305
 30
0.0
 11
-12.25
 21
-46.073681
 31
0.0
  0
LINE
  5
A4
100
AcDbEntity
  8
0
390
0
  6
Continuous
 62
     7
100
AcDbLine
 10
-12.25
 20
-46.073681
 30
0.0
 11
-12.25
 21
-48.960432
 31
0.0
  0
LINE
  5
A5
100
AcDbEntity
  8
0
390
0
  6
Continuous
 62
     7
100
AcDbLine
 10
-12.25
 20
-48.960432
 30
0.0
 11
-9.75
 21
-50.403808
 31
0.0
  0
LINE
  5
A6
100
AcDbEntity
  8
0
390
0
  6
Continuous
 62
     7
100
AcDbLine
 10
-9.75
 20
-50.403808
 30
0.0
 11
-7.25
 21
-48.960432
 31
0.0
  0
LINE
  5
A7
100
AcDbEntity
  8
0
390
0
  6
Continuous
 62
     7
100
AcDbLine
 10
-7.25
 20
-48.960432
 30
0.0
 11
-7.25
 21
-46.073681
 31
0.0
  0
LINE
  5
A8
100
AcDbEntity
  8
0
390
0
  6
Continuous
 62
     7
100
AcDbLine
 10
-5.75
 20
-57.332011
 30
0.0
 11
-3.25
 21
-55.888635
 31
0.0
  0
LINE
  5
A9
100
AcDbEntity
  8
0
390
0
  6
Continuous
 62
     7
100
AcDbLine
 10
-5.75
 20
-60.218762
 30
0.0
 11
-5.75
 21
-57.332011
 31
0.0
  0
LINE
  5
AA
100
AcDbEntity
  8
0
390
0
  6
Continuous
 62
     7
100
AcDbLine
 10
-3.25
 20
-61.662138
 30
0.0
 11
-5.75
 21
-60.218762
 31
0.0
  0
LINE
  5
AB
100
AcDbEntity
  8
0
390
0
  6
Continuous
 62
     7
100
AcDbLine
 10
-0.75
 20
-60.218762
 30
0.0
 11
-3.25
 21
-61.662138
 31
0.0
  0
LINE
  5
AC
100
AcDbEntity
  8
0
390
0
  6
Continuous
 62
     7
100
AcDbLine
 10
-0.75
 20
-57.332011
 30
0.0
 11
-0.75
 21
-60.218762
 31
0.0
  0
LINE
  5
AD
100
AcDbEntity
  8
0
390
0
  6
Continuous
 62
     7
100
AcDbLine
 10
-3.25
 20
-55.888635
 30
0.0
 11
-0.75
 21
-57.332011
 31
0.0
  0
LINE
  5
AE
100
AcDbEntity
  8
0
390
0
  6
Continuous
 62
     7
100
AcDbLine
 10
7.25
 20
-57.332011
 30
0.0
 11
9.75
 21
-55.888635
 31
0.0
  0
LINE
  5
AF
100
AcDbEntity
  8
0
390
0
  6
Continuous
 62
     7
100
AcDbLine
 10
7.25
 20
-60.218762
 30
0.0
 11
7.25
 21
-57.332011
 31
0.0
  0
LINE
  5
B0
100
AcDbEntity
  8
0
390
0
  6
Continuous
 62
     7
100
AcDbLine
 10
9.75
 20
-61.662138
 30
0.0
 11
7.25
 21
-60.218762
 31
0.0
  0
LINE
  5
B1
100
AcDbEntity
  8
0
390
0
  6
Continuous
 62
     7
100
AcDbLine
 10
12.25
 20
-60.218762
 30
0.0
 11
9.75
 21
-61.662138
 31
0.0
  0
LINE
  5
B2
100
AcDbEntity
  8
0
390
0
  6
Continuous
 62
     7
100
AcDbLine
 10
12.25
 20
-57.332011
 30
0.0
 11
12.25
 21
-60.218762
 31
0.0
  0
LINE
  5
B3
100
AcDbEntity
  8
0
390
0
  6
Continuous
 62
     7
100
AcDbLine
 10
9.75
 20
-55.888635
 30
0.0
 11
12.25
 21
-57.332011
 31
0.0
  0
LINE
  5
B4
100
AcDbEntity
  8
0
390
0
  6
Continuous
 62
     7
100
AcDbLine
 10
-15.5
 20
-42.646222
 30
0.0
 11
-15.5
 21
-43.331597
 31
0.0
  0
LINE
  5
B5
100
AcDbEntity
  8
0
390
0
  6
Continuous
 62
     7
100
AcDbLine
 10
-15.5
 20
-43.331597
 30
0.0
 11
-13.0
 21
-44.774973
 31
0.0
  0
LINE
  5
B6
100
AcDbEntity
  8
0
390
0
  6
Continuous
 62
     7
100
AcDbLine
 10
-13.0
 20
-44.774973
 30
0.0
 11
-10.5
 21
-43.331597
 31
0.0
  0
LINE
  5
B7
100
AcDbEntity
  8
0
390
0
  6
Continuous
 62
     7
100
AcDbLine
 10
-10.5
 20
-43.331597
 30
0.0
 11
-10.5
 21
-42.646222
 31
0.0
  0
LINE
  5
B8
100
AcDbEntity
  8
0
390
0
  6
Continuous
 62
     7
100
AcDbLine
 10
-15.5
 20
-42.646222
 30
0.0
 11
-10.5
 21
-42.646222
 31
0.0
  0
LINE
  5
B9
100
AcDbEntity
  8
0
390
0
  6
Continuous
 62
     7
100
AcDbLine
 10
-9.0
 20
-43.331597
 30
0.0
 11
-6.5
 21
-44.774973
 31
0.0
  0
LINE
  5
BA
100
AcDbEntity
  8
0
390
0
  6
Continuous
 62
     7
100
AcDbLine
 10
-6.5
 20
-44.774973
 30
0.0
 11
-4.0
 21
-43.331597
 31
0.0
  0
LINE
  5
BB
100
AcDbEntity
  8
0
390
0
  6
Continuous
 62
     7
100
AcDbLine
 10
-4.0
 20
-43.331597
 30
0.0
 11
-4.0
 21
-42.646222
 31
0.0
  0
LINE
  5
BC
100
AcDbEntity
  8
0
390
0
  6
Continuous
 62
     7
100
AcDbLine
 10
-9.0
 20
-42.646222
 30
0.0
 11
-4.0
 21
-42.646222
 31
0.0
  0
LINE
  5
BD
100
AcDbEntity
  8
0
390
0
  6
Continuous
 62
     7
100
AcDbLine
 10
-9.0
 20
-42.646222
 30
0.0
 11
-9.0
 21
-43.331597
 31
0.0
  0
LINE
  5
BE
100
AcDbEntity
  8
0
390
0
  6
Continuous
 62
     7
100
AcDbLine
 10
-2.5
 20
-43.331597
 30
0.0
 11
0.0
 21
-44.774973
 31
0.0
  0
LINE
  5
BF
100
AcDbEntity
  8
0
390
0
  6
Continuous
 62
     7
100
AcDbLine
 10
0.0
 20
-44.774973
 30
0.0
 11
2.5
 21
-43.331597
 31
0.0
  0
LINE
  5
C0
100
AcDbEntity
  8
0
390
0
  6
Continuous
 62
     7
100
AcDbLine
 10
2.5
 20
-43.331597
 30
0.0
 11
2.5
 21
-42.646222
 31
0.0
  0
LINE
  5
C1
100
AcDbEntity
  8
0
390
0
  6
Continuous
 62
     7
100
AcDbLine
 10
-2.5
 20
-42.646222
 30
0.0
 11
2.5
 21
-42.646222
 31
0.0
  0
LINE
  5
C2
100
AcDbEntity
  8
0
390
0
  6
Continuous
 62
     7
100
AcDbLine
 10
-2.5
 20
-42.646222
 30
0.0
 11
-2.5
 21
-43.331597
 31
0.0
  0
LINE
  5
C3
100
AcDbEntity
  8
0
390
0
  6
Continuous
 62
     7
100
AcDbLine
 10
4.0
 20
-43.331597
 30
0.0
 11
6.5
 21
-44.774973
 31
0.0
  0
LINE
  5
C4
100
AcDbEntity
  8
0
390
0
  6
Continuous
 62
     7
100
AcDbLine
 10
6.5
 20
-44.774973
 30
0.0
 11
9.0
 21
-43.331597
 31
0.0
  0
LINE
  5
C5
100
AcDbEntity
  8
0
390
0
  6
Continuous
 62
     7
100
AcDbLine
 10
9.0
 20
-43.331597
 30
0.0
 11
9.0
 21
-42.646222
 31
0.0
  0
LINE
  5
C6
100
AcDbEntity
  8
0
390
0
  6
Continuous
 62
     7
100
AcDbLine
 10
4.0
 20
-42.646222
 30
0.0
 11
9.0
 21
-42.646222
 31
0.0
  0
LINE
  5
C7
100
AcDbEntity
  8
0
390
0
  6
Continuous
 62
     7
100
AcDbLine
 10
4.0
 20
-42.646222
 30
0.0
 11
4.0
 21
-43.331597
 31
0.0
  0
LINE
  5
C8
100
AcDbEntity
  8
0
390
0
  6
Continuous
 62
     7
100
AcDbLine
 10
10.5
 20
-43.331597
 30
0.0
 11
13.0
 21
-44.774973
 31
0.0
  0
LINE
  5
C9
100
AcDbEntity
  8
0
390
0
  6
Continuous
 62
     7
100
AcDbLine
 10
13.0
 20
-44.774973
 30
0.0
 11
15.5
 21
-43.331597
 31
0.0
  0
LINE
  5
CA
100
AcDbEntity
  8
0
390
0
  6
Continuous
 62
     7
100
AcDbLine
 10
15.5
 20
-43.331597
 30
0.0
 11
15.5
 21
-42.646222
 31
0.0
  0
LINE
  5
CB
100
AcDbEntity
  8
0
390
0
  6
Continuous
 62
     7
100
AcDbLine
 10
10.5
 20
-42.646222
 30
0.0
 11
15.5
 21
-42.646222
 31
0.0
  0
LINE
  5
CC
100
AcDbEntity
  8
0
390
0
  6
Continuous
 62
     7
100
AcDbLine
 10
10.5
 20
-42.646222
 30
0.0
 11
10.5
 21
-43.331597
 31
0.0
  0
LINE
  5
CD
100
AcDbEntity
  8
0
390
0
  6
Continuous
 62
     7
100
AcDbLine
 10
-10.5
 20
-63.646222
 30
0.0
 11
-10.5
 21
-62.960846
 31
0.0
  0
LINE
  5
CE
100
AcDbEntity
  8
0
390
0
  6
Continuous
 62
     7
100
AcDbLine
 10
-10.5
 20
-62.960846
 30
0.0
 11
-13.0
 21
-61.51747
 31
0.0
  0
LINE
  5
CF
100
AcDbEntity
  8
0
390
0
  6
Continuous
 62
     7
100
AcDbLine
 10
-13.0
 20
-61.51747
 30
0.0
 11
-15.5
 21
-62.960846
 31
0.0
  0
LINE
  5
D0
100
AcDbEntity
  8
0
390
0
  6
Continuous
 62
     7
100
AcDbLine
 10
-15.5
 20
-62.960846
 30
0.0
 11
-15.5
 21
-63.646222
 31
0.0
  0
LINE
  5
D1
100
AcDbEntity
  8
0
390
0
  6
Continuous
 62
     7
100
AcDbLine
 10
-15.5
 20
-63.646222
 30
0.0
 11
-10.5
 21
-63.646222
 31
0.0
  0
LINE
  5
D2
100
AcDbEntity
  8
0
390
0
  6
Continuous
 62
     7
100
AcDbLine
 10
-4.0
 20
-63.646222
 30
0.0
 11
-4.0
 21
-62.960846
 31
0.0
  0
LINE
  5
D3
100
AcDbEntity
  8
0
390
0
  6
Continuous
 62
     7
100
AcDbLine
 10
-4.0
 20
-62.960846
 30
0.0
 11
-6.5
 21
-61.51747
 31
0.0
  0
LINE
  5
D4
100
AcDbEntity
  8
0
390
0
  6
Continuous
 62
     7
100
AcDbLine
 10
-6.5
 20
-61.51747
 30
0.0
 11
-9.0
 21
-62.960846
 31
0.0
  0
LINE
  5
D5
100
AcDbEntity
  8
0
390
0
  6
Continuous
 62
     7
100
AcDbLine
 10
-9.0
 20
-62.960846
 30
0.0
 11
-9.0
 21
-63.646222
 31
0.0
  0
LINE
  5
D6
100
AcDbEntity
  8
0
390
0
  6
Continuous
 62
     7
100
AcDbLine
 10
-9.0
 20
-63.646222
 30
0.0
 11
-4.0
 21
-63.646222
 31
0.0
  0
LINE
  5
D7
100
AcDbEntity
  8
0
390
0
  6
Continuous
 62
     7
100
AcDbLine
 10
2.5
 20
-63.646222
 30
0.0
 11
2.5
 21
-62.960846
 31
0.0
  0
LINE
  5
D8
100
AcDbEntity
  8
0
390
0
  6
Continuous
 62
     7
100
AcDbLine
 10
2.5
 20
-62.960846
 30
0.0
 11
0.0
 21
-61.51747
 31
0.0
  0
LINE
  5
D9
100
AcDbEntity
  8
0
390
0
  6
Continuous
 62
     7
100
AcDbLine
 10
0.0
 20
-61.51747
 30
0.0
 11
-2.5
 21
-62.960846
 31
0.0
  0
LINE
  5
DA
100
AcDbEntity
  8
0
390
0
  6
Continuous
 62
     7
100
AcDbLine
 10
-2.5
 20
-62.960846
 30
0.0
 11
-2.5
 21
-63.646222
 31
0.0
  0
LINE
  5
DB
100
AcDbEntity
  8
0
390
0
  6
Continuous
 62
     7
100
AcDbLine
 10
-2.5
 20
-63.646222
 30
0.0
 11
2.5
 21
-63.646222
 31
0.0
  0
LINE
  5
DC
100
AcDbEntity
  8
0
390
0
  6
Continuous
 62
     7
100
AcDbLine
 10
9.0
 20
-63.646222
 30
0.0
 11
9.0
 21
-62.960846
 31
0.0
  0
LINE
  5
DD
100
AcDbEntity
  8
0
390
0
  6
Continuous
 62
     7
100
AcDbLine
 10
9.0
 20
-62.960846
 30
0.0
 11
6.5
 21
-61.51747
 31
0.0
  0
LINE
  5
DE
100
AcDbEntity
  8
0
390
0
  6
Continuous
 62
     7
100
AcDbLine
 10
6.5
 20
-61.51747
 30
0.0
 11
4.0
 21
-62.960846
 31
0.0
  0
LINE
  5
DF
100
AcDbEntity
  8
0
390
0
  6
Continuous
 62
     7
100
AcDbLine
 10
4.0
 20
-62.960846
 30
0.0
 11
4.0
 21
-63.646222
 31
0.0
  0
LINE
  5
E0
100
AcDbEntity
  8
0
390
0
  6
Continuous
 62
     7
100
AcDbLine
 10
4.0
 20
-63.646222
 30
0.0
 11
9.0
 21
-63.646222
 31
0.0
  0
LINE
  5
E1
100
AcDbEntity
  8
0
390
0
  6
Continuous
 62
     7
100
AcDbLine
 10
15.5
 20
-63.646222
 30
0.0
 11
15.5
 21
-62.960846
 31
0.0
  0
LINE
  5
E2
100
AcDbEntity
  8
0
390
0
  6
Continuous
 62
     7
100
AcDbLine
 10
15.5
 20
-62.960846
 30
0.0
 11
13.0
 21
-61.51747
 31
0.0
  0
LINE
  5
E3
100
AcDbEntity
  8
0
390
0
  6
Continuous
 62
     7
100
AcDbLine
 10
13.0
 20
-61.51747
 30
0.0
 11
10.5
 21
-62.960846
 31
0.0
  0
LINE
  5
E4
100
AcDbEntity
  8
0
390
0
  6
Continuous
 62
     7
100
AcDbLine
 10
10.5
 20
-62.960846
 30
0.0
 11
10.5
 21
-63.646222
 31
0.0
  0
LINE
  5
E5
100
AcDbEntity
  8
0
390
0
  6
Continuous
 62
     7
100
AcDbLine
 10
10.5
 20
-63.646222
 30
0.0
 11
15.5
 21
-63.646222
 31
0.0
  0
LINE
  5
E6
100
AcDbEntity
  8
0
390
0
  6
Continuous
 62
     7
100
AcDbLine
 10
16.25
 20
-55.888635
 30
0.0
 11
17.0
 21
-56.321648
 31
0.0
  0
LINE
  5
E7
100
AcDbEntity
  8
0
390
0
  6
Continuous
 62
     7
100
AcDbLine
 10
13.75
 20
-57.332011
 30
0.0
 11
16.25
 21
-55.888635
 31
0.0
  0
LINE
  5
E8
100
AcDbEntity
  8
0
390
0
  6
Continuous
 62
     7
100
AcDbLine
 10
13.75
 20
-60.218762
 30
0.0
 11
13.75
 21
-57.332011
 31
0.0
  0
LINE
  5
E9
100
AcDbEntity
  8
0
390
0
  6
Continuous
 62
     7
100
AcDbLine
 10
16.25
 20
-61.662138
 30
0.0
 11
13.75
 21
-60.218762
 31
0.0
  0
LINE
  5
EA
100
AcDbEntity
  8
0
390
0
  6
Continuous
 62
     7
100
AcDbLine
 10
17.0
 20
-61.229125
 30
0.0
 11
16.25
 21
-61.662138
 31
0.0
  0
LINE
  5
EB
100
AcDbEntity
  8
0
390
0
  6
Continuous
 62
     7
100
AcDbLine
 10
17.0
 20
-61.229125
 30
0.0
 11
17.0
 21
-56.321648
 31
0.0
  0
LINE
  5
EC
100
AcDbEntity
  8
0
390
0
  6
Continuous
 62
     7
100
AcDbLine
 10
17.0
 20
-45.063318
 30
0.0
 11
16.25
 21
-44.630305
 31
0.0
  0
LINE
  5
ED
100
AcDbEntity
  8
0
390
0
  6
Continuous
 62
     7
100
AcDbLine
 10
16.25
 20
-44.630305
 30
0.0
 11
13.75
 21
-46.073681
 31
0.0
  0
LINE
  5
EE
100
AcDbEntity
  8
0
390
0
  6
Continuous
 62
     7
100
AcDbLine
 10
13.75
 20
-46.073681
 30
0.0
 11
13.75
 21
-48.960432
 31
0.0
  0
LINE
  5
EF
100
AcDbEntity
  8
0
390
0
  6
Continuous
 62
     7
100
AcDbLine
 10
13.75
 20
-48.960432
 30
0.0
 11
16.25
 21
-50.403808
 31
0.0
  0
LINE
  5
F0
100
AcDbEntity
  8
0
390
0
  6
Continuous
 62
     7
100
AcDbLine
 10
16.25
 20
-50.403808
 30
0.0
 11
17.0
 21
-49.970795
 31
0.0
  0
LINE
  5
F1
100
AcDbEntity
  8
0
390
0
  6
Continuous
 62
     7
100
AcDbLine
 10
17.0
 20
-49.970795
 30
0.0
 11
17.0
 21
-45.063318
 31
0.0
  0
LINE
  5
F2
100
AcDbEntity
  8
0
390
0
  6
Continuous
 62
     7
100
AcDbLine
 10
-13.75
 20
-60.218762
 30
0.0
 11
-16.25
 21
-61.662138
 31
0.0
  0
LINE
  5
F3
100
AcDbEntity
  8
0
390
0
  6
Continuous
 62
     7
100
AcDbLine
 10
-13.75
 20
-57.332011
 30
0.0
 11
-13.75
 21
-60.218762
 31
0.0
  0
LINE
  5
F4
100
AcDbEntity
  8
0
390
0
  6
Continuous
 62
     7
100
AcDbLine
 10
-16.25
 20
-55.888635
 30
0.0
 11
-13.75
 21
-57.332011
 31
0.0
  0
LINE
  5
F5
100
AcDbEntity
  8
0
390
0
  6
Continuous
 62
     7
100
AcDbLine
 10
-17.0
 20
-56.321648
 30
0.0
 11
-16.25
 21
-55.888635
 31
0.0
  0
LINE
  5
F6
100
AcDbEntity
  8
0
390
0
  6
Continuous
 62
     7
100
AcDbLine
 10
-17.0
 20
-61.229125
 30
0.0
 11
-17.0
 21
-56.321648
 31
0.0
  0
LINE
  5
F7
100
AcDbEntity
  8
0
390
0
  6
Continuous
 62
     7
100
AcDbLine
 10
-16.25
 20
-61.662138
 30
0.0
 11
-17.0
 21
-61.229125
 31
0.0
  0
LINE
  5
F8
100
AcDbEntity
  8
0
390
0
  6
Continuous
 62
     7
100
AcDbLine
 10
-16.25
 20
-50.403808
 30
0.0
 11
-13.75
 21
-48.960432
 31
0.0
  0
LINE
  5
F9
100
AcDbEntity
  8
0
390
0
  6
Continuous
 62
     7
100
AcDbLine
 10
-13.75
 20
-48.960432
 30
0.0
 11
-13.75
 21
-46.073681
 31
0.0
  0
LINE
  5
FA
100
AcDbEntity
  8
0
390
0
  6
Continuous
 62
     7
100
AcDbLine
 10
-13.75
 20
-46.073681
 30
0.0
 11
-16.25
 21
-44.630305
 31
0.0
  0
LINE
  5
FB
100
AcDbEntity
  8
0
390
0
  6
Continuous
 62
     7
100
AcDbLine
 10
-16.25
 20
-44.630305
 30
0.0
 11
-17.0
 21
-45.063318
 31
0.0
  0
LINE
  5
FC
100
AcDbEntity
  8
0
390
0
  6
Continuous
 62
     7
100
AcDbLine
 10
-17.0
 20
-49.970795
 30
0.0
 11
-17.0
 21
-45.063318
 31
0.0
  0
LINE
  5
FD
100
AcDbEntity
  8
0
390
0
  6
Continuous
 62
     7
100
AcDbLine
 10
-17.0
 20
-49.970795
 30
0.0
 11
-16.25
 21
-50.403808
 31
0.0
  0
LINE
  5
FE
100
AcDbEntity
  8
0
390
0
  6
Continuous
 62
     7
100
AcDbLine
 10
10.840678
 20
-43.134907
 30
0.0
 11
10.840678
 21
-42.646222
 31
0.0
  0
LINE
  5
FF
100
AcDbEntity
  8
0
390
0
  6
Continuous
 62
     7
100
AcDbLine
 10
10.840678
 20
-43.134907
 30
0.0
 11
10.5
 21
-43.331597
 31
0.0
  0
LINE
  5
100
100
AcDbEntity
  8
0
390
0
  6
Continuous
 62
     7
100
AcDbLine
 10
-4.303357
 20
-43.156454
 30
0.0
 11
-4.0
 21
-43.331597
 31
0.0
  0
LINE
  5
101
100
AcDbEntity
  8
0
390
0
  6
Continuous
 62
     7
100
AcDbLine
 10
-4.303357
 20
-42.646222
 30
0.0
 11
-4.303357
 21
-43.156454
 31
0.0
  0
LINE
  5
102
100
AcDbEntity
  8
0
390
0
  6
Continuous
 62
     7
100
AcDbLine
 10
-8.675674
 20
-43.144348
 30
0.0
 11
-8.675674
 21
-42.646222
 31
0.0
  0
LINE
  5
103
100
AcDbEntity
  8
0
390
0
  6
Continuous
 62
     7
100
AcDbLine
 10
-8.675674
 20
-43.144348
 30
0.0
 11
-9.0
 21
-43.331597
 31
0.0
  0
LINE
  5
104
100
AcDbEntity
  8
0
390
0
  6
Continuous
 62
     7
100
AcDbLine
 10
2.201541
 20
-43.159282
 30
0.0
 11
2.5
 21
-43.331597
 31
0.0
  0
LINE
  5
105
100
AcDbEntity
  8
0
390
0
  6
Continuous
 62
     7
100
AcDbLine
 10
2.201541
 20
-42.646222
 30
0.0
 11
2.201541
 21
-43.159282
 31
0.0
  0
LINE
  5
106
100
AcDbEntity
  8
0
390
0
  6
Continuous
 62
     7
100
AcDbLine
 10
15.124716
 20
-43.114927
 30
0.0
 11
15.5
 21
-43.331597
 31
0.0
  0
LINE
  5
107
100
AcDbEntity
  8
0
390
0
  6
Continuous
 62
     7
100
AcDbLine
 10
15.124716
 20
-42.646222
 30
0.0
 11
15.124716
 21
-43.114927
 31
0.0
  0
LINE
  5
108
100
AcDbEntity
  8
0
390
0
  6
Continuous
 62
     7
100
AcDbLine
 10
8.675674
 20
-43.144348
 30
0.0
 11
9.0
 21
-43.331597
 31
0.0
  0
LINE
  5
109
100
AcDbEntity
  8
0
390
0
  6
Continuous
 62
     7
100
AcDbLine
 10
8.675674
 20
-42.646222
 30
0.0
 11
8.675674
 21
-43.144348
 31
0.0
  0
LINE
  5
10A
100
AcDbEntity
  8
0
390
0
  6
Continuous
 62
     7
100
AcDbLine
 10
-15.124716
 20
-43.114927
 30
0.0
 11
-15.5
 21
-43.331597
 31
0.0
  0
LINE
  5
10B
100
AcDbEntity
  8
0
390
0
  6
Continuous
 62
     7
100
AcDbLine
 10
-15.124716
 20
-43.114927
 30
0.0
 11
-15.124716
 21
-42.646222
 31
0.0
  0
LINE
  5
10C
100
AcDbEntity
  8
0
390
0
  6
Continuous
 62
     7
100
AcDbLine
 10
-2.201541
 20
-43.159282
 30
0.0
 11
-2.201541
 21
-42.646222
 31
0.0
  0
LINE
  5
10D
100
AcDbEntity
  8
0
390
0
  6
Continuous
 62
     7
100
AcDbLine
 10
-2.201541
 20
-43.159282
 30
0.0
 11
-2.5
 21
-43.331597
 31
0.0
  0
LINE
  5
10E
100
AcDbEntity
  8
0
390
0
  6
Continuous
 62
     7
100
AcDbLine
 10
-10.840678
 20
-43.134907
 30
0.0
 11
-10.5
 21
-43.331597
 31
0.0
  0
LINE
  5
10F
100
AcDbEntity
  8
0
390
0
  6
Continuous
 62
     7
100
AcDbLine
 10
-10.840678
 20
-42.646222
 30
0.0
 11
-10.840678
 21
-43.134907
 31
0.0
  0
LINE
  5
110
100
AcDbEntity
  8
0
390
0
  6
Continuous
 62
     7
100
AcDbLine
 10
4.303357
 20
-43.156454
 30
0.0
 11
4.303357
 21
-42.646222
 31
0.0
  0
LINE
  5
111
100
AcDbEntity
  8
0
390
0
  6
Continuous
 62
     7
100
AcDbLine
 10
4.303357
 20
-43.156454
 30
0.0
 11
4.0
 21
-43.331597
 31
0.0
  0
LINE
  5
112
100
AcDbEntity
  8
0
390
0
  6
Continuous
 62
     7
100
AcDbLine
 10
-6.5
 20
-44.41471
 30
0.0
 11
-6.5
 21
-44.774973
 31
0.0
  0
ELLIPSE
  5
113
100
AcDbEntity
  8
0
390
0
  6
Continuous
 62
     7
100
AcDbEllipse
 10
0.0
 20
-47.689286
 30
0.0
 11
-24.599062736455622
 21
14.206603620884994
 31
0.0
210
0.0
220
0.0
230
1.0
 40
0.015115
 41
1.2191030551164139
 42
1.3121226163263375
  0
LINE
  5
114
100
AcDbEntity
  8
0
390
0
  6
Continuous
 62
     7
100
AcDbLine
 10
-13.0
 20
-44.357443
 30
0.0
 11
-13.0
 21
-44.774973
 31
0.0
  0
ELLIPSE
  5
115
100
AcDbEntity
  8
0
390
0
  6
Continuous
 62
     7
100
AcDbEllipse
 10
0.0
 20
-36.430956
 30
0.0
 11
24.599062736455622
 21
14.206603620884966
 31
0.0
210
0.0
220
0.0
230
1.0
 40
0.015115
 41
4.1468796783856012
 42
4.247305881149547
  0
LINE
  5
116
100
AcDbEntity
  8
0
390
0
  6
Continuous
 62
     7
100
AcDbLine
 10
0.0
 20
-44.432332
 30
0.0
 11
0.0
 21
-44.774973
 31
0.0
  0
ELLIPSE
  5
117
100
AcDbEntity
  8
0
390
0
  6
Continuous
 62
     7
100
AcDbEllipse
 10
0.0
 20
-43.936509
 30
0.0
 11
24.599062736455622
 21
14.206603620884966
 31
0.0
210
0.0
220
0.0
230
1.0
 40
0.015115
 41
4.7036596750263096
 42
4.7932731008470091
  0
LINE
  5
118
100
AcDbEntity
  8
0
390
0
  6
Continuous
 62
     7
100
AcDbLine
 10
15.124716
 20
-43.114927
 30
0.0
 11
14.182736
 21
-43.658779
 31
0.0
  0
LINE
  5
119
100
AcDbEntity
  8
0
390
0
  6
Continuous
 62
     7
100
AcDbLine
 10
13.0
 20
-44.357443
 30
0.0
 11
13.0
 21
-44.774973
 31
0.0
  0
ELLIPSE
  5
11A
100
AcDbEntity
  8
0
390
0
  6
Continuous
 62
     7
100
AcDbEllipse
 10
0.0
 20
-51.442063
 30
0.0
 11
24.599062736455622
 21
14.206603620884966
 31
0.0
210
0.0
220
0.0
230
1.0
 40
0.015115
 41
5.2604396716670161
 42
5.3181399944514629
  0
ELLIPSE
  5
11B
100
AcDbEntity
  8
0
390
0
  6
Continuous
 62
     7
100
AcDbEllipse
 10
0.0
 20
-40.183733
 30
0.0
 11
24.599062736455622
 21
14.206603620884966
 31
0.0
210
0.0
220
0.0
230
1.0
 40
0.015115
 41
4.4362566591993691
 42
4.5278217319930132
  0
ELLIPSE
  5
11C
100
AcDbEntity
  8
0
390
0
  6
Continuous
 62
     7
100
AcDbEllipse
 10
0.0
 20
-36.430956
 30
0.0
 11
-24.599062736455622
 21
14.206603620884994
 31
0.0
210
0.0
220
0.0
230
1.0
 40
0.015115
 41
2.0358794260300388
 42
2.1363056287939837
  0
LINE
  5
11D
100
AcDbEntity
  8
0
390
0
  6
Continuous
 62
     7
100
AcDbLine
 10
-14.182736
 20
-43.658779
 30
0.0
 11
-15.124716
 21
-43.114927
 31
0.0
  0
ELLIPSE
  5
11E
100
AcDbEntity
  8
0
390
0
  6
Continuous
 62
     7
100
AcDbEllipse
 10
0.0
 20
-51.442063
 30
0.0
 11
-24.599062736455622
 21
14.206603620884994
 31
0.0
210
0.0
220
0.0
230
1.0
 40
0.015115
 41
0.9650453127281221
 42
1.0227456355125706
  0
LINE
  5
11F
100
AcDbEntity
  8
0
390
0
  6
Continuous
 62
     7
100
AcDbLine
 10
6.5
 20
-44.41471
 30
0.0
 11
6.5
 21
-44.774973
 31
0.0
  0
ELLIPSE
  5
120
100
AcDbEntity
  8
0
390
0
  6
Continuous
 62
     7
100
AcDbEllipse
 10
0.0
 20
-40.183733
 30
0.0
 11
-24.599062736455622
 21
14.206603620884994
 31
0.0
210
0.0
220
0.0
230
1.0
 40
0.015115
 41
1.7553635751865722
 42
1.8469286479802169
  0
ELLIPSE
  5
121
100
AcDbEntity
  8
0
390
0
  6
Continuous
 62
     7
100
AcDbEllipse
 10
0.0
 20
-43.936509
 30
0.0
 11
-24.599062736455622
 21
14.206603620884994
 31
0.0
210
0.0
220
0.0
230
1.0
 40
0.015115
 41
1.4899122063325776
 42
1.5795256321532773
  0
ELLIPSE
  5
122
100
AcDbEntity
  8
0
390
0
  6
Continuous
 62
     7
100
AcDbEllipse
 10
0.0
 20
-47.689286
 30
0.0
 11
24.599062736455622
 21
14.206603620884966
 31
0.0
210
0.0
220
0.0
230
1.0
 40
0.015115
 41
4.9710626908532483
 42
5.0640822520631712
  0
LINE
  5
123
100
AcDbEntity
  8
0
390
0
  6
Continuous
 62
     7
100
AcDbLine
 10
7.567558
 20
-46.257023
 30
0.0
 11
7.25
 21
-46.073681
 31
0.0
  0
LINE
  5
124
100
AcDbEntity
  8
0
390
0
  6
Continuous
 62
     7
100
AcDbLine
 10
9.75
 20
-45.013553
 30
0.0
 11
9.75
 21
-44.630305
 31
0.0
  0
ELLIPSE
  5
125
100
AcDbEntity
  8
0
390
0
  6
Continuous
 62
     7
100
AcDbEllipse
 10
0.0
 20
-51.097934
 30
0.0
 11
24.599062736455622
 21
14.206603620884994
 31
0.0
210
0.0
220
0.0
230
1.0
 40
0.015115
 41
1.1545385054789172
 42
1.2493717495091452
  0
LINE
  5
126
100
AcDbEntity
  8
0
390
0
  6
Continuous
 62
     7
100
AcDbLine
 10
-9.75
 20
-45.013553
 30
0.0
 11
-9.75
 21
-44.630305
 31
0.0
  0
LINE
  5
127
100
AcDbEntity
  8
0
390
0
  6
Continuous
 62
     7
100
AcDbLine
 10
-7.567558
 20
-46.257023
 30
0.0
 11
-7.25
 21
-46.073681
 31
0.0
  0
ELLIPSE
  5
128
100
AcDbEntity
  8
0
390
0
  6
Continuous
 62
     7
100
AcDbEllipse
 10
0.0
 20
-51.097934
 30
0.0
 11
-24.599062736455622
 21
14.206603620884994
 31
0.0
210
0.0
220
0.0
230
1.0
 40
0.015115
 41
5.0338135576704426
 42
5.1286468017006701
  0
LINE
  5
129
100
AcDbEntity
  8
0
390
0
  6
Continuous
 62
     7
100
AcDbLine
 10
3.25
 20
-44.977293
 30
0.0
 11
3.25
 21
-44.630305
 31
0.0
  0
LINE
  5
12A
100
AcDbEntity
  8
0
390
0
  6
Continuous
 62
     7
100
AcDbLine
 10
5.442623
 20
-46.251145
 30
0.0
 11
5.75
 21
-46.073681
 31
0.0
  0
ELLIPSE
  5
12B
100
AcDbEntity
  8
0
390
0
  6
Continuous
 62
     7
100
AcDbEllipse
 10
0.0
 20
-43.59238
 30
0.0
 11
-24.599062736455622
 21
14.206603620884994
 31
0.0
210
0.0
220
0.0
230
1.0
 40
0.015115
 41
4.4980275388826128
 42
4.5886170938225419
  0
LINE
  5
12C
100
AcDbEntity
  8
0
390
0
  6
Continuous
 62
     7
100
AcDbLine
 10
1.047125
 20
-46.245226
 30
0.0
 11
0.75
 21
-46.073681
 31
0.0
  0
ELLIPSE
  5
12D
100
AcDbEntity
  8
0
390
0
  6
Continuous
 62
     7
100
AcDbEllipse
 10
0.0
 20
-47.345157
 30
0.0
 11
24.599062736455622
 21
14.206603620884994
 31
0.0
210
0.0
220
0.0
230
1.0
 40
0.015115
 41
1.4295658295159877
 42
1.5194880884667574
  0
LINE
  5
12E
100
AcDbEntity
  8
0
390
0
  6
Continuous
 62
     7
100
AcDbLine
 10
-11.899684
 20
-46.275936
 30
0.0
 11
-12.25
 21
-46.073681
 31
0.0
  0
ELLIPSE
  5
12F
100
AcDbEntity
  8
0
390
0
  6
Continuous
 62
     7
100
AcDbEllipse
 10
0.0
 20
-39.839604
 30
0.0
 11
24.599062736455622
 21
14.206603620884994
 31
0.0
210
0.0
220
0.0
230
1.0
 40
0.015115
 41
1.9695955373941159
 42
2.0669750818876906
  0
LINE
  5
130
100
AcDbEntity
  8
0
390
0
  6
Continuous
 62
     7
100
AcDbLine
 10
-16.25
 20
-45.063646
 30
0.0
 11
-16.25
 21
-44.630305
 31
0.0
  0
LINE
  5
131
100
AcDbEntity
  8
0
390
0
  6
Continuous
 62
     7
100
AcDbLine
 10
-17.0
 20
-45.496658
 30
0.0
 11
-16.25
 21
-45.063646
 31
0.0
  0
LINE
  5
132
100
AcDbEntity
  8
0
390
0
  6
Continuous
 62
     7
100
AcDbLine
 10
-14.12457
 20
-46.289939
 30
0.0
 11
-13.75
 21
-46.073681
 31
0.0
  0
ELLIPSE
  5
133
100
AcDbEntity
  8
0
390
0
  6
Continuous
 62
     7
100
AcDbEllipse
 10
0.0
 20
-54.850711
 30
0.0
 11
-24.599062736455622
 21
14.206603620884994
 31
0.0
210
0.0
220
0.0
230
1.0
 40
0.015115
 41
5.3327077041423188
 42
5.3355986051682258
  0
LINE
  5
134
100
AcDbEntity
  8
0
390
0
  6
Continuous
 62
     7
100
AcDbLine
 10
-16.25
 20
-45.063646
 30
0.0
 11
-14.182736
 21
-46.257181
 31
0.0
  0
LINE
  5
135
100
AcDbEntity
  8
0
390
0
  6
Continuous
 62
     7
100
AcDbLine
 10
11.899684
 20
-46.275936
 30
0.0
 11
12.25
 21
-46.073681
 31
0.0
  0
ELLIPSE
  5
136
100
AcDbEntity
  8
0
390
0
  6
Continuous
 62
     7
100
AcDbEllipse
 10
0.0
 20
-39.839604
 30
0.0
 11
-24.599062736455622
 21
14.206603620884994
 31
0.0
210
0.0
220
0.0
230
1.0
 40
0.015115
 41
4.2162102252918965
 42
4.3135897697854721
  0
ELLIPSE
  5
137
100
AcDbEntity
  8
0
390
0
  6
Continuous
 62
     7
100
AcDbEllipse
 10
0.0
 20
-54.850711
 30
0.0
 11
24.599062736455622
 21
14.206603620884994
 31
0.0
210
0.0
220
0.0
230
1.0
 40
0.015115
 41
0.947586702011362
 42
0.9504776030372683
  0
LINE
  5
138
100
AcDbEntity
  8
0
390
0
  6
Continuous
 62
     7
100
AcDbLine
 10
14.12457
 20
-46.289939
 30
0.0
 11
13.75
 21
-46.073681
 31
0.0
  0
LINE
  5
139
100
AcDbEntity
  8
0
390
0
  6
Continuous
 62
     7
100
AcDbLine
 10
16.25
 20
-45.063646
 30
0.0
 11
16.25
 21
-44.630305
 31
0.0
  0
LINE
  5
13A
100
AcDbEntity
  8
0
390
0
  6
Continuous
 62
     7
100
AcDbLine
 10
14.182736
 20
-46.257181
 30
0.0
 11
16.25
 21
-45.063646
 31
0.0
  0
LINE
  5
13B
100
AcDbEntity
  8
0
390
0
  6
Continuous
 62
     7
100
AcDbLine
 10
16.25
 20
-45.063646
 30
0.0
 11
17.0
 21
-45.496658
 31
0.0
  0
LINE
  5
13C
100
AcDbEntity
  8
0
390
0
  6
Continuous
 62
     7
100
AcDbLine
 10
-5.442623
 20
-46.251145
 30
0.0
 11
-5.75
 21
-46.073681
 31
0.0
  0
LINE
  5
13D
100
AcDbEntity
  8
0
390
0
  6
Continuous
 62
     7
100
AcDbLine
 10
-3.25
 20
-44.977293
 30
0.0
 11
-3.25
 21
-44.630305
 31
0.0
  0
ELLIPSE
  5
13E
100
AcDbEntity
  8
0
390
0
  6
Continuous
 62
     7
100
AcDbEllipse
 10
0.0
 20
-43.59238
 30
0.0
 11
24.599062736455622
 21
14.206603620884994
 31
0.0
210
0.0
220
0.0
230
1.0
 40
0.015115
 41
1.6945682133570457
 42
1.7851577682969748
  0
LINE
  5
13F
100
AcDbEntity
  8
0
390
0
  6
Continuous
 62
     7
100
AcDbLine
 10
-1.047125
 20
-46.245226
 30
0.0
 11
-0.75
 21
-46.073681
 31
0.0
  0
ELLIPSE
  5
140
100
AcDbEntity
  8
0
390
0
  6
Continuous
 62
     7
100
AcDbEllipse
 10
0.0
 20
-47.345157
 30
0.0
 11
-24.599062736455622
 21
14.206603620884994
 31
0.0
210
0.0
220
0.0
230
1.0
 40
0.015115
 41
4.7636972187128297
 42
4.8536194776636012
  0
LINE
  5
141
100
AcDbEntity
  8
0
390
0
  6
Continuous
 62
     7
100
AcDbLine
 10
-1.047125
 20
-48.788887
 30
0.0
 11
-0.75
 21
-48.960432
 31
0.0
  0
LINE
  5
142
100
AcDbEntity
  8
0
390
0
  6
Continuous
 62
     7
100
AcDbLine
 10
-1.047125
 20
-46.245226
 30
0.0
 11
-1.047125
 21
-48.788887
 31
0.0
  0
LINE
  5
143
100
AcDbEntity
  8
0
390
0
  6
Continuous
 62
     7
100
AcDbLine
 10
1.047125
 20
-48.788887
 30
0.0
 11
0.75
 21
-48.960432
 31
0.0
  0
LINE
  5
144
100
AcDbEntity
  8
0
390
0
  6
Continuous
 62
     7
100
AcDbLine
 10
1.047125
 20
-48.788887
 30
0.0
 11
1.047125
 21
-46.245226
 31
0.0
  0
LINE
  5
145
100
AcDbEntity
  8
0
390
0
  6
Continuous
 62
     7
100
AcDbLine
 10
-14.12457
 20
-48.744174
 30
0.0
 11
-13.75
 21
-48.960432
 31
0.0
  0
LINE
  5
146
100
AcDbEntity
  8
0
390
0
  6
Continuous
 62
     7
100
AcDbLine
 10
-14.12457
 20
-46.289939
 30
0.0
 11
-14.12457
 21
-48.744174
 31
0.0
  0
LINE
  5
147
100
AcDbEntity
  8
0
390
0
  6
Continuous
 62
     7
100
AcDbLine
 10
7.567558
 20
-48.77709
 30
0.0
 11
7.25
 21
-48.960432
 31
0.0
  0
LINE
  5
148
100
AcDbEntity
  8
0
390
0
  6
Continuous
 62
     7
100
AcDbLine
 10
7.567558
 20
-48.77709
 30
0.0
 11
7.567558
 21
-46.257023
 31
0.0
  0
LINE
  5
149
100
AcDbEntity
  8
0
390
0
  6
Continuous
 62
     7
100
AcDbLine
 10
-7.567558
 20
-48.77709
 30
0.0
 11
-7.25
 21
-48.960432
 31
0.0
  0
LINE
  5
14A
100
AcDbEntity
  8
0
390
0
  6
Continuous
 62
     7
100
AcDbLine
 10
-7.567558
 20
-46.257023
 30
0.0
 11
-7.567558
 21
-48.77709
 31
0.0
  0
LINE
  5
14B
100
AcDbEntity
  8
0
390
0
  6
Continuous
 62
     7
100
AcDbLine
 10
-11.899684
 20
-48.758177
 30
0.0
 11
-12.25
 21
-48.960432
 31
0.0
  0
LINE
  5
14C
100
AcDbEntity
  8
0
390
0
  6
Continuous
 62
     7
100
AcDbLine
 10
-11.899684
 20
-48.758177
 30
0.0
 11
-11.899684
 21
-46.275936
 31
0.0
  0
LINE
  5
14D
100
AcDbEntity
  8
0
390
0
  6
Continuous
 62
     7
100
AcDbLine
 10
-5.442623
 20
-48.782968
 30
0.0
 11
-5.75
 21
-48.960432
 31
0.0
  0
LINE
  5
14E
100
AcDbEntity
  8
0
390
0
  6
Continuous
 62
     7
100
AcDbLine
 10
-5.442623
 20
-48.782968
 30
0.0
 11
-5.442623
 21
-46.251145
 31
0.0
  0
LINE
  5
14F
100
AcDbEntity
  8
0
390
0
  6
Continuous
 62
     7
100
AcDbLine
 10
14.12457
 20
-48.744174
 30
0.0
 11
13.75
 21
-48.960432
 31
0.0
  0
LINE
  5
150
100
AcDbEntity
  8
0
390
0
  6
Continuous
 62
     7
100
AcDbLine
 10
14.12457
 20
-48.744174
 30
0.0
 11
14.12457
 21
-46.289939
 31
0.0
  0
LINE
  5
151
100
AcDbEntity
  8
0
390
0
  6
Continuous
 62
     7
100
AcDbLine
 10
11.899684
 20
-48.758177
 30
0.0
 11
12.25
 21
-48.960432
 31
0.0
  0
LINE
  5
152
100
AcDbEntity
  8
0
390
0
  6
Continuous
 62
     7
100
AcDbLine
 10
11.899684
 20
-46.275936
 30
0.0
 11
11.899684
 21
-48.758177
 31
0.0
  0
LINE
  5
153
100
AcDbEntity
  8
0
390
0
  6
Continuous
 62
     7
100
AcDbLine
 10
5.442623
 20
-48.782968
 30
0.0
 11
5.75
 21
-48.960432
 31
0.0
  0
LINE
  5
154
100
AcDbEntity
  8
0
390
0
  6
Continuous
 62
     7
100
AcDbLine
 10
5.442623
 20
-46.251145
 30
0.0
 11
5.442623
 21
-48.782968
 31
0.0
  0
ELLIPSE
  5
155
100
AcDbEntity
  8
0
390
0
  6
Continuous
 62
     7
100
AcDbEllipse
 10
0.0
 20
-40.183402
 30
0.0
 11
24.599062736455622
 21
14.206603620884966
 31
0.0
210
0.0
220
0.0
230
1.0
 40
0.015115
 41
4.0891793556011544
 42
4.0920702566270606
  0
LINE
  5
156
100
AcDbEntity
  8
0
390
0
  6
Continuous
 62
     7
100
AcDbLine
 10
-16.25
 20
-49.970467
 30
0.0
 11
-16.25
 21
-50.403808
 31
0.0
  0
LINE
  5
157
100
AcDbEntity
  8
0
390
0
  6
Continuous
 62
     7
100
AcDbLine
 10
-14.182736
 20
-48.776932
 30
0.0
 11
-16.25
 21
-49.970467
 31
0.0
  0
LINE
  5
158
100
AcDbEntity
  8
0
390
0
  6
Continuous
 62
     7
100
AcDbLine
 10
16.25
 20
-49.970467
 30
0.0
 11
16.25
 21
-50.403808
 31
0.0
  0
ELLIPSE
  5
159
100
AcDbEntity
  8
0
390
0
  6
Continuous
 62
     7
100
AcDbEllipse
 10
0.0
 20
-40.183402
 30
0.0
 11
-24.599062736455622
 21
14.206603620884994
 31
0.0
210
0.0
220
0.0
230
1.0
 40
0.015115
 41
2.1911150505525252
 42
2.1940059515784318
  0
LINE
  5
15A
100
AcDbEntity
  8
0
390
0
  6
Continuous
 62
     7
100
AcDbLine
 10
16.25
 20
-49.970467
 30
0.0
 11
14.182736
 21
-48.776932
 31
0.0
  0
LINE
  5
15B
100
AcDbEntity
  8
0
390
0
  6
Continuous
 62
     7
100
AcDbLine
 10
-9.75
 20
-50.02056
 30
0.0
 11
-9.75
 21
-50.403808
 31
0.0
  0
ELLIPSE
  5
15C
100
AcDbEntity
  8
0
390
0
  6
Continuous
 62
     7
100
AcDbEllipse
 10
0.0
 20
-43.936179
 30
0.0
 11
24.599062736455622
 21
14.206603620884966
 31
0.0
210
0.0
220
0.0
230
1.0
 40
0.015115
 41
4.2961311590687101
 42
4.3909644030989385
  0
LINE
  5
15D
100
AcDbEntity
  8
0
390
0
  6
Continuous
 62
     7
100
AcDbLine
 10
3.25
 20
-50.05682
 30
0.0
 11
3.25
 21
-50.403808
 31
0.0
  0
ELLIPSE
  5
15E
100
AcDbEntity
  8
0
390
0
  6
Continuous
 62
     7
100
AcDbEllipse
 10
0.0
 20
-47.688956
 30
0.0
 11
-24.599062736455622
 21
14.206603620884994
 31
0.0
210
0.0
220
0.0
230
1.0
 40
0.015115
 41
1.6221045651230368
 42
1.7120268240738057
  0
LINE
  5
15F
100
AcDbEntity
  8
0
390
0
  6
Continuous
 62
     7
100
AcDbLine
 10
-3.25
 20
-50.05682
 30
0.0
 11
-3.25
 21
-50.403808
 31
0.0
  0
ELLIPSE
  5
160
100
AcDbEntity
  8
0
390
0
  6
Continuous
 62
     7
100
AcDbEllipse
 10
0.0
 20
-47.688956
 30
0.0
 11
24.599062736455622
 21
14.206603620884966
 31
0.0
210
0.0
220
0.0
230
1.0
 40
0.015115
 41
4.5711584831057808
 42
4.6610807420565505
  0
LINE
  5
161
100
AcDbEntity
  8
0
390
0
  6
Continuous
 62
     7
100
AcDbLine
 10
9.75
 20
-50.02056
 30
0.0
 11
9.75
 21
-50.403808
 31
0.0
  0
ELLIPSE
  5
162
100
AcDbEntity
  8
0
390
0
  6
Continuous
 62
     7
100
AcDbEllipse
 10
0.0
 20
-55.194509
 30
0.0
 11
24.599062736455622
 21
14.206603620884966
 31
0.0
210
0.0
220
0.0
230
1.0
 40
0.015115
 41
5.1111881909839081
 42
5.2085677354774829
  0
ELLIPSE
  5
163
100
AcDbEntity
  8
0
390
0
  6
Continuous
 62
     7
100
AcDbEllipse
 10
0.0
 20
-55.194509
 30
0.0
 11
-24.599062736455622
 21
14.206603620884994
 31
0.0
210
0.0
220
0.0
230
1.0
 40
0.015115
 41
1.0746175717021034
 42
1.1719971161956784
  0
ELLIPSE
  5
164
100
AcDbEntity
  8
0
390
0
  6
Continuous
 62
     7
100
AcDbEllipse
 10
0.0
 20
-51.441733
 30
0.0
 11
24.599062736455622
 21
14.206603620884966
 31
0.0
210
0.0
220
0.0
230
1.0
 40
0.015115
 41
4.8361608669468383
 42
4.9267504218867684
  0
ELLIPSE
  5
165
100
AcDbEntity
  8
0
390
0
  6
Continuous
 62
     7
100
AcDbEllipse
 10
0.0
 20
-43.936179
 30
0.0
 11
-24.599062736455622
 21
14.206603620884994
 31
0.0
210
0.0
220
0.0
230
1.0
 40
0.015115
 41
1.8922209040806479
 42
1.9870541481108759
  0
ELLIPSE
  5
166
100
AcDbEntity
  8
0
390
0
  6
Continuous
 62
     7
100
AcDbEllipse
 10
0.0
 20
-51.441733
 30
0.0
 11
-24.599062736455622
 21
14.206603620884994
 31
0.0
210
0.0
220
0.0
230
1.0
 40
0.015115
 41
1.3564348852928203
 42
1.4470244402327486
  0
LINE
  5
167
100
AcDbEntity
  8
0
390
0
  6
Continuous
 62
     7
100
AcDbLine
 10
17.0
 20
-49.537455
 30
0.0
 11
16.25
 21
-49.970467
 31
0.0
  0
LINE
  5
168
100
AcDbEntity
  8
0
390
0
  6
Continuous
 62
     7
100
AcDbLine
 10
-16.25
 20
-49.970467
 30
0.0
 11
-17.0
 21
-49.537455
 31
0.0
  0
LINE
  5
169
100
AcDbEntity
  8
0
390
0
  6
Continuous
 62
     7
100
AcDbLine
 10
-2.201541
 20
-51.875161
 30
0.0
 11
-2.5
 21
-51.702846
 31
0.0
  0
LINE
  5
16A
100
AcDbEntity
  8
0
390
0
  6
Continuous
 62
     7
100
AcDbLine
 10
0.0
 20
-50.602112
 30
0.0
 11
0.0
 21
-50.25947
 31
0.0
  0
ELLIPSE
  5
16B
100
AcDbEntity
  8
0
390
0
  6
Continuous
 62
     7
100
AcDbEllipse
 10
0.0
 20
-51.097934
 30
0.0
 11
24.599062736455622
 21
14.206603620884966
 31
0.0
210
0.0
220
0.0
230
1.0
 40
0.015115
 41
1.5620670214365169
 42
1.6516804472572157
  0
LINE
  5
16C
100
AcDbEntity
  8
0
390
0
  6
Continuous
 62
     7
100
AcDbLine
 10
-13.0
 20
-50.677
 30
0.0
 11
-13.0
 21
-50.25947
 31
0.0
  0
LINE
  5
16D
100
AcDbEntity
  8
0
390
0
  6
Continuous
 62
     7
100
AcDbLine
 10
-10.840678
 20
-51.899537
 30
0.0
 11
-10.5
 21
-51.702846
 31
0.0
  0
ELLIPSE
  5
16E
100
AcDbEntity
  8
0
390
0
  6
Continuous
 62
     7
100
AcDbEllipse
 10
0.0
 20
-58.603487
 30
0.0
 11
-24.599062736455622
 21
14.206603620884994
 31
0.0
210
0.0
220
0.0
230
1.0
 40
0.015115
 41
5.1774720796198324
 42
5.2778982823837781
  0
LINE
  5
16F
100
AcDbEntity
  8
0
390
0
  6
Continuous
 62
     7
100
AcDbLine
 10
-8.675674
 20
-51.890095
 30
0.0
 11
-9.0
 21
-51.702846
 31
0.0
  0
LINE
  5
170
100
AcDbEntity
  8
0
390
0
  6
Continuous
 62
     7
100
AcDbLine
 10
-6.5
 20
-50.619733
 30
0.0
 11
-6.5
 21
-50.25947
 31
0.0
  0
ELLIPSE
  5
171
100
AcDbEntity
  8
0
390
0
  6
Continuous
 62
     7
100
AcDbEllipse
 10
0.0
 20
-47.345157
 30
0.0
 11
24.599062736455622
 21
14.206603620884966
 31
0.0
210
0.0
220
0.0
230
1.0
 40
0.015115
 41
1.8294700372634563
 42
1.9224895984733799
  0
LINE
  5
172
100
AcDbEntity
  8
0
390
0
  6
Continuous
 62
     7
100
AcDbLine
 10
2.201541
 20
-51.875161
 30
0.0
 11
2.5
 21
-51.702846
 31
0.0
  0
ELLIPSE
  5
173
100
AcDbEntity
  8
0
390
0
  6
Continuous
 62
     7
100
AcDbEllipse
 10
0.0
 20
-51.097934
 30
0.0
 11
-24.599062736455622
 21
14.206603620884994
 31
0.0
210
0.0
220
0.0
230
1.0
 40
0.015115
 41
4.6315048599223712
 42
4.7211182857430707
  0
LINE
  5
174
100
AcDbEntity
  8
0
390
0
  6
Continuous
 62
     7
100
AcDbLine
 10
4.303357
 20
-51.877989
 30
0.0
 11
4.0
 21
-51.702846
 31
0.0
  0
LINE
  5
175
100
AcDbEntity
  8
0
390
0
  6
Continuous
 62
     7
100
AcDbLine
 10
6.5
 20
-50.619733
 30
0.0
 11
6.5
 21
-50.25947
 31
0.0
  0
ELLIPSE
  5
176
100
AcDbEntity
  8
0
390
0
  6
Continuous
 62
     7
100
AcDbEllipse
 10
0.0
 20
-54.850711
 30
0.0
 11
24.599062736455622
 21
14.206603620884966
 31
0.0
210
0.0
220
0.0
230
1.0
 40
0.015115
 41
1.2946640056095773
 42
1.3862290784032212
  0
LINE
  5
177
100
AcDbEntity
  8
0
390
0
  6
Continuous
 62
     7
100
AcDbLine
 10
8.675674
 20
-51.890095
 30
0.0
 11
9.0
 21
-51.702846
 31
0.0
  0
ELLIPSE
  5
178
100
AcDbEntity
  8
0
390
0
  6
Continuous
 62
     7
100
AcDbEllipse
 10
0.0
 20
-47.345157
 30
0.0
 11
-24.599062736455622
 21
14.206603620884994
 31
0.0
210
0.0
220
0.0
230
1.0
 40
0.015115
 41
4.3606957087062073
 42
4.453715269916132
  0
LINE
  5
179
100
AcDbEntity
  8
0
390
0
  6
Continuous
 62
     7
100
AcDbLine
 10
10.840678
 20
-51.899537
 30
0.0
 11
10.5
 21
-51.702846
 31
0.0
  0
LINE
  5
17A
100
AcDbEntity
  8
0
390
0
  6
Continuous
 62
     7
100
AcDbLine
 10
13.0
 20
-50.677
 30
0.0
 11
13.0
 21
-50.25947
 31
0.0
  0
ELLIPSE
  5
17B
100
AcDbEntity
  8
0
390
0
  6
Continuous
 62
     7
100
AcDbEllipse
 10
0.0
 20
-58.603487
 30
0.0
 11
24.599062736455622
 21
14.206603620884966
 31
0.0
210
0.0
220
0.0
230
1.0
 40
0.015115
 41
1.0052870247958094
 42
1.1057132275597548
  0
LINE
  5
17C
100
AcDbEntity
  8
0
390
0
  6
Continuous
 62
     7
100
AcDbLine
 10
-15.124716
 20
-51.919516
 30
0.0
 11
-15.5
 21
-51.702846
 31
0.0
  0
ELLIPSE
  5
17D
100
AcDbEntity
  8
0
390
0
  6
Continuous
 62
     7
100
AcDbEllipse
 10
0.0
 20
-43.59238
 30
0.0
 11
24.599062736455622
 21
14.206603620884966
 31
0.0
210
0.0
220
0.0
230
1.0
 40
0.015115
 41
2.118847018077223
 42
2.1765473408616716
  0
LINE
  5
17E
100
AcDbEntity
  8
0
390
0
  6
Continuous
 62
     7
100
AcDbLine
 10
-15.124716
 20
-51.919516
 30
0.0
 11
-14.182736
 21
-51.375664
 31
0.0
  0
ELLIPSE
  5
17F
100
AcDbEntity
  8
0
390
0
  6
Continuous
 62
     7
100
AcDbEllipse
 10
0.0
 20
-43.59238
 30
0.0
 11
-24.599062736455622
 21
14.206603620884994
 31
0.0
210
0.0
220
0.0
230
1.0
 40
0.015115
 41
4.1066379663179164
 42
4.1643382891023633
  0
LINE
  5
180
100
AcDbEntity
  8
0
390
0
  6
Continuous
 62
     7
100
AcDbLine
 10
15.124716
 20
-51.919516
 30
0.0
 11
15.5
 21
-51.702846
 31
0.0
  0
LINE
  5
181
100
AcDbEntity
  8
0
390
0
  6
Continuous
 62
     7
100
AcDbLine
 10
14.182736
 20
-51.375664
 30
0.0
 11
15.124716
 21
-51.919516
 31
0.0
  0
LINE
  5
182
100
AcDbEntity
  8
0
390
0
  6
Continuous
 62
     7
100
AcDbLine
 10
-4.303357
 20
-51.877989
 30
0.0
 11
-4.0
 21
-51.702846
 31
0.0
  0
ELLIPSE
  5
183
100
AcDbEntity
  8
0
390
0
  6
Continuous
 62
     7
100
AcDbEllipse
 10
0.0
 20
-54.850711
 30
0.0
 11
-24.599062736455622
 21
14.206603620884994
 31
0.0
210
0.0
220
0.0
230
1.0
 40
0.015115
 41
4.8969562287763653
 42
4.9885213015700103
  0
LINE
  5
184
100
AcDbEntity
  8
0
390
0
  6
Continuous
 62
     7
100
AcDbLine
 10
-15.124716
 20
-54.372927
 30
0.0
 11
-15.5
 21
-54.589597
 31
0.0
  0
LINE
  5
185
100
AcDbEntity
  8
0
390
0
  6
Continuous
 62
     7
100
AcDbLine
 10
-15.124716
 20
-54.372927
 30
0.0
 11
-15.124716
 21
-51.919516
 31
0.0
  0
LINE
  5
186
100
AcDbEntity
  8
0
390
0
  6
Continuous
 62
     7
100
AcDbLine
 10
2.201541
 20
-54.417282
 30
0.0
 11
2.5
 21
-54.589597
 31
0.0
  0
LINE
  5
187
100
AcDbEntity
  8
0
390
0
  6
Continuous
 62
     7
100
AcDbLine
 10
2.201541
 20
-51.875161
 30
0.0
 11
2.201541
 21
-54.417282
 31
0.0
  0
LINE
  5
188
100
AcDbEntity
  8
0
390
0
  6
Continuous
 62
     7
100
AcDbLine
 10
15.124716
 20
-54.372927
 30
0.0
 11
15.5
 21
-54.589597
 31
0.0
  0
LINE
  5
189
100
AcDbEntity
  8
0
390
0
  6
Continuous
 62
     7
100
AcDbLine
 10
15.124716
 20
-51.919516
 30
0.0
 11
15.124716
 21
-54.372927
 31
0.0
  0
LINE
  5
18A
100
AcDbEntity
  8
0
390
0
  6
Continuous
 62
     7
100
AcDbLine
 10
4.303357
 20
-54.414454
 30
0.0
 11
4.0
 21
-54.589597
 31
0.0
  0
LINE
  5
18B
100
AcDbEntity
  8
0
390
0
  6
Continuous
 62
     7
100
AcDbLine
 10
4.303357
 20
-54.414454
 30
0.0
 11
4.303357
 21
-51.877989
 31
0.0
  0
LINE
  5
18C
100
AcDbEntity
  8
0
390
0
  6
Continuous
 62
     7
100
AcDbLine
 10
-2.201541
 20
-54.417282
 30
0.0
 11
-2.5
 21
-54.589597
 31
0.0
  0
LINE
  5
18D
100
AcDbEntity
  8
0
390
0
  6
Continuous
 62
     7
100
AcDbLine
 10
-2.201541
 20
-54.417282
 30
0.0
 11
-2.201541
 21
-51.875161
 31
0.0
  0
LINE
  5
18E
100
AcDbEntity
  8
0
390
0
  6
Continuous
 62
     7
100
AcDbLine
 10
10.840678
 20
-54.392907
 30
0.0
 11
10.5
 21
-54.589597
 31
0.0
  0
LINE
  5
18F
100
AcDbEntity
  8
0
390
0
  6
Continuous
 62
     7
100
AcDbLine
 10
10.840678
 20
-54.392907
 30
0.0
 11
10.840678
 21
-51.899537
 31
0.0
  0
LINE
  5
190
100
AcDbEntity
  8
0
390
0
  6
Continuous
 62
     7
100
AcDbLine
 10
-10.840678
 20
-54.392907
 30
0.0
 11
-10.5
 21
-54.589597
 31
0.0
  0
LINE
  5
191
100
AcDbEntity
  8
0
390
0
  6
Continuous
 62
     7
100
AcDbLine
 10
-10.840678
 20
-51.899537
 30
0.0
 11
-10.840678
 21
-54.392907
 31
0.0
  0
LINE
  5
192
100
AcDbEntity
  8
0
390
0
  6
Continuous
 62
     7
100
AcDbLine
 10
-4.303357
 20
-54.414454
 30
0.0
 11
-4.0
 21
-54.589597
 31
0.0
  0
LINE
  5
193
100
AcDbEntity
  8
0
390
0
  6
Continuous
 62
     7
100
AcDbLine
 10
-4.303357
 20
-51.877989
 30
0.0
 11
-4.303357
 21
-54.414454
 31
0.0
  0
LINE
  5
194
100
AcDbEntity
  8
0
390
0
  6
Continuous
 62
     7
100
AcDbLine
 10
8.675674
 20
-54.402348
 30
0.0
 11
9.0
 21
-54.589597
 31
0.0
  0
LINE
  5
195
100
AcDbEntity
  8
0
390
0
  6
Continuous
 62
     7
100
AcDbLine
 10
8.675674
 20
-51.890095
 30
0.0
 11
8.675674
 21
-54.402348
 31
0.0
  0
LINE
  5
196
100
AcDbEntity
  8
0
390
0
  6
Continuous
 62
     7
100
AcDbLine
 10
-8.675674
 20
-54.402348
 30
0.0
 11
-9.0
 21
-54.589597
 31
0.0
  0
LINE
  5
197
100
AcDbEntity
  8
0
390
0
  6
Continuous
 62
     7
100
AcDbLine
 10
-8.675674
 20
-54.402348
 30
0.0
 11
-8.675674
 21
-51.890095
 31
0.0
  0
LINE
  5
198
100
AcDbEntity
  8
0
390
0
  6
Continuous
 62
     7
100
AcDbLine
 10
13.0
 20
-55.615443
 30
0.0
 11
13.0
 21
-56.032973
 31
0.0
  0
ELLIPSE
  5
199
100
AcDbEntity
  8
0
390
0
  6
Continuous
 62
     7
100
AcDbEllipse
 10
0.0
 20
-62.700063
 30
0.0
 11
24.599062736455622
 21
14.206603620884966
 31
0.0
210
0.0
220
0.0
230
1.0
 40
0.015115
 41
5.2604396716670161
 42
5.3181399944514629
  0
LINE
  5
19A
100
AcDbEntity
  8
0
390
0
  6
Continuous
 62
     7
100
AcDbLine
 10
15.124716
 20
-54.372927
 30
0.0
 11
14.182736
 21
-54.916779
 31
0.0
  0
ELLIPSE
  5
19B
100
AcDbEntity
  8
0
390
0
  6
Continuous
 62
     7
100
AcDbEllipse
 10
0.0
 20
-62.700063
 30
0.0
 11
-24.599062736455622
 21
14.206603620884994
 31
0.0
210
0.0
220
0.0
230
1.0
 40
0.015115
 41
0.9650453127281221
 42
1.0227456355125706
  0
LINE
  5
19C
100
AcDbEntity
  8
0
390
0
  6
Continuous
 62
     7
100
AcDbLine
 10
-13.0
 20
-55.615443
 30
0.0
 11
-13.0
 21
-56.032973
 31
0.0
  0
LINE
  5
19D
100
AcDbEntity
  8
0
390
0
  6
Continuous
 62
     7
100
AcDbLine
 10
-14.182736
 20
-54.916779
 30
0.0
 11
-15.124716
 21
-54.372927
 31
0.0
  0
LINE
  5
19E
100
AcDbEntity
  8
0
390
0
  6
Continuous
 62
     7
100
AcDbLine
 10
6.5
 20
-55.67271
 30
0.0
 11
6.5
 21
-56.032973
 31
0.0
  0
ELLIPSE
  5
19F
100
AcDbEntity
  8
0
390
0
  6
Continuous
 62
     7
100
AcDbEllipse
 10
0.0
 20
-51.441733
 30
0.0
 11
-24.599062736455622
 21
14.206603620884994
 31
0.0
210
0.0
220
0.0
230
1.0
 40
0.015115
 41
1.7553635751865722
 42
1.8469286479802169
  0
LINE
  5
1A0
100
AcDbEntity
  8
0
390
0
  6
Continuous
 62
     7
100
AcDbLine
 10
-6.5
 20
-55.67271
 30
0.0
 11
-6.5
 21
-56.032973
 31
0.0
  0
ELLIPSE
  5
1A1
100
AcDbEntity
  8
0
390
0
  6
Continuous
 62
     7
100
AcDbEllipse
 10
0.0
 20
-51.441733
 30
0.0
 11
24.599062736455622
 21
14.206603620884966
 31
0.0
210
0.0
220
0.0
230
1.0
 40
0.015115
 41
4.4362566591993691
 42
4.5278217319930132
  0
ELLIPSE
  5
1A2
100
AcDbEntity
  8
0
390
0
  6
Continuous
 62
     7
100
AcDbEllipse
 10
0.0
 20
-47.688956
 30
0.0
 11
-24.599062736455622
 21
14.206603620884994
 31
0.0
210
0.0
220
0.0
230
1.0
 40
0.015115
 41
2.0358794260300384
 42
2.1363056287939837
  0
ELLIPSE
  5
1A3
100
AcDbEntity
  8
0
390
0
  6
Continuous
 62
     7
100
AcDbEllipse
 10
0.0
 20
-47.688956
 30
0.0
 11
24.599062736455622
 21
14.206603620884966
 31
0.0
210
0.0
220
0.0
230
1.0
 40
0.015115
 41
4.1468796783856012
 42
4.247305881149547
  0
LINE
  5
1A4
100
AcDbEntity
  8
0
390
0
  6
Continuous
 62
     7
100
AcDbLine
 10
0.0
 20
-55.690332
 30
0.0
 11
0.0
 21
-56.032973
 31
0.0
  0
ELLIPSE
  5
1A5
100
AcDbEntity
  8
0
390
0
  6
Continuous
 62
     7
100
AcDbEllipse
 10
0.0
 20
-55.194509
 30
0.0
 11
24.599062736455622
 21
14.206603620884966
 31
0.0
210
0.0
220
0.0
230
1.0
 40
0.015115
 41
4.7036596750263096
 42
4.7932731008470091
  0
ELLIPSE
  5
1A6
100
AcDbEntity
  8
0
390
0
  6
Continuous
 62
     7
100
AcDbEllipse
 10
0.0
 20
-58.947286
 30
0.0
 11
24.599062736455622
 21
14.206603620884966
 31
0.0
210
0.0
220
0.0
230
1.0
 40
0.015115
 41
4.9710626908532483
 42
5.0640822520631712
  0
ELLIPSE
  5
1A7
100
AcDbEntity
  8
0
390
0
  6
Continuous
 62
     7
100
AcDbEllipse
 10
0.0
 20
-58.947286
 30
0.0
 11
-24.599062736455622
 21
14.206603620884994
 31
0.0
210
0.0
220
0.0
230
1.0
 40
0.015115
 41
1.2191030551164139
 42
1.3121226163263375
  0
ELLIPSE
  5
1A8
100
AcDbEntity
  8
0
390
0
  6
Continuous
 62
     7
100
AcDbEllipse
 10
0.0
 20
-55.194509
 30
0.0
 11
-24.599062736455622
 21
14.206603620884994
 31
0.0
210
0.0
220
0.0
230
1.0
 40
0.015115
 41
1.4899122063325776
 42
1.5795256321532773
  0
ELLIPSE
  5
1A9
100
AcDbEntity
  8
0
390
0
  6
Continuous
 62
     7
100
AcDbEllipse
 10
0.0
 20
-66.109041
 30
0.0
 11
24.599062736455622
 21
14.206603620884966
 31
0.0
210
0.0
220
0.0
230
1.0
 40
0.015115
 41
0.9475867020113618
 42
0.9504776030372679
  0
LINE
  5
1AA
100
AcDbEntity
  8
0
390
0
  6
Continuous
 62
     7
100
AcDbLine
 10
14.12457
 20
-57.548269
 30
0.0
 11
13.75
 21
-57.332011
 31
0.0
  0
LINE
  5
1AB
100
AcDbEntity
  8
0
390
0
  6
Continuous
 62
     7
100
AcDbLine
 10
16.25
 20
-56.321976
 30
0.0
 11
16.25
 21
-55.888635
 31
0.0
  0
LINE
  5
1AC
100
AcDbEntity
  8
0
390
0
  6
Continuous
 62
     7
100
AcDbLine
 10
16.25
 20
-56.321976
 30
0.0
 11
14.182736
 21
-57.515511
 31
0.0
  0
ELLIPSE
  5
1AD
100
AcDbEntity
  8
0
390
0
  6
Continuous
 62
     7
100
AcDbEllipse
 10
0.0
 20
-62.356264
 30
0.0
 11
-24.599062736455622
 21
14.206603620884994
 31
0.0
210
0.0
220
0.0
230
1.0
 40
0.015115
 41
5.0338135576704426
 42
5.1286468017006692
  0
LINE
  5
1AE
100
AcDbEntity
  8
0
390
0
  6
Continuous
 62
     7
100
AcDbLine
 10
-9.75
 20
-56.271883
 30
0.0
 11
-9.75
 21
-55.888635
 31
0.0
  0
LINE
  5
1AF
100
AcDbEntity
  8
0
390
0
  6
Continuous
 62
     7
100
AcDbLine
 10
-7.567558
 20
-57.515353
 30
0.0
 11
-7.25
 21
-57.332011
 31
0.0
  0
LINE
  5
1B0
100
AcDbEntity
  8
0
390
0
  6
Continuous
 62
     7
100
AcDbLine
 10
-14.182736
 20
-57.515511
 30
0.0
 11
-16.25
 21
-56.321976
 31
0.0
  0
LINE
  5
1B1
100
AcDbEntity
  8
0
390
0
  6
Continuous
 62
     7
100
AcDbLine
 10
-16.25
 20
-56.321976
 30
0.0
 11
-16.25
 21
-55.888635
 31
0.0
  0
LINE
  5
1B2
100
AcDbEntity
  8
0
390
0
  6
Continuous
 62
     7
100
AcDbLine
 10
-14.12457
 20
-57.548269
 30
0.0
 11
-13.75
 21
-57.332011
 31
0.0
  0
ELLIPSE
  5
1B3
100
AcDbEntity
  8
0
390
0
  6
Continuous
 62
     7
100
AcDbEllipse
 10
0.0
 20
-66.109041
 30
0.0
 11
-24.599062736455622
 21
14.206603620884966
 31
0.0
210
0.0
220
0.0
230
1.0
 40
0.015115
 41
5.3327077041423188
 42
5.3355986051682258
  0
ELLIPSE
  5
1B4
100
AcDbEntity
  8
0
390
0
  6
Continuous
 62
     7
100
AcDbEllipse
 10
0.0
 20
-51.097934
 30
0.0
 11
24.599062736455622
 21
14.206603620884966
 31
0.0
210
0.0
220
0.0
230
1.0
 40
0.015115
 41
1.9695955373941147
 42
2.0669750818876902
  0
LINE
  5
1B5
100
AcDbEntity
  8
0
390
0
  6
Continuous
 62
     7
100
AcDbLine
 10
-11.899684
 20
-57.534266
 30
0.0
 11
-12.25
 21
-57.332011
 31
0.0
  0
ELLIPSE
  5
1B6
100
AcDbEntity
  8
0
390
0
  6
Continuous
 62
     7
100
AcDbEllipse
 10
0.0
 20
-62.356264
 30
0.0
 11
24.599062736455622
 21
14.206603620884966
 31
0.0
210
0.0
220
0.0
230
1.0
 40
0.015115
 41
1.1545385054789177
 42
1.2493717495091452
  0
LINE
  5
1B7
100
AcDbEntity
  8
0
390
0
  6
Continuous
 62
     7
100
AcDbLine
 10
7.567558
 20
-57.515353
 30
0.0
 11
7.25
 21
-57.332011
 31
0.0
  0
LINE
  5
1B8
100
AcDbEntity
  8
0
390
0
  6
Continuous
 62
     7
100
AcDbLine
 10
9.75
 20
-56.271883
 30
0.0
 11
9.75
 21
-55.888635
 31
0.0
  0
ELLIPSE
  5
1B9
100
AcDbEntity
  8
0
390
0
  6
Continuous
 62
     7
100
AcDbEllipse
 10
0.0
 20
-54.850711
 30
0.0
 11
24.599062736455622
 21
14.206603620884966
 31
0.0
210
0.0
220
0.0
230
1.0
 40
0.015115
 41
1.694568213357045
 42
1.7851577682969748
  0
LINE
  5
1BA
100
AcDbEntity
  8
0
390
0
  6
Continuous
 62
     7
100
AcDbLine
 10
-5.442623
 20
-57.509475
 30
0.0
 11
-5.75
 21
-57.332011
 31
0.0
  0
LINE
  5
1BB
100
AcDbEntity
  8
0
390
0
  6
Continuous
 62
     7
100
AcDbLine
 10
-3.25
 20
-56.235623
 30
0.0
 11
-3.25
 21
-55.888635
 31
0.0
  0
LINE
  5
1BC
100
AcDbEntity
  8
0
390
0
  6
Continuous
 62
     7
100
AcDbLine
 10
17.0
 20
-56.754989
 30
0.0
 11
16.25
 21
-56.321976
 31
0.0
  0
ELLIPSE
  5
1BD
100
AcDbEntity
  8
0
390
0
  6
Continuous
 62
     7
100
AcDbEllipse
 10
0.0
 20
-58.603487
 30
0.0
 11
24.599062736455622
 21
14.206603620884966
 31
0.0
210
0.0
220
0.0
230
1.0
 40
0.015115
 41
1.4295658295159877
 42
1.5194880884667572
  0
LINE
  5
1BE
100
AcDbEntity
  8
0
390
0
  6
Continuous
 62
     7
100
AcDbLine
 10
1.047125
 20
-57.503556
 30
0.0
 11
0.75
 21
-57.332011
 31
0.0
  0
LINE
  5
1BF
100
AcDbEntity
  8
0
390
0
  6
Continuous
 62
     7
100
AcDbLine
 10
3.25
 20
-56.235623
 30
0.0
 11
3.25
 21
-55.888635
 31
0.0
  0
ELLIPSE
  5
1C0
100
AcDbEntity
  8
0
390
0
  6
Continuous
 62
     7
100
AcDbEllipse
 10
0.0
 20
-58.603487
 30
0.0
 11
-24.599062736455622
 21
14.206603620884966
 31
0.0
210
0.0
220
0.0
230
1.0
 40
0.015115
 41
4.7636972187128297
 42
4.8536194776636012
  0
LINE
  5
1C1
100
AcDbEntity
  8
0
390
0
  6
Continuous
 62
     7
100
AcDbLine
 10
-1.047125
 20
-57.503556
 30
0.0
 11
-0.75
 21
-57.332011
 31
0.0
  0
ELLIPSE
  5
1C2
100
AcDbEntity
  8
0
390
0
  6
Continuous
 62
     7
100
AcDbEllipse
 10
0.0
 20
-54.850711
 30
0.0
 11
-24.599062736455622
 21
14.206603620884966
 31
0.0
210
0.0
220
0.0
230
1.0
 40
0.015115
 41
4.4980275388826128
 42
4.5886170938225419
  0
LINE
  5
1C3
100
AcDbEntity
  8
0
390
0
  6
Continuous
 62
     7
100
AcDbLine
 10
5.442623
 20
-57.509475
 30
0.0
 11
5.75
 21
-57.332011
 31
0.0
  0
LINE
  5
1C4
100
AcDbEntity
  8
0
390
0
  6
Continuous
 62
     7
100
AcDbLine
 10
-16.25
 20
-56.321976
 30
0.0
 11
-17.0
 21
-56.754989
 31
0.0
  0
ELLIPSE
  5
1C5
100
AcDbEntity
  8
0
390
0
  6
Continuous
 62
     7
100
AcDbEllipse
 10
0.0
 20
-51.097934
 30
0.0
 11
-24.599062736455622
 21
14.206603620884966
 31
0.0
210
0.0
220
0.0
230
1.0
 40
0.015115
 41
4.2162102252918965
 42
4.3135897697854721
  0
LINE
  5
1C6
100
AcDbEntity
  8
0
390
0
  6
Continuous
 62
     7
100
AcDbLine
 10
11.899684
 20
-57.534266
 30
0.0
 11
12.25
 21
-57.332011
 31
0.0
  0
LINE
  5
1C7
100
AcDbEntity
  8
0
390
0
  6
Continuous
 62
     7
100
AcDbLine
 10
14.12457
 20
-57.548269
 30
0.0
 11
14.12457
 21
-60.002504
 31
0.0
  0
LINE
  5
1C8
100
AcDbEntity
  8
0
390
0
  6
Continuous
 62
     7
100
AcDbLine
 10
14.12457
 20
-60.002504
 30
0.0
 11
13.75
 21
-60.218762
 31
0.0
  0
LINE
  5
1C9
100
AcDbEntity
  8
0
390
0
  6
Continuous
 62
     7
100
AcDbLine
 10
-5.442623
 20
-57.509475
 30
0.0
 11
-5.442623
 21
-60.041298
 31
0.0
  0
LINE
  5
1CA
100
AcDbEntity
  8
0
390
0
  6
Continuous
 62
     7
100
AcDbLine
 10
-5.442623
 20
-60.041298
 30
0.0
 11
-5.75
 21
-60.218762
 31
0.0
  0
LINE
  5
1CB
100
AcDbEntity
  8
0
390
0
  6
Continuous
 62
     7
100
AcDbLine
 10
-14.12457
 20
-60.002504
 30
0.0
 11
-14.12457
 21
-57.548269
 31
0.0
  0
LINE
  5
1CC
100
AcDbEntity
  8
0
390
0
  6
Continuous
 62
     7
100
AcDbLine
 10
-14.12457
 20
-60.002504
 30
0.0
 11
-13.75
 21
-60.218762
 31
0.0
  0
LINE
  5
1CD
100
AcDbEntity
  8
0
390
0
  6
Continuous
 62
     7
100
AcDbLine
 10
1.047125
 20
-57.503556
 30
0.0
 11
1.047125
 21
-60.047217
 31
0.0
  0
LINE
  5
1CE
100
AcDbEntity
  8
0
390
0
  6
Continuous
 62
     7
100
AcDbLine
 10
1.047125
 20
-60.047217
 30
0.0
 11
0.75
 21
-60.218762
 31
0.0
  0
LINE
  5
1CF
100
AcDbEntity
  8
0
390
0
  6
Continuous
 62
     7
100
AcDbLine
 10
11.899684
 20
-60.016507
 30
0.0
 11
11.899684
 21
-57.534266
 31
0.0
  0
LINE
  5
1D0
100
AcDbEntity
  8
0
390
0
  6
Continuous
 62
     7
100
AcDbLine
 10
11.899684
 20
-60.016507
 30
0.0
 11
12.25
 21
-60.218762
 31
0.0
  0
LINE
  5
1D1
100
AcDbEntity
  8
0
390
0
  6
Continuous
 62
     7
100
AcDbLine
 10
-11.899684
 20
-57.534266
 30
0.0
 11
-11.899684
 21
-60.016507
 31
0.0
  0
LINE
  5
1D2
100
AcDbEntity
  8
0
390
0
  6
Continuous
 62
     7
100
AcDbLine
 10
-11.899684
 20
-60.016507
 30
0.0
 11
-12.25
 21
-60.218762
 31
0.0
  0
LINE
  5
1D3
100
AcDbEntity
  8
0
390
0
  6
Continuous
 62
     7
100
AcDbLine
 10
7.567558
 20
-57.515353
 30
0.0
 11
7.567558
 21
-60.03542
 31
0.0
  0
LINE
  5
1D4
100
AcDbEntity
  8
0
390
0
  6
Continuous
 62
     7
100
AcDbLine
 10
7.567558
 20
-60.03542
 30
0.0
 11
7.25
 21
-60.218762
 31
0.0
  0
LINE
  5
1D5
100
AcDbEntity
  8
0
390
0
  6
Continuous
 62
     7
100
AcDbLine
 10
-1.047125
 20
-60.047217
 30
0.0
 11
-1.047125
 21
-57.503556
 31
0.0
  0
LINE
  5
1D6
100
AcDbEntity
  8
0
390
0
  6
Continuous
 62
     7
100
AcDbLine
 10
-1.047125
 20
-60.047217
 30
0.0
 11
-0.75
 21
-60.218762
 31
0.0
  0
LINE
  5
1D7
100
AcDbEntity
  8
0
390
0
  6
Continuous
 62
     7
100
AcDbLine
 10
-7.567558
 20
-60.03542
 30
0.0
 11
-7.567558
 21
-57.515353
 31
0.0
  0
LINE
  5
1D8
100
AcDbEntity
  8
0
390
0
  6
Continuous
 62
     7
100
AcDbLine
 10
-7.567558
 20
-60.03542
 30
0.0
 11
-7.25
 21
-60.218762
 31
0.0
  0
LINE
  5
1D9
100
AcDbEntity
  8
0
390
0
  6
Continuous
 62
     7
100
AcDbLine
 10
5.442623
 20
-60.041298
 30
0.0
 11
5.442623
 21
-57.509475
 31
0.0
  0
LINE
  5
1DA
100
AcDbEntity
  8
0
390
0
  6
Continuous
 62
     7
100
AcDbLine
 10
5.442623
 20
-60.041298
 30
0.0
 11
5.75
 21
-60.218762
 31
0.0
  0
ELLIPSE
  5
1DB
100
AcDbEntity
  8
0
390
0
  6
Continuous
 62
     7
100
AcDbEllipse
 10
0.0
 20
-51.441733
 30
0.0
 11
-24.599062736455622
 21
14.206603620884994
 31
0.0
210
0.0
220
0.0
230
1.0
 40
0.015115
 41
2.1911150505525248
 42
2.1940059515784314
  0
LINE
  5
1DC
100
AcDbEntity
  8
0
390
0
  6
Continuous
 62
     7
100
AcDbLine
 10
14.182736
 20
-60.035262
 30
0.0
 11
16.25
 21
-61.228798
 31
0.0
  0
LINE
  5
1DD
100
AcDbEntity
  8
0
390
0
  6
Continuous
 62
     7
100
AcDbLine
 10
16.25
 20
-61.228798
 30
0.0
 11
16.25
 21
-61.662138
 31
0.0
  0
LINE
  5
1DE
100
AcDbEntity
  8
0
390
0
  6
Continuous
 62
     7
100
AcDbLine
 10
-16.25
 20
-61.228798
 30
0.0
 11
-14.182736
 21
-60.035262
 31
0.0
  0
ELLIPSE
  5
1DF
100
AcDbEntity
  8
0
390
0
  6
Continuous
 62
     7
100
AcDbEllipse
 10
0.0
 20
-51.441733
 30
0.0
 11
24.599062736455622
 21
14.206603620884994
 31
0.0
210
0.0
220
0.0
230
1.0
 40
0.015115
 41
4.0891793556011544
 42
4.0920702566270606
  0
LINE
  5
1E0
100
AcDbEntity
  8
0
390
0
  6
Continuous
 62
     7
100
AcDbLine
 10
-16.25
 20
-61.228798
 30
0.0
 11
-16.25
 21
-61.662138
 31
0.0
  0
ELLIPSE
  5
1E1
100
AcDbEntity
  8
0
390
0
  6
Continuous
 62
     7
100
AcDbEllipse
 10
0.0
 20
-55.194509
 30
0.0
 11
24.599062736455622
 21
14.206603620884994
 31
0.0
210
0.0
220
0.0
230
1.0
 40
0.015115
 41
4.2961311590687101
 42
4.3909644030989377
  0
LINE
  5
1E2
100
AcDbEntity
  8
0
390
0
  6
Continuous
 62
     7
100
AcDbLine
 10
-9.75
 20
-61.27889
 30
0.0
 11
-9.75
 21
-61.662138
 31
0.0
  0
ELLIPSE
  5
1E3
100
AcDbEntity
  8
0
390
0
  6
Continuous
 62
     7
100
AcDbEllipse
 10
0.0
 20
-66.45284
 30
0.0
 11
24.599062736455622
 21
14.206603620884994
 31
0.0
210
0.0
220
0.0
230
1.0
 40
0.015115
 41
5.1111881909839081
 42
5.2085677354774829
  0
LINE
  5
1E4
100
AcDbEntity
  8
0
390
0
  6
Continuous
 62
     7
100
AcDbLine
 10
9.75
 20
-61.27889
 30
0.0
 11
9.75
 21
-61.662138
 31
0.0
  0
ELLIPSE
  5
1E5
100
AcDbEntity
  8
0
390
0
  6
Continuous
 62
     7
100
AcDbEllipse
 10
0.0
 20
-55.194509
 30
0.0
 11
-24.599062736455622
 21
14.206603620884994
 31
0.0
210
0.0
220
0.0
230
1.0
 40
0.015115
 41
1.8922209040806479
 42
1.9870541481108754
  0
ELLIPSE
  5
1E6
100
AcDbEntity
  8
0
390
0
  6
Continuous
 62
     7
100
AcDbEllipse
 10
0.0
 20
-66.45284
 30
0.0
 11
-24.599062736455622
 21
14.206603620884994
 31
0.0
210
0.0
220
0.0
230
1.0
 40
0.015115
 41
1.0746175717021034
 42
1.1719971161956784
  0
ELLIPSE
  5
1E7
100
AcDbEntity
  8
0
390
0
  6
Continuous
 62
     7
100
AcDbEllipse
 10
0.0
 20
-58.947286
 30
0.0
 11
24.599062736455622
 21
14.206603620884994
 31
0.0
210
0.0
220
0.0
230
1.0
 40
0.015115
 41
4.5711584831057799
 42
4.6610807420565505
  0
LINE
  5
1E8
100
AcDbEntity
  8
0
390
0
  6
Continuous
 62
     7
100
AcDbLine
 10
-3.25
 20
-61.315151
 30
0.0
 11
-3.25
 21
-61.662138
 31
0.0
  0
ELLIPSE
  5
1E9
100
AcDbEntity
  8
0
390
0
  6
Continuous
 62
     7
100
AcDbEllipse
 10
0.0
 20
-58.947286
 30
0.0
 11
-24.599062736455622
 21
14.206603620884994
 31
0.0
210
0.0
220
0.0
230
1.0
 40
0.015115
 41
1.6221045651230361
 42
1.7120268240738057
  0
LINE
  5
1EA
100
AcDbEntity
  8
0
390
0
  6
Continuous
 62
     7
100
AcDbLine
 10
3.25
 20
-61.315151
 30
0.0
 11
3.25
 21
-61.662138
 31
0.0
  0
ELLIPSE
  5
1EB
100
AcDbEntity
  8
0
390
0
  6
Continuous
 62
     7
100
AcDbEllipse
 10
0.0
 20
-62.700063
 30
0.0
 11
-24.599062736455622
 21
14.206603620884994
 31
0.0
210
0.0
220
0.0
230
1.0
 40
0.015115
 41
1.3564348852928187
 42
1.4470244402327483
  0
ELLIPSE
  5
1EC
100
AcDbEntity
  8
0
390
0
  6
Continuous
 62
     7
100
AcDbEllipse
 10
0.0
 20
-62.700063
 30
0.0
 11
24.599062736455622
 21
14.206603620884994
 31
0.0
210
0.0
220
0.0
230
1.0
 40
0.015115
 41
4.8361608669468383
 42
4.9267504218867684
  0
LINE
  5
1ED
100
AcDbEntity
  8
0
390
0
  6
Continuous
 62
     7
100
AcDbLine
 10
16.25
 20
-61.228798
 30
0.0
 11
17.0
 21
-60.795785
 31
0.0
  0
LINE
  5
1EE
100
AcDbEntity
  8
0
390
0
  6
Continuous
 62
     7
100
AcDbLine
 10
-17.0
 20
-60.795785
 30
0.0
 11
-16.25
 21
-61.228798
 31
0.0
  0
LINE
  5
1EF
100
AcDbEntity
  8
0
390
0
  6
Continuous
 62
     7
100
AcDbLine
 10
-6.5
 20
-61.877733
 30
0.0
 11
-6.5
 21
-61.51747
 31
0.0
  0
LINE
  5
1F0
100
AcDbEntity
  8
0
390
0
  6
Continuous
 62
     7
100
AcDbLine
 10
-4.303357
 20
-63.135989
 30
0.0
 11
-4.0
 21
-62.960846
 31
0.0
  0
ELLIPSE
  5
1F1
100
AcDbEntity
  8
0
390
0
  6
Continuous
 62
     7
100
AcDbEllipse
 10
0.0
 20
-66.108711
 30
0.0
 11
-24.599062736455622
 21
14.206603620884994
 31
0.0
210
0.0
220
0.0
230
1.0
 40
0.015115
 41
4.8969562287763653
 42
4.9885213015700103
  0
LINE
  5
1F2
100
AcDbEntity
  8
0
390
0
  6
Continuous
 62
     7
100
AcDbLine
 10
4.303357
 20
-63.135989
 30
0.0
 11
4.0
 21
-62.960846
 31
0.0
  0
LINE
  5
1F3
100
AcDbEntity
  8
0
390
0
  6
Continuous
 62
     7
100
AcDbLine
 10
6.5
 20
-61.877733
 30
0.0
 11
6.5
 21
-61.51747
 31
0.0
  0
ELLIPSE
  5
1F4
100
AcDbEntity
  8
0
390
0
  6
Continuous
 62
     7
100
AcDbEllipse
 10
0.0
 20
-66.108711
 30
0.0
 11
24.599062736455622
 21
14.206603620884966
 31
0.0
210
0.0
220
0.0
230
1.0
 40
0.015115
 41
1.2946640056095766
 42
1.3862290784032212
  0
LINE
  5
1F5
100
AcDbEntity
  8
0
390
0
  6
Continuous
 62
     7
100
AcDbLine
 10
-15.124716
 20
-63.177516
 30
0.0
 11
-14.182736
 21
-62.633664
 31
0.0
  0
LINE
  5
1F6
100
AcDbEntity
  8
0
390
0
  6
Continuous
 62
     7
100
AcDbLine
 10
-15.124716
 20
-63.177516
 30
0.0
 11
-15.5
 21
-62.960846
 31
0.0
  0
LINE
  5
1F7
100
AcDbEntity
  8
0
390
0
  6
Continuous
 62
     7
100
AcDbLine
 10
-13.0
 20
-61.935
 30
0.0
 11
-13.0
 21
-61.51747
 31
0.0
  0
ELLIPSE
  5
1F8
100
AcDbEntity
  8
0
390
0
  6
Continuous
 62
     7
100
AcDbEllipse
 10
0.0
 20
-54.85038
 30
0.0
 11
24.599062736455622
 21
14.206603620884966
 31
0.0
210
0.0
220
0.0
230
1.0
 40
0.015115
 41
2.118847018077223
 42
2.1765473408616716
  0
LINE
  5
1F9
100
AcDbEntity
  8
0
390
0
  6
Continuous
 62
     7
100
AcDbLine
 10
-10.840678
 20
-63.157537
 30
0.0
 11
-10.5
 21
-62.960846
 31
0.0
  0
ELLIPSE
  5
1FA
100
AcDbEntity
  8
0
390
0
  6
Continuous
 62
     7
100
AcDbEllipse
 10
0.0
 20
-69.861487
 30
0.0
 11
-24.599062736455622
 21
14.206603620884994
 31
0.0
210
0.0
220
0.0
230
1.0
 40
0.015115
 41
5.1774720796198324
 42
5.2778982823837781
  0
LINE
  5
1FB
100
AcDbEntity
  8
0
390
0
  6
Continuous
 62
     7
100
AcDbLine
 10
-8.675674
 20
-63.148095
 30
0.0
 11
-9.0
 21
-62.960846
 31
0.0
  0
ELLIPSE
  5
1FC
100
AcDbEntity
  8
0
390
0
  6
Continuous
 62
     7
100
AcDbEllipse
 10
0.0
 20
-58.603157
 30
0.0
 11
24.599062736455622
 21
14.206603620884966
 31
0.0
210
0.0
220
0.0
230
1.0
 40
0.015115
 41
1.8294700372634563
 42
1.9224895984733799
  0
LINE
  5
1FD
100
AcDbEntity
  8
0
390
0
  6
Continuous
 62
     7
100
AcDbLine
 10
10.840678
 20
-63.157537
 30
0.0
 11
10.5
 21
-62.960846
 31
0.0
  0
LINE
  5
1FE
100
AcDbEntity
  8
0
390
0
  6
Continuous
 62
     7
100
AcDbLine
 10
13.0
 20
-61.935
 30
0.0
 11
13.0
 21
-61.51747
 31
0.0
  0
ELLIPSE
  5
1FF
100
AcDbEntity
  8
0
390
0
  6
Continuous
 62
     7
100
AcDbEllipse
 10
0.0
 20
-69.861487
 30
0.0
 11
24.599062736455622
 21
14.206603620884966
 31
0.0
210
0.0
220
0.0
230
1.0
 40
0.015115
 41
1.0052870247958094
 42
1.1057132275597548
  0
LINE
  5
200
100
AcDbEntity
  8
0
390
0
  6
Continuous
 62
     7
100
AcDbLine
 10
8.675674
 20
-63.148095
 30
0.0
 11
9.0
 21
-62.960846
 31
0.0
  0
ELLIPSE
  5
201
100
AcDbEntity
  8
0
390
0
  6
Continuous
 62
     7
100
AcDbEllipse
 10
0.0
 20
-58.603157
 30
0.0
 11
-24.599062736455622
 21
14.206603620884994
 31
0.0
210
0.0
220
0.0
230
1.0
 40
0.015115
 41
4.3606957087062073
 42
4.453715269916132
  0
LINE
  5
202
100
AcDbEntity
  8
0
390
0
  6
Continuous
 62
     7
100
AcDbLine
 10
15.124716
 20
-63.177516
 30
0.0
 11
15.5
 21
-62.960846
 31
0.0
  0
LINE
  5
203
100
AcDbEntity
  8
0
390
0
  6
Continuous
 62
     7
100
AcDbLine
 10
14.182736
 20
-62.633664
 30
0.0
 11
15.124716
 21
-63.177516
 31
0.0
  0
ELLIPSE
  5
204
100
AcDbEntity
  8
0
390
0
  6
Continuous
 62
     7
100
AcDbEllipse
 10
0.0
 20
-54.85038
 30
0.0
 11
-24.599062736455622
 21
14.206603620884994
 31
0.0
210
0.0
220
0.0
230
1.0
 40
0.015115
 41
4.1066379663179164
 42
4.1643382891023633
  0
LINE
  5
205
100
AcDbEntity
  8
0
390
0
  6
Continuous
 62
     7
100
AcDbLine
 10
0.0
 20
-61.860112
 30
0.0
 11
0.0
 21
-61.51747
 31
0.0
  0
LINE
  5
206
100
AcDbEntity
  8
0
390
0
  6
Continuous
 62
     7
100
AcDbLine
 10
2.201541
 20
-63.133161
 30
0.0
 11
2.5
 21
-62.960846
 31
0.0
  0
ELLIPSE
  5
207
100
AcDbEntity
  8
0
390
0
  6
Continuous
 62
     7
100
AcDbEllipse
 10
0.0
 20
-62.355934
 30
0.0
 11
-24.599062736455622
 21
14.206603620884994
 31
0.0
210
0.0
220
0.0
230
1.0
 40
0.015115
 41
4.6315048599223712
 42
4.7211182857430707
  0
LINE
  5
208
100
AcDbEntity
  8
0
390
0
  6
Continuous
 62
     7
100
AcDbLine
 10
-2.201541
 20
-63.133161
 30
0.0
 11
-2.5
 21
-62.960846
 31
0.0
  0
ELLIPSE
  5
209
100
AcDbEntity
  8
0
390
0
  6
Continuous
 62
     7
100
AcDbEllipse
 10
0.0
 20
-62.355934
 30
0.0
 11
24.599062736455622
 21
14.206603620884966
 31
0.0
210
0.0
220
0.0
230
1.0
 40
0.015115
 41
1.562067021436516
 42
1.6516804472572166
  0
LINE
  5
20A
100
AcDbEntity
  8
0
390
0
  6
Continuous
 62
     7
100
AcDbLine
 10
2.201541
 20
-63.133161
 30
0.0
 11
2.201541
 21
-63.646222
 31
0.0
  0
LINE
  5
20B
100
AcDbEntity
  8
0
390
0
  6
Continuous
 62
     7
100
AcDbLine
 10
4.303357
 20
-63.646222
 30
0.0
 11
4.303357
 21
-63.135989
 31
0.0
  0
LINE
  5
20C
100
AcDbEntity
  8
0
390
0
  6
Continuous
 62
     7
100
AcDbLine
 10
-8.675674
 20
-63.646222
 30
0.0
 11
-8.675674
 21
-63.148095
 31
0.0
  0
LINE
  5
20D
100
AcDbEntity
  8
0
390
0
  6
Continuous
 62
     7
100
AcDbLine
 10
-10.840678
 20
-63.157537
 30
0.0
 11
-10.840678
 21
-63.646222
 31
0.0
  0
LINE
  5
20E
100
AcDbEntity
  8
0
390
0
  6
Continuous
 62
     7
100
AcDbLine
 10
8.675674
 20
-63.148095
 30
0.0
 11
8.675674
 21
-63.646222
 31
0.0
  0
LINE
  5
20F
100
AcDbEntity
  8
0
390
0
  6
Continuous
 62
     7
100
AcDbLine
 10
15.124716
 20
-63.177516
 30
0.0
 11
15.124716
 21
-63.646222
 31
0.0
  0
LINE
  5
210
100
AcDbEntity
  8
0
390
0
  6
Continuous
 62
     7
100
AcDbLine
 10
-4.303357
 20
-63.135989
 30
0.0
 11
-4.303357
 21
-63.646222
 31
0.0
  0
LINE
  5
211
100
AcDbEntity
  8
0
390
0
  6
Continuous
 62
     7
100
AcDbLine
 10
-15.124716
 20
-63.646222
 30
0.0
 11
-15.124716
 21
-63.177516
 31
0.0
  0
LINE
  5
212
100
AcDbEntity
  8
0
390
0
  6
Continuous
 62
     7
100
AcDbLine
 10
10.840678
 20
-63.646222
 30
0.0
 11
10.840678
 21
-63.157537
 31
0.0
  0
LINE
  5
213
100
AcDbEntity
  8
0
390
0
  6
Continuous
 62
     7
100
AcDbLine
 10
-2.201541
 20
-63.646222
 30
0.0
 11
-2.201541
 21
-63.133161
 31
0.0
  0
LINE
  5
214
100
AcDbEntity
  8
0
390
0
  6
Continuous
 62
     7
100
AcDbLine
 10
4.819075
 20
-40.446222
 30
0.0
 11
4.819075
 21
-40.646222
 31
0.0
  0
LINE
  5
215
100
AcDbEntity
  8
0
390
0
  6
Continuous
 62
     7
100
AcDbLine
 10
4.819075
 20
-40.446222
 30
0.0
 11
6.319075
 21
-40.446222
 31
0.0
  0
LINE
  5
216
100
AcDbEntity
  8
0
390
0
  6
Continuous
 62
     7
100
AcDbLine
 10
6.319075
 20
-40.446222
 30
0.0
 11
6.319075
 21
-40.646222
 31
0.0
  0
LINE
  5
217
100
AcDbEntity
  8
0
390
0
  6
Continuous
 62
     7
100
AcDbLine
 10
-4.049501
 20
-40.446222
 30
0.0
 11
-2.819519
 21
-40.446222
 31
0.0
  0
LINE
  5
218
100
AcDbEntity
  8
0
390
0
  6
Continuous
 62
     7
100
AcDbLine
 10
-2.819519
 20
-40.446222
 30
0.0
 11
-2.819519
 21
-40.646222
 31
0.0
  0
LINE
  5
219
100
AcDbEntity
  8
0
390
0
  6
Continuous
 62
     7
100
AcDbLine
 10
-2.819519
 20
-40.446222
 30
0.0
 11
-1.657622
 21
-40.446222
 31
0.0
  0
LINE
  5
21A
100
AcDbEntity
  8
0
390
0
  6
Continuous
 62
     7
100
AcDbLine
 10
-1.657622
 20
-40.446222
 30
0.0
 11
-1.657622
 21
-40.646222
 31
0.0
  0
LINE
  5
21B
100
AcDbEntity
  8
0
390
0
  6
Continuous
 62
     7
100
AcDbLine
 10
1.176561
 20
-40.446222
 30
0.0
 11
1.176561
 21
-40.646222
 31
0.0
  0
LINE
  5
21C
100
AcDbEntity
  8
0
390
0
  6
Continuous
 62
     7
100
AcDbLine
 10
1.176561
 20
-40.446222
 30
0.0
 11
2.404897
 21
-40.446222
 31
0.0
  0
LINE
  5
21D
100
AcDbEntity
  8
0
390
0
  6
Continuous
 62
     7
100
AcDbLine
 10
2.404897
 20
-40.446222
 30
0.0
 11
2.404897
 21
-40.646222
 31
0.0
  0
LINE
  5
21E
100
AcDbEntity
  8
0
390
0
  6
Continuous
 62
     7
100
AcDbLine
 10
-5.191998
 20
-40.446222
 30
0.0
 11
-5.191998
 21
-40.646222
 31
0.0
  0
LINE
  5
21F
100
AcDbEntity
  8
0
390
0
  6
Continuous
 62
     7
100
AcDbLine
 10
-5.191998
 20
-40.446222
 30
0.0
 11
-4.772085
 21
-40.446222
 31
0.0
  0
LINE
  5
220
100
AcDbEntity
  8
0
390
0
  6
Continuous
 62
     7
100
AcDbLine
 10
-4.772085
 20
-40.446222
 30
0.0
 11
-4.772085
 21
-40.646222
 31
0.0
  0
LINE
  5
221
100
AcDbEntity
  8
0
390
0
  6
Continuous
 62
     7
100
AcDbLine
 10
-1.657622
 20
-40.446222
 30
0.0
 11
-0.821505
 21
-40.446222
 31
0.0
  0
LINE
  5
222
100
AcDbEntity
  8
0
390
0
  6
Continuous
 62
     7
100
AcDbLine
 10
-0.821505
 20
-40.446222
 30
0.0
 11
-0.821505
 21
-40.646222
 31
0.0
  0
LINE
  5
223
100
AcDbEntity
  8
0
390
0
  6
Continuous
 62
     7
100
AcDbLine
 10
3.240983
 20
-40.446222
 30
0.0
 11
3.240983
 21
-40.646222
 31
0.0
  0
LINE
  5
224
100
AcDbEntity
  8
0
390
0
  6
Continuous
 62
     7
100
AcDbLine
 10
3.240983
 20
-40.446222
 30
0.0
 11
4.819075
 21
-40.446222
 31
0.0
  0
LINE
  5
225
100
AcDbEntity
  8
0
390
0
  6
Continuous
 62
     7
100
AcDbLine
 10
-6.35364
 20
-40.446222
 30
0.0
 11
-5.191998
 21
-40.446222
 31
0.0
  0
LINE
  5
226
100
AcDbEntity
  8
0
390
0
  6
Continuous
 62
     7
100
AcDbLine
 10
-6.35364
 20
-40.446222
 30
0.0
 11
-6.35364
 21
-40.646222
 31
0.0
  0
LINE
  5
227
100
AcDbEntity
  8
0
390
0
  6
Continuous
 62
     7
100
AcDbLine
 10
0.340474
 20
-40.446222
 30
0.0
 11
1.176561
 21
-40.446222
 31
0.0
  0
LINE
  5
228
100
AcDbEntity
  8
0
390
0
  6
Continuous
 62
     7
100
AcDbLine
 10
-0.821505
 20
-40.446222
 30
0.0
 11
0.340474
 21
-40.446222
 31
0.0
  0
LINE
  5
229
100
AcDbEntity
  8
0
390
0
  6
Continuous
 62
     7
100
AcDbLine
 10
0.340474
 20
-40.446222
 30
0.0
 11
0.340474
 21
-40.646222
 31
0.0
  0
LINE
  5
22A
100
AcDbEntity
  8
0
390
0
  6
Continuous
 62
     7
100
AcDbLine
 10
2.404897
 20
-40.446222
 30
0.0
 11
3.240983
 21
-40.446222
 31
0.0
  0
LINE
  5
22B
100
AcDbEntity
  8
0
390
0
  6
Continuous
 62
     7
100
AcDbLine
 10
-4.049501
 20
-40.446222
 30
0.0
 11
-4.049501
 21
-40.646222
 31
0.0
  0
LINE
  5
22C
100
AcDbEntity
  8
0
390
0
  6
Continuous
 62
     7
100
AcDbLine
 10
-4.772085
 20
-40.446222
 30
0.0
 11
-4.049501
 21
-40.446222
 31
0.0
  0
LINE
  5
22D
100
AcDbEntity
  8
0
390
0
  6
Continuous
 62
     7
100
AcDbLine
 10
14.182736
 20
-54.916779
 30
0.0
 11
14.182736
 21
-51.375664
 31
0.0
  0
LINE
  5
22E
100
AcDbEntity
  8
0
390
0
  6
Continuous
 62
     7
100
AcDbLine
 10
-14.182736
 20
-43.658779
 30
0.0
 11
-14.182736
 21
-42.646222
 31
0.0
  0
LINE
  5
22F
100
AcDbEntity
  8
0
390
0
  6
Continuous
 62
     7
100
AcDbLine
 10
-14.182736
 20
-54.916779
 30
0.0
 11
-14.182736
 21
-51.375664
 31
0.0
  0
LINE
  5
230
100
AcDbEntity
  8
0
390
0
  6
Continuous
 62
     7
100
AcDbLine
 10
14.182736
 20
-63.646222
 30
0.0
 11
14.182736
 21
-62.633664
 31
0.0
  0
LINE
  5
231
100
AcDbEntity
  8
0
390
0
  6
Continuous
 62
     7
100
AcDbLine
 10
14.182736
 20
-43.658779
 30
0.0
 11
14.182736
 21
-42.646222
 31
0.0
  0
LINE
  5
232
100
AcDbEntity
  8
0
390
0
  6
Continuous
 62
     7
100
AcDbLine
 10
-14.182736
 20
-63.646222
 30
0.0
 11
-14.182736
 21
-62.633664
 31
0.0
  0
LINE
  5
233
100
AcDbEntity
  8
0
390
0
  6
Continuous
 62
     7
100
AcDbLine
 10
-14.182736
 20
-60.035262
 30
0.0
 11
-14.182736
 21
-57.515511
 31
0.0
  0
LINE
  5
234
100
AcDbEntity
  8
0
390
0
  6
Continuous
 62
     7
100
AcDbLine
 10
-14.182736
 20
-48.776932
 30
0.0
 11
-14.182736
 21
-46.257181
 31
0.0
  0
LINE
  5
235
100
AcDbEntity
  8
0
390
0
  6
Continuous
 62
     7
100
AcDbLine
 10
14.182736
 20
-60.035262
 30
0.0
 11
14.182736
 21
-57.515511
 31
0.0
  0
LINE
  5
236
100
AcDbEntity
  8
0
390
0
  6
Continuous
 62
     7
100
AcDbLine
 10
14.182736
 20
-48.776932
 30
0.0
 11
14.182736
 21
-46.257181
 31
0.0
  0
LINE
  5
237
100
AcDbEntity
  8
0
390
0
  6
Continuous
 62
     7
100
AcDbLine
 10
86.587365
 20
0.0
 30
0.0
 11
86.587365
 21
23.0
 31
0.0
  0
LINE
  5
238
100
AcDbEntity
  8
0
390
0
  6
Continuous
 62
     7
100
AcDbLine
 10
91.587365
 20
23.0
 30
0.0
 11
86.587365
 21
23.0
 31
0.0
  0
LINE
  5
239
100
AcDbEntity
  8
0
390
0
  6
Continuous
 62
     7
100
AcDbLine
 10
91.587365
 20
23.0
 30
0.0
 11
91.587365
 21
0.0
 31
0.0
  0
LINE
  5
23A
100
AcDbEntity
  8
0
390
0
  6
Continuous
 62
     7
100
AcDbLine
 10
91.587365
 20
0.0
 30
0.0
 11
86.587365
 21
0.0
 31
0.0
  0
LINE
  5
23B
100
AcDbEntity
  8
0
390
0
  6
Continuous
 62
     7
100
AcDbLine
 10
71.587365
 20
23.0
 30
0.0
 11
71.587365
 21
0.0
 31
0.0
  0
LINE
  5
23C
100
AcDbEntity
  8
0
390
0
  6
Continuous
 62
     7
100
AcDbLine
 10
86.587365
 20
23.0
 30
0.0
 11
71.587365
 21
23.0
 31
0.0
  0
LINE
  5
23D
100
AcDbEntity
  8
0
390
0
  6
Continuous
 62
     7
100
AcDbLine
 10
86.587365
 20
0.0
 30
0.0
 11
71.587365
 21
0.0
 31
0.0
  0
LINE
  5
23E
100
AcDbEntity
  8
0
390
0
  6
Continuous
 62
     7
100
AcDbLine
 10
71.587365
 20
24.5
 30
0.0
 11
86.587365
 21
24.5
 31
0.0
  0
LINE
  5
23F
100
AcDbEntity
  8
0
390
0
  6
Continuous
 62
     7
100
AcDbLine
 10
86.587365
 20
24.5
 30
0.0
 11
86.587365
 21
23.0
 31
0.0
  0
LINE
  5
240
100
AcDbEntity
  8
0
390
0
  6
Continuous
 62
     7
100
AcDbLine
 10
71.587365
 20
24.5
 30
0.0
 11
71.587365
 21
23.0
 31
0.0
  0
LINE
  5
241
100
AcDbEntity
  8
0
390
0
  6
Continuous
 62
     7
100
AcDbLine
 10
68.087365
 20
24.5
 30
0.0
 11
71.587365
 21
24.5
 31
0.0
  0
LINE
  5
242
100
AcDbEntity
  8
0
390
0
  6
Continuous
 62
     7
100
AcDbLine
 10
71.587365
 20
23.0
 30
0.0
 11
66.587365
 21
23.0
 31
0.0
  0
ARC
  5
243
100
AcDbEntity
  8
0
390
0
  6
Continuous
 62
     7
100
AcDbCircle
 10
68.087365
 20
23.0
 30
0.0
 40
1.5
210
0.0
220
0.0
230
1.0
100
AcDbArc
 50
90.0
 51
180.0
  0
LINE
  5
244
100
AcDbEntity
  8
0
390
0
  6
Continuous
 62
     7
100
AcDbLine
 10
86.587365
 20
24.5
 30
0.0
 11
90.087365
 21
24.5
 31
0.0
  0
ARC
  5
245
100
AcDbEntity
  8
0
390
0
  6
Continuous
 62
     7
100
AcDbCircle
 10
90.087365
 20
23.0
 30
0.0
 40
1.5
210
0.0
220
0.0
230
1.0
100
AcDbArc
 50
0.0
 51
90.0
  0
LINE
  5
246
100
AcDbEntity
  8
0
390
0
  6
Continuous
 62
     7
100
AcDbLine
 10
66.587365
 20
0.0
 30
0.0
 11
66.587365
 21
23.0
 31
0.0
  0
LINE
  5
247
100
AcDbEntity
  8
0
390
0
  6
Continuous
 62
     7
100
AcDbLine
 10
71.587365
 20
0.0
 30
0.0
 11
66.587365
 21
0.0
 31
0.0
  0
LINE
  5
248
100
AcDbEntity
  8
0
390
0
  6
Continuous
 62
     7
100
AcDbLine
 10
66.587365
 20
23.0
 30
0.0
 11
66.587365
 21
18.5
 31
0.0
  0
LINE
  5
249
100
AcDbEntity
  8
0
390
0
  6
Continuous
 62
     7
100
AcDbLine
 10
91.587365
 20
18.5
 30
0.0
 11
91.587365
 21
23.0
 31
0.0
  0
LINE
  5
24A
100
AcDbEntity
  8
0
390
0
  6
Continuous
 62
     7
100
AcDbLine
 10
66.387365
 20
8.0
 30
0.0
 11
66.587365
 21
8.0
 31
0.0
  0
LINE
  5
24B
100
AcDbEntity
  8
0
390
0
  6
Continuous
 62
     7
100
AcDbLine
 10
66.387365
 20
9.5
 30
0.0
 11
66.587365
 21
9.5
 31
0.0
  0
LINE
  5
24C
100
AcDbEntity
  8
0
390
0
  6
Continuous
 62
     7
100
AcDbLine
 10
66.387365
 20
8.0
 30
0.0
 11
66.387365
 21
9.5
 31
0.0
  0
LINE
  5
24D
100
AcDbEntity
  8
0
390
0
  6
Continuous
 62
     7
100
AcDbLine
 10
66.387365
 20
12.496708
 30
0.0
 11
66.587365
 21
12.496708
 31
0.0
  0
LINE
  5
24E
100
AcDbEntity
  8
0
390
0
  6
Continuous
 62
     7
100
AcDbLine
 10
66.387365
 20
9.5
 30
0.0
 11
66.387365
 21
12.496708
 31
0.0
  0
POINT
  5
24F
100
AcDbEntity
  8
0
390
0
 62
     7
100
AcDbPoint
 10
0.0
 20
0.0
 30
0.0
  0
ENDSEC
  0
SECTION
  2
OBJECTS
  0
DICTIONARY
  5
19
100
AcDbDictionary
280
     0
281
     1
  3
ACAD_GROUP
350
1A
  3
ACAD_MLINESTYLE
350
1B
  3
ACAD_LAYOUT
350
1E
  3
ACAD_PLOTSETTINGS
350
22
  3
ACAD_PLOTSTYLENAME
350
1F
  3
ACAD_WIPEOUT_VARS
350
23
  0
DICTIONARY
  5
1A
102
{ACAD_REACTORS
330
19
102
}
100
AcDbDictionary
280
     0
281
     1
  0
DICTIONARY
  5
1B
102
{ACAD_REACTORS
330
19
102
}
100
AcDbDictionary
280
     0
281
     1
  3
Standard
350
1C
  0
MLINESTYLE
  5
1C
102
{ACAD_REACTORS
330
1B
102
}
100
AcDbMlineStyle
  2
Standard
 70
     0
  3

 62
     0
 51
90.0
 52
90.0
 71
     2
 49
0.5
 62
   256
  6
ByLayer
 49
-0.5
 62
   256
  6
ByLayer
  0
ACDBDICTIONARYWDFLT
  5
1F
102
{ACAD_REACTORS
330
19
102
}
100
AcDbDictionary
281
     1
  3
Normal
350
1D
100
AcDbDictionaryWithDefault
340
1D
  0
ACDBPLACEHOLDER
  5
1D
102
{ACAD_REACTORS
330
1F
102
}
  0
LAYOUT
  5
20
102
{ACAD_REACTORS
330
1E
102
}
100
AcDbPlotSettings
  1

  2

  4

  6

 40
0.0
 41
0.0
 42
0.0
 43
0.0
 44
0.0
 45
0.0
 46
0.0
 47
0.0
 48
0.0
 49
0.0
140
0.0
141
0.0
142
1.0
143
1.0
 70
  1024
 72
     0
 73
     0
 74
     0
  7

 75
     0
147
1.0
148
0.0
149
0.0
100
AcDbLayout
  1
Model
 70
     0
 71
     1
 10
0.0
 20
0.0
 11
0.0
 21
0.0
 12
0.0
 22
0.0
 32
0.0
 14
0.0
 24
0.0
 34
0.0
 15
0.0
 25
0.0
 35
0.0
146
0.0
 13
0.0
 23
0.0
 33
0.0
 16
0.0
 26
0.0
 36
0.0
 17
0.0
 27
0.0
 37
0.0
 76
     0
330
A
331
0
345
0
346
0
  0
LAYOUT
  5
21
102
{ACAD_REACTORS
330
1E
102
}
100
AcDbPlotSettings
  1

  2

  4

  6

 40
0.0
 41
0.0
 42
0.0
 43
0.0
 44
0.0
 45
0.0
 46
0.0
 47
0.0
 48
0.0
 49
0.0
140
0.0
141
0.0
142
1.0
143
1.0
 70
     0
 72
     0
 73
     0
 74
     0
  7

 75
     0
147
1.0
148
0.0
149
0.0
100
AcDbLayout
  1
Layout1
 70
     0
 71
     2
 10
0.0
 20
0.0
 11
0.0
 21
0.0
 12
0.0
 22
0.0
 32
0.0
 14
0.0
 24
0.0
 34
0.0
 15
0.0
 25
0.0
 35
0.0
146
0.0
 13
0.0
 23
0.0
 33
0.0
 16
0.0
 26
0.0
 36
0.0
 17
0.0
 27
0.0
 37
0.0
 76
     0
330
B
331
0
345
0
346
0
  0
DICTIONARY
  5
1E
102
{ACAD_REACTORS
330
19
102
}
100
AcDbDictionary
280
     0
281
     1
  3
Layout1
350
21
  3
Model
350
20
  0
DICTIONARY
  5
22
102
{ACAD_REACTORS
330
19
102
}
100
AcDbDictionary
280
     0
281
     1
  0
WIPEOUTVARIABLES
  5
23
100
AcDbWipeoutVariables
 70
     1
  0
ENDSEC
  0
EOF
