  0
SECTION
  2
HEADER
  9
$ACADVER
  1
AC1015
  9
$ACADMAINTVER
 70
     6
  9
$DWGCODEPAGE
  3
DOS932
  9
$INSBASE
 10
0.0
 20
0.0
 30
0.0
  9
$EXTMIN
 10
-78.0
 20
-94.779289
 30
0.0
  9
$EXTMAX
 10
475.001478
 20
364.940823
 30
9.906
  9
$LIMMIN
 10
-78.0
 20
-94.779289
  9
$LIMMAX
 10
475.001478
 20
364.940823
  9
$ORTHOMODE
 70
     0
  9
$REGENMODE
 70
     1
  9
$FILLMODE
 70
     1
  9
$QTEXTMODE
 70
     0
  9
$MIRRTEXT
 70
     1
  9
$LTSCALE
 40
10.0
  9
$ATTMODE
 70
     1
  9
$TEXTSIZE
 40
0.2
  9
$TRACEWID
 40
0.05
  9
$TEXTSTYLE
  7
Standard
  9
$CLAYER
  8
0
  9
$CELTYPE
  6
Continuous
  9
$CECOLOR
 62
   256
  9
$CELTSCALE
 40
1.0
  9
$DISPSILH
 70
     0
  9
$DIMSCALE
 40
1.0
  9
$DIMASZ
 40
1.40208
  9
$DIMEXO
 40
1.40208
  9
$DIMDLI
 40
0.38
  9
$DIMRND
 40
0.0
  9
$DIMDLE
 40
0.0
  9
$DIMEXE
 40
1.05156
  9
$DIMTP
 40
0.0
  9
$DIMTM
 40
0.0
  9
$DIMTXT
 40
3.5052
  9
$DIMCEN
 40
0.09
  9
$DIMTSZ
 40
0.0
  9
$DIMTOL
 70
     0
  9
$DIMLIM
 70
     0
  9
$DIMTIH
 70
     0
  9
$DIMTOH
 70
     0
  9
$DIMSE1
 70
     0
  9
$DIMSE2
 70
     0
  9
$DIMTAD
 70
     1
  9
$DIMZIN
 70
     0
  9
$DIMBLK
  1

  9
$DIMASO
 70
     1
  9
$DIMSHO
 70
     1
  9
$DIMPOST
  1

  9
$DIMAPOST
  1

  9
$DIMALT
 70
     0
  9
$DIMALTD
 70
     2
  9
$DIMALTF
 40
25.4
  9
$DIMLFAC
 40
1.0
  9
$DIMTOFL
 70
     0
  9
$DIMTVP
 40
0.0
  9
$DIMTIX
 70
     0
  9
$DIMSOXD
 70
     0
  9
$DIMSAH
 70
     0
  9
$DIMBLK1
  1

  9
$DIMBLK2
  1

  9
$DIMSTYLE
  2
Standard
  9
$DIMCLRD
 70
     7
  9
$DIMCLRE
 70
     7
  9
$DIMCLRT
 70
     7
  9
$DIMTFAC
 40
0.5
  9
$DIMGAP
 40
1.7526
  9
$DIMJUST
 70
     0
  9
$DIMSD1
 70
     0
  9
$DIMSD2
 70
     0
  9
$DIMTOLJ
 70
     1
  9
$DIMTZIN
 70
     0
  9
$DIMALTZ
 70
     0
  9
$DIMALTTZ
 70
     0
  9
$DIMUPT
 70
     0
  9
$DIMDEC
 70
     2
  9
$DIMTDEC
 70
     4
  9
$DIMALTU
 70
     2
  9
$DIMALTTD
 70
     2
  9
$DIMTXSTY
  7
Standard
  9
$DIMAUNIT
 70
     0
  9
$DIMADEC
 70
     0
  9
$DIMALTRND
 40
0.0
  9
$DIMAZIN
 70
     0
  9
$DIMDSEP
 70
     0
  9
$DIMATFIT
 70
     3
  9
$DIMFRAC
 70
     0
  9
$DIMLDRBLK
  1

  9
$DIMLUNIT
 70
     2
  9
$DIMLWD
 70
     0
  9
$DIMLWE
 70
     0
  9
$DIMTMOVE
 70
     0
  9
$LUNITS
 70
     2
  9
$LUPREC
 70
     4
  9
$SKETCHINC
 40
0.1
  9
$FILLETRAD
 40
0.0
  9
$AUNITS
 70
     0
  9
$AUPREC
 70
     0
  9
$MENU
  1
acad
  9
$ELEVATION
 40
0.0
  9
$PELEVATION
 40
0.0
  9
$THICKNESS
 40
0.0
  9
$LIMCHECK
 70
     0
  9
$CHAMFERA
 40
0.0
  9
$CHAMFERB
 40
0.0
  9
$CHAMFERC
 40
0.0
  9
$CHAMFERD
 40
0.0
  9
$SKPOLY
 70
     0
  9
$TDCREATE
 40
2459780.686400463
  9
$TDUCREATE
 40
0.000000000
  9
$TDUPDATE
 40
2459780.311331018
  9
$TDUUPDATE
 40
0.000000000
  9
$TDINDWG
 40
0.0000000000
  9
$TDUSRTIMER
 40
0.0000000000
  9
$USRTIMER
 70
     1
  9
$ANGBASE
 50
0.0
  9
$ANGDIR
 70
     0
  9
$PDMODE
 70
     0
  9
$PDSIZE
 40
0.0
  9
$PLINEWID
 40
0.0
  9
$SPLFRAME
 70
     0
  9
$SPLINETYPE
 70
     6
  9
$SPLINESEGS
 70
     8
  9
$HANDSEED
  5
584
  9
$SURFTAB1
 70
     6
  9
$SURFTAB2
 70
     6
  9
$SURFTYPE
 70
     6
  9
$SURFU
 70
     6
  9
$SURFV
 70
     6
  9
$UCSBASE
  2

  9
$UCSNAME
  2

  9
$UCSORG
 10
0.0
 20
0.0
 30
0.0
  9
$UCSXDIR
 10
1.0
 20
0.0
 30
0.0
  9
$UCSYDIR
 10
0.0
 20
1.0
 30
0.0
  9
$UCSORTHOREF
  2

  9
$UCSORTHOVIEW
 70
     0
  9
$UCSORGTOP
 10
0.0
 20
0.0
 30
0.0
  9
$UCSORGBOTTOM
 10
0.0
 20
0.0
 30
0.0
  9
$UCSORGLEFT
 10
0.0
 20
0.0
 30
0.0
  9
$UCSORGRIGHT
 10
0.0
 20
0.0
 30
0.0
  9
$UCSORGFRONT
 10
0.0
 20
0.0
 30
0.0
  9
$UCSORGBACK
 10
0.0
 20
0.0
 30
0.0
  9
$PUCSBASE
  2

  9
$PUCSNAME
  2

  9
$PUCSORG
 10
0.0
 20
0.0
 30
0.0
  9
$PUCSXDIR
 10
1.0
 20
0.0
 30
0.0
  9
$PUCSYDIR
 10
0.0
 20
1.0
 30
0.0
  9
$PUCSORTHOREF
  2

  9
$PUCSORTHOVIEW
 70
     0
  9
$PUCSORGTOP
 10
0.0
 20
0.0
 30
0.0
  9
$PUCSORGBOTTOM
 10
0.0
 20
0.0
 30
0.0
  9
$PUCSORGLEFT
 10
0.0
 20
0.0
 30
0.0
  9
$PUCSORGRIGHT
 10
0.0
 20
0.0
 30
0.0
  9
$PUCSORGFRONT
 10
0.0
 20
0.0
 30
0.0
  9
$PUCSORGBACK
 10
0.0
 20
0.0
 30
0.0
  9
$USERI1
 70
     0
  9
$USERI2
 70
     0
  9
$USERI3
 70
     0
  9
$USERI4
 70
     0
  9
$USERI5
 70
     0
  9
$USERR1
 40
0.0
  9
$USERR2
 40
0.0
  9
$USERR3
 40
0.0
  9
$USERR4
 40
0.0
  9
$USERR5
 40
0.0
  9
$WORLDVIEW
 70
     1
  9
$SHADEDGE
 70
     3
  9
$SHADEDIF
 70
    70
  9
$TILEMODE
 70
     1
  9
$MAXACTVP
 70
    16
  9
$PINSBASE
 10
0.0
 20
0.0
 30
0.0
  9
$PLIMCHECK
 70
     0
  9
$PEXTMIN
 10
1.000000E+20
 20
1.000000E+20
 30
1.000000E+20
  9
$PEXTMAX
 10
-1.000000E+20
 20
-1.000000E+20
 30
-1.000000E+20
  9
$PLIMMIN
 10
0.0
 20
0.0
  9
$PLIMMAX
 10
12.0
 20
9.0
  9
$UNITMODE
 70
     0
  9
$VISRETAIN
 70
     0
  9
$PLINEGEN
 70
     1
  9
$PSLTSCALE
 70
     0
  9
$TREEDEPTH
 70
  3020
  9
$CMLSTYLE
  2
Standard
  9
$CMLJUST
 70
     0
  9
$CMLSCALE
 40
1.0
  9
$PROXYGRAPHICS
 70
     0
  9
$MEASUREMENT
 70
     0
  9
$CELWEIGHT
370
     0
  9
$ENDCAPS
280
     0
  9
$JOINSTYLE
280
     0
  9
$LWDISPLAY
290
     0
  9
$INSUNITS
 70
     0
  9
$HYPERLINKBASE
  1

  9
$STYLESHEET
  1

  9
$XEDIT
290
     1
  9
$CEPSNTYPE
380
     0
  9
$PSTYLEMODE
290
     1
  9
$FINGERPRINTGUID
  2

  9
$VERSIONGUID
  2

  9
$EXTNAMES
290
     1
  9
$PSVPSCALE
 40
0.0
  0
ENDSEC
  0
SECTION
  2
CLASSES
  0
CLASS
  1
LWPOLYLINE
  2
AcDbPolyline
  3
AutoCAD 2000
 90
        0
280
     0
281
     1
  0
CLASS
  1
IMAGE
  2
AcDbRasterImage
  3
ISM
 90
      127
280
     0
281
     1
  0
CLASS
  1
OLE2FRAME
  2
AcDbOle2Frame
  3
AutoCAD 2000
 90
        0
280
     0
281
     1
  0
CLASS
  1
HATCH
  2
AcDbHatch
  3
AutoCAD 2000
 90
        0
280
     0
281
     1
  0
CLASS
  1
DICTIONARYVAR
  2
AcDbDictionaryVar
  3
AutoCAD 2000
 90
        0
280
     0
281
     0
  0
CLASS
  1
RASTERVARIABLES
  2
AcDbRasterVariables
  3
ISM
 90
        0
280
     0
281
     0
  0
CLASS
  1
IMAGEDEF
  2
AcDbRasterImageDef
  3
ISM
 90
        0
280
     0
281
     0
  0
CLASS
  1
IMAGEDEF_REACTOR
  2
AcDbRasterImageDefReactor
  3
ISM
 90
        1
280
     0
281
     0
  0
CLASS
  1
IDBUFFER
  2
AcDbIdBuffer
  3
AutoCAD 2000
 90
        0
280
     0
281
     0
  0
CLASS
  1
SPATIAL_FILTER
  2
AcDbSpatialFilter
  3
AutoCAD 2000
 90
        0
280
     0
281
     0
  0
CLASS
  1
XRECORD
  2
AcDbXrecord
  3
AutoCAD 2000
 90
        0
280
     0
281
     0
  0
CLASS
  1
SORTENTSTABLE
  2
AcDbSortentsTable
  3
AutoCAD 2000
 90
        0
280
     0
281
     0
  0
CLASS
  1
LAYER_INDEX
  2
AcDbLayerIndex
  3
AutoCAD 2000
 90
        0
280
     0
281
     0
  0
CLASS
  1
SPATIAL_INDEX
  2
AcDbSpatialIndex
  3
AutoCAD 2000
 90
        0
280
     0
281
     0
  0
CLASS
  1
OBJECT_PTR
  2
CAseDLPNTableRecord
  3
"ASE-LPNTableRecord"
 90
        1
280
     0
281
     0
  0
CLASS
  1
LAYOUT
  2
AcDbLayout
  3
AutoCAD 2000
 90
        0
280
     0
281
     0
  0
CLASS
  1
PLOTSETTINGS
  2
AcDbPlotSettings
  3
AutoCAD 2000
 90
        0
280
     0
281
     0
  0
CLASS
  1
ACDBDICTIONARYWDFLT
  2
AcDbDictionaryWithDefault
  3
AutoCAD 2000
 90
        0
280
     0
281
     0
  0
CLASS
  1
ACDBPLACEHOLDER
  2
AcDbPlaceHolder
  3
AutoCAD 2000
 90
        0
280
     0
281
     0
  0
CLASS
  1
VBA_PROJECT
  2
AcDbVbaProject
  3
acadvba
 90
        0
280
     0
281
     0
  0
CLASS
  1
WIPEOUT
  2
AcDbWipeout
  3
WipeOut|AutoCAD Express Tool|expresstools@autodesk.com
 90
      127
280
     0
281
     1
  0
CLASS
  1
WIPEOUTVARIABLES
  2
AcDbWipeoutVariables
  3
WipeOut|AutoCAD Express Tool|expresstools@autodesk.com
 90
        0
280
     0
281
     0
  0
CLASS
  1
RTEXT
  2
RText
  3
RText|AutoCAD Express Tool|expresstools@autodesk.com
 90
        0
280
     0
281
     1
  0
CLASS
  1
ARCALIGNEDTEXT
  2
AcDbArcAlignedText
  3
ATEXT|AutoCAD Express Tool|expresstools@autodesk.com
 90
        0
280
     0
281
     1
  0
ENDSEC
  0
SECTION
  2
TABLES
  0
TABLE
  2
VPORT
  5
7
100
AcDbSymbolTable
 70
     1
  0
VPORT
  5
15
100
AcDbSymbolTableRecord
100
AcDbViewportTableRecord
  2
*ACTIVE
 70
     0
 10
0.0
 20
0.0
 11
1.0
 21
1.0
 12
6.591288
 22
4.579184
 13
0.0
 23
0.0
 14
1.0
 24
1.0
 15
0.0
 25
0.0
 16
0.0
 26
0.0
 36
1.0
 17
0.0
 27
0.0
 37
0.0
 40
9.158369
 41
0.688564
 42
50.0
 43
0.0
 44
0.0
 50
0.0
 51
0.0
 71
     0
 72
   100
 73
     1
 74
     1
 75
     0
 76
     0
 77
     0
 78
     0
281
     0
 65
     0
110
0.0
120
0.0
130
0.0
111
1.0
121
0.0
131
0.0
112
0.0
122
1.0
132
0.0
345
0
346
0
 79
     0
146
0.0
  0
ENDTAB
  0
TABLE
  2
LTYPE
  5
4
100
AcDbSymbolTable
 70
     3
  0
LTYPE
  5
11
100
AcDbSymbolTableRecord
100
AcDbLinetypeTableRecord
  2
ByBlock
 70
    64
  3

 72
    65
 73
     0
 40
0.0
  0
LTYPE
  5
12
100
AcDbSymbolTableRecord
100
AcDbLinetypeTableRecord
  2
ByLayer
 70
    64
  3

 72
    65
 73
     0
 40
0.0
  0
LTYPE
  5
13
100
AcDbSymbolTableRecord
100
AcDbLinetypeTableRecord
  2
Continuous
 70
    64
  3
Solid line
 72
    65
 73
     0
 40
0.0
  0
ENDTAB
  0
TABLE
  2
LAYER
  5
2
100
AcDbSymbolTable
 70
     1
  0
LAYER
  5
14
100
AcDbSymbolTableRecord
100
AcDbLayerTableRecord
  2
0
 70
     0
 62
     7
  6
Continuous
290
     1
370
    -3
390
1D
  0
ENDTAB
  0
TABLE
  2
STYLE
  5
3
100
AcDbSymbolTable
 70
     1
  0
STYLE
  5
17
100
AcDbSymbolTableRecord
100
AcDbTextStyleTableRecord
  2
Standard
 70
     0
 40
0.0
 41
1.0
 50
0.0
 71
     0
 42
0.0
  3
FG教科書体NT-M
  4

1001
ACAD
1000
FG教科書体NT-M
1071
        0
  0
ENDTAB
  0
TABLE
  2
VIEW
  5
5
100
AcDbSymbolTable
 70
     0
  0
ENDTAB
  0
TABLE
  2
UCS
  5
6
100
AcDbSymbolTable
 70
     0
  0
ENDTAB
  0
TABLE
  2
APPID
  5
8
100
AcDbSymbolTable
 70
     2
  0
APPID
  5
16
100
AcDbSymbolTableRecord
100
AcDbRegAppTableRecord
  2
ACAD
 70
     0
  0
APPID
  5
26
100
AcDbSymbolTableRecord
100
AcDbRegAppTableRecord
  2
TOPsolid_Design
 70
     0
  0
ENDTAB
  0
TABLE
  2
DIMSTYLE
  5
9
100
AcDbSymbolTable
 70
     1
100
AcDbDimStyleTable
 71
     0
  0
DIMSTYLE
105
18
100
AcDbSymbolTableRecord
100
AcDbDimStyleTableRecord
  2
Standard
 70
     0
  3

  4

 40
1.0
 41
1.40208
 42
1.40208
 43
0.38
 44
1.05156
 45
0.0
 46
0.0
 47
0.0
 48
0.0
 71
     0
 72
     0
 73
     0
 74
     0
 75
     0
 76
     0
 77
     1
 78
     0
 79
     0
140
3.5052
141
0.09
142
0.0
143
25.4
144
1.0
145
0.0
146
0.5
147
1.7526
148
0.0
170
     0
171
     2
172
     0
173
     0
174
     0
175
     0
176
     7
177
     7
178
     7
179
     0
271
     2
272
     4
273
     2
274
     2
275
     0
276
     0
277
     2
278
    46
279
     0
280
     0
281
     0
282
     0
283
     1
284
     0
285
     0
286
     0
288
     0
289
     3
340
17
341
0
342
0
343
0
344
0
371
    -2
372
    -2
  0
ENDTAB
  0
TABLE
  2
BLOCK_RECORD
  5
1
100
AcDbSymbolTable
 70
     0
  0
BLOCK_RECORD
  5
A
100
AcDbSymbolTableRecord
100
AcDbBlockTableRecord
  2
*MODEL_SPACE
340
20
  0
BLOCK_RECORD
  5
B
100
AcDbSymbolTableRecord
100
AcDbBlockTableRecord
  2
*PAPER_SPACE
340
21
  0
ENDTAB
  0
ENDSEC
  0
SECTION
  2
BLOCKS
  0
BLOCK
  5
D
100
AcDbEntity
  8
0
390
0
100
AcDbBlockBegin
  2
*MODEL_SPACE
 70
     0
 10
0.0
 20
0.0
 30
0.0
  3
*MODEL_SPACE
  1

  0
ENDBLK
  5
E
100
AcDbEntity
  8
0
390
0
100
AcDbBlockEnd
  0
BLOCK
  5
F
100
AcDbEntity
 67
     1
  8
0
390
0
100
AcDbBlockBegin
  2
*PAPER_SPACE
 70
     0
 10
0.0
 20
0.0
 30
0.0
  3
*PAPER_SPACE
  1

  0
ENDBLK
  5
10
100
AcDbEntity
 67
     1
  8
0
390
0
100
AcDbBlockEnd
  0
ENDSEC
  0
SECTION
  2
ENTITIES
  0
LINE
  5
27
100
AcDbEntity
  8
0
390
0
  6
Continuous
 62
     7
100
AcDbLine
 10
0.340474
 20
8.25
 30
0.0
 11
-1.476508
 21
12.746708
 31
0.0
  0
LINE
  5
28
100
AcDbEntity
  8
0
390
0
  6
Continuous
 62
     7
100
AcDbLine
 10
-0.821505
 20
8.25
 30
0.0
 11
0.340474
 21
8.25
 31
0.0
  0
LINE
  5
29
100
AcDbEntity
  8
0
390
0
  6
Continuous
 62
     7
100
AcDbLine
 10
-2.638488
 20
12.746708
 30
0.0
 11
-0.821505
 21
8.25
 31
0.0
  0
LINE
  5
2A
100
AcDbEntity
  8
0
390
0
  6
Continuous
 62
     7
100
AcDbLine
 10
-1.476508
 20
12.746708
 30
0.0
 11
-2.638488
 21
12.746708
 31
0.0
  0
LINE
  5
2B
100
AcDbEntity
  8
0
390
0
  6
Continuous
 62
     7
100
AcDbLine
 10
1.176561
 20
8.25
 30
0.0
 11
2.404897
 21
8.25
 31
0.0
  0
LINE
  5
2C
100
AcDbEntity
  8
0
390
0
  6
Continuous
 62
     7
100
AcDbLine
 10
0.250797
 20
10.540946
 30
0.0
 11
1.176561
 21
8.25
 31
0.0
  0
LINE
  5
2D
100
AcDbEntity
  8
0
390
0
  6
Continuous
 62
     7
100
AcDbLine
 10
0.831794
 20
11.979217
 30
0.0
 11
0.250797
 21
10.540946
 31
0.0
  0
LINE
  5
2E
100
AcDbEntity
  8
0
390
0
  6
Continuous
 62
     7
100
AcDbLine
 10
1.790601
 20
9.606196
 30
0.0
 11
0.831794
 21
11.979217
 31
0.0
  0
LINE
  5
2F
100
AcDbEntity
  8
0
390
0
  6
Continuous
 62
     7
100
AcDbLine
 10
3.059599
 20
12.746708
 30
0.0
 11
1.790601
 21
9.606196
 31
0.0
  0
LINE
  5
30
100
AcDbEntity
  8
0
390
0
  6
Continuous
 62
     7
100
AcDbLine
 10
4.221594
 20
12.746708
 30
0.0
 11
3.059599
 21
12.746708
 31
0.0
  0
LINE
  5
31
100
AcDbEntity
  8
0
390
0
  6
Continuous
 62
     7
100
AcDbLine
 10
2.404897
 20
8.25
 30
0.0
 11
4.221594
 21
12.746708
 31
0.0
  0
LINE
  5
32
100
AcDbEntity
  8
0
390
0
  6
Continuous
 62
     7
100
AcDbLine
 10
3.240983
 20
8.25
 30
0.0
 11
4.819075
 21
8.25
 31
0.0
  0
LINE
  5
33
100
AcDbEntity
  8
0
390
0
  6
Continuous
 62
     7
100
AcDbLine
 10
3.505179
 20
8.903906
 30
0.0
 11
3.240983
 21
8.25
 31
0.0
  0
LINE
  5
34
100
AcDbEntity
  8
0
390
0
  6
Continuous
 62
     7
100
AcDbLine
 10
4.143902
 20
8.903906
 30
0.0
 11
3.505179
 21
8.903906
 31
0.0
  0
ARC
  5
35
100
AcDbEntity
  8
0
390
0
  6
Continuous
 62
     7
100
AcDbCircle
 10
4.143902
 20
9.903906
 30
0.0
 40
1.0
210
0.0
220
0.0
230
1.0
100
AcDbArc
 50
270.0
 51
360.0
  0
LINE
  5
36
100
AcDbEntity
  8
0
390
0
  6
Continuous
 62
     7
100
AcDbLine
 10
5.143902
 20
12.746708
 30
0.0
 11
5.143902
 21
9.903906
 31
0.0
  0
LINE
  5
37
100
AcDbEntity
  8
0
390
0
  6
Continuous
 62
     7
100
AcDbLine
 10
6.319075
 20
12.746708
 30
0.0
 11
5.143902
 21
12.746708
 31
0.0
  0
LINE
  5
38
100
AcDbEntity
  8
0
390
0
  6
Continuous
 62
     7
100
AcDbLine
 10
6.319075
 20
9.75
 30
0.0
 11
6.319075
 21
12.746708
 31
0.0
  0
ARC
  5
39
100
AcDbEntity
  8
0
390
0
  6
Continuous
 62
     7
100
AcDbCircle
 10
4.819075
 20
9.75
 30
0.0
 40
1.5
210
0.0
220
0.0
230
1.0
100
AcDbArc
 50
270.0
 51
360.0
  0
LINE
  5
3A
100
AcDbEntity
  8
0
390
0
  6
Continuous
 62
     7
100
AcDbLine
 10
-4.991636
 20
11.621513
 30
0.0
 11
-6.35364
 21
8.25
 31
0.0
  0
LINE
  5
3B
100
AcDbEntity
  8
0
390
0
  6
Continuous
 62
     7
100
AcDbLine
 10
-4.0495
 20
9.288567
 30
0.0
 11
-4.991636
 21
11.621513
 31
0.0
  0
LINE
  5
3C
100
AcDbEntity
  8
0
390
0
  6
Continuous
 62
     7
100
AcDbLine
 10
-4.772084
 20
9.288567
 30
0.0
 11
-4.0495
 21
9.288567
 31
0.0
  0
LINE
  5
3D
100
AcDbEntity
  8
0
390
0
  6
Continuous
 62
     7
100
AcDbLine
 10
-5.191998
 20
8.25
 30
0.0
 11
-4.772084
 21
9.288567
 31
0.0
  0
LINE
  5
3E
100
AcDbEntity
  8
0
390
0
  6
Continuous
 62
     7
100
AcDbLine
 10
-6.35364
 20
8.25
 30
0.0
 11
-5.191998
 21
8.25
 31
0.0
  0
LINE
  5
3F
100
AcDbEntity
  8
0
390
0
  6
Continuous
 62
     7
100
AcDbLine
 10
-2.819519
 20
8.25
 30
0.0
 11
-1.657622
 21
8.25
 31
0.0
  0
LINE
  5
40
100
AcDbEntity
  8
0
390
0
  6
Continuous
 62
     7
100
AcDbLine
 10
-4.636245
 20
12.746708
 30
0.0
 11
-2.819519
 21
8.25
 31
0.0
  0
LINE
  5
41
100
AcDbEntity
  8
0
390
0
  6
Continuous
 62
     7
100
AcDbLine
 10
-3.474604
 20
12.746708
 30
0.0
 11
-4.636245
 21
12.746708
 31
0.0
  0
LINE
  5
42
100
AcDbEntity
  8
0
390
0
  6
Continuous
 62
     7
100
AcDbLine
 10
-1.657622
 20
8.25
 30
0.0
 11
-3.474604
 21
12.746708
 31
0.0
  0
ARC
  5
43
100
AcDbEntity
  8
0
390
0
  6
Continuous
 62
     7
100
AcDbCircle
 10
32.908965
 20
28.5
 30
0.0
 40
1.5
210
0.0
220
0.0
230
1.0
100
AcDbArc
 50
90.0
 51
123.804756
  0
LINE
  5
44
100
AcDbEntity
  8
0
390
0
  6
Continuous
 62
     7
100
AcDbLine
 10
32.908965
 20
28.5
 30
0.0
 11
32.908965
 21
30.0
 31
0.0
  0
LINE
  5
45
100
AcDbEntity
  8
0
390
0
  6
Continuous
 62
     7
100
AcDbLine
 10
32.908965
 20
28.5
 30
0.0
 11
32.074419
 21
29.746407
 31
0.0
  0
LINE
  5
46
100
AcDbEntity
  8
0
390
0
  6
Continuous
 62
     7
100
AcDbLine
 10
65.5
 20
0.0
 30
0.0
 11
65.5
 21
2.0
 31
0.0
  0
LINE
  5
47
100
AcDbEntity
  8
0
390
0
  6
Continuous
 62
     7
100
AcDbLine
 10
65.5
 20
2.0
 30
0.0
 11
78.0
 21
2.0
 31
0.0
  0
LINE
  5
48
100
AcDbEntity
  8
0
390
0
  6
Continuous
 62
     7
100
AcDbLine
 10
78.0
 20
0.0
 30
0.0
 11
78.0
 21
2.0
 31
0.0
  0
LINE
  5
49
100
AcDbEntity
  8
0
390
0
  6
Continuous
 62
     7
100
AcDbLine
 10
78.0
 20
0.0
 30
0.0
 11
65.5
 21
0.0
 31
0.0
  0
ARC
  5
4A
100
AcDbEntity
  8
0
390
0
  6
Continuous
 62
     7
100
AcDbCircle
 10
0.0
 20
77.65
 30
0.0
 40
59.15
210
0.0
220
0.0
230
1.0
100
AcDbArc
 50
236.195244
 51
303.804756
  0
LINE
  5
4B
100
AcDbEntity
  8
0
390
0
  6
Continuous
 62
     7
100
AcDbLine
 10
-32.908965
 20
28.5
 30
0.0
 11
-32.074418
 21
29.746407
 31
0.0
  0
ARC
  5
4C
100
AcDbEntity
  8
0
390
0
  6
Continuous
 62
     7
100
AcDbCircle
 10
0.0
 20
77.65
 30
0.0
 40
57.65
210
0.0
220
0.0
230
1.0
100
AcDbArc
 50
236.195244
 51
303.804756
  0
LINE
  5
4D
100
AcDbEntity
  8
0
390
0
  6
Continuous
 62
     7
100
AcDbLine
 10
-65.5
 20
2.0
 30
0.0
 11
-65.5
 21
0.0
 31
0.0
  0
LINE
  5
4E
100
AcDbEntity
  8
0
390
0
  6
Continuous
 62
     7
100
AcDbLine
 10
-78.0
 20
2.0
 30
0.0
 11
-78.0
 21
0.0
 31
0.0
  0
LINE
  5
4F
100
AcDbEntity
  8
0
390
0
  6
Continuous
 62
     7
100
AcDbLine
 10
-78.0
 20
2.0
 30
0.0
 11
-65.5
 21
2.0
 31
0.0
  0
LINE
  5
50
100
AcDbEntity
  8
0
390
0
  6
Continuous
 62
     7
100
AcDbLine
 10
-65.5
 20
0.0
 30
0.0
 11
-78.0
 21
0.0
 31
0.0
  0
LINE
  5
51
100
AcDbEntity
  8
0
390
0
  6
Continuous
 62
     7
100
AcDbLine
 10
48.0
 20
28.5
 30
0.0
 11
32.908965
 21
28.5
 31
0.0
  0
LINE
  5
52
100
AcDbEntity
  8
0
390
0
  6
Continuous
 62
     7
100
AcDbLine
 10
32.908965
 20
30.0
 30
0.0
 11
48.0
 21
30.0
 31
0.0
  0
LINE
  5
53
100
AcDbEntity
  8
0
390
0
  6
Continuous
 62
     7
100
AcDbLine
 10
48.0
 20
28.5
 30
0.0
 11
48.0
 21
30.0
 31
0.0
  0
LINE
  5
54
100
AcDbEntity
  8
0
390
0
  6
Continuous
 62
     7
100
AcDbLine
 10
-53.0
 20
2.0
 30
0.0
 11
-53.0
 21
28.5
 31
0.0
  0
LINE
  5
55
100
AcDbEntity
  8
0
390
0
  6
Continuous
 62
     7
100
AcDbLine
 10
-48.0
 20
28.5
 30
0.0
 11
-53.0
 21
28.5
 31
0.0
  0
LINE
  5
56
100
AcDbEntity
  8
0
390
0
  6
Continuous
 62
     7
100
AcDbLine
 10
-48.0
 20
28.5
 30
0.0
 11
-48.0
 21
2.0
 31
0.0
  0
LINE
  5
57
100
AcDbEntity
  8
0
390
0
  6
Continuous
 62
     7
100
AcDbLine
 10
48.0
 20
2.0
 30
0.0
 11
48.0
 21
28.5
 31
0.0
  0
LINE
  5
58
100
AcDbEntity
  8
0
390
0
  6
Continuous
 62
     7
100
AcDbLine
 10
53.0
 20
28.5
 30
0.0
 11
48.0
 21
28.5
 31
0.0
  0
LINE
  5
59
100
AcDbEntity
  8
0
390
0
  6
Continuous
 62
     7
100
AcDbLine
 10
53.0
 20
28.5
 30
0.0
 11
53.0
 21
2.0
 31
0.0
  0
ARC
  5
5A
100
AcDbEntity
  8
0
390
0
  6
Continuous
 62
     7
100
AcDbCircle
 10
-32.908965
 20
28.5
 30
0.0
 40
1.5
210
0.0
220
0.0
230
1.0
100
AcDbArc
 50
56.195244
 51
90.0
  0
LINE
  5
5B
100
AcDbEntity
  8
0
390
0
  6
Continuous
 62
     7
100
AcDbLine
 10
-32.908965
 20
28.5
 30
0.0
 11
-32.908965
 21
30.0
 31
0.0
  0
LINE
  5
5C
100
AcDbEntity
  8
0
390
0
  6
Continuous
 62
     7
100
AcDbLine
 10
48.0
 20
30.0
 30
0.0
 11
51.5
 21
30.0
 31
0.0
  0
ARC
  5
5D
100
AcDbEntity
  8
0
390
0
  6
Continuous
 62
     7
100
AcDbCircle
 10
51.5
 20
28.5
 30
0.0
 40
1.5
210
0.0
220
0.0
230
1.0
100
AcDbArc
 50
0.0
 51
90.0
  0
ARC
  5
5E
100
AcDbEntity
  8
0
390
0
  6
Continuous
 62
     7
100
AcDbCircle
 10
-51.5
 20
28.5
 30
0.0
 40
1.5
210
0.0
220
0.0
230
1.0
100
AcDbArc
 50
90.0
 51
180.0
  0
LINE
  5
5F
100
AcDbEntity
  8
0
390
0
  6
Continuous
 62
     7
100
AcDbLine
 10
-51.5
 20
30.0
 30
0.0
 11
-48.0
 21
30.0
 31
0.0
  0
LINE
  5
60
100
AcDbEntity
  8
0
390
0
  6
Continuous
 62
     7
100
AcDbLine
 10
-48.0
 20
28.5
 30
0.0
 11
-48.0
 21
30.0
 31
0.0
  0
LINE
  5
61
100
AcDbEntity
  8
0
390
0
  6
Continuous
 62
     7
100
AcDbLine
 10
-32.908965
 20
28.5
 30
0.0
 11
-48.0
 21
28.5
 31
0.0
  0
LINE
  5
62
100
AcDbEntity
  8
0
390
0
  6
Continuous
 62
     7
100
AcDbLine
 10
-48.0
 20
30.0
 30
0.0
 11
-32.908965
 21
30.0
 31
0.0
  0
LINE
  5
63
100
AcDbEntity
  8
0
390
0
  6
Continuous
 62
     7
100
AcDbLine
 10
65.5
 20
2.0
 30
0.0
 11
48.0
 21
2.0
 31
0.0
  0
LINE
  5
64
100
AcDbEntity
  8
0
390
0
  6
Continuous
 62
     7
100
AcDbLine
 10
-48.0
 20
2.0
 30
0.0
 11
-65.5
 21
2.0
 31
0.0
  0
LINE
  5
65
100
AcDbEntity
  8
0
390
0
  6
Continuous
 62
     7
100
AcDbLine
 10
-65.5
 20
0.0
 30
0.0
 11
65.5
 21
0.0
 31
0.0
  0
LINE
  5
66
100
AcDbEntity
  8
0
390
0
  6
Continuous
 62
     7
100
AcDbLine
 10
152.576475
 20
0.0
 30
0.0
 11
152.576475
 21
2.0
 31
0.0
  0
LINE
  5
67
100
AcDbEntity
  8
0
390
0
  6
Continuous
 62
     7
100
AcDbLine
 10
152.576475
 20
2.0
 30
0.0
 11
165.076475
 21
2.0
 31
0.0
  0
LINE
  5
68
100
AcDbEntity
  8
0
390
0
  6
Continuous
 62
     7
100
AcDbLine
 10
165.076475
 20
0.0
 30
0.0
 11
165.076475
 21
2.0
 31
0.0
  0
LINE
  5
69
100
AcDbEntity
  8
0
390
0
  6
Continuous
 62
     7
100
AcDbLine
 10
165.076475
 20
0.0
 30
0.0
 11
152.576475
 21
0.0
 31
0.0
  0
LINE
  5
6A
100
AcDbEntity
  8
0
390
0
  6
Continuous
 62
     7
100
AcDbLine
 10
165.076475
 20
2.0
 30
0.0
 11
177.576475
 21
2.0
 31
0.0
  0
LINE
  5
6B
100
AcDbEntity
  8
0
390
0
  6
Continuous
 62
     7
100
AcDbLine
 10
177.576475
 20
2.0
 30
0.0
 11
177.576475
 21
0.0
 31
0.0
  0
LINE
  5
6C
100
AcDbEntity
  8
0
390
0
  6
Continuous
 62
     7
100
AcDbLine
 10
177.576475
 20
0.0
 30
0.0
 11
165.076475
 21
0.0
 31
0.0
  0
LINE
  5
6D
100
AcDbEntity
  8
0
390
0
  6
Continuous
 62
     7
100
AcDbLine
 10
154.076475
 20
30.0
 30
0.0
 11
157.576475
 21
30.0
 31
0.0
  0
LINE
  5
6E
100
AcDbEntity
  8
0
390
0
  6
Continuous
 62
     7
100
AcDbLine
 10
157.576475
 20
30.0
 30
0.0
 11
157.576475
 21
28.5
 31
0.0
  0
LINE
  5
6F
100
AcDbEntity
  8
0
390
0
  6
Continuous
 62
     7
100
AcDbLine
 10
157.576475
 20
28.5
 30
0.0
 11
152.576475
 21
28.5
 31
0.0
  0
ARC
  5
70
100
AcDbEntity
  8
0
390
0
  6
Continuous
 62
     7
100
AcDbCircle
 10
154.076475
 20
28.5
 30
0.0
 40
1.5
210
0.0
220
0.0
230
1.0
100
AcDbArc
 50
90.0
 51
180.0
  0
LINE
  5
71
100
AcDbEntity
  8
0
390
0
  6
Continuous
 62
     7
100
AcDbLine
 10
157.576475
 20
30.0
 30
0.0
 11
172.576475
 21
30.0
 31
0.0
  0
LINE
  5
72
100
AcDbEntity
  8
0
390
0
  6
Continuous
 62
     7
100
AcDbLine
 10
172.576475
 20
30.0
 30
0.0
 11
172.576475
 21
28.5
 31
0.0
  0
LINE
  5
73
100
AcDbEntity
  8
0
390
0
  6
Continuous
 62
     7
100
AcDbLine
 10
172.576475
 20
28.5
 30
0.0
 11
157.576475
 21
28.5
 31
0.0
  0
LINE
  5
74
100
AcDbEntity
  8
0
390
0
  6
Continuous
 62
     7
100
AcDbLine
 10
157.576475
 20
28.5
 30
0.0
 11
157.576475
 21
2.0
 31
0.0
  0
LINE
  5
75
100
AcDbEntity
  8
0
390
0
  6
Continuous
 62
     7
100
AcDbLine
 10
152.576475
 20
2.0
 30
0.0
 11
152.576475
 21
28.5
 31
0.0
  0
LINE
  5
76
100
AcDbEntity
  8
0
390
0
  6
Continuous
 62
     7
100
AcDbLine
 10
172.576475
 20
2.0
 30
0.0
 11
172.576475
 21
28.5
 31
0.0
  0
LINE
  5
77
100
AcDbEntity
  8
0
390
0
  6
Continuous
 62
     7
100
AcDbLine
 10
177.576475
 20
28.5
 30
0.0
 11
172.576475
 21
28.5
 31
0.0
  0
LINE
  5
78
100
AcDbEntity
  8
0
390
0
  6
Continuous
 62
     7
100
AcDbLine
 10
177.576475
 20
28.5
 30
0.0
 11
177.576475
 21
2.0
 31
0.0
  0
LINE
  5
79
100
AcDbEntity
  8
0
390
0
  6
Continuous
 62
     7
100
AcDbLine
 10
172.576475
 20
30.0
 30
0.0
 11
176.076475
 21
30.0
 31
0.0
  0
ARC
  5
7A
100
AcDbEntity
  8
0
390
0
  6
Continuous
 62
     7
100
AcDbCircle
 10
176.076475
 20
28.5
 30
0.0
 40
1.5
210
0.0
220
0.0
230
1.0
100
AcDbArc
 50
0.0
 51
90.0
  0
LINE
  5
7B
100
AcDbEntity
  8
0
390
0
  6
Continuous
 62
     7
100
AcDbLine
 10
177.576475
 20
18.5
 30
0.0
 11
177.576475
 21
28.5
 31
0.0
  0
LINE
  5
7C
100
AcDbEntity
  8
0
390
0
  6
Continuous
 62
     7
100
AcDbLine
 10
152.576475
 20
28.5
 30
0.0
 11
152.576475
 21
18.5
 31
0.0
  0
LINE
  5
7D
100
AcDbEntity
  8
0
390
0
  6
Continuous
 62
     7
100
AcDbLine
 10
152.376475
 20
8.25
 30
0.0
 11
152.576475
 21
8.25
 31
0.0
  0
LINE
  5
7E
100
AcDbEntity
  8
0
390
0
  6
Continuous
 62
     7
100
AcDbLine
 10
152.376475
 20
9.75
 30
0.0
 11
152.576475
 21
9.75
 31
0.0
  0
LINE
  5
7F
100
AcDbEntity
  8
0
390
0
  6
Continuous
 62
     7
100
AcDbLine
 10
152.376475
 20
8.25
 30
0.0
 11
152.376475
 21
9.75
 31
0.0
  0
LINE
  5
80
100
AcDbEntity
  8
0
390
0
  6
Continuous
 62
     7
100
AcDbLine
 10
152.376475
 20
12.746708
 30
0.0
 11
152.576475
 21
12.746708
 31
0.0
  0
LINE
  5
81
100
AcDbEntity
  8
0
390
0
  6
Continuous
 62
     7
100
AcDbLine
 10
152.376475
 20
9.75
 30
0.0
 11
152.376475
 21
12.746708
 31
0.0
  0
LINE
  5
82
100
AcDbEntity
  8
0
390
0
  6
Continuous
 62
     7
100
AcDbLine
 10
48.75
 20
-85.021702
 30
0.0
 11
46.25
 21
-86.465078
 31
0.0
  0
LINE
  5
83
100
AcDbEntity
  8
0
390
0
  6
Continuous
 62
     7
100
AcDbLine
 10
46.25
 20
-86.465078
 30
0.0
 11
46.25
 21
-89.35183
 31
0.0
  0
LINE
  5
84
100
AcDbEntity
  8
0
390
0
  6
Continuous
 62
     7
100
AcDbLine
 10
46.25
 20
-89.35183
 30
0.0
 11
48.75
 21
-90.795205
 31
0.0
  0
LINE
  5
85
100
AcDbEntity
  8
0
390
0
  6
Continuous
 62
     7
100
AcDbLine
 10
48.75
 20
-90.795205
 30
0.0
 11
51.0
 21
-89.496167
 31
0.0
  0
LINE
  5
86
100
AcDbEntity
  8
0
390
0
  6
Continuous
 62
     7
100
AcDbLine
 10
51.0
 20
-86.320741
 30
0.0
 11
51.0
 21
-89.496167
 31
0.0
  0
LINE
  5
87
100
AcDbEntity
  8
0
390
0
  6
Continuous
 62
     7
100
AcDbLine
 10
51.0
 20
-86.320741
 30
0.0
 11
48.75
 21
-85.021702
 31
0.0
  0
LINE
  5
88
100
AcDbEntity
  8
0
390
0
  6
Continuous
 62
     7
100
AcDbLine
 10
51.0
 20
-84.58869
 30
0.0
 11
51.0
 21
-79.969888
 31
0.0
  0
LINE
  5
89
100
AcDbEntity
  8
0
390
0
  6
Continuous
 62
     7
100
AcDbLine
 10
51.0
 20
-79.969888
 30
0.0
 11
49.5
 21
-80.835913
 31
0.0
  0
LINE
  5
8A
100
AcDbEntity
  8
0
390
0
  6
Continuous
 62
     7
100
AcDbLine
 10
49.5
 20
-80.835913
 30
0.0
 11
49.5
 21
-83.722664
 31
0.0
  0
LINE
  5
8B
100
AcDbEntity
  8
0
390
0
  6
Continuous
 62
     7
100
AcDbLine
 10
49.5
 20
-83.722664
 30
0.0
 11
51.0
 21
-84.58869
 31
0.0
  0
LINE
  5
8C
100
AcDbEntity
  8
0
390
0
  6
Continuous
 62
     7
100
AcDbLine
 10
-48.75
 20
-90.795205
 30
0.0
 11
-46.25
 21
-89.35183
 31
0.0
  0
LINE
  5
8D
100
AcDbEntity
  8
0
390
0
  6
Continuous
 62
     7
100
AcDbLine
 10
-46.25
 20
-89.35183
 30
0.0
 11
-46.25
 21
-86.465078
 31
0.0
  0
LINE
  5
8E
100
AcDbEntity
  8
0
390
0
  6
Continuous
 62
     7
100
AcDbLine
 10
-46.25
 20
-86.465078
 30
0.0
 11
-48.75
 21
-85.021702
 31
0.0
  0
LINE
  5
8F
100
AcDbEntity
  8
0
390
0
  6
Continuous
 62
     7
100
AcDbLine
 10
-48.75
 20
-85.021702
 30
0.0
 11
-51.0
 21
-86.320741
 31
0.0
  0
LINE
  5
90
100
AcDbEntity
  8
0
390
0
  6
Continuous
 62
     7
100
AcDbLine
 10
-51.0
 20
-89.496167
 30
0.0
 11
-51.0
 21
-86.320741
 31
0.0
  0
LINE
  5
91
100
AcDbEntity
  8
0
390
0
  6
Continuous
 62
     7
100
AcDbLine
 10
-51.0
 20
-89.496167
 30
0.0
 11
-48.75
 21
-90.795205
 31
0.0
  0
LINE
  5
92
100
AcDbEntity
  8
0
390
0
  6
Continuous
 62
     7
100
AcDbLine
 10
-48.0
 20
-92.779289
 30
0.0
 11
-43.0
 21
-92.779289
 31
0.0
  0
LINE
  5
93
100
AcDbEntity
  8
0
390
0
  6
Continuous
 62
     7
100
AcDbLine
 10
-43.0
 20
-92.779289
 30
0.0
 11
-43.0
 21
-92.093913
 31
0.0
  0
LINE
  5
94
100
AcDbEntity
  8
0
390
0
  6
Continuous
 62
     7
100
AcDbLine
 10
-43.0
 20
-92.093913
 30
0.0
 11
-45.5
 21
-90.650537
 31
0.0
  0
LINE
  5
95
100
AcDbEntity
  8
0
390
0
  6
Continuous
 62
     7
100
AcDbLine
 10
-45.5
 20
-90.650537
 30
0.0
 11
-48.0
 21
-92.093913
 31
0.0
  0
LINE
  5
96
100
AcDbEntity
  8
0
390
0
  6
Continuous
 62
     7
100
AcDbLine
 10
-48.0
 20
-92.093913
 30
0.0
 11
-48.0
 21
-92.779289
 31
0.0
  0
LINE
  5
97
100
AcDbEntity
  8
0
390
0
  6
Continuous
 62
     7
100
AcDbLine
 10
-39.75
 20
-89.35183
 30
0.0
 11
-39.75
 21
-86.465078
 31
0.0
  0
LINE
  5
98
100
AcDbEntity
  8
0
390
0
  6
Continuous
 62
     7
100
AcDbLine
 10
-39.75
 20
-86.465078
 30
0.0
 11
-42.25
 21
-85.021702
 31
0.0
  0
LINE
  5
99
100
AcDbEntity
  8
0
390
0
  6
Continuous
 62
     7
100
AcDbLine
 10
-42.25
 20
-85.021702
 30
0.0
 11
-44.75
 21
-86.465078
 31
0.0
  0
LINE
  5
9A
100
AcDbEntity
  8
0
390
0
  6
Continuous
 62
     7
100
AcDbLine
 10
-44.75
 20
-86.465078
 30
0.0
 11
-44.75
 21
-89.35183
 31
0.0
  0
LINE
  5
9B
100
AcDbEntity
  8
0
390
0
  6
Continuous
 62
     7
100
AcDbLine
 10
-44.75
 20
-89.35183
 30
0.0
 11
-42.25
 21
-90.795205
 31
0.0
  0
LINE
  5
9C
100
AcDbEntity
  8
0
390
0
  6
Continuous
 62
     7
100
AcDbLine
 10
-42.25
 20
-90.795205
 30
0.0
 11
-39.75
 21
-89.35183
 31
0.0
  0
LINE
  5
9D
100
AcDbEntity
  8
0
390
0
  6
Continuous
 62
     7
100
AcDbLine
 10
-41.5
 20
-92.779289
 30
0.0
 11
-36.5
 21
-92.779289
 31
0.0
  0
LINE
  5
9E
100
AcDbEntity
  8
0
390
0
  6
Continuous
 62
     7
100
AcDbLine
 10
-36.5
 20
-92.779289
 30
0.0
 11
-36.5
 21
-92.093913
 31
0.0
  0
LINE
  5
9F
100
AcDbEntity
  8
0
390
0
  6
Continuous
 62
     7
100
AcDbLine
 10
-36.5
 20
-92.093913
 30
0.0
 11
-39.0
 21
-90.650537
 31
0.0
  0
LINE
  5
A0
100
AcDbEntity
  8
0
390
0
  6
Continuous
 62
     7
100
AcDbLine
 10
-39.0
 20
-90.650537
 30
0.0
 11
-41.5
 21
-92.093913
 31
0.0
  0
LINE
  5
A1
100
AcDbEntity
  8
0
390
0
  6
Continuous
 62
     7
100
AcDbLine
 10
-41.5
 20
-92.093913
 30
0.0
 11
-41.5
 21
-92.779289
 31
0.0
  0
LINE
  5
A2
100
AcDbEntity
  8
0
390
0
  6
Continuous
 62
     7
100
AcDbLine
 10
-33.25
 20
-89.35183
 30
0.0
 11
-33.25
 21
-86.465078
 31
0.0
  0
LINE
  5
A3
100
AcDbEntity
  8
0
390
0
  6
Continuous
 62
     7
100
AcDbLine
 10
-33.25
 20
-86.465078
 30
0.0
 11
-35.75
 21
-85.021702
 31
0.0
  0
LINE
  5
A4
100
AcDbEntity
  8
0
390
0
  6
Continuous
 62
     7
100
AcDbLine
 10
-35.75
 20
-85.021702
 30
0.0
 11
-38.25
 21
-86.465078
 31
0.0
  0
LINE
  5
A5
100
AcDbEntity
  8
0
390
0
  6
Continuous
 62
     7
100
AcDbLine
 10
-38.25
 20
-86.465078
 30
0.0
 11
-38.25
 21
-89.35183
 31
0.0
  0
LINE
  5
A6
100
AcDbEntity
  8
0
390
0
  6
Continuous
 62
     7
100
AcDbLine
 10
-38.25
 20
-89.35183
 30
0.0
 11
-35.75
 21
-90.795205
 31
0.0
  0
LINE
  5
A7
100
AcDbEntity
  8
0
390
0
  6
Continuous
 62
     7
100
AcDbLine
 10
-35.75
 20
-90.795205
 30
0.0
 11
-33.25
 21
-89.35183
 31
0.0
  0
LINE
  5
A8
100
AcDbEntity
  8
0
390
0
  6
Continuous
 62
     7
100
AcDbLine
 10
-48.75
 20
-79.536875
 30
0.0
 11
-46.25
 21
-78.093499
 31
0.0
  0
LINE
  5
A9
100
AcDbEntity
  8
0
390
0
  6
Continuous
 62
     7
100
AcDbLine
 10
-46.25
 20
-78.093499
 30
0.0
 11
-46.25
 21
-75.206748
 31
0.0
  0
LINE
  5
AA
100
AcDbEntity
  8
0
390
0
  6
Continuous
 62
     7
100
AcDbLine
 10
-46.25
 20
-75.206748
 30
0.0
 11
-48.75
 21
-73.763372
 31
0.0
  0
LINE
  5
AB
100
AcDbEntity
  8
0
390
0
  6
Continuous
 62
     7
100
AcDbLine
 10
-48.75
 20
-73.763372
 30
0.0
 11
-51.0
 21
-75.06241
 31
0.0
  0
LINE
  5
AC
100
AcDbEntity
  8
0
390
0
  6
Continuous
 62
     7
100
AcDbLine
 10
-51.0
 20
-78.237837
 30
0.0
 11
-51.0
 21
-75.06241
 31
0.0
  0
LINE
  5
AD
100
AcDbEntity
  8
0
390
0
  6
Continuous
 62
     7
100
AcDbLine
 10
-51.0
 20
-78.237837
 30
0.0
 11
-48.75
 21
-79.536875
 31
0.0
  0
LINE
  5
AE
100
AcDbEntity
  8
0
390
0
  6
Continuous
 62
     7
100
AcDbLine
 10
-39.75
 20
-78.093499
 30
0.0
 11
-39.75
 21
-75.206748
 31
0.0
  0
LINE
  5
AF
100
AcDbEntity
  8
0
390
0
  6
Continuous
 62
     7
100
AcDbLine
 10
-39.75
 20
-75.206748
 30
0.0
 11
-42.25
 21
-73.763372
 31
0.0
  0
LINE
  5
B0
100
AcDbEntity
  8
0
390
0
  6
Continuous
 62
     7
100
AcDbLine
 10
-42.25
 20
-73.763372
 30
0.0
 11
-44.75
 21
-75.206748
 31
0.0
  0
LINE
  5
B1
100
AcDbEntity
  8
0
390
0
  6
Continuous
 62
     7
100
AcDbLine
 10
-44.75
 20
-75.206748
 30
0.0
 11
-44.75
 21
-78.093499
 31
0.0
  0
LINE
  5
B2
100
AcDbEntity
  8
0
390
0
  6
Continuous
 62
     7
100
AcDbLine
 10
-44.75
 20
-78.093499
 30
0.0
 11
-42.25
 21
-79.536875
 31
0.0
  0
LINE
  5
B3
100
AcDbEntity
  8
0
390
0
  6
Continuous
 62
     7
100
AcDbLine
 10
-42.25
 20
-79.536875
 30
0.0
 11
-39.75
 21
-78.093499
 31
0.0
  0
LINE
  5
B4
100
AcDbEntity
  8
0
390
0
  6
Continuous
 62
     7
100
AcDbLine
 10
-33.25
 20
-78.093499
 30
0.0
 11
-33.25
 21
-75.206748
 31
0.0
  0
LINE
  5
B5
100
AcDbEntity
  8
0
390
0
  6
Continuous
 62
     7
100
AcDbLine
 10
-33.25
 20
-75.206748
 30
0.0
 11
-35.75
 21
-73.763372
 31
0.0
  0
LINE
  5
B6
100
AcDbEntity
  8
0
390
0
  6
Continuous
 62
     7
100
AcDbLine
 10
-35.75
 20
-73.763372
 30
0.0
 11
-38.25
 21
-75.206748
 31
0.0
  0
LINE
  5
B7
100
AcDbEntity
  8
0
390
0
  6
Continuous
 62
     7
100
AcDbLine
 10
-38.25
 20
-75.206748
 30
0.0
 11
-38.25
 21
-78.093499
 31
0.0
  0
LINE
  5
B8
100
AcDbEntity
  8
0
390
0
  6
Continuous
 62
     7
100
AcDbLine
 10
-38.25
 20
-78.093499
 30
0.0
 11
-35.75
 21
-79.536875
 31
0.0
  0
LINE
  5
B9
100
AcDbEntity
  8
0
390
0
  6
Continuous
 62
     7
100
AcDbLine
 10
-35.75
 20
-79.536875
 30
0.0
 11
-33.25
 21
-78.093499
 31
0.0
  0
LINE
  5
BA
100
AcDbEntity
  8
0
390
0
  6
Continuous
 62
     7
100
AcDbLine
 10
-43.0
 20
-71.779289
 30
0.0
 11
-48.0
 21
-71.779289
 31
0.0
  0
LINE
  5
BB
100
AcDbEntity
  8
0
390
0
  6
Continuous
 62
     7
100
AcDbLine
 10
-48.0
 20
-71.779289
 30
0.0
 11
-48.0
 21
-72.464664
 31
0.0
  0
LINE
  5
BC
100
AcDbEntity
  8
0
390
0
  6
Continuous
 62
     7
100
AcDbLine
 10
-48.0
 20
-72.464664
 30
0.0
 11
-45.5
 21
-73.90804
 31
0.0
  0
LINE
  5
BD
100
AcDbEntity
  8
0
390
0
  6
Continuous
 62
     7
100
AcDbLine
 10
-45.5
 20
-73.90804
 30
0.0
 11
-43.0
 21
-72.464664
 31
0.0
  0
LINE
  5
BE
100
AcDbEntity
  8
0
390
0
  6
Continuous
 62
     7
100
AcDbLine
 10
-43.0
 20
-72.464664
 30
0.0
 11
-43.0
 21
-71.779289
 31
0.0
  0
LINE
  5
BF
100
AcDbEntity
  8
0
390
0
  6
Continuous
 62
     7
100
AcDbLine
 10
-36.5
 20
-71.779289
 30
0.0
 11
-41.5
 21
-71.779289
 31
0.0
  0
LINE
  5
C0
100
AcDbEntity
  8
0
390
0
  6
Continuous
 62
     7
100
AcDbLine
 10
-41.5
 20
-71.779289
 30
0.0
 11
-41.5
 21
-72.464664
 31
0.0
  0
LINE
  5
C1
100
AcDbEntity
  8
0
390
0
  6
Continuous
 62
     7
100
AcDbLine
 10
-41.5
 20
-72.464664
 30
0.0
 11
-39.0
 21
-73.90804
 31
0.0
  0
LINE
  5
C2
100
AcDbEntity
  8
0
390
0
  6
Continuous
 62
     7
100
AcDbLine
 10
-39.0
 20
-73.90804
 30
0.0
 11
-36.5
 21
-72.464664
 31
0.0
  0
LINE
  5
C3
100
AcDbEntity
  8
0
390
0
  6
Continuous
 62
     7
100
AcDbLine
 10
-36.5
 20
-72.464664
 30
0.0
 11
-36.5
 21
-71.779289
 31
0.0
  0
LINE
  5
C4
100
AcDbEntity
  8
0
390
0
  6
Continuous
 62
     7
100
AcDbLine
 10
30.0
 20
-72.464664
 30
0.0
 11
32.5
 21
-73.90804
 31
0.0
  0
LINE
  5
C5
100
AcDbEntity
  8
0
390
0
  6
Continuous
 62
     7
100
AcDbLine
 10
32.5
 20
-73.90804
 30
0.0
 11
35.0
 21
-72.464664
 31
0.0
  0
LINE
  5
C6
100
AcDbEntity
  8
0
390
0
  6
Continuous
 62
     7
100
AcDbLine
 10
35.0
 20
-72.464664
 30
0.0
 11
35.0
 21
-71.779289
 31
0.0
  0
LINE
  5
C7
100
AcDbEntity
  8
0
390
0
  6
Continuous
 62
     7
100
AcDbLine
 10
30.0
 20
-71.779289
 30
0.0
 11
35.0
 21
-71.779289
 31
0.0
  0
LINE
  5
C8
100
AcDbEntity
  8
0
390
0
  6
Continuous
 62
     7
100
AcDbLine
 10
30.0
 20
-71.779289
 30
0.0
 11
30.0
 21
-72.464664
 31
0.0
  0
LINE
  5
C9
100
AcDbEntity
  8
0
390
0
  6
Continuous
 62
     7
100
AcDbLine
 10
31.75
 20
-78.093499
 30
0.0
 11
31.75
 21
-75.206748
 31
0.0
  0
LINE
  5
CA
100
AcDbEntity
  8
0
390
0
  6
Continuous
 62
     7
100
AcDbLine
 10
31.75
 20
-75.206748
 30
0.0
 11
29.25
 21
-73.763372
 31
0.0
  0
LINE
  5
CB
100
AcDbEntity
  8
0
390
0
  6
Continuous
 62
     7
100
AcDbLine
 10
29.25
 20
-73.763372
 30
0.0
 11
26.75
 21
-75.206748
 31
0.0
  0
LINE
  5
CC
100
AcDbEntity
  8
0
390
0
  6
Continuous
 62
     7
100
AcDbLine
 10
26.75
 20
-75.206748
 30
0.0
 11
26.75
 21
-78.093499
 31
0.0
  0
LINE
  5
CD
100
AcDbEntity
  8
0
390
0
  6
Continuous
 62
     7
100
AcDbLine
 10
26.75
 20
-78.093499
 30
0.0
 11
29.25
 21
-79.536875
 31
0.0
  0
LINE
  5
CE
100
AcDbEntity
  8
0
390
0
  6
Continuous
 62
     7
100
AcDbLine
 10
29.25
 20
-79.536875
 30
0.0
 11
31.75
 21
-78.093499
 31
0.0
  0
LINE
  5
CF
100
AcDbEntity
  8
0
390
0
  6
Continuous
 62
     7
100
AcDbLine
 10
35.0
 20
-83.722664
 30
0.0
 11
35.0
 21
-80.835913
 31
0.0
  0
LINE
  5
D0
100
AcDbEntity
  8
0
390
0
  6
Continuous
 62
     7
100
AcDbLine
 10
35.0
 20
-80.835913
 30
0.0
 11
32.5
 21
-79.392537
 31
0.0
  0
LINE
  5
D1
100
AcDbEntity
  8
0
390
0
  6
Continuous
 62
     7
100
AcDbLine
 10
32.5
 20
-79.392537
 30
0.0
 11
30.0
 21
-80.835913
 31
0.0
  0
LINE
  5
D2
100
AcDbEntity
  8
0
390
0
  6
Continuous
 62
     7
100
AcDbLine
 10
30.0
 20
-80.835913
 30
0.0
 11
30.0
 21
-83.722664
 31
0.0
  0
LINE
  5
D3
100
AcDbEntity
  8
0
390
0
  6
Continuous
 62
     7
100
AcDbLine
 10
30.0
 20
-83.722664
 30
0.0
 11
32.5
 21
-85.16604
 31
0.0
  0
LINE
  5
D4
100
AcDbEntity
  8
0
390
0
  6
Continuous
 62
     7
100
AcDbLine
 10
32.5
 20
-85.16604
 30
0.0
 11
35.0
 21
-83.722664
 31
0.0
  0
LINE
  5
D5
100
AcDbEntity
  8
0
390
0
  6
Continuous
 62
     7
100
AcDbLine
 10
31.75
 20
-89.35183
 30
0.0
 11
31.75
 21
-86.465078
 31
0.0
  0
LINE
  5
D6
100
AcDbEntity
  8
0
390
0
  6
Continuous
 62
     7
100
AcDbLine
 10
31.75
 20
-86.465078
 30
0.0
 11
29.25
 21
-85.021702
 31
0.0
  0
LINE
  5
D7
100
AcDbEntity
  8
0
390
0
  6
Continuous
 62
     7
100
AcDbLine
 10
29.25
 20
-85.021702
 30
0.0
 11
26.75
 21
-86.465078
 31
0.0
  0
LINE
  5
D8
100
AcDbEntity
  8
0
390
0
  6
Continuous
 62
     7
100
AcDbLine
 10
26.75
 20
-86.465078
 30
0.0
 11
26.75
 21
-89.35183
 31
0.0
  0
LINE
  5
D9
100
AcDbEntity
  8
0
390
0
  6
Continuous
 62
     7
100
AcDbLine
 10
26.75
 20
-89.35183
 30
0.0
 11
29.25
 21
-90.795205
 31
0.0
  0
LINE
  5
DA
100
AcDbEntity
  8
0
390
0
  6
Continuous
 62
     7
100
AcDbLine
 10
29.25
 20
-90.795205
 30
0.0
 11
31.75
 21
-89.35183
 31
0.0
  0
LINE
  5
DB
100
AcDbEntity
  8
0
390
0
  6
Continuous
 62
     7
100
AcDbLine
 10
35.0
 20
-92.093913
 30
0.0
 11
32.5
 21
-90.650537
 31
0.0
  0
LINE
  5
DC
100
AcDbEntity
  8
0
390
0
  6
Continuous
 62
     7
100
AcDbLine
 10
32.5
 20
-90.650537
 30
0.0
 11
30.0
 21
-92.093913
 31
0.0
  0
LINE
  5
DD
100
AcDbEntity
  8
0
390
0
  6
Continuous
 62
     7
100
AcDbLine
 10
30.0
 20
-92.093913
 30
0.0
 11
30.0
 21
-92.779289
 31
0.0
  0
LINE
  5
DE
100
AcDbEntity
  8
0
390
0
  6
Continuous
 62
     7
100
AcDbLine
 10
35.0
 20
-92.779289
 30
0.0
 11
30.0
 21
-92.779289
 31
0.0
  0
LINE
  5
DF
100
AcDbEntity
  8
0
390
0
  6
Continuous
 62
     7
100
AcDbLine
 10
35.0
 20
-92.779289
 30
0.0
 11
35.0
 21
-92.093913
 31
0.0
  0
LINE
  5
E0
100
AcDbEntity
  8
0
390
0
  6
Continuous
 62
     7
100
AcDbLine
 10
-35.0
 20
-92.779289
 30
0.0
 11
-30.0
 21
-92.779289
 31
0.0
  0
LINE
  5
E1
100
AcDbEntity
  8
0
390
0
  6
Continuous
 62
     7
100
AcDbLine
 10
-30.0
 20
-92.779289
 30
0.0
 11
-30.0
 21
-92.093913
 31
0.0
  0
LINE
  5
E2
100
AcDbEntity
  8
0
390
0
  6
Continuous
 62
     7
100
AcDbLine
 10
-30.0
 20
-92.093913
 30
0.0
 11
-32.5
 21
-90.650537
 31
0.0
  0
LINE
  5
E3
100
AcDbEntity
  8
0
390
0
  6
Continuous
 62
     7
100
AcDbLine
 10
-32.5
 20
-90.650537
 30
0.0
 11
-35.0
 21
-92.093913
 31
0.0
  0
LINE
  5
E4
100
AcDbEntity
  8
0
390
0
  6
Continuous
 62
     7
100
AcDbLine
 10
-35.0
 20
-92.093913
 30
0.0
 11
-35.0
 21
-92.779289
 31
0.0
  0
LINE
  5
E5
100
AcDbEntity
  8
0
390
0
  6
Continuous
 62
     7
100
AcDbLine
 10
-26.75
 20
-89.35183
 30
0.0
 11
-26.75
 21
-86.465078
 31
0.0
  0
LINE
  5
E6
100
AcDbEntity
  8
0
390
0
  6
Continuous
 62
     7
100
AcDbLine
 10
-26.75
 20
-86.465078
 30
0.0
 11
-29.25
 21
-85.021702
 31
0.0
  0
LINE
  5
E7
100
AcDbEntity
  8
0
390
0
  6
Continuous
 62
     7
100
AcDbLine
 10
-29.25
 20
-85.021702
 30
0.0
 11
-31.75
 21
-86.465078
 31
0.0
  0
LINE
  5
E8
100
AcDbEntity
  8
0
390
0
  6
Continuous
 62
     7
100
AcDbLine
 10
-31.75
 20
-86.465078
 30
0.0
 11
-31.75
 21
-89.35183
 31
0.0
  0
LINE
  5
E9
100
AcDbEntity
  8
0
390
0
  6
Continuous
 62
     7
100
AcDbLine
 10
-31.75
 20
-89.35183
 30
0.0
 11
-29.25
 21
-90.795205
 31
0.0
  0
LINE
  5
EA
100
AcDbEntity
  8
0
390
0
  6
Continuous
 62
     7
100
AcDbLine
 10
-29.25
 20
-90.795205
 30
0.0
 11
-26.75
 21
-89.35183
 31
0.0
  0
LINE
  5
EB
100
AcDbEntity
  8
0
390
0
  6
Continuous
 62
     7
100
AcDbLine
 10
-30.0
 20
-83.722664
 30
0.0
 11
-30.0
 21
-80.835913
 31
0.0
  0
LINE
  5
EC
100
AcDbEntity
  8
0
390
0
  6
Continuous
 62
     7
100
AcDbLine
 10
-30.0
 20
-80.835913
 30
0.0
 11
-32.5
 21
-79.392537
 31
0.0
  0
LINE
  5
ED
100
AcDbEntity
  8
0
390
0
  6
Continuous
 62
     7
100
AcDbLine
 10
-32.5
 20
-79.392537
 30
0.0
 11
-35.0
 21
-80.835913
 31
0.0
  0
LINE
  5
EE
100
AcDbEntity
  8
0
390
0
  6
Continuous
 62
     7
100
AcDbLine
 10
-35.0
 20
-80.835913
 30
0.0
 11
-35.0
 21
-83.722664
 31
0.0
  0
LINE
  5
EF
100
AcDbEntity
  8
0
390
0
  6
Continuous
 62
     7
100
AcDbLine
 10
-35.0
 20
-83.722664
 30
0.0
 11
-32.5
 21
-85.16604
 31
0.0
  0
LINE
  5
F0
100
AcDbEntity
  8
0
390
0
  6
Continuous
 62
     7
100
AcDbLine
 10
-32.5
 20
-85.16604
 30
0.0
 11
-30.0
 21
-83.722664
 31
0.0
  0
LINE
  5
F1
100
AcDbEntity
  8
0
390
0
  6
Continuous
 62
     7
100
AcDbLine
 10
-26.75
 20
-78.093499
 30
0.0
 11
-26.75
 21
-75.206748
 31
0.0
  0
LINE
  5
F2
100
AcDbEntity
  8
0
390
0
  6
Continuous
 62
     7
100
AcDbLine
 10
-26.75
 20
-75.206748
 30
0.0
 11
-29.25
 21
-73.763372
 31
0.0
  0
LINE
  5
F3
100
AcDbEntity
  8
0
390
0
  6
Continuous
 62
     7
100
AcDbLine
 10
-29.25
 20
-73.763372
 30
0.0
 11
-31.75
 21
-75.206748
 31
0.0
  0
LINE
  5
F4
100
AcDbEntity
  8
0
390
0
  6
Continuous
 62
     7
100
AcDbLine
 10
-31.75
 20
-75.206748
 30
0.0
 11
-31.75
 21
-78.093499
 31
0.0
  0
LINE
  5
F5
100
AcDbEntity
  8
0
390
0
  6
Continuous
 62
     7
100
AcDbLine
 10
-31.75
 20
-78.093499
 30
0.0
 11
-29.25
 21
-79.536875
 31
0.0
  0
LINE
  5
F6
100
AcDbEntity
  8
0
390
0
  6
Continuous
 62
     7
100
AcDbLine
 10
-29.25
 20
-79.536875
 30
0.0
 11
-26.75
 21
-78.093499
 31
0.0
  0
LINE
  5
F7
100
AcDbEntity
  8
0
390
0
  6
Continuous
 62
     7
100
AcDbLine
 10
-30.0
 20
-71.779289
 30
0.0
 11
-35.0
 21
-71.779289
 31
0.0
  0
LINE
  5
F8
100
AcDbEntity
  8
0
390
0
  6
Continuous
 62
     7
100
AcDbLine
 10
-35.0
 20
-71.779289
 30
0.0
 11
-35.0
 21
-72.464664
 31
0.0
  0
LINE
  5
F9
100
AcDbEntity
  8
0
390
0
  6
Continuous
 62
     7
100
AcDbLine
 10
-35.0
 20
-72.464664
 30
0.0
 11
-32.5
 21
-73.90804
 31
0.0
  0
LINE
  5
FA
100
AcDbEntity
  8
0
390
0
  6
Continuous
 62
     7
100
AcDbLine
 10
-32.5
 20
-73.90804
 30
0.0
 11
-30.0
 21
-72.464664
 31
0.0
  0
LINE
  5
FB
100
AcDbEntity
  8
0
390
0
  6
Continuous
 62
     7
100
AcDbLine
 10
-30.0
 20
-72.464664
 30
0.0
 11
-30.0
 21
-71.779289
 31
0.0
  0
LINE
  5
FC
100
AcDbEntity
  8
0
390
0
  6
Continuous
 62
     7
100
AcDbLine
 10
28.5
 20
-92.779289
 30
0.0
 11
28.5
 21
-92.093913
 31
0.0
  0
LINE
  5
FD
100
AcDbEntity
  8
0
390
0
  6
Continuous
 62
     7
100
AcDbLine
 10
28.5
 20
-92.093913
 30
0.0
 11
26.0
 21
-90.650537
 31
0.0
  0
LINE
  5
FE
100
AcDbEntity
  8
0
390
0
  6
Continuous
 62
     7
100
AcDbLine
 10
26.0
 20
-90.650537
 30
0.0
 11
23.5
 21
-92.093913
 31
0.0
  0
LINE
  5
FF
100
AcDbEntity
  8
0
390
0
  6
Continuous
 62
     7
100
AcDbLine
 10
23.5
 20
-92.093913
 30
0.0
 11
23.5
 21
-92.779289
 31
0.0
  0
LINE
  5
100
100
AcDbEntity
  8
0
390
0
  6
Continuous
 62
     7
100
AcDbLine
 10
23.5
 20
-92.779289
 30
0.0
 11
28.5
 21
-92.779289
 31
0.0
  0
LINE
  5
101
100
AcDbEntity
  8
0
390
0
  6
Continuous
 62
     7
100
AcDbLine
 10
22.0
 20
-92.779289
 30
0.0
 11
22.0
 21
-92.093913
 31
0.0
  0
LINE
  5
102
100
AcDbEntity
  8
0
390
0
  6
Continuous
 62
     7
100
AcDbLine
 10
22.0
 20
-92.093913
 30
0.0
 11
19.5
 21
-90.650537
 31
0.0
  0
LINE
  5
103
100
AcDbEntity
  8
0
390
0
  6
Continuous
 62
     7
100
AcDbLine
 10
19.5
 20
-90.650537
 30
0.0
 11
17.0
 21
-92.093913
 31
0.0
  0
LINE
  5
104
100
AcDbEntity
  8
0
390
0
  6
Continuous
 62
     7
100
AcDbLine
 10
17.0
 20
-92.093913
 30
0.0
 11
17.0
 21
-92.779289
 31
0.0
  0
LINE
  5
105
100
AcDbEntity
  8
0
390
0
  6
Continuous
 62
     7
100
AcDbLine
 10
17.0
 20
-92.779289
 30
0.0
 11
22.0
 21
-92.779289
 31
0.0
  0
LINE
  5
106
100
AcDbEntity
  8
0
390
0
  6
Continuous
 62
     7
100
AcDbLine
 10
15.5
 20
-92.779289
 30
0.0
 11
15.5
 21
-92.093913
 31
0.0
  0
LINE
  5
107
100
AcDbEntity
  8
0
390
0
  6
Continuous
 62
     7
100
AcDbLine
 10
15.5
 20
-92.093913
 30
0.0
 11
13.0
 21
-90.650537
 31
0.0
  0
LINE
  5
108
100
AcDbEntity
  8
0
390
0
  6
Continuous
 62
     7
100
AcDbLine
 10
13.0
 20
-90.650537
 30
0.0
 11
10.5
 21
-92.093913
 31
0.0
  0
LINE
  5
109
100
AcDbEntity
  8
0
390
0
  6
Continuous
 62
     7
100
AcDbLine
 10
10.5
 20
-92.093913
 30
0.0
 11
10.5
 21
-92.779289
 31
0.0
  0
LINE
  5
10A
100
AcDbEntity
  8
0
390
0
  6
Continuous
 62
     7
100
AcDbLine
 10
10.5
 20
-92.779289
 30
0.0
 11
15.5
 21
-92.779289
 31
0.0
  0
LINE
  5
10B
100
AcDbEntity
  8
0
390
0
  6
Continuous
 62
     7
100
AcDbLine
 10
9.0
 20
-92.779289
 30
0.0
 11
9.0
 21
-92.093913
 31
0.0
  0
LINE
  5
10C
100
AcDbEntity
  8
0
390
0
  6
Continuous
 62
     7
100
AcDbLine
 10
9.0
 20
-92.093913
 30
0.0
 11
6.5
 21
-90.650537
 31
0.0
  0
LINE
  5
10D
100
AcDbEntity
  8
0
390
0
  6
Continuous
 62
     7
100
AcDbLine
 10
6.5
 20
-90.650537
 30
0.0
 11
4.0
 21
-92.093913
 31
0.0
  0
LINE
  5
10E
100
AcDbEntity
  8
0
390
0
  6
Continuous
 62
     7
100
AcDbLine
 10
4.0
 20
-92.093913
 30
0.0
 11
4.0
 21
-92.779289
 31
0.0
  0
LINE
  5
10F
100
AcDbEntity
  8
0
390
0
  6
Continuous
 62
     7
100
AcDbLine
 10
4.0
 20
-92.779289
 30
0.0
 11
9.0
 21
-92.779289
 31
0.0
  0
LINE
  5
110
100
AcDbEntity
  8
0
390
0
  6
Continuous
 62
     7
100
AcDbLine
 10
2.5
 20
-92.779289
 30
0.0
 11
2.5
 21
-92.093913
 31
0.0
  0
LINE
  5
111
100
AcDbEntity
  8
0
390
0
  6
Continuous
 62
     7
100
AcDbLine
 10
2.5
 20
-92.093913
 30
0.0
 11
0.0
 21
-90.650537
 31
0.0
  0
LINE
  5
112
100
AcDbEntity
  8
0
390
0
  6
Continuous
 62
     7
100
AcDbLine
 10
0.0
 20
-90.650537
 30
0.0
 11
-2.5
 21
-92.093913
 31
0.0
  0
LINE
  5
113
100
AcDbEntity
  8
0
390
0
  6
Continuous
 62
     7
100
AcDbLine
 10
-2.5
 20
-92.093913
 30
0.0
 11
-2.5
 21
-92.779289
 31
0.0
  0
LINE
  5
114
100
AcDbEntity
  8
0
390
0
  6
Continuous
 62
     7
100
AcDbLine
 10
-2.5
 20
-92.779289
 30
0.0
 11
2.5
 21
-92.779289
 31
0.0
  0
LINE
  5
115
100
AcDbEntity
  8
0
390
0
  6
Continuous
 62
     7
100
AcDbLine
 10
-4.0
 20
-92.779289
 30
0.0
 11
-4.0
 21
-92.093913
 31
0.0
  0
LINE
  5
116
100
AcDbEntity
  8
0
390
0
  6
Continuous
 62
     7
100
AcDbLine
 10
-4.0
 20
-92.093913
 30
0.0
 11
-6.5
 21
-90.650537
 31
0.0
  0
LINE
  5
117
100
AcDbEntity
  8
0
390
0
  6
Continuous
 62
     7
100
AcDbLine
 10
-6.5
 20
-90.650537
 30
0.0
 11
-9.0
 21
-92.093913
 31
0.0
  0
LINE
  5
118
100
AcDbEntity
  8
0
390
0
  6
Continuous
 62
     7
100
AcDbLine
 10
-9.0
 20
-92.093913
 30
0.0
 11
-9.0
 21
-92.779289
 31
0.0
  0
LINE
  5
119
100
AcDbEntity
  8
0
390
0
  6
Continuous
 62
     7
100
AcDbLine
 10
-9.0
 20
-92.779289
 30
0.0
 11
-4.0
 21
-92.779289
 31
0.0
  0
LINE
  5
11A
100
AcDbEntity
  8
0
390
0
  6
Continuous
 62
     7
100
AcDbLine
 10
-10.5
 20
-92.779289
 30
0.0
 11
-10.5
 21
-92.093913
 31
0.0
  0
LINE
  5
11B
100
AcDbEntity
  8
0
390
0
  6
Continuous
 62
     7
100
AcDbLine
 10
-10.5
 20
-92.093913
 30
0.0
 11
-13.0
 21
-90.650537
 31
0.0
  0
LINE
  5
11C
100
AcDbEntity
  8
0
390
0
  6
Continuous
 62
     7
100
AcDbLine
 10
-13.0
 20
-90.650537
 30
0.0
 11
-15.5
 21
-92.093913
 31
0.0
  0
LINE
  5
11D
100
AcDbEntity
  8
0
390
0
  6
Continuous
 62
     7
100
AcDbLine
 10
-15.5
 20
-92.093913
 30
0.0
 11
-15.5
 21
-92.779289
 31
0.0
  0
LINE
  5
11E
100
AcDbEntity
  8
0
390
0
  6
Continuous
 62
     7
100
AcDbLine
 10
-15.5
 20
-92.779289
 30
0.0
 11
-10.5
 21
-92.779289
 31
0.0
  0
LINE
  5
11F
100
AcDbEntity
  8
0
390
0
  6
Continuous
 62
     7
100
AcDbLine
 10
-17.0
 20
-92.779289
 30
0.0
 11
-17.0
 21
-92.093913
 31
0.0
  0
LINE
  5
120
100
AcDbEntity
  8
0
390
0
  6
Continuous
 62
     7
100
AcDbLine
 10
-17.0
 20
-92.093913
 30
0.0
 11
-19.5
 21
-90.650537
 31
0.0
  0
LINE
  5
121
100
AcDbEntity
  8
0
390
0
  6
Continuous
 62
     7
100
AcDbLine
 10
-19.5
 20
-90.650537
 30
0.0
 11
-22.0
 21
-92.093913
 31
0.0
  0
LINE
  5
122
100
AcDbEntity
  8
0
390
0
  6
Continuous
 62
     7
100
AcDbLine
 10
-22.0
 20
-92.093913
 30
0.0
 11
-22.0
 21
-92.779289
 31
0.0
  0
LINE
  5
123
100
AcDbEntity
  8
0
390
0
  6
Continuous
 62
     7
100
AcDbLine
 10
-22.0
 20
-92.779289
 30
0.0
 11
-17.0
 21
-92.779289
 31
0.0
  0
LINE
  5
124
100
AcDbEntity
  8
0
390
0
  6
Continuous
 62
     7
100
AcDbLine
 10
-23.5
 20
-92.779289
 30
0.0
 11
-23.5
 21
-92.093913
 31
0.0
  0
LINE
  5
125
100
AcDbEntity
  8
0
390
0
  6
Continuous
 62
     7
100
AcDbLine
 10
-23.5
 20
-92.093913
 30
0.0
 11
-26.0
 21
-90.650537
 31
0.0
  0
LINE
  5
126
100
AcDbEntity
  8
0
390
0
  6
Continuous
 62
     7
100
AcDbLine
 10
-26.0
 20
-90.650537
 30
0.0
 11
-28.5
 21
-92.093913
 31
0.0
  0
LINE
  5
127
100
AcDbEntity
  8
0
390
0
  6
Continuous
 62
     7
100
AcDbLine
 10
-28.5
 20
-92.093913
 30
0.0
 11
-28.5
 21
-92.779289
 31
0.0
  0
LINE
  5
128
100
AcDbEntity
  8
0
390
0
  6
Continuous
 62
     7
100
AcDbLine
 10
-28.5
 20
-92.779289
 30
0.0
 11
-23.5
 21
-92.779289
 31
0.0
  0
LINE
  5
129
100
AcDbEntity
  8
0
390
0
  6
Continuous
 62
     7
100
AcDbLine
 10
23.5
 20
-72.464664
 30
0.0
 11
26.0
 21
-73.90804
 31
0.0
  0
LINE
  5
12A
100
AcDbEntity
  8
0
390
0
  6
Continuous
 62
     7
100
AcDbLine
 10
26.0
 20
-73.90804
 30
0.0
 11
28.5
 21
-72.464664
 31
0.0
  0
LINE
  5
12B
100
AcDbEntity
  8
0
390
0
  6
Continuous
 62
     7
100
AcDbLine
 10
28.5
 20
-72.464664
 30
0.0
 11
28.5
 21
-71.779289
 31
0.0
  0
LINE
  5
12C
100
AcDbEntity
  8
0
390
0
  6
Continuous
 62
     7
100
AcDbLine
 10
23.5
 20
-71.779289
 30
0.0
 11
28.5
 21
-71.779289
 31
0.0
  0
LINE
  5
12D
100
AcDbEntity
  8
0
390
0
  6
Continuous
 62
     7
100
AcDbLine
 10
23.5
 20
-71.779289
 30
0.0
 11
23.5
 21
-72.464664
 31
0.0
  0
LINE
  5
12E
100
AcDbEntity
  8
0
390
0
  6
Continuous
 62
     7
100
AcDbLine
 10
17.0
 20
-72.464664
 30
0.0
 11
19.5
 21
-73.90804
 31
0.0
  0
LINE
  5
12F
100
AcDbEntity
  8
0
390
0
  6
Continuous
 62
     7
100
AcDbLine
 10
19.5
 20
-73.90804
 30
0.0
 11
22.0
 21
-72.464664
 31
0.0
  0
LINE
  5
130
100
AcDbEntity
  8
0
390
0
  6
Continuous
 62
     7
100
AcDbLine
 10
22.0
 20
-72.464664
 30
0.0
 11
22.0
 21
-71.779289
 31
0.0
  0
LINE
  5
131
100
AcDbEntity
  8
0
390
0
  6
Continuous
 62
     7
100
AcDbLine
 10
17.0
 20
-71.779289
 30
0.0
 11
22.0
 21
-71.779289
 31
0.0
  0
LINE
  5
132
100
AcDbEntity
  8
0
390
0
  6
Continuous
 62
     7
100
AcDbLine
 10
17.0
 20
-71.779289
 30
0.0
 11
17.0
 21
-72.464664
 31
0.0
  0
LINE
  5
133
100
AcDbEntity
  8
0
390
0
  6
Continuous
 62
     7
100
AcDbLine
 10
10.5
 20
-72.464664
 30
0.0
 11
13.0
 21
-73.90804
 31
0.0
  0
LINE
  5
134
100
AcDbEntity
  8
0
390
0
  6
Continuous
 62
     7
100
AcDbLine
 10
13.0
 20
-73.90804
 30
0.0
 11
15.5
 21
-72.464664
 31
0.0
  0
LINE
  5
135
100
AcDbEntity
  8
0
390
0
  6
Continuous
 62
     7
100
AcDbLine
 10
15.5
 20
-72.464664
 30
0.0
 11
15.5
 21
-71.779289
 31
0.0
  0
LINE
  5
136
100
AcDbEntity
  8
0
390
0
  6
Continuous
 62
     7
100
AcDbLine
 10
10.5
 20
-71.779289
 30
0.0
 11
15.5
 21
-71.779289
 31
0.0
  0
LINE
  5
137
100
AcDbEntity
  8
0
390
0
  6
Continuous
 62
     7
100
AcDbLine
 10
10.5
 20
-71.779289
 30
0.0
 11
10.5
 21
-72.464664
 31
0.0
  0
LINE
  5
138
100
AcDbEntity
  8
0
390
0
  6
Continuous
 62
     7
100
AcDbLine
 10
4.0
 20
-72.464664
 30
0.0
 11
6.5
 21
-73.90804
 31
0.0
  0
LINE
  5
139
100
AcDbEntity
  8
0
390
0
  6
Continuous
 62
     7
100
AcDbLine
 10
6.5
 20
-73.90804
 30
0.0
 11
9.0
 21
-72.464664
 31
0.0
  0
LINE
  5
13A
100
AcDbEntity
  8
0
390
0
  6
Continuous
 62
     7
100
AcDbLine
 10
9.0
 20
-72.464664
 30
0.0
 11
9.0
 21
-71.779289
 31
0.0
  0
LINE
  5
13B
100
AcDbEntity
  8
0
390
0
  6
Continuous
 62
     7
100
AcDbLine
 10
4.0
 20
-71.779289
 30
0.0
 11
9.0
 21
-71.779289
 31
0.0
  0
LINE
  5
13C
100
AcDbEntity
  8
0
390
0
  6
Continuous
 62
     7
100
AcDbLine
 10
4.0
 20
-71.779289
 30
0.0
 11
4.0
 21
-72.464664
 31
0.0
  0
LINE
  5
13D
100
AcDbEntity
  8
0
390
0
  6
Continuous
 62
     7
100
AcDbLine
 10
-2.5
 20
-72.464664
 30
0.0
 11
0.0
 21
-73.90804
 31
0.0
  0
LINE
  5
13E
100
AcDbEntity
  8
0
390
0
  6
Continuous
 62
     7
100
AcDbLine
 10
0.0
 20
-73.90804
 30
0.0
 11
2.5
 21
-72.464664
 31
0.0
  0
LINE
  5
13F
100
AcDbEntity
  8
0
390
0
  6
Continuous
 62
     7
100
AcDbLine
 10
2.5
 20
-72.464664
 30
0.0
 11
2.5
 21
-71.779289
 31
0.0
  0
LINE
  5
140
100
AcDbEntity
  8
0
390
0
  6
Continuous
 62
     7
100
AcDbLine
 10
-2.5
 20
-71.779289
 30
0.0
 11
2.5
 21
-71.779289
 31
0.0
  0
LINE
  5
141
100
AcDbEntity
  8
0
390
0
  6
Continuous
 62
     7
100
AcDbLine
 10
-2.5
 20
-71.779289
 30
0.0
 11
-2.5
 21
-72.464664
 31
0.0
  0
LINE
  5
142
100
AcDbEntity
  8
0
390
0
  6
Continuous
 62
     7
100
AcDbLine
 10
-9.0
 20
-72.464664
 30
0.0
 11
-6.5
 21
-73.90804
 31
0.0
  0
LINE
  5
143
100
AcDbEntity
  8
0
390
0
  6
Continuous
 62
     7
100
AcDbLine
 10
-6.5
 20
-73.90804
 30
0.0
 11
-4.0
 21
-72.464664
 31
0.0
  0
LINE
  5
144
100
AcDbEntity
  8
0
390
0
  6
Continuous
 62
     7
100
AcDbLine
 10
-4.0
 20
-72.464664
 30
0.0
 11
-4.0
 21
-71.779289
 31
0.0
  0
LINE
  5
145
100
AcDbEntity
  8
0
390
0
  6
Continuous
 62
     7
100
AcDbLine
 10
-9.0
 20
-71.779289
 30
0.0
 11
-4.0
 21
-71.779289
 31
0.0
  0
LINE
  5
146
100
AcDbEntity
  8
0
390
0
  6
Continuous
 62
     7
100
AcDbLine
 10
-9.0
 20
-71.779289
 30
0.0
 11
-9.0
 21
-72.464664
 31
0.0
  0
LINE
  5
147
100
AcDbEntity
  8
0
390
0
  6
Continuous
 62
     7
100
AcDbLine
 10
-15.5
 20
-72.464664
 30
0.0
 11
-13.0
 21
-73.90804
 31
0.0
  0
LINE
  5
148
100
AcDbEntity
  8
0
390
0
  6
Continuous
 62
     7
100
AcDbLine
 10
-13.0
 20
-73.90804
 30
0.0
 11
-10.5
 21
-72.464664
 31
0.0
  0
LINE
  5
149
100
AcDbEntity
  8
0
390
0
  6
Continuous
 62
     7
100
AcDbLine
 10
-10.5
 20
-72.464664
 30
0.0
 11
-10.5
 21
-71.779289
 31
0.0
  0
LINE
  5
14A
100
AcDbEntity
  8
0
390
0
  6
Continuous
 62
     7
100
AcDbLine
 10
-15.5
 20
-71.779289
 30
0.0
 11
-10.5
 21
-71.779289
 31
0.0
  0
LINE
  5
14B
100
AcDbEntity
  8
0
390
0
  6
Continuous
 62
     7
100
AcDbLine
 10
-15.5
 20
-71.779289
 30
0.0
 11
-15.5
 21
-72.464664
 31
0.0
  0
LINE
  5
14C
100
AcDbEntity
  8
0
390
0
  6
Continuous
 62
     7
100
AcDbLine
 10
-22.0
 20
-72.464664
 30
0.0
 11
-19.5
 21
-73.90804
 31
0.0
  0
LINE
  5
14D
100
AcDbEntity
  8
0
390
0
  6
Continuous
 62
     7
100
AcDbLine
 10
-19.5
 20
-73.90804
 30
0.0
 11
-17.0
 21
-72.464664
 31
0.0
  0
LINE
  5
14E
100
AcDbEntity
  8
0
390
0
  6
Continuous
 62
     7
100
AcDbLine
 10
-17.0
 20
-72.464664
 30
0.0
 11
-17.0
 21
-71.779289
 31
0.0
  0
LINE
  5
14F
100
AcDbEntity
  8
0
390
0
  6
Continuous
 62
     7
100
AcDbLine
 10
-22.0
 20
-71.779289
 30
0.0
 11
-17.0
 21
-71.779289
 31
0.0
  0
LINE
  5
150
100
AcDbEntity
  8
0
390
0
  6
Continuous
 62
     7
100
AcDbLine
 10
-22.0
 20
-71.779289
 30
0.0
 11
-22.0
 21
-72.464664
 31
0.0
  0
LINE
  5
151
100
AcDbEntity
  8
0
390
0
  6
Continuous
 62
     7
100
AcDbLine
 10
61.0
 20
-87.779289
 30
0.0
 11
65.0
 21
-87.779289
 31
0.0
  0
ARC
  5
152
100
AcDbEntity
  8
0
390
0
  6
Continuous
 62
     7
100
AcDbCircle
 10
65.0
 20
-82.279289
 30
0.0
 40
5.5
210
0.0
220
0.0
230
1.0
100
AcDbArc
 50
270.0
 51
360.0
  0
ARC
  5
153
100
AcDbEntity
  8
0
390
0
  6
Continuous
 62
     7
100
AcDbCircle
 10
65.0
 20
-82.279289
 30
0.0
 40
5.5
210
0.0
220
0.0
230
1.0
100
AcDbArc
 50
0.0
 51
90.0
  0
LINE
  5
154
100
AcDbEntity
  8
0
390
0
  6
Continuous
 62
     7
100
AcDbLine
 10
65.0
 20
-76.779289
 30
0.0
 11
61.0
 21
-76.779289
 31
0.0
  0
ARC
  5
155
100
AcDbEntity
  8
0
390
0
  6
Continuous
 62
     7
100
AcDbCircle
 10
61.0
 20
-82.279289
 30
0.0
 40
5.5
210
0.0
220
0.0
230
1.0
100
AcDbArc
 50
90.0
 51
180.0
  0
ARC
  5
156
100
AcDbEntity
  8
0
390
0
  6
Continuous
 62
     7
100
AcDbCircle
 10
61.0
 20
-82.279289
 30
0.0
 40
5.5
210
0.0
220
0.0
230
1.0
100
AcDbArc
 50
180.0
 51
270.0
  0
LINE
  5
157
100
AcDbEntity
  8
0
390
0
  6
Continuous
 62
     7
100
AcDbLine
 10
-65.0
 20
-87.779289
 30
0.0
 11
-61.0
 21
-87.779289
 31
0.0
  0
ARC
  5
158
100
AcDbEntity
  8
0
390
0
  6
Continuous
 62
     7
100
AcDbCircle
 10
-61.0
 20
-82.279289
 30
0.0
 40
5.5
210
0.0
220
0.0
230
1.0
100
AcDbArc
 50
270.0
 51
360.0
  0
ARC
  5
159
100
AcDbEntity
  8
0
390
0
  6
Continuous
 62
     7
100
AcDbCircle
 10
-61.0
 20
-82.279289
 30
0.0
 40
5.5
210
0.0
220
0.0
230
1.0
100
AcDbArc
 50
0.0
 51
90.0
  0
LINE
  5
15A
100
AcDbEntity
  8
0
390
0
  6
Continuous
 62
     7
100
AcDbLine
 10
-61.0
 20
-76.779289
 30
0.0
 11
-65.0
 21
-76.779289
 31
0.0
  0
ARC
  5
15B
100
AcDbEntity
  8
0
390
0
  6
Continuous
 62
     7
100
AcDbCircle
 10
-65.0
 20
-82.279289
 30
0.0
 40
5.5
210
0.0
220
0.0
230
1.0
100
AcDbArc
 50
90.0
 51
180.0
  0
ARC
  5
15C
100
AcDbEntity
  8
0
390
0
  6
Continuous
 62
     7
100
AcDbCircle
 10
-65.0
 20
-82.279289
 30
0.0
 40
5.5
210
0.0
220
0.0
230
1.0
100
AcDbArc
 50
180.0
 51
270.0
  0
LINE
  5
15D
100
AcDbEntity
  8
0
390
0
  6
Continuous
 62
     7
100
AcDbLine
 10
-28.5
 20
-71.779289
 30
0.0
 11
-28.5
 21
-72.464664
 31
0.0
  0
LINE
  5
15E
100
AcDbEntity
  8
0
390
0
  6
Continuous
 62
     7
100
AcDbLine
 10
-28.5
 20
-72.464664
 30
0.0
 11
-26.0
 21
-73.90804
 31
0.0
  0
LINE
  5
15F
100
AcDbEntity
  8
0
390
0
  6
Continuous
 62
     7
100
AcDbLine
 10
-26.0
 20
-73.90804
 30
0.0
 11
-23.5
 21
-72.464664
 31
0.0
  0
LINE
  5
160
100
AcDbEntity
  8
0
390
0
  6
Continuous
 62
     7
100
AcDbLine
 10
-23.5
 20
-72.464664
 30
0.0
 11
-23.5
 21
-71.779289
 31
0.0
  0
LINE
  5
161
100
AcDbEntity
  8
0
390
0
  6
Continuous
 62
     7
100
AcDbLine
 10
-28.5
 20
-71.779289
 30
0.0
 11
-23.5
 21
-71.779289
 31
0.0
  0
ARC
  5
162
100
AcDbEntity
  8
0
390
0
  6
Continuous
 62
     7
100
AcDbCircle
 10
65.5
 20
-82.279289
 30
0.0
 40
12.5
210
0.0
220
0.0
230
1.0
100
AcDbArc
 50
0.0
 51
90.0
  0
ARC
  5
163
100
AcDbEntity
  8
0
390
0
  6
Continuous
 62
     7
100
AcDbCircle
 10
65.5
 20
-82.279289
 30
0.0
 40
12.5
210
0.0
220
0.0
230
1.0
100
AcDbArc
 50
270.0
 51
360.0
  0
LINE
  5
164
100
AcDbEntity
  8
0
390
0
  6
Continuous
 62
     7
100
AcDbLine
 10
-65.5
 20
-94.779289
 30
0.0
 11
65.5
 21
-94.779289
 31
0.0
  0
ARC
  5
165
100
AcDbEntity
  8
0
390
0
  6
Continuous
 62
     7
100
AcDbCircle
 10
-65.5
 20
-82.279289
 30
0.0
 40
12.5
210
0.0
220
0.0
230
1.0
100
AcDbArc
 50
180.0
 51
270.0
  0
ARC
  5
166
100
AcDbEntity
  8
0
390
0
  6
Continuous
 62
     7
100
AcDbCircle
 10
-65.5
 20
-82.279289
 30
0.0
 40
12.5
210
0.0
220
0.0
230
1.0
100
AcDbArc
 50
90.0
 51
180.0
  0
LINE
  5
167
100
AcDbEntity
  8
0
390
0
  6
Continuous
 62
     7
100
AcDbLine
 10
-65.5
 20
-69.779289
 30
0.0
 11
65.5
 21
-69.779289
 31
0.0
  0
LINE
  5
168
100
AcDbEntity
  8
0
390
0
  6
Continuous
 62
     7
100
AcDbLine
 10
13.75
 20
-86.465078
 30
0.0
 11
16.25
 21
-85.021702
 31
0.0
  0
LINE
  5
169
100
AcDbEntity
  8
0
390
0
  6
Continuous
 62
     7
100
AcDbLine
 10
13.75
 20
-89.35183
 30
0.0
 11
13.75
 21
-86.465078
 31
0.0
  0
LINE
  5
16A
100
AcDbEntity
  8
0
390
0
  6
Continuous
 62
     7
100
AcDbLine
 10
16.25
 20
-90.795205
 30
0.0
 11
13.75
 21
-89.35183
 31
0.0
  0
LINE
  5
16B
100
AcDbEntity
  8
0
390
0
  6
Continuous
 62
     7
100
AcDbLine
 10
18.75
 20
-89.35183
 30
0.0
 11
16.25
 21
-90.795205
 31
0.0
  0
LINE
  5
16C
100
AcDbEntity
  8
0
390
0
  6
Continuous
 62
     7
100
AcDbLine
 10
18.75
 20
-86.465078
 30
0.0
 11
18.75
 21
-89.35183
 31
0.0
  0
LINE
  5
16D
100
AcDbEntity
  8
0
390
0
  6
Continuous
 62
     7
100
AcDbLine
 10
16.25
 20
-85.021702
 30
0.0
 11
18.75
 21
-86.465078
 31
0.0
  0
LINE
  5
16E
100
AcDbEntity
  8
0
390
0
  6
Continuous
 62
     7
100
AcDbLine
 10
0.75
 20
-86.465078
 30
0.0
 11
3.25
 21
-85.021702
 31
0.0
  0
LINE
  5
16F
100
AcDbEntity
  8
0
390
0
  6
Continuous
 62
     7
100
AcDbLine
 10
0.75
 20
-89.35183
 30
0.0
 11
0.75
 21
-86.465078
 31
0.0
  0
LINE
  5
170
100
AcDbEntity
  8
0
390
0
  6
Continuous
 62
     7
100
AcDbLine
 10
3.25
 20
-90.795205
 30
0.0
 11
0.75
 21
-89.35183
 31
0.0
  0
LINE
  5
171
100
AcDbEntity
  8
0
390
0
  6
Continuous
 62
     7
100
AcDbLine
 10
5.75
 20
-89.35183
 30
0.0
 11
3.25
 21
-90.795205
 31
0.0
  0
LINE
  5
172
100
AcDbEntity
  8
0
390
0
  6
Continuous
 62
     7
100
AcDbLine
 10
5.75
 20
-86.465078
 30
0.0
 11
5.75
 21
-89.35183
 31
0.0
  0
LINE
  5
173
100
AcDbEntity
  8
0
390
0
  6
Continuous
 62
     7
100
AcDbLine
 10
3.25
 20
-85.021702
 30
0.0
 11
5.75
 21
-86.465078
 31
0.0
  0
LINE
  5
174
100
AcDbEntity
  8
0
390
0
  6
Continuous
 62
     7
100
AcDbLine
 10
-12.25
 20
-86.465078
 30
0.0
 11
-9.75
 21
-85.021702
 31
0.0
  0
LINE
  5
175
100
AcDbEntity
  8
0
390
0
  6
Continuous
 62
     7
100
AcDbLine
 10
-12.25
 20
-89.35183
 30
0.0
 11
-12.25
 21
-86.465078
 31
0.0
  0
LINE
  5
176
100
AcDbEntity
  8
0
390
0
  6
Continuous
 62
     7
100
AcDbLine
 10
-9.75
 20
-90.795205
 30
0.0
 11
-12.25
 21
-89.35183
 31
0.0
  0
LINE
  5
177
100
AcDbEntity
  8
0
390
0
  6
Continuous
 62
     7
100
AcDbLine
 10
-7.25
 20
-89.35183
 30
0.0
 11
-9.75
 21
-90.795205
 31
0.0
  0
LINE
  5
178
100
AcDbEntity
  8
0
390
0
  6
Continuous
 62
     7
100
AcDbLine
 10
-7.25
 20
-86.465078
 30
0.0
 11
-7.25
 21
-89.35183
 31
0.0
  0
LINE
  5
179
100
AcDbEntity
  8
0
390
0
  6
Continuous
 62
     7
100
AcDbLine
 10
-9.75
 20
-85.021702
 30
0.0
 11
-7.25
 21
-86.465078
 31
0.0
  0
LINE
  5
17A
100
AcDbEntity
  8
0
390
0
  6
Continuous
 62
     7
100
AcDbLine
 10
-25.25
 20
-86.465078
 30
0.0
 11
-22.75
 21
-85.021702
 31
0.0
  0
LINE
  5
17B
100
AcDbEntity
  8
0
390
0
  6
Continuous
 62
     7
100
AcDbLine
 10
-25.25
 20
-89.35183
 30
0.0
 11
-25.25
 21
-86.465078
 31
0.0
  0
LINE
  5
17C
100
AcDbEntity
  8
0
390
0
  6
Continuous
 62
     7
100
AcDbLine
 10
-22.75
 20
-90.795205
 30
0.0
 11
-25.25
 21
-89.35183
 31
0.0
  0
LINE
  5
17D
100
AcDbEntity
  8
0
390
0
  6
Continuous
 62
     7
100
AcDbLine
 10
-20.25
 20
-89.35183
 30
0.0
 11
-22.75
 21
-90.795205
 31
0.0
  0
LINE
  5
17E
100
AcDbEntity
  8
0
390
0
  6
Continuous
 62
     7
100
AcDbLine
 10
-20.25
 20
-86.465078
 30
0.0
 11
-20.25
 21
-89.35183
 31
0.0
  0
LINE
  5
17F
100
AcDbEntity
  8
0
390
0
  6
Continuous
 62
     7
100
AcDbLine
 10
-22.75
 20
-85.021702
 30
0.0
 11
-20.25
 21
-86.465078
 31
0.0
  0
LINE
  5
180
100
AcDbEntity
  8
0
390
0
  6
Continuous
 62
     7
100
AcDbLine
 10
-20.25
 20
-75.206748
 30
0.0
 11
-22.75
 21
-73.763372
 31
0.0
  0
LINE
  5
181
100
AcDbEntity
  8
0
390
0
  6
Continuous
 62
     7
100
AcDbLine
 10
-22.75
 20
-73.763372
 30
0.0
 11
-25.25
 21
-75.206748
 31
0.0
  0
LINE
  5
182
100
AcDbEntity
  8
0
390
0
  6
Continuous
 62
     7
100
AcDbLine
 10
-25.25
 20
-75.206748
 30
0.0
 11
-25.25
 21
-78.093499
 31
0.0
  0
LINE
  5
183
100
AcDbEntity
  8
0
390
0
  6
Continuous
 62
     7
100
AcDbLine
 10
-25.25
 20
-78.093499
 30
0.0
 11
-22.75
 21
-79.536875
 31
0.0
  0
LINE
  5
184
100
AcDbEntity
  8
0
390
0
  6
Continuous
 62
     7
100
AcDbLine
 10
-22.75
 20
-79.536875
 30
0.0
 11
-20.25
 21
-78.093499
 31
0.0
  0
LINE
  5
185
100
AcDbEntity
  8
0
390
0
  6
Continuous
 62
     7
100
AcDbLine
 10
-20.25
 20
-78.093499
 30
0.0
 11
-20.25
 21
-75.206748
 31
0.0
  0
LINE
  5
186
100
AcDbEntity
  8
0
390
0
  6
Continuous
 62
     7
100
AcDbLine
 10
-13.75
 20
-75.206748
 30
0.0
 11
-16.25
 21
-73.763372
 31
0.0
  0
LINE
  5
187
100
AcDbEntity
  8
0
390
0
  6
Continuous
 62
     7
100
AcDbLine
 10
-16.25
 20
-73.763372
 30
0.0
 11
-18.75
 21
-75.206748
 31
0.0
  0
LINE
  5
188
100
AcDbEntity
  8
0
390
0
  6
Continuous
 62
     7
100
AcDbLine
 10
-18.75
 20
-75.206748
 30
0.0
 11
-18.75
 21
-78.093499
 31
0.0
  0
LINE
  5
189
100
AcDbEntity
  8
0
390
0
  6
Continuous
 62
     7
100
AcDbLine
 10
-18.75
 20
-78.093499
 30
0.0
 11
-16.25
 21
-79.536875
 31
0.0
  0
LINE
  5
18A
100
AcDbEntity
  8
0
390
0
  6
Continuous
 62
     7
100
AcDbLine
 10
-16.25
 20
-79.536875
 30
0.0
 11
-13.75
 21
-78.093499
 31
0.0
  0
LINE
  5
18B
100
AcDbEntity
  8
0
390
0
  6
Continuous
 62
     7
100
AcDbLine
 10
-13.75
 20
-78.093499
 30
0.0
 11
-13.75
 21
-75.206748
 31
0.0
  0
LINE
  5
18C
100
AcDbEntity
  8
0
390
0
  6
Continuous
 62
     7
100
AcDbLine
 10
-7.25
 20
-75.206748
 30
0.0
 11
-9.75
 21
-73.763372
 31
0.0
  0
LINE
  5
18D
100
AcDbEntity
  8
0
390
0
  6
Continuous
 62
     7
100
AcDbLine
 10
-9.75
 20
-73.763372
 30
0.0
 11
-12.25
 21
-75.206748
 31
0.0
  0
LINE
  5
18E
100
AcDbEntity
  8
0
390
0
  6
Continuous
 62
     7
100
AcDbLine
 10
-12.25
 20
-75.206748
 30
0.0
 11
-12.25
 21
-78.093499
 31
0.0
  0
LINE
  5
18F
100
AcDbEntity
  8
0
390
0
  6
Continuous
 62
     7
100
AcDbLine
 10
-12.25
 20
-78.093499
 30
0.0
 11
-9.75
 21
-79.536875
 31
0.0
  0
LINE
  5
190
100
AcDbEntity
  8
0
390
0
  6
Continuous
 62
     7
100
AcDbLine
 10
-9.75
 20
-79.536875
 30
0.0
 11
-7.25
 21
-78.093499
 31
0.0
  0
LINE
  5
191
100
AcDbEntity
  8
0
390
0
  6
Continuous
 62
     7
100
AcDbLine
 10
-7.25
 20
-78.093499
 30
0.0
 11
-7.25
 21
-75.206748
 31
0.0
  0
LINE
  5
192
100
AcDbEntity
  8
0
390
0
  6
Continuous
 62
     7
100
AcDbLine
 10
-0.75
 20
-75.206748
 30
0.0
 11
-3.25
 21
-73.763372
 31
0.0
  0
LINE
  5
193
100
AcDbEntity
  8
0
390
0
  6
Continuous
 62
     7
100
AcDbLine
 10
-3.25
 20
-73.763372
 30
0.0
 11
-5.75
 21
-75.206748
 31
0.0
  0
LINE
  5
194
100
AcDbEntity
  8
0
390
0
  6
Continuous
 62
     7
100
AcDbLine
 10
-5.75
 20
-75.206748
 30
0.0
 11
-5.75
 21
-78.093499
 31
0.0
  0
LINE
  5
195
100
AcDbEntity
  8
0
390
0
  6
Continuous
 62
     7
100
AcDbLine
 10
-5.75
 20
-78.093499
 30
0.0
 11
-3.25
 21
-79.536875
 31
0.0
  0
LINE
  5
196
100
AcDbEntity
  8
0
390
0
  6
Continuous
 62
     7
100
AcDbLine
 10
-3.25
 20
-79.536875
 30
0.0
 11
-0.75
 21
-78.093499
 31
0.0
  0
LINE
  5
197
100
AcDbEntity
  8
0
390
0
  6
Continuous
 62
     7
100
AcDbLine
 10
-0.75
 20
-78.093499
 30
0.0
 11
-0.75
 21
-75.206748
 31
0.0
  0
LINE
  5
198
100
AcDbEntity
  8
0
390
0
  6
Continuous
 62
     7
100
AcDbLine
 10
25.25
 20
-75.206748
 30
0.0
 11
22.75
 21
-73.763372
 31
0.0
  0
LINE
  5
199
100
AcDbEntity
  8
0
390
0
  6
Continuous
 62
     7
100
AcDbLine
 10
22.75
 20
-73.763372
 30
0.0
 11
20.25
 21
-75.206748
 31
0.0
  0
LINE
  5
19A
100
AcDbEntity
  8
0
390
0
  6
Continuous
 62
     7
100
AcDbLine
 10
20.25
 20
-75.206748
 30
0.0
 11
20.25
 21
-78.093499
 31
0.0
  0
LINE
  5
19B
100
AcDbEntity
  8
0
390
0
  6
Continuous
 62
     7
100
AcDbLine
 10
20.25
 20
-78.093499
 30
0.0
 11
22.75
 21
-79.536875
 31
0.0
  0
LINE
  5
19C
100
AcDbEntity
  8
0
390
0
  6
Continuous
 62
     7
100
AcDbLine
 10
22.75
 20
-79.536875
 30
0.0
 11
25.25
 21
-78.093499
 31
0.0
  0
LINE
  5
19D
100
AcDbEntity
  8
0
390
0
  6
Continuous
 62
     7
100
AcDbLine
 10
25.25
 20
-78.093499
 30
0.0
 11
25.25
 21
-75.206748
 31
0.0
  0
LINE
  5
19E
100
AcDbEntity
  8
0
390
0
  6
Continuous
 62
     7
100
AcDbLine
 10
18.75
 20
-75.206748
 30
0.0
 11
16.25
 21
-73.763372
 31
0.0
  0
LINE
  5
19F
100
AcDbEntity
  8
0
390
0
  6
Continuous
 62
     7
100
AcDbLine
 10
16.25
 20
-73.763372
 30
0.0
 11
13.75
 21
-75.206748
 31
0.0
  0
LINE
  5
1A0
100
AcDbEntity
  8
0
390
0
  6
Continuous
 62
     7
100
AcDbLine
 10
13.75
 20
-75.206748
 30
0.0
 11
13.75
 21
-78.093499
 31
0.0
  0
LINE
  5
1A1
100
AcDbEntity
  8
0
390
0
  6
Continuous
 62
     7
100
AcDbLine
 10
13.75
 20
-78.093499
 30
0.0
 11
16.25
 21
-79.536875
 31
0.0
  0
LINE
  5
1A2
100
AcDbEntity
  8
0
390
0
  6
Continuous
 62
     7
100
AcDbLine
 10
16.25
 20
-79.536875
 30
0.0
 11
18.75
 21
-78.093499
 31
0.0
  0
LINE
  5
1A3
100
AcDbEntity
  8
0
390
0
  6
Continuous
 62
     7
100
AcDbLine
 10
18.75
 20
-78.093499
 30
0.0
 11
18.75
 21
-75.206748
 31
0.0
  0
LINE
  5
1A4
100
AcDbEntity
  8
0
390
0
  6
Continuous
 62
     7
100
AcDbLine
 10
12.25
 20
-75.206748
 30
0.0
 11
9.75
 21
-73.763372
 31
0.0
  0
LINE
  5
1A5
100
AcDbEntity
  8
0
390
0
  6
Continuous
 62
     7
100
AcDbLine
 10
9.75
 20
-73.763372
 30
0.0
 11
7.25
 21
-75.206748
 31
0.0
  0
LINE
  5
1A6
100
AcDbEntity
  8
0
390
0
  6
Continuous
 62
     7
100
AcDbLine
 10
7.25
 20
-75.206748
 30
0.0
 11
7.25
 21
-78.093499
 31
0.0
  0
LINE
  5
1A7
100
AcDbEntity
  8
0
390
0
  6
Continuous
 62
     7
100
AcDbLine
 10
7.25
 20
-78.093499
 30
0.0
 11
9.75
 21
-79.536875
 31
0.0
  0
LINE
  5
1A8
100
AcDbEntity
  8
0
390
0
  6
Continuous
 62
     7
100
AcDbLine
 10
9.75
 20
-79.536875
 30
0.0
 11
12.25
 21
-78.093499
 31
0.0
  0
LINE
  5
1A9
100
AcDbEntity
  8
0
390
0
  6
Continuous
 62
     7
100
AcDbLine
 10
12.25
 20
-78.093499
 30
0.0
 11
12.25
 21
-75.206748
 31
0.0
  0
LINE
  5
1AA
100
AcDbEntity
  8
0
390
0
  6
Continuous
 62
     7
100
AcDbLine
 10
5.75
 20
-75.206748
 30
0.0
 11
3.25
 21
-73.763372
 31
0.0
  0
LINE
  5
1AB
100
AcDbEntity
  8
0
390
0
  6
Continuous
 62
     7
100
AcDbLine
 10
3.25
 20
-73.763372
 30
0.0
 11
0.75
 21
-75.206748
 31
0.0
  0
LINE
  5
1AC
100
AcDbEntity
  8
0
390
0
  6
Continuous
 62
     7
100
AcDbLine
 10
0.75
 20
-75.206748
 30
0.0
 11
0.75
 21
-78.093499
 31
0.0
  0
LINE
  5
1AD
100
AcDbEntity
  8
0
390
0
  6
Continuous
 62
     7
100
AcDbLine
 10
0.75
 20
-78.093499
 30
0.0
 11
3.25
 21
-79.536875
 31
0.0
  0
LINE
  5
1AE
100
AcDbEntity
  8
0
390
0
  6
Continuous
 62
     7
100
AcDbLine
 10
3.25
 20
-79.536875
 30
0.0
 11
5.75
 21
-78.093499
 31
0.0
  0
LINE
  5
1AF
100
AcDbEntity
  8
0
390
0
  6
Continuous
 62
     7
100
AcDbLine
 10
5.75
 20
-78.093499
 30
0.0
 11
5.75
 21
-75.206748
 31
0.0
  0
LINE
  5
1B0
100
AcDbEntity
  8
0
390
0
  6
Continuous
 62
     7
100
AcDbLine
 10
-23.5
 20
-80.835913
 30
0.0
 11
-26.0
 21
-79.392537
 31
0.0
  0
LINE
  5
1B1
100
AcDbEntity
  8
0
390
0
  6
Continuous
 62
     7
100
AcDbLine
 10
-26.0
 20
-79.392537
 30
0.0
 11
-28.5
 21
-80.835913
 31
0.0
  0
LINE
  5
1B2
100
AcDbEntity
  8
0
390
0
  6
Continuous
 62
     7
100
AcDbLine
 10
-28.5
 20
-80.835913
 30
0.0
 11
-28.5
 21
-83.722664
 31
0.0
  0
LINE
  5
1B3
100
AcDbEntity
  8
0
390
0
  6
Continuous
 62
     7
100
AcDbLine
 10
-28.5
 20
-83.722664
 30
0.0
 11
-26.0
 21
-85.16604
 31
0.0
  0
LINE
  5
1B4
100
AcDbEntity
  8
0
390
0
  6
Continuous
 62
     7
100
AcDbLine
 10
-26.0
 20
-85.16604
 30
0.0
 11
-23.5
 21
-83.722664
 31
0.0
  0
LINE
  5
1B5
100
AcDbEntity
  8
0
390
0
  6
Continuous
 62
     7
100
AcDbLine
 10
-23.5
 20
-83.722664
 30
0.0
 11
-23.5
 21
-80.835913
 31
0.0
  0
LINE
  5
1B6
100
AcDbEntity
  8
0
390
0
  6
Continuous
 62
     7
100
AcDbLine
 10
-17.0
 20
-80.835913
 30
0.0
 11
-19.5
 21
-79.392537
 31
0.0
  0
LINE
  5
1B7
100
AcDbEntity
  8
0
390
0
  6
Continuous
 62
     7
100
AcDbLine
 10
-19.5
 20
-79.392537
 30
0.0
 11
-22.0
 21
-80.835913
 31
0.0
  0
LINE
  5
1B8
100
AcDbEntity
  8
0
390
0
  6
Continuous
 62
     7
100
AcDbLine
 10
-22.0
 20
-80.835913
 30
0.0
 11
-22.0
 21
-83.722664
 31
0.0
  0
LINE
  5
1B9
100
AcDbEntity
  8
0
390
0
  6
Continuous
 62
     7
100
AcDbLine
 10
-22.0
 20
-83.722664
 30
0.0
 11
-19.5
 21
-85.16604
 31
0.0
  0
LINE
  5
1BA
100
AcDbEntity
  8
0
390
0
  6
Continuous
 62
     7
100
AcDbLine
 10
-19.5
 20
-85.16604
 30
0.0
 11
-17.0
 21
-83.722664
 31
0.0
  0
LINE
  5
1BB
100
AcDbEntity
  8
0
390
0
  6
Continuous
 62
     7
100
AcDbLine
 10
-17.0
 20
-83.722664
 30
0.0
 11
-17.0
 21
-80.835913
 31
0.0
  0
LINE
  5
1BC
100
AcDbEntity
  8
0
390
0
  6
Continuous
 62
     7
100
AcDbLine
 10
-10.5
 20
-80.835913
 30
0.0
 11
-13.0
 21
-79.392537
 31
0.0
  0
LINE
  5
1BD
100
AcDbEntity
  8
0
390
0
  6
Continuous
 62
     7
100
AcDbLine
 10
-13.0
 20
-79.392537
 30
0.0
 11
-15.5
 21
-80.835913
 31
0.0
  0
LINE
  5
1BE
100
AcDbEntity
  8
0
390
0
  6
Continuous
 62
     7
100
AcDbLine
 10
-15.5
 20
-80.835913
 30
0.0
 11
-15.5
 21
-83.722664
 31
0.0
  0
LINE
  5
1BF
100
AcDbEntity
  8
0
390
0
  6
Continuous
 62
     7
100
AcDbLine
 10
-15.5
 20
-83.722664
 30
0.0
 11
-13.0
 21
-85.16604
 31
0.0
  0
LINE
  5
1C0
100
AcDbEntity
  8
0
390
0
  6
Continuous
 62
     7
100
AcDbLine
 10
-13.0
 20
-85.16604
 30
0.0
 11
-10.5
 21
-83.722664
 31
0.0
  0
LINE
  5
1C1
100
AcDbEntity
  8
0
390
0
  6
Continuous
 62
     7
100
AcDbLine
 10
-10.5
 20
-83.722664
 30
0.0
 11
-10.5
 21
-80.835913
 31
0.0
  0
LINE
  5
1C2
100
AcDbEntity
  8
0
390
0
  6
Continuous
 62
     7
100
AcDbLine
 10
-4.0
 20
-80.835913
 30
0.0
 11
-6.5
 21
-79.392537
 31
0.0
  0
LINE
  5
1C3
100
AcDbEntity
  8
0
390
0
  6
Continuous
 62
     7
100
AcDbLine
 10
-6.5
 20
-79.392537
 30
0.0
 11
-9.0
 21
-80.835913
 31
0.0
  0
LINE
  5
1C4
100
AcDbEntity
  8
0
390
0
  6
Continuous
 62
     7
100
AcDbLine
 10
-9.0
 20
-80.835913
 30
0.0
 11
-9.0
 21
-83.722664
 31
0.0
  0
LINE
  5
1C5
100
AcDbEntity
  8
0
390
0
  6
Continuous
 62
     7
100
AcDbLine
 10
-9.0
 20
-83.722664
 30
0.0
 11
-6.5
 21
-85.16604
 31
0.0
  0
LINE
  5
1C6
100
AcDbEntity
  8
0
390
0
  6
Continuous
 62
     7
100
AcDbLine
 10
-6.5
 20
-85.16604
 30
0.0
 11
-4.0
 21
-83.722664
 31
0.0
  0
LINE
  5
1C7
100
AcDbEntity
  8
0
390
0
  6
Continuous
 62
     7
100
AcDbLine
 10
-4.0
 20
-83.722664
 30
0.0
 11
-4.0
 21
-80.835913
 31
0.0
  0
LINE
  5
1C8
100
AcDbEntity
  8
0
390
0
  6
Continuous
 62
     7
100
AcDbLine
 10
28.5
 20
-80.835913
 30
0.0
 11
26.0
 21
-79.392537
 31
0.0
  0
LINE
  5
1C9
100
AcDbEntity
  8
0
390
0
  6
Continuous
 62
     7
100
AcDbLine
 10
26.0
 20
-79.392537
 30
0.0
 11
23.5
 21
-80.835913
 31
0.0
  0
LINE
  5
1CA
100
AcDbEntity
  8
0
390
0
  6
Continuous
 62
     7
100
AcDbLine
 10
23.5
 20
-80.835913
 30
0.0
 11
23.5
 21
-83.722664
 31
0.0
  0
LINE
  5
1CB
100
AcDbEntity
  8
0
390
0
  6
Continuous
 62
     7
100
AcDbLine
 10
23.5
 20
-83.722664
 30
0.0
 11
26.0
 21
-85.16604
 31
0.0
  0
LINE
  5
1CC
100
AcDbEntity
  8
0
390
0
  6
Continuous
 62
     7
100
AcDbLine
 10
26.0
 20
-85.16604
 30
0.0
 11
28.5
 21
-83.722664
 31
0.0
  0
LINE
  5
1CD
100
AcDbEntity
  8
0
390
0
  6
Continuous
 62
     7
100
AcDbLine
 10
28.5
 20
-83.722664
 30
0.0
 11
28.5
 21
-80.835913
 31
0.0
  0
LINE
  5
1CE
100
AcDbEntity
  8
0
390
0
  6
Continuous
 62
     7
100
AcDbLine
 10
22.0
 20
-80.835913
 30
0.0
 11
19.5
 21
-79.392537
 31
0.0
  0
LINE
  5
1CF
100
AcDbEntity
  8
0
390
0
  6
Continuous
 62
     7
100
AcDbLine
 10
19.5
 20
-79.392537
 30
0.0
 11
17.0
 21
-80.835913
 31
0.0
  0
LINE
  5
1D0
100
AcDbEntity
  8
0
390
0
  6
Continuous
 62
     7
100
AcDbLine
 10
17.0
 20
-80.835913
 30
0.0
 11
17.0
 21
-83.722664
 31
0.0
  0
LINE
  5
1D1
100
AcDbEntity
  8
0
390
0
  6
Continuous
 62
     7
100
AcDbLine
 10
17.0
 20
-83.722664
 30
0.0
 11
19.5
 21
-85.16604
 31
0.0
  0
LINE
  5
1D2
100
AcDbEntity
  8
0
390
0
  6
Continuous
 62
     7
100
AcDbLine
 10
19.5
 20
-85.16604
 30
0.0
 11
22.0
 21
-83.722664
 31
0.0
  0
LINE
  5
1D3
100
AcDbEntity
  8
0
390
0
  6
Continuous
 62
     7
100
AcDbLine
 10
22.0
 20
-83.722664
 30
0.0
 11
22.0
 21
-80.835913
 31
0.0
  0
LINE
  5
1D4
100
AcDbEntity
  8
0
390
0
  6
Continuous
 62
     7
100
AcDbLine
 10
15.5
 20
-80.835913
 30
0.0
 11
13.0
 21
-79.392537
 31
0.0
  0
LINE
  5
1D5
100
AcDbEntity
  8
0
390
0
  6
Continuous
 62
     7
100
AcDbLine
 10
13.0
 20
-79.392537
 30
0.0
 11
10.5
 21
-80.835913
 31
0.0
  0
LINE
  5
1D6
100
AcDbEntity
  8
0
390
0
  6
Continuous
 62
     7
100
AcDbLine
 10
10.5
 20
-80.835913
 30
0.0
 11
10.5
 21
-83.722664
 31
0.0
  0
LINE
  5
1D7
100
AcDbEntity
  8
0
390
0
  6
Continuous
 62
     7
100
AcDbLine
 10
10.5
 20
-83.722664
 30
0.0
 11
13.0
 21
-85.16604
 31
0.0
  0
LINE
  5
1D8
100
AcDbEntity
  8
0
390
0
  6
Continuous
 62
     7
100
AcDbLine
 10
13.0
 20
-85.16604
 30
0.0
 11
15.5
 21
-83.722664
 31
0.0
  0
LINE
  5
1D9
100
AcDbEntity
  8
0
390
0
  6
Continuous
 62
     7
100
AcDbLine
 10
15.5
 20
-83.722664
 30
0.0
 11
15.5
 21
-80.835913
 31
0.0
  0
LINE
  5
1DA
100
AcDbEntity
  8
0
390
0
  6
Continuous
 62
     7
100
AcDbLine
 10
9.0
 20
-80.835913
 30
0.0
 11
6.5
 21
-79.392537
 31
0.0
  0
LINE
  5
1DB
100
AcDbEntity
  8
0
390
0
  6
Continuous
 62
     7
100
AcDbLine
 10
6.5
 20
-79.392537
 30
0.0
 11
4.0
 21
-80.835913
 31
0.0
  0
LINE
  5
1DC
100
AcDbEntity
  8
0
390
0
  6
Continuous
 62
     7
100
AcDbLine
 10
4.0
 20
-80.835913
 30
0.0
 11
4.0
 21
-83.722664
 31
0.0
  0
LINE
  5
1DD
100
AcDbEntity
  8
0
390
0
  6
Continuous
 62
     7
100
AcDbLine
 10
4.0
 20
-83.722664
 30
0.0
 11
6.5
 21
-85.16604
 31
0.0
  0
LINE
  5
1DE
100
AcDbEntity
  8
0
390
0
  6
Continuous
 62
     7
100
AcDbLine
 10
6.5
 20
-85.16604
 30
0.0
 11
9.0
 21
-83.722664
 31
0.0
  0
LINE
  5
1DF
100
AcDbEntity
  8
0
390
0
  6
Continuous
 62
     7
100
AcDbLine
 10
9.0
 20
-83.722664
 30
0.0
 11
9.0
 21
-80.835913
 31
0.0
  0
LINE
  5
1E0
100
AcDbEntity
  8
0
390
0
  6
Continuous
 62
     7
100
AcDbLine
 10
2.5
 20
-80.835913
 30
0.0
 11
0.0
 21
-79.392537
 31
0.0
  0
LINE
  5
1E1
100
AcDbEntity
  8
0
390
0
  6
Continuous
 62
     7
100
AcDbLine
 10
0.0
 20
-79.392537
 30
0.0
 11
-2.5
 21
-80.835913
 31
0.0
  0
LINE
  5
1E2
100
AcDbEntity
  8
0
390
0
  6
Continuous
 62
     7
100
AcDbLine
 10
-2.5
 20
-80.835913
 30
0.0
 11
-2.5
 21
-83.722664
 31
0.0
  0
LINE
  5
1E3
100
AcDbEntity
  8
0
390
0
  6
Continuous
 62
     7
100
AcDbLine
 10
-2.5
 20
-83.722664
 30
0.0
 11
0.0
 21
-85.16604
 31
0.0
  0
LINE
  5
1E4
100
AcDbEntity
  8
0
390
0
  6
Continuous
 62
     7
100
AcDbLine
 10
0.0
 20
-85.16604
 30
0.0
 11
2.5
 21
-83.722664
 31
0.0
  0
LINE
  5
1E5
100
AcDbEntity
  8
0
390
0
  6
Continuous
 62
     7
100
AcDbLine
 10
2.5
 20
-83.722664
 30
0.0
 11
2.5
 21
-80.835913
 31
0.0
  0
LINE
  5
1E6
100
AcDbEntity
  8
0
390
0
  6
Continuous
 62
     7
100
AcDbLine
 10
-18.75
 20
-86.465078
 30
0.0
 11
-16.25
 21
-85.021702
 31
0.0
  0
LINE
  5
1E7
100
AcDbEntity
  8
0
390
0
  6
Continuous
 62
     7
100
AcDbLine
 10
-18.75
 20
-89.35183
 30
0.0
 11
-18.75
 21
-86.465078
 31
0.0
  0
LINE
  5
1E8
100
AcDbEntity
  8
0
390
0
  6
Continuous
 62
     7
100
AcDbLine
 10
-16.25
 20
-90.795205
 30
0.0
 11
-18.75
 21
-89.35183
 31
0.0
  0
LINE
  5
1E9
100
AcDbEntity
  8
0
390
0
  6
Continuous
 62
     7
100
AcDbLine
 10
-13.75
 20
-89.35183
 30
0.0
 11
-16.25
 21
-90.795205
 31
0.0
  0
LINE
  5
1EA
100
AcDbEntity
  8
0
390
0
  6
Continuous
 62
     7
100
AcDbLine
 10
-13.75
 20
-86.465078
 30
0.0
 11
-13.75
 21
-89.35183
 31
0.0
  0
LINE
  5
1EB
100
AcDbEntity
  8
0
390
0
  6
Continuous
 62
     7
100
AcDbLine
 10
-16.25
 20
-85.021702
 30
0.0
 11
-13.75
 21
-86.465078
 31
0.0
  0
LINE
  5
1EC
100
AcDbEntity
  8
0
390
0
  6
Continuous
 62
     7
100
AcDbLine
 10
-5.75
 20
-86.465078
 30
0.0
 11
-3.25
 21
-85.021702
 31
0.0
  0
LINE
  5
1ED
100
AcDbEntity
  8
0
390
0
  6
Continuous
 62
     7
100
AcDbLine
 10
-5.75
 20
-89.35183
 30
0.0
 11
-5.75
 21
-86.465078
 31
0.0
  0
LINE
  5
1EE
100
AcDbEntity
  8
0
390
0
  6
Continuous
 62
     7
100
AcDbLine
 10
-3.25
 20
-90.795205
 30
0.0
 11
-5.75
 21
-89.35183
 31
0.0
  0
LINE
  5
1EF
100
AcDbEntity
  8
0
390
0
  6
Continuous
 62
     7
100
AcDbLine
 10
-0.75
 20
-89.35183
 30
0.0
 11
-3.25
 21
-90.795205
 31
0.0
  0
LINE
  5
1F0
100
AcDbEntity
  8
0
390
0
  6
Continuous
 62
     7
100
AcDbLine
 10
-0.75
 20
-86.465078
 30
0.0
 11
-0.75
 21
-89.35183
 31
0.0
  0
LINE
  5
1F1
100
AcDbEntity
  8
0
390
0
  6
Continuous
 62
     7
100
AcDbLine
 10
-3.25
 20
-85.021702
 30
0.0
 11
-0.75
 21
-86.465078
 31
0.0
  0
LINE
  5
1F2
100
AcDbEntity
  8
0
390
0
  6
Continuous
 62
     7
100
AcDbLine
 10
7.25
 20
-86.465078
 30
0.0
 11
9.75
 21
-85.021702
 31
0.0
  0
LINE
  5
1F3
100
AcDbEntity
  8
0
390
0
  6
Continuous
 62
     7
100
AcDbLine
 10
7.25
 20
-89.35183
 30
0.0
 11
7.25
 21
-86.465078
 31
0.0
  0
LINE
  5
1F4
100
AcDbEntity
  8
0
390
0
  6
Continuous
 62
     7
100
AcDbLine
 10
9.75
 20
-90.795205
 30
0.0
 11
7.25
 21
-89.35183
 31
0.0
  0
LINE
  5
1F5
100
AcDbEntity
  8
0
390
0
  6
Continuous
 62
     7
100
AcDbLine
 10
12.25
 20
-89.35183
 30
0.0
 11
9.75
 21
-90.795205
 31
0.0
  0
LINE
  5
1F6
100
AcDbEntity
  8
0
390
0
  6
Continuous
 62
     7
100
AcDbLine
 10
12.25
 20
-86.465078
 30
0.0
 11
12.25
 21
-89.35183
 31
0.0
  0
LINE
  5
1F7
100
AcDbEntity
  8
0
390
0
  6
Continuous
 62
     7
100
AcDbLine
 10
9.75
 20
-85.021702
 30
0.0
 11
12.25
 21
-86.465078
 31
0.0
  0
LINE
  5
1F8
100
AcDbEntity
  8
0
390
0
  6
Continuous
 62
     7
100
AcDbLine
 10
20.25
 20
-86.465078
 30
0.0
 11
22.75
 21
-85.021702
 31
0.0
  0
LINE
  5
1F9
100
AcDbEntity
  8
0
390
0
  6
Continuous
 62
     7
100
AcDbLine
 10
20.25
 20
-89.35183
 30
0.0
 11
20.25
 21
-86.465078
 31
0.0
  0
LINE
  5
1FA
100
AcDbEntity
  8
0
390
0
  6
Continuous
 62
     7
100
AcDbLine
 10
22.75
 20
-90.795205
 30
0.0
 11
20.25
 21
-89.35183
 31
0.0
  0
LINE
  5
1FB
100
AcDbEntity
  8
0
390
0
  6
Continuous
 62
     7
100
AcDbLine
 10
25.25
 20
-89.35183
 30
0.0
 11
22.75
 21
-90.795205
 31
0.0
  0
LINE
  5
1FC
100
AcDbEntity
  8
0
390
0
  6
Continuous
 62
     7
100
AcDbLine
 10
25.25
 20
-86.465078
 30
0.0
 11
25.25
 21
-89.35183
 31
0.0
  0
LINE
  5
1FD
100
AcDbEntity
  8
0
390
0
  6
Continuous
 62
     7
100
AcDbLine
 10
22.75
 20
-85.021702
 30
0.0
 11
25.25
 21
-86.465078
 31
0.0
  0
LINE
  5
1FE
100
AcDbEntity
  8
0
390
0
  6
Continuous
 62
     7
100
AcDbLine
 10
-36.5
 20
-83.722664
 30
0.0
 11
-36.5
 21
-80.835913
 31
0.0
  0
LINE
  5
1FF
100
AcDbEntity
  8
0
390
0
  6
Continuous
 62
     7
100
AcDbLine
 10
-36.5
 20
-80.835913
 30
0.0
 11
-39.0
 21
-79.392537
 31
0.0
  0
LINE
  5
200
100
AcDbEntity
  8
0
390
0
  6
Continuous
 62
     7
100
AcDbLine
 10
-39.0
 20
-79.392537
 30
0.0
 11
-41.5
 21
-80.835913
 31
0.0
  0
LINE
  5
201
100
AcDbEntity
  8
0
390
0
  6
Continuous
 62
     7
100
AcDbLine
 10
-41.5
 20
-80.835913
 30
0.0
 11
-41.5
 21
-83.722664
 31
0.0
  0
LINE
  5
202
100
AcDbEntity
  8
0
390
0
  6
Continuous
 62
     7
100
AcDbLine
 10
-41.5
 20
-83.722664
 30
0.0
 11
-39.0
 21
-85.16604
 31
0.0
  0
LINE
  5
203
100
AcDbEntity
  8
0
390
0
  6
Continuous
 62
     7
100
AcDbLine
 10
-39.0
 20
-85.16604
 30
0.0
 11
-36.5
 21
-83.722664
 31
0.0
  0
LINE
  5
204
100
AcDbEntity
  8
0
390
0
  6
Continuous
 62
     7
100
AcDbLine
 10
-43.0
 20
-83.722664
 30
0.0
 11
-43.0
 21
-80.835913
 31
0.0
  0
LINE
  5
205
100
AcDbEntity
  8
0
390
0
  6
Continuous
 62
     7
100
AcDbLine
 10
-43.0
 20
-80.835913
 30
0.0
 11
-45.5
 21
-79.392537
 31
0.0
  0
LINE
  5
206
100
AcDbEntity
  8
0
390
0
  6
Continuous
 62
     7
100
AcDbLine
 10
-45.5
 20
-79.392537
 30
0.0
 11
-48.0
 21
-80.835913
 31
0.0
  0
LINE
  5
207
100
AcDbEntity
  8
0
390
0
  6
Continuous
 62
     7
100
AcDbLine
 10
-48.0
 20
-80.835913
 30
0.0
 11
-48.0
 21
-83.722664
 31
0.0
  0
LINE
  5
208
100
AcDbEntity
  8
0
390
0
  6
Continuous
 62
     7
100
AcDbLine
 10
-48.0
 20
-83.722664
 30
0.0
 11
-45.5
 21
-85.16604
 31
0.0
  0
LINE
  5
209
100
AcDbEntity
  8
0
390
0
  6
Continuous
 62
     7
100
AcDbLine
 10
-45.5
 20
-85.16604
 30
0.0
 11
-43.0
 21
-83.722664
 31
0.0
  0
LINE
  5
20A
100
AcDbEntity
  8
0
390
0
  6
Continuous
 62
     7
100
AcDbLine
 10
-49.5
 20
-83.722664
 30
0.0
 11
-49.5
 21
-80.835913
 31
0.0
  0
LINE
  5
20B
100
AcDbEntity
  8
0
390
0
  6
Continuous
 62
     7
100
AcDbLine
 10
-49.5
 20
-80.835913
 30
0.0
 11
-51.0
 21
-79.969888
 31
0.0
  0
LINE
  5
20C
100
AcDbEntity
  8
0
390
0
  6
Continuous
 62
     7
100
AcDbLine
 10
-51.0
 20
-84.58869
 30
0.0
 11
-51.0
 21
-79.969888
 31
0.0
  0
LINE
  5
20D
100
AcDbEntity
  8
0
390
0
  6
Continuous
 62
     7
100
AcDbLine
 10
-51.0
 20
-84.58869
 30
0.0
 11
-49.5
 21
-83.722664
 31
0.0
  0
LINE
  5
20E
100
AcDbEntity
  8
0
390
0
  6
Continuous
 62
     7
100
AcDbLine
 10
36.5
 20
-72.464664
 30
0.0
 11
39.0
 21
-73.90804
 31
0.0
  0
LINE
  5
20F
100
AcDbEntity
  8
0
390
0
  6
Continuous
 62
     7
100
AcDbLine
 10
39.0
 20
-73.90804
 30
0.0
 11
41.5
 21
-72.464664
 31
0.0
  0
LINE
  5
210
100
AcDbEntity
  8
0
390
0
  6
Continuous
 62
     7
100
AcDbLine
 10
41.5
 20
-72.464664
 30
0.0
 11
41.5
 21
-71.779289
 31
0.0
  0
LINE
  5
211
100
AcDbEntity
  8
0
390
0
  6
Continuous
 62
     7
100
AcDbLine
 10
36.5
 20
-71.779289
 30
0.0
 11
41.5
 21
-71.779289
 31
0.0
  0
LINE
  5
212
100
AcDbEntity
  8
0
390
0
  6
Continuous
 62
     7
100
AcDbLine
 10
36.5
 20
-71.779289
 30
0.0
 11
36.5
 21
-72.464664
 31
0.0
  0
LINE
  5
213
100
AcDbEntity
  8
0
390
0
  6
Continuous
 62
     7
100
AcDbLine
 10
38.25
 20
-78.093499
 30
0.0
 11
38.25
 21
-75.206748
 31
0.0
  0
LINE
  5
214
100
AcDbEntity
  8
0
390
0
  6
Continuous
 62
     7
100
AcDbLine
 10
38.25
 20
-75.206748
 30
0.0
 11
35.75
 21
-73.763372
 31
0.0
  0
LINE
  5
215
100
AcDbEntity
  8
0
390
0
  6
Continuous
 62
     7
100
AcDbLine
 10
35.75
 20
-73.763372
 30
0.0
 11
33.25
 21
-75.206748
 31
0.0
  0
LINE
  5
216
100
AcDbEntity
  8
0
390
0
  6
Continuous
 62
     7
100
AcDbLine
 10
33.25
 20
-75.206748
 30
0.0
 11
33.25
 21
-78.093499
 31
0.0
  0
LINE
  5
217
100
AcDbEntity
  8
0
390
0
  6
Continuous
 62
     7
100
AcDbLine
 10
33.25
 20
-78.093499
 30
0.0
 11
35.75
 21
-79.536875
 31
0.0
  0
LINE
  5
218
100
AcDbEntity
  8
0
390
0
  6
Continuous
 62
     7
100
AcDbLine
 10
35.75
 20
-79.536875
 30
0.0
 11
38.25
 21
-78.093499
 31
0.0
  0
LINE
  5
219
100
AcDbEntity
  8
0
390
0
  6
Continuous
 62
     7
100
AcDbLine
 10
41.5
 20
-83.722664
 30
0.0
 11
41.5
 21
-80.835913
 31
0.0
  0
LINE
  5
21A
100
AcDbEntity
  8
0
390
0
  6
Continuous
 62
     7
100
AcDbLine
 10
41.5
 20
-80.835913
 30
0.0
 11
39.0
 21
-79.392537
 31
0.0
  0
LINE
  5
21B
100
AcDbEntity
  8
0
390
0
  6
Continuous
 62
     7
100
AcDbLine
 10
39.0
 20
-79.392537
 30
0.0
 11
36.5
 21
-80.835913
 31
0.0
  0
LINE
  5
21C
100
AcDbEntity
  8
0
390
0
  6
Continuous
 62
     7
100
AcDbLine
 10
36.5
 20
-80.835913
 30
0.0
 11
36.5
 21
-83.722664
 31
0.0
  0
LINE
  5
21D
100
AcDbEntity
  8
0
390
0
  6
Continuous
 62
     7
100
AcDbLine
 10
36.5
 20
-83.722664
 30
0.0
 11
39.0
 21
-85.16604
 31
0.0
  0
LINE
  5
21E
100
AcDbEntity
  8
0
390
0
  6
Continuous
 62
     7
100
AcDbLine
 10
39.0
 20
-85.16604
 30
0.0
 11
41.5
 21
-83.722664
 31
0.0
  0
LINE
  5
21F
100
AcDbEntity
  8
0
390
0
  6
Continuous
 62
     7
100
AcDbLine
 10
38.25
 20
-89.35183
 30
0.0
 11
38.25
 21
-86.465078
 31
0.0
  0
LINE
  5
220
100
AcDbEntity
  8
0
390
0
  6
Continuous
 62
     7
100
AcDbLine
 10
38.25
 20
-86.465078
 30
0.0
 11
35.75
 21
-85.021702
 31
0.0
  0
LINE
  5
221
100
AcDbEntity
  8
0
390
0
  6
Continuous
 62
     7
100
AcDbLine
 10
35.75
 20
-85.021702
 30
0.0
 11
33.25
 21
-86.465078
 31
0.0
  0
LINE
  5
222
100
AcDbEntity
  8
0
390
0
  6
Continuous
 62
     7
100
AcDbLine
 10
33.25
 20
-86.465078
 30
0.0
 11
33.25
 21
-89.35183
 31
0.0
  0
LINE
  5
223
100
AcDbEntity
  8
0
390
0
  6
Continuous
 62
     7
100
AcDbLine
 10
33.25
 20
-89.35183
 30
0.0
 11
35.75
 21
-90.795205
 31
0.0
  0
LINE
  5
224
100
AcDbEntity
  8
0
390
0
  6
Continuous
 62
     7
100
AcDbLine
 10
35.75
 20
-90.795205
 30
0.0
 11
38.25
 21
-89.35183
 31
0.0
  0
LINE
  5
225
100
AcDbEntity
  8
0
390
0
  6
Continuous
 62
     7
100
AcDbLine
 10
41.5
 20
-92.093913
 30
0.0
 11
39.0
 21
-90.650537
 31
0.0
  0
LINE
  5
226
100
AcDbEntity
  8
0
390
0
  6
Continuous
 62
     7
100
AcDbLine
 10
39.0
 20
-90.650537
 30
0.0
 11
36.5
 21
-92.093913
 31
0.0
  0
LINE
  5
227
100
AcDbEntity
  8
0
390
0
  6
Continuous
 62
     7
100
AcDbLine
 10
36.5
 20
-92.093913
 30
0.0
 11
36.5
 21
-92.779289
 31
0.0
  0
LINE
  5
228
100
AcDbEntity
  8
0
390
0
  6
Continuous
 62
     7
100
AcDbLine
 10
41.5
 20
-92.779289
 30
0.0
 11
36.5
 21
-92.779289
 31
0.0
  0
LINE
  5
229
100
AcDbEntity
  8
0
390
0
  6
Continuous
 62
     7
100
AcDbLine
 10
41.5
 20
-92.779289
 30
0.0
 11
41.5
 21
-92.093913
 31
0.0
  0
LINE
  5
22A
100
AcDbEntity
  8
0
390
0
  6
Continuous
 62
     7
100
AcDbLine
 10
48.0
 20
-92.093913
 30
0.0
 11
45.5
 21
-90.650537
 31
0.0
  0
LINE
  5
22B
100
AcDbEntity
  8
0
390
0
  6
Continuous
 62
     7
100
AcDbLine
 10
45.5
 20
-90.650537
 30
0.0
 11
43.0
 21
-92.093913
 31
0.0
  0
LINE
  5
22C
100
AcDbEntity
  8
0
390
0
  6
Continuous
 62
     7
100
AcDbLine
 10
43.0
 20
-92.093913
 30
0.0
 11
43.0
 21
-92.779289
 31
0.0
  0
LINE
  5
22D
100
AcDbEntity
  8
0
390
0
  6
Continuous
 62
     7
100
AcDbLine
 10
48.0
 20
-92.779289
 30
0.0
 11
43.0
 21
-92.779289
 31
0.0
  0
LINE
  5
22E
100
AcDbEntity
  8
0
390
0
  6
Continuous
 62
     7
100
AcDbLine
 10
48.0
 20
-92.779289
 30
0.0
 11
48.0
 21
-92.093913
 31
0.0
  0
LINE
  5
22F
100
AcDbEntity
  8
0
390
0
  6
Continuous
 62
     7
100
AcDbLine
 10
44.75
 20
-89.35183
 30
0.0
 11
44.75
 21
-86.465078
 31
0.0
  0
LINE
  5
230
100
AcDbEntity
  8
0
390
0
  6
Continuous
 62
     7
100
AcDbLine
 10
44.75
 20
-86.465078
 30
0.0
 11
42.25
 21
-85.021702
 31
0.0
  0
LINE
  5
231
100
AcDbEntity
  8
0
390
0
  6
Continuous
 62
     7
100
AcDbLine
 10
42.25
 20
-85.021702
 30
0.0
 11
39.75
 21
-86.465078
 31
0.0
  0
LINE
  5
232
100
AcDbEntity
  8
0
390
0
  6
Continuous
 62
     7
100
AcDbLine
 10
39.75
 20
-86.465078
 30
0.0
 11
39.75
 21
-89.35183
 31
0.0
  0
LINE
  5
233
100
AcDbEntity
  8
0
390
0
  6
Continuous
 62
     7
100
AcDbLine
 10
39.75
 20
-89.35183
 30
0.0
 11
42.25
 21
-90.795205
 31
0.0
  0
LINE
  5
234
100
AcDbEntity
  8
0
390
0
  6
Continuous
 62
     7
100
AcDbLine
 10
42.25
 20
-90.795205
 30
0.0
 11
44.75
 21
-89.35183
 31
0.0
  0
LINE
  5
235
100
AcDbEntity
  8
0
390
0
  6
Continuous
 62
     7
100
AcDbLine
 10
48.0
 20
-83.722664
 30
0.0
 11
48.0
 21
-80.835913
 31
0.0
  0
LINE
  5
236
100
AcDbEntity
  8
0
390
0
  6
Continuous
 62
     7
100
AcDbLine
 10
48.0
 20
-80.835913
 30
0.0
 11
45.5
 21
-79.392537
 31
0.0
  0
LINE
  5
237
100
AcDbEntity
  8
0
390
0
  6
Continuous
 62
     7
100
AcDbLine
 10
45.5
 20
-79.392537
 30
0.0
 11
43.0
 21
-80.835913
 31
0.0
  0
LINE
  5
238
100
AcDbEntity
  8
0
390
0
  6
Continuous
 62
     7
100
AcDbLine
 10
43.0
 20
-80.835913
 30
0.0
 11
43.0
 21
-83.722664
 31
0.0
  0
LINE
  5
239
100
AcDbEntity
  8
0
390
0
  6
Continuous
 62
     7
100
AcDbLine
 10
43.0
 20
-83.722664
 30
0.0
 11
45.5
 21
-85.16604
 31
0.0
  0
LINE
  5
23A
100
AcDbEntity
  8
0
390
0
  6
Continuous
 62
     7
100
AcDbLine
 10
45.5
 20
-85.16604
 30
0.0
 11
48.0
 21
-83.722664
 31
0.0
  0
LINE
  5
23B
100
AcDbEntity
  8
0
390
0
  6
Continuous
 62
     7
100
AcDbLine
 10
44.75
 20
-78.093499
 30
0.0
 11
44.75
 21
-75.206748
 31
0.0
  0
LINE
  5
23C
100
AcDbEntity
  8
0
390
0
  6
Continuous
 62
     7
100
AcDbLine
 10
44.75
 20
-75.206748
 30
0.0
 11
42.25
 21
-73.763372
 31
0.0
  0
LINE
  5
23D
100
AcDbEntity
  8
0
390
0
  6
Continuous
 62
     7
100
AcDbLine
 10
42.25
 20
-73.763372
 30
0.0
 11
39.75
 21
-75.206748
 31
0.0
  0
LINE
  5
23E
100
AcDbEntity
  8
0
390
0
  6
Continuous
 62
     7
100
AcDbLine
 10
39.75
 20
-75.206748
 30
0.0
 11
39.75
 21
-78.093499
 31
0.0
  0
LINE
  5
23F
100
AcDbEntity
  8
0
390
0
  6
Continuous
 62
     7
100
AcDbLine
 10
39.75
 20
-78.093499
 30
0.0
 11
42.25
 21
-79.536875
 31
0.0
  0
LINE
  5
240
100
AcDbEntity
  8
0
390
0
  6
Continuous
 62
     7
100
AcDbLine
 10
42.25
 20
-79.536875
 30
0.0
 11
44.75
 21
-78.093499
 31
0.0
  0
LINE
  5
241
100
AcDbEntity
  8
0
390
0
  6
Continuous
 62
     7
100
AcDbLine
 10
43.0
 20
-72.464664
 30
0.0
 11
45.5
 21
-73.90804
 31
0.0
  0
LINE
  5
242
100
AcDbEntity
  8
0
390
0
  6
Continuous
 62
     7
100
AcDbLine
 10
45.5
 20
-73.90804
 30
0.0
 11
48.0
 21
-72.464664
 31
0.0
  0
LINE
  5
243
100
AcDbEntity
  8
0
390
0
  6
Continuous
 62
     7
100
AcDbLine
 10
48.0
 20
-72.464664
 30
0.0
 11
48.0
 21
-71.779289
 31
0.0
  0
LINE
  5
244
100
AcDbEntity
  8
0
390
0
  6
Continuous
 62
     7
100
AcDbLine
 10
43.0
 20
-71.779289
 30
0.0
 11
48.0
 21
-71.779289
 31
0.0
  0
LINE
  5
245
100
AcDbEntity
  8
0
390
0
  6
Continuous
 62
     7
100
AcDbLine
 10
43.0
 20
-71.779289
 30
0.0
 11
43.0
 21
-72.464664
 31
0.0
  0
LINE
  5
246
100
AcDbEntity
  8
0
390
0
  6
Continuous
 62
     7
100
AcDbLine
 10
48.75
 20
-73.763372
 30
0.0
 11
46.25
 21
-75.206748
 31
0.0
  0
LINE
  5
247
100
AcDbEntity
  8
0
390
0
  6
Continuous
 62
     7
100
AcDbLine
 10
46.25
 20
-75.206748
 30
0.0
 11
46.25
 21
-78.093499
 31
0.0
  0
LINE
  5
248
100
AcDbEntity
  8
0
390
0
  6
Continuous
 62
     7
100
AcDbLine
 10
46.25
 20
-78.093499
 30
0.0
 11
48.75
 21
-79.536875
 31
0.0
  0
LINE
  5
249
100
AcDbEntity
  8
0
390
0
  6
Continuous
 62
     7
100
AcDbLine
 10
48.75
 20
-79.536875
 30
0.0
 11
51.0
 21
-78.237837
 31
0.0
  0
LINE
  5
24A
100
AcDbEntity
  8
0
390
0
  6
Continuous
 62
     7
100
AcDbLine
 10
51.0
 20
-75.06241
 30
0.0
 11
51.0
 21
-78.237837
 31
0.0
  0
LINE
  5
24B
100
AcDbEntity
  8
0
390
0
  6
Continuous
 62
     7
100
AcDbLine
 10
51.0
 20
-75.06241
 30
0.0
 11
48.75
 21
-73.763372
 31
0.0
  0
LINE
  5
24C
100
AcDbEntity
  8
0
390
0
  6
Continuous
 62
     7
100
AcDbLine
 10
-43.471287
 20
-72.192567
 30
0.0
 11
-43.0
 21
-72.464664
 31
0.0
  0
LINE
  5
24D
100
AcDbEntity
  8
0
390
0
  6
Continuous
 62
     7
100
AcDbLine
 10
-43.471287
 20
-72.192567
 30
0.0
 11
-43.471287
 21
-71.779289
 31
0.0
  0
LINE
  5
24E
100
AcDbEntity
  8
0
390
0
  6
Continuous
 62
     7
100
AcDbLine
 10
-41.028713
 20
-71.779289
 30
0.0
 11
-41.028713
 21
-72.192567
 31
0.0
  0
LINE
  5
24F
100
AcDbEntity
  8
0
390
0
  6
Continuous
 62
     7
100
AcDbLine
 10
-41.028713
 20
-72.192567
 30
0.0
 11
-41.5
 21
-72.464664
 31
0.0
  0
LINE
  5
250
100
AcDbEntity
  8
0
390
0
  6
Continuous
 62
     7
100
AcDbLine
 10
10.813699
 20
-72.28355
 30
0.0
 11
10.813699
 21
-71.779289
 31
0.0
  0
LINE
  5
251
100
AcDbEntity
  8
0
390
0
  6
Continuous
 62
     7
100
AcDbLine
 10
10.813699
 20
-72.28355
 30
0.0
 11
10.5
 21
-72.464664
 31
0.0
  0
LINE
  5
252
100
AcDbEntity
  8
0
390
0
  6
Continuous
 62
     7
100
AcDbLine
 10
-10.813699
 20
-72.28355
 30
0.0
 11
-10.5
 21
-72.464664
 31
0.0
  0
LINE
  5
253
100
AcDbEntity
  8
0
390
0
  6
Continuous
 62
     7
100
AcDbLine
 10
-10.813699
 20
-71.779289
 30
0.0
 11
-10.813699
 21
-72.28355
 31
0.0
  0
LINE
  5
254
100
AcDbEntity
  8
0
390
0
  6
Continuous
 62
     7
100
AcDbLine
 10
-30.439727
 20
-72.210788
 30
0.0
 11
-30.0
 21
-72.464664
 31
0.0
  0
LINE
  5
255
100
AcDbEntity
  8
0
390
0
  6
Continuous
 62
     7
100
AcDbLine
 10
-30.439727
 20
-72.210788
 30
0.0
 11
-30.439727
 21
-71.779289
 31
0.0
  0
LINE
  5
256
100
AcDbEntity
  8
0
390
0
  6
Continuous
 62
     7
100
AcDbLine
 10
-34.528713
 20
-71.779289
 30
0.0
 11
-34.528713
 21
-72.192567
 31
0.0
  0
LINE
  5
257
100
AcDbEntity
  8
0
390
0
  6
Continuous
 62
     7
100
AcDbLine
 10
-34.528713
 20
-72.192567
 30
0.0
 11
-35.0
 21
-72.464664
 31
0.0
  0
LINE
  5
258
100
AcDbEntity
  8
0
390
0
  6
Continuous
 62
     7
100
AcDbLine
 10
8.692335
 20
-72.287034
 30
0.0
 11
9.0
 21
-72.464664
 31
0.0
  0
LINE
  5
259
100
AcDbEntity
  8
0
390
0
  6
Continuous
 62
     7
100
AcDbLine
 10
8.692335
 20
-71.779289
 30
0.0
 11
8.692335
 21
-72.287034
 31
0.0
  0
LINE
  5
25A
100
AcDbEntity
  8
0
390
0
  6
Continuous
 62
     7
100
AcDbLine
 10
-47.528713
 20
-71.779289
 30
0.0
 11
-47.528713
 21
-72.192567
 31
0.0
  0
LINE
  5
25B
100
AcDbEntity
  8
0
390
0
  6
Continuous
 62
     7
100
AcDbLine
 10
-47.528713
 20
-72.192567
 30
0.0
 11
-48.0
 21
-72.464664
 31
0.0
  0
LINE
  5
25C
100
AcDbEntity
  8
0
390
0
  6
Continuous
 62
     7
100
AcDbLine
 10
-36.971287
 20
-72.192567
 30
0.0
 11
-36.5
 21
-72.464664
 31
0.0
  0
LINE
  5
25D
100
AcDbEntity
  8
0
390
0
  6
Continuous
 62
     7
100
AcDbLine
 10
-36.971287
 20
-72.192567
 30
0.0
 11
-36.971287
 21
-71.779289
 31
0.0
  0
LINE
  5
25E
100
AcDbEntity
  8
0
390
0
  6
Continuous
 62
     7
100
AcDbLine
 10
-15.169615
 20
-72.273917
 30
0.0
 11
-15.169615
 21
-71.779289
 31
0.0
  0
LINE
  5
25F
100
AcDbEntity
  8
0
390
0
  6
Continuous
 62
     7
100
AcDbLine
 10
-15.169615
 20
-72.273917
 30
0.0
 11
-15.5
 21
-72.464664
 31
0.0
  0
LINE
  5
260
100
AcDbEntity
  8
0
390
0
  6
Continuous
 62
     7
100
AcDbLine
 10
4.299399
 20
-72.291806
 30
0.0
 11
4.299399
 21
-71.779289
 31
0.0
  0
LINE
  5
261
100
AcDbEntity
  8
0
390
0
  6
Continuous
 62
     7
100
AcDbLine
 10
4.299399
 20
-72.291806
 30
0.0
 11
4.0
 21
-72.464664
 31
0.0
  0
LINE
  5
262
100
AcDbEntity
  8
0
390
0
  6
Continuous
 62
     7
100
AcDbLine
 10
15.169615
 20
-72.273917
 30
0.0
 11
15.5
 21
-72.464664
 31
0.0
  0
LINE
  5
263
100
AcDbEntity
  8
0
390
0
  6
Continuous
 62
     7
100
AcDbLine
 10
15.169615
 20
-71.779289
 30
0.0
 11
15.169615
 21
-72.273917
 31
0.0
  0
LINE
  5
264
100
AcDbEntity
  8
0
390
0
  6
Continuous
 62
     7
100
AcDbLine
 10
41.028713
 20
-72.192567
 30
0.0
 11
41.5
 21
-72.464664
 31
0.0
  0
LINE
  5
265
100
AcDbEntity
  8
0
390
0
  6
Continuous
 62
     7
100
AcDbLine
 10
41.028713
 20
-72.192567
 30
0.0
 11
41.028713
 21
-71.779289
 31
0.0
  0
LINE
  5
266
100
AcDbEntity
  8
0
390
0
  6
Continuous
 62
     7
100
AcDbLine
 10
17.34093
 20
-72.267828
 30
0.0
 11
17.34093
 21
-71.779289
 31
0.0
  0
LINE
  5
267
100
AcDbEntity
  8
0
390
0
  6
Continuous
 62
     7
100
AcDbLine
 10
17.34093
 20
-72.267828
 30
0.0
 11
17.0
 21
-72.464664
 31
0.0
  0
LINE
  5
268
100
AcDbEntity
  8
0
390
0
  6
Continuous
 62
     7
100
AcDbLine
 10
-2.202566
 20
-72.292941
 30
0.0
 11
-2.202566
 21
-71.779289
 31
0.0
  0
LINE
  5
269
100
AcDbEntity
  8
0
390
0
  6
Continuous
 62
     7
100
AcDbLine
 10
-2.202566
 20
-72.292941
 30
0.0
 11
-2.5
 21
-72.464664
 31
0.0
  0
LINE
  5
26A
100
AcDbEntity
  8
0
390
0
  6
Continuous
 62
     7
100
AcDbLine
 10
-4.299399
 20
-72.291806
 30
0.0
 11
-4.0
 21
-72.464664
 31
0.0
  0
LINE
  5
26B
100
AcDbEntity
  8
0
390
0
  6
Continuous
 62
     7
100
AcDbLine
 10
-4.299399
 20
-71.779289
 30
0.0
 11
-4.299399
 21
-72.291806
 31
0.0
  0
LINE
  5
26C
100
AcDbEntity
  8
0
390
0
  6
Continuous
 62
     7
100
AcDbLine
 10
-17.34093
 20
-72.267828
 30
0.0
 11
-17.0
 21
-72.464664
 31
0.0
  0
LINE
  5
26D
100
AcDbEntity
  8
0
390
0
  6
Continuous
 62
     7
100
AcDbLine
 10
-17.34093
 20
-71.779289
 30
0.0
 11
-17.34093
 21
-72.267828
 31
0.0
  0
LINE
  5
26E
100
AcDbEntity
  8
0
390
0
  6
Continuous
 62
     7
100
AcDbLine
 10
23.882266
 20
-72.243963
 30
0.0
 11
23.882266
 21
-71.779289
 31
0.0
  0
LINE
  5
26F
100
AcDbEntity
  8
0
390
0
  6
Continuous
 62
     7
100
AcDbLine
 10
23.882266
 20
-72.243963
 30
0.0
 11
23.5
 21
-72.464664
 31
0.0
  0
LINE
  5
270
100
AcDbEntity
  8
0
390
0
  6
Continuous
 62
     7
100
AcDbLine
 10
-21.633626
 20
-72.253138
 30
0.0
 11
-22.0
 21
-72.464664
 31
0.0
  0
LINE
  5
271
100
AcDbEntity
  8
0
390
0
  6
Continuous
 62
     7
100
AcDbLine
 10
-21.633626
 20
-72.253138
 30
0.0
 11
-21.633626
 21
-71.779289
 31
0.0
  0
LINE
  5
272
100
AcDbEntity
  8
0
390
0
  6
Continuous
 62
     7
100
AcDbLine
 10
36.971287
 20
-71.779289
 30
0.0
 11
36.971287
 21
-72.192567
 31
0.0
  0
LINE
  5
273
100
AcDbEntity
  8
0
390
0
  6
Continuous
 62
     7
100
AcDbLine
 10
36.971287
 20
-72.192567
 30
0.0
 11
36.5
 21
-72.464664
 31
0.0
  0
LINE
  5
274
100
AcDbEntity
  8
0
390
0
  6
Continuous
 62
     7
100
AcDbLine
 10
21.633626
 20
-72.253138
 30
0.0
 11
22.0
 21
-72.464664
 31
0.0
  0
LINE
  5
275
100
AcDbEntity
  8
0
390
0
  6
Continuous
 62
     7
100
AcDbLine
 10
21.633626
 20
-71.779289
 30
0.0
 11
21.633626
 21
-72.253138
 31
0.0
  0
LINE
  5
276
100
AcDbEntity
  8
0
390
0
  6
Continuous
 62
     7
100
AcDbLine
 10
47.528713
 20
-72.192567
 30
0.0
 11
48.0
 21
-72.464664
 31
0.0
  0
LINE
  5
277
100
AcDbEntity
  8
0
390
0
  6
Continuous
 62
     7
100
AcDbLine
 10
47.528713
 20
-72.192567
 30
0.0
 11
47.528713
 21
-71.779289
 31
0.0
  0
LINE
  5
278
100
AcDbEntity
  8
0
390
0
  6
Continuous
 62
     7
100
AcDbLine
 10
30.439727
 20
-71.779289
 30
0.0
 11
30.439727
 21
-72.210788
 31
0.0
  0
LINE
  5
279
100
AcDbEntity
  8
0
390
0
  6
Continuous
 62
     7
100
AcDbLine
 10
30.439727
 20
-72.210788
 30
0.0
 11
30.0
 21
-72.464664
 31
0.0
  0
LINE
  5
27A
100
AcDbEntity
  8
0
390
0
  6
Continuous
 62
     7
100
AcDbLine
 10
28.082939
 20
-72.223874
 30
0.0
 11
28.5
 21
-72.464664
 31
0.0
  0
LINE
  5
27B
100
AcDbEntity
  8
0
390
0
  6
Continuous
 62
     7
100
AcDbLine
 10
28.082939
 20
-71.779289
 30
0.0
 11
28.082939
 21
-72.223874
 31
0.0
  0
LINE
  5
27C
100
AcDbEntity
  8
0
390
0
  6
Continuous
 62
     7
100
AcDbLine
 10
-8.692335
 20
-72.287034
 30
0.0
 11
-8.692335
 21
-71.779289
 31
0.0
  0
LINE
  5
27D
100
AcDbEntity
  8
0
390
0
  6
Continuous
 62
     7
100
AcDbLine
 10
-8.692335
 20
-72.287034
 30
0.0
 11
-9.0
 21
-72.464664
 31
0.0
  0
LINE
  5
27E
100
AcDbEntity
  8
0
390
0
  6
Continuous
 62
     7
100
AcDbLine
 10
34.528713
 20
-72.192567
 30
0.0
 11
35.0
 21
-72.464664
 31
0.0
  0
LINE
  5
27F
100
AcDbEntity
  8
0
390
0
  6
Continuous
 62
     7
100
AcDbLine
 10
34.528713
 20
-72.192567
 30
0.0
 11
34.528713
 21
-71.779289
 31
0.0
  0
LINE
  5
280
100
AcDbEntity
  8
0
390
0
  6
Continuous
 62
     7
100
AcDbLine
 10
-23.882266
 20
-72.243963
 30
0.0
 11
-23.5
 21
-72.464664
 31
0.0
  0
LINE
  5
281
100
AcDbEntity
  8
0
390
0
  6
Continuous
 62
     7
100
AcDbLine
 10
-23.882266
 20
-71.779289
 30
0.0
 11
-23.882266
 21
-72.243963
 31
0.0
  0
LINE
  5
282
100
AcDbEntity
  8
0
390
0
  6
Continuous
 62
     7
100
AcDbLine
 10
2.202566
 20
-72.292941
 30
0.0
 11
2.5
 21
-72.464664
 31
0.0
  0
LINE
  5
283
100
AcDbEntity
  8
0
390
0
  6
Continuous
 62
     7
100
AcDbLine
 10
2.202566
 20
-71.779289
 30
0.0
 11
2.202566
 21
-72.292941
 31
0.0
  0
LINE
  5
284
100
AcDbEntity
  8
0
390
0
  6
Continuous
 62
     7
100
AcDbLine
 10
-28.082939
 20
-72.223874
 30
0.0
 11
-28.5
 21
-72.464664
 31
0.0
  0
LINE
  5
285
100
AcDbEntity
  8
0
390
0
  6
Continuous
 62
     7
100
AcDbLine
 10
-28.082939
 20
-72.223874
 30
0.0
 11
-28.082939
 21
-71.779289
 31
0.0
  0
LINE
  5
286
100
AcDbEntity
  8
0
390
0
  6
Continuous
 62
     7
100
AcDbLine
 10
43.471287
 20
-71.779289
 30
0.0
 11
43.471287
 21
-72.192567
 31
0.0
  0
LINE
  5
287
100
AcDbEntity
  8
0
390
0
  6
Continuous
 62
     7
100
AcDbLine
 10
43.471287
 20
-72.192567
 30
0.0
 11
43.0
 21
-72.464664
 31
0.0
  0
LINE
  5
288
100
AcDbEntity
  8
0
390
0
  6
Continuous
 62
     7
100
AcDbLine
 10
-39.0
 20
-73.363845
 30
0.0
 11
-36.971287
 21
-72.192567
 31
0.0
  0
LINE
  5
289
100
AcDbEntity
  8
0
390
0
  6
Continuous
 62
     7
100
AcDbLine
 10
-39.0
 20
-73.363845
 30
0.0
 11
-39.0
 21
-73.90804
 31
0.0
  0
LINE
  5
28A
100
AcDbEntity
  8
0
390
0
  6
Continuous
 62
     7
100
AcDbLine
 10
45.5
 20
-73.363845
 30
0.0
 11
47.528713
 21
-72.192567
 31
0.0
  0
LINE
  5
28B
100
AcDbEntity
  8
0
390
0
  6
Continuous
 62
     7
100
AcDbLine
 10
45.5
 20
-73.363845
 30
0.0
 11
45.5
 21
-73.90804
 31
0.0
  0
ELLIPSE
  5
28C
100
AcDbEntity
  8
0
390
0
  6
Continuous
 62
     7
100
AcDbEllipse
 10
0.0
 20
-53.579092
 30
0.0
 11
-60.647689226261512
 21
35.025630471816115
 31
0.0
210
0.0
220
0.0
230
1.0
 40
0.015115
 41
2.1053100549736912
 42
2.1450534145465818
  0
LINE
  5
28D
100
AcDbEntity
  8
0
390
0
  6
Continuous
 62
     7
100
AcDbLine
 10
32.5
 20
-73.375075
 30
0.0
 11
32.5
 21
-73.90804
 31
0.0
  0
LINE
  5
28E
100
AcDbEntity
  8
0
390
0
  6
Continuous
 62
     7
100
AcDbLine
 10
-47.528713
 20
-72.192567
 30
0.0
 11
-45.5
 21
-73.363845
 31
0.0
  0
LINE
  5
28F
100
AcDbEntity
  8
0
390
0
  6
Continuous
 62
     7
100
AcDbLine
 10
-45.5
 20
-73.363845
 30
0.0
 11
-45.5
 21
-73.90804
 31
0.0
  0
LINE
  5
290
100
AcDbEntity
  8
0
390
0
  6
Continuous
 62
     7
100
AcDbLine
 10
-45.5
 20
-73.363845
 30
0.0
 11
-43.471287
 21
-72.192567
 31
0.0
  0
LINE
  5
291
100
AcDbEntity
  8
0
390
0
  6
Continuous
 62
     7
100
AcDbLine
 10
-26.0
 20
-73.447376
 30
0.0
 11
-26.0
 21
-73.90804
 31
0.0
  0
ELLIPSE
  5
292
100
AcDbEntity
  8
0
390
0
  6
Continuous
 62
     7
100
AcDbEllipse
 10
0.0
 20
-87.354082
 30
0.0
 11
-60.647689226261512
 21
35.025630471816115
 31
0.0
210
0.0
220
0.0
230
1.0
 40
0.015115
 41
1.0981117785674801
 42
1.1364842345991235
  0
LINE
  5
293
100
AcDbEntity
  8
0
390
0
  6
Continuous
 62
     7
100
AcDbLine
 10
43.471287
 20
-72.192567
 30
0.0
 11
45.5
 21
-73.363845
 31
0.0
  0
LINE
  5
294
100
AcDbEntity
  8
0
390
0
  6
Continuous
 62
     7
100
AcDbLine
 10
39.0
 20
-73.363845
 30
0.0
 11
41.028713
 21
-72.192567
 31
0.0
  0
LINE
  5
295
100
AcDbEntity
  8
0
390
0
  6
Continuous
 62
     7
100
AcDbLine
 10
39.0
 20
-73.363845
 30
0.0
 11
39.0
 21
-73.90804
 31
0.0
  0
ELLIPSE
  5
296
100
AcDbEntity
  8
0
390
0
  6
Continuous
 62
     7
100
AcDbEllipse
 10
0.0
 20
-53.579092
 30
0.0
 11
60.647689226261512
 21
35.025630471816115
 31
0.0
210
0.0
220
0.0
230
1.0
 40
0.015115
 41
4.1381318926330044
 42
4.1778752522058946
  0
LINE
  5
297
100
AcDbEntity
  8
0
390
0
  6
Continuous
 62
     7
100
AcDbLine
 10
-32.5
 20
-73.375075
 30
0.0
 11
-32.5
 21
-73.90804
 31
0.0
  0
LINE
  5
298
100
AcDbEntity
  8
0
390
0
  6
Continuous
 62
     7
100
AcDbLine
 10
-41.028713
 20
-72.192567
 30
0.0
 11
-39.0
 21
-73.363845
 31
0.0
  0
LINE
  5
299
100
AcDbEntity
  8
0
390
0
  6
Continuous
 62
     7
100
AcDbLine
 10
26.0
 20
-73.447376
 30
0.0
 11
26.0
 21
-73.90804
 31
0.0
  0
ELLIPSE
  5
29A
100
AcDbEntity
  8
0
390
0
  6
Continuous
 62
     7
100
AcDbEllipse
 10
0.0
 20
-87.354082
 30
0.0
 11
60.647689226261512
 21
35.025630471816115
 31
0.0
210
0.0
220
0.0
230
1.0
 40
0.015115
 41
5.1467010725804627
 42
5.1850735286121061
  0
LINE
  5
29B
100
AcDbEntity
  8
0
390
0
  6
Continuous
 62
     7
100
AcDbLine
 10
-34.528713
 20
-72.192567
 30
0.0
 11
-33.361655
 21
-72.866368
 31
0.0
  0
ELLIPSE
  5
29C
100
AcDbEntity
  8
0
390
0
  6
Continuous
 62
     7
100
AcDbEllipse
 10
0.0
 20
-91.106859
 30
0.0
 11
-60.647689226261512
 21
35.025630471816115
 31
0.0
210
0.0
220
0.0
230
1.0
 40
0.015115
 41
0.9970793701384081
 42
1.0139978497599729
  0
LINE
  5
29D
100
AcDbEntity
  8
0
390
0
  6
Continuous
 62
     7
100
AcDbLine
 10
36.971287
 20
-72.192567
 30
0.0
 11
39.0
 21
-73.363845
 31
0.0
  0
LINE
  5
29E
100
AcDbEntity
  8
0
390
0
  6
Continuous
 62
     7
100
AcDbLine
 10
33.361655
 20
-72.866368
 30
0.0
 11
34.528713
 21
-72.192567
 31
0.0
  0
ELLIPSE
  5
29F
100
AcDbEntity
  8
0
390
0
  6
Continuous
 62
     7
100
AcDbEllipse
 10
0.0
 20
-91.106859
 30
0.0
 11
60.647689226261512
 21
35.025630471816115
 31
0.0
210
0.0
220
0.0
230
1.0
 40
0.015115
 41
5.2691874574196129
 42
5.286105937041178
  0
LINE
  5
2A0
100
AcDbEntity
  8
0
390
0
  6
Continuous
 62
     7
100
AcDbLine
 10
19.5
 20
-73.500493
 30
0.0
 11
19.5
 21
-73.90804
 31
0.0
  0
ELLIPSE
  5
2A1
100
AcDbEntity
  8
0
390
0
  6
Continuous
 62
     7
100
AcDbEllipse
 10
0.0
 20
-83.601306
 30
0.0
 11
60.647689226261512
 21
35.025630471816115
 31
0.0
210
0.0
220
0.0
230
1.0
 40
0.015115
 41
5.0309906856281978
 42
5.0683887782882397
  0
LINE
  5
2A2
100
AcDbEntity
  8
0
390
0
  6
Continuous
 62
     7
100
AcDbLine
 10
13.0
 20
-73.536987
 30
0.0
 11
13.0
 21
-73.90804
 31
0.0
  0
ELLIPSE
  5
2A3
100
AcDbEntity
  8
0
390
0
  6
Continuous
 62
     7
100
AcDbEllipse
 10
0.0
 20
-79.848529
 30
0.0
 11
60.647689226261512
 21
35.025630471816115
 31
0.0
210
0.0
220
0.0
230
1.0
 40
0.015115
 41
4.9196804603774185
 42
4.9564610966972129
  0
ELLIPSE
  5
2A4
100
AcDbEntity
  8
0
390
0
  6
Continuous
 62
     7
100
AcDbEllipse
 10
0.0
 20
-61.084645
 30
0.0
 11
-60.647689226261512
 21
35.025630471816115
 31
0.0
210
0.0
220
0.0
230
1.0
 40
0.015115
 41
1.8694899798609028
 42
1.9068566427551668
  0
LINE
  5
2A5
100
AcDbEntity
  8
0
390
0
  6
Continuous
 62
     7
100
AcDbLine
 10
-19.5
 20
-73.500493
 30
0.0
 11
-19.5
 21
-73.90804
 31
0.0
  0
ELLIPSE
  5
2A6
100
AcDbEntity
  8
0
390
0
  6
Continuous
 62
     7
100
AcDbEllipse
 10
0.0
 20
-83.601306
 30
0.0
 11
-60.647689226261512
 21
35.025630471816115
 31
0.0
210
0.0
220
0.0
230
1.0
 40
0.015115
 41
1.2147965288913467
 42
1.2521946215513882
  0
LINE
  5
2A7
100
AcDbEntity
  8
0
390
0
  6
Continuous
 62
     7
100
AcDbLine
 10
-6.5
 20
-73.558358
 30
0.0
 11
-6.5
 21
-73.90804
 31
0.0
  0
ELLIPSE
  5
2A8
100
AcDbEntity
  8
0
390
0
  6
Continuous
 62
     7
100
AcDbEllipse
 10
0.0
 20
-68.590199
 30
0.0
 11
60.647689226261512
 21
35.025630471816115
 31
0.0
210
0.0
220
0.0
230
1.0
 40
0.015115
 41
4.5962811454720685
 42
4.6327114724907696
  0
ELLIPSE
  5
2A9
100
AcDbEntity
  8
0
390
0
  6
Continuous
 62
     7
100
AcDbEllipse
 10
0.0
 20
-76.095752
 30
0.0
 11
-60.647689226261512
 21
35.025630471816179
 31
0.0
210
0.0
220
0.0
230
1.0
 40
0.015115
 41
1.4357107789215267
 42
1.4721471025990367
  0
ELLIPSE
  5
2AA
100
AcDbEntity
  8
0
390
0
  6
Continuous
 62
     7
100
AcDbEllipse
 10
0.0
 20
-64.837422
 30
0.0
 11
-60.647689226261512
 21
35.025630471816179
 31
0.0
210
0.0
220
0.0
230
1.0
 40
0.015115
 41
1.7587808453529146
 42
1.7955464175043867
  0
LINE
  5
2AB
100
AcDbEntity
  8
0
390
0
  6
Continuous
 62
     7
100
AcDbLine
 10
0.0
 20
-73.565399
 30
0.0
 11
0.0
 21
-73.90804
 31
0.0
  0
ELLIPSE
  5
2AC
100
AcDbEntity
  8
0
390
0
  6
Continuous
 62
     7
100
AcDbEllipse
 10
0.0
 20
-72.342975
 30
0.0
 11
60.647689226261512
 21
35.025630471816115
 31
0.0
210
0.0
220
0.0
230
1.0
 40
0.015115
 41
4.7036596750263096
 42
4.7399836650562248
  0
LINE
  5
2AD
100
AcDbEntity
  8
0
390
0
  6
Continuous
 62
     7
100
AcDbLine
 10
-13.0
 20
-73.536987
 30
0.0
 11
-13.0
 21
-73.90804
 31
0.0
  0
ELLIPSE
  5
2AE
100
AcDbEntity
  8
0
390
0
  6
Continuous
 62
     7
100
AcDbEllipse
 10
0.0
 20
-64.837422
 30
0.0
 11
60.647689226261512
 21
35.025630471816115
 31
0.0
210
0.0
220
0.0
230
1.0
 40
0.015115
 41
4.4876388896751997
 42
4.5244044618266734
  0
ELLIPSE
  5
2AF
100
AcDbEntity
  8
0
390
0
  6
Continuous
 62
     7
100
AcDbEllipse
 10
0.0
 20
-57.331868
 30
0.0
 11
60.647689226261512
 21
35.025630471816115
 31
0.0
210
0.0
220
0.0
230
1.0
 40
0.015115
 41
4.2606182774721555
 42
4.2989282373267805
  0
ELLIPSE
  5
2B0
100
AcDbEntity
  8
0
390
0
  6
Continuous
 62
     7
100
AcDbEllipse
 10
0.0
 20
-57.331868
 30
0.0
 11
-60.647689226261512
 21
35.025630471816179
 31
0.0
210
0.0
220
0.0
230
1.0
 40
0.015115
 41
1.9842570698528057
 42
2.0225670297074312
  0
ELLIPSE
  5
2B1
100
AcDbEntity
  8
0
390
0
  6
Continuous
 62
     7
100
AcDbEllipse
 10
0.0
 20
-61.084645
 30
0.0
 11
60.647689226261512
 21
35.025630471816115
 31
0.0
210
0.0
220
0.0
230
1.0
 40
0.015115
 41
4.3763286644244204
 42
4.4136953273186839
  0
LINE
  5
2B2
100
AcDbEntity
  8
0
390
0
  6
Continuous
 62
     7
100
AcDbLine
 10
6.5
 20
-73.558358
 30
0.0
 11
6.5
 21
-73.90804
 31
0.0
  0
ELLIPSE
  5
2B3
100
AcDbEntity
  8
0
390
0
  6
Continuous
 62
     7
100
AcDbEllipse
 10
0.0
 20
-76.095752
 30
0.0
 11
60.647689226261512
 21
35.025630471816115
 31
0.0
210
0.0
220
0.0
230
1.0
 40
0.015115
 41
4.8110382045805498
 42
4.8474745282580596
  0
ELLIPSE
  5
2B4
100
AcDbEntity
  8
0
390
0
  6
Continuous
 62
     7
100
AcDbEllipse
 10
0.0
 20
-72.342975
 30
0.0
 11
-60.647689226261512
 21
35.025630471816115
 31
0.0
210
0.0
220
0.0
230
1.0
 40
0.015115
 41
1.543201642123363
 42
1.5795256321532773
  0
ELLIPSE
  5
2B5
100
AcDbEntity
  8
0
390
0
  6
Continuous
 62
     7
100
AcDbEllipse
 10
0.0
 20
-79.848529
 30
0.0
 11
-60.647689226261512
 21
35.025630471816179
 31
0.0
210
0.0
220
0.0
230
1.0
 40
0.015115
 41
1.3267242104823733
 42
1.3635048468021678
  0
ELLIPSE
  5
2B6
100
AcDbEntity
  8
0
390
0
  6
Continuous
 62
     7
100
AcDbEllipse
 10
0.0
 20
-68.590199
 30
0.0
 11
-60.647689226261512
 21
35.025630471816179
 31
0.0
210
0.0
220
0.0
230
1.0
 40
0.015115
 41
1.650473834688817
 42
1.6869041617075184
  0
LINE
  5
2B7
100
AcDbEntity
  8
0
390
0
  6
Continuous
 62
     7
100
AcDbLine
 10
-18.403351
 20
-75.406886
 30
0.0
 11
-18.75
 21
-75.206748
 31
0.0
  0
LINE
  5
2B8
100
AcDbEntity
  8
0
390
0
  6
Continuous
 62
     7
100
AcDbLine
 10
-16.25
 20
-74.150708
 30
0.0
 11
-16.25
 21
-73.763372
 31
0.0
  0
ELLIPSE
  5
2B9
100
AcDbEntity
  8
0
390
0
  6
Continuous
 62
     7
100
AcDbEllipse
 10
0.0
 20
-65.946495
 30
0.0
 11
60.647689226261512
 21
35.025630471816179
 31
0.0
210
0.0
220
0.0
230
1.0
 40
0.015115
 41
1.8333116330165957
 42
1.8703628939247681
  0
LINE
  5
2BA
100
AcDbEntity
  8
0
390
0
  6
Continuous
 62
     7
100
AcDbLine
 10
22.75
 20
-74.195271
 30
0.0
 11
22.75
 21
-73.763372
 31
0.0
  0
LINE
  5
2BB
100
AcDbEntity
  8
0
390
0
  6
Continuous
 62
     7
100
AcDbLine
 10
24.860242
 20
-75.431775
 30
0.0
 11
25.25
 21
-75.206748
 31
0.0
  0
ELLIPSE
  5
2BC
100
AcDbEntity
  8
0
390
0
  6
Continuous
 62
     7
100
AcDbEllipse
 10
0.0
 20
-62.193718
 30
0.0
 11
-60.647689226261512
 21
35.025630471816115
 31
0.0
210
0.0
220
0.0
230
1.0
 40
0.015115
 41
4.2987773420360638
 42
4.3366103463631687
  0
LINE
  5
2BD
100
AcDbEntity
  8
0
390
0
  6
Continuous
 62
     7
100
AcDbLine
 10
7.554982
 20
-75.382829
 30
0.0
 11
7.25
 21
-75.206748
 31
0.0
  0
LINE
  5
2BE
100
AcDbEntity
  8
0
390
0
  6
Continuous
 62
     7
100
AcDbLine
 10
9.75
 20
-74.121913
 30
0.0
 11
9.75
 21
-73.763372
 31
0.0
  0
ELLIPSE
  5
2BF
100
AcDbEntity
  8
0
390
0
  6
Continuous
 62
     7
100
AcDbEllipse
 10
0.0
 20
-80.957602
 30
0.0
 11
60.647689226261512
 21
35.025630471816179
 31
0.0
210
0.0
220
0.0
230
1.0
 40
0.015115
 41
1.4006079718082656
 42
1.4371757150759865
  0
LINE
  5
2C0
100
AcDbEntity
  8
0
390
0
  6
Continuous
 62
     7
100
AcDbLine
 10
-42.25
 20
-74.307567
 30
0.0
 11
-44.278713
 21
-75.478845
 31
0.0
  0
LINE
  5
2C1
100
AcDbEntity
  8
0
390
0
  6
Continuous
 62
     7
100
AcDbLine
 10
-44.278713
 20
-75.478845
 30
0.0
 11
-44.75
 21
-75.206748
 31
0.0
  0
LINE
  5
2C2
100
AcDbEntity
  8
0
390
0
  6
Continuous
 62
     7
100
AcDbLine
 10
-42.25
 20
-74.307567
 30
0.0
 11
-42.25
 21
-73.763372
 31
0.0
  0
LINE
  5
2C3
100
AcDbEntity
  8
0
390
0
  6
Continuous
 62
     7
100
AcDbLine
 10
35.75
 20
-74.307567
 30
0.0
 11
33.721287
 21
-75.478845
 31
0.0
  0
LINE
  5
2C4
100
AcDbEntity
  8
0
390
0
  6
Continuous
 62
     7
100
AcDbLine
 10
33.721287
 20
-75.478845
 30
0.0
 11
33.25
 21
-75.206748
 31
0.0
  0
LINE
  5
2C5
100
AcDbEntity
  8
0
390
0
  6
Continuous
 62
     7
100
AcDbLine
 10
35.75
 20
-74.307567
 30
0.0
 11
35.75
 21
-73.763372
 31
0.0
  0
LINE
  5
2C6
100
AcDbEntity
  8
0
390
0
  6
Continuous
 62
     7
100
AcDbLine
 10
-40.221287
 20
-75.478845
 30
0.0
 11
-42.25
 21
-74.307567
 31
0.0
  0
LINE
  5
2C7
100
AcDbEntity
  8
0
390
0
  6
Continuous
 62
     7
100
AcDbLine
 10
-40.221287
 20
-75.478845
 30
0.0
 11
-39.75
 21
-75.206748
 31
0.0
  0
LINE
  5
2C8
100
AcDbEntity
  8
0
390
0
  6
Continuous
 62
     7
100
AcDbLine
 10
-5.448983
 20
-75.38054
 30
0.0
 11
-5.75
 21
-75.206748
 31
0.0
  0
LINE
  5
2C9
100
AcDbEntity
  8
0
390
0
  6
Continuous
 62
     7
100
AcDbLine
 10
-3.25
 20
-74.10777
 30
0.0
 11
-3.25
 21
-73.763372
 31
0.0
  0
ELLIPSE
  5
2CA
100
AcDbEntity
  8
0
390
0
  6
Continuous
 62
     7
100
AcDbEllipse
 10
0.0
 20
-73.452049
 30
0.0
 11
60.647689226261512
 21
35.025630471816179
 31
0.0
210
0.0
220
0.0
230
1.0
 40
0.015115
 41
1.6156788498915982
 42
1.652031405584129
  0
LINE
  5
2CB
100
AcDbEntity
  8
0
390
0
  6
Continuous
 62
     7
100
AcDbLine
 10
-35.75
 20
-74.307567
 30
0.0
 11
-37.778713
 21
-75.478845
 31
0.0
  0
LINE
  5
2CC
100
AcDbEntity
  8
0
390
0
  6
Continuous
 62
     7
100
AcDbLine
 10
-37.778713
 20
-75.478845
 30
0.0
 11
-38.25
 21
-75.206748
 31
0.0
  0
LINE
  5
2CD
100
AcDbEntity
  8
0
390
0
  6
Continuous
 62
     7
100
AcDbLine
 10
-35.75
 20
-74.307567
 30
0.0
 11
-35.75
 21
-73.763372
 31
0.0
  0
ELLIPSE
  5
2CE
100
AcDbEntity
  8
0
390
0
  6
Continuous
 62
     7
100
AcDbEllipse
 10
0.0
 20
-58.440942
 30
0.0
 11
-60.647689226261512
 21
35.025630471816115
 31
0.0
210
0.0
220
0.0
230
1.0
 40
0.015115
 41
4.1788285422956539
 42
4.217868051244368
  0
LINE
  5
2CF
100
AcDbEntity
  8
0
390
0
  6
Continuous
 62
     7
100
AcDbLine
 10
29.25
 20
-74.25757
 30
0.0
 11
29.25
 21
-73.763372
 31
0.0
  0
LINE
  5
2D0
100
AcDbEntity
  8
0
390
0
  6
Continuous
 62
     7
100
AcDbLine
 10
31.301379
 20
-75.46576
 30
0.0
 11
31.75
 21
-75.206748
 31
0.0
  0
LINE
  5
2D1
100
AcDbEntity
  8
0
390
0
  6
Continuous
 62
     7
100
AcDbLine
 10
-14.075641
 20
-75.394757
 30
0.0
 11
-13.75
 21
-75.206748
 31
0.0
  0
ELLIPSE
  5
2D2
100
AcDbEntity
  8
0
390
0
  6
Continuous
 62
     7
100
AcDbEllipse
 10
0.0
 20
-84.710379
 30
0.0
 11
-60.647689226261512
 21
35.025630471816179
 31
0.0
210
0.0
220
0.0
230
1.0
 40
0.015115
 41
4.955333618163011
 42
4.99236289732315
  0
LINE
  5
2D3
100
AcDbEntity
  8
0
390
0
  6
Continuous
 62
     7
100
AcDbLine
 10
20.609734
 20
-75.41444
 30
0.0
 11
20.25
 21
-75.206748
 31
0.0
  0
ELLIPSE
  5
2D4
100
AcDbEntity
  8
0
390
0
  6
Continuous
 62
     7
100
AcDbEllipse
 10
0.0
 20
-88.463156
 30
0.0
 11
60.647689226261512
 21
35.025630471816179
 31
0.0
210
0.0
220
0.0
230
1.0
 40
0.015115
 41
1.177559082056614
 42
1.2153476450898668
  0
LINE
  5
2D5
100
AcDbEntity
  8
0
390
0
  6
Continuous
 62
     7
100
AcDbLine
 10
37.778713
 20
-75.478845
 30
0.0
 11
35.75
 21
-74.307567
 31
0.0
  0
LINE
  5
2D6
100
AcDbEntity
  8
0
390
0
  6
Continuous
 62
     7
100
AcDbLine
 10
37.778713
 20
-75.478845
 30
0.0
 11
38.25
 21
-75.206748
 31
0.0
  0
LINE
  5
2D7
100
AcDbEntity
  8
0
390
0
  6
Continuous
 62
     7
100
AcDbLine
 10
1.046894
 20
-75.37816
 30
0.0
 11
0.75
 21
-75.206748
 31
0.0
  0
LINE
  5
2D8
100
AcDbEntity
  8
0
390
0
  6
Continuous
 62
     7
100
AcDbLine
 10
3.25
 20
-74.10777
 30
0.0
 11
3.25
 21
-73.763372
 31
0.0
  0
ELLIPSE
  5
2D9
100
AcDbEntity
  8
0
390
0
  6
Continuous
 62
     7
100
AcDbEllipse
 10
0.0
 20
-77.204825
 30
0.0
 11
60.647689226261512
 21
35.025630471816179
 31
0.0
210
0.0
220
0.0
230
1.0
 40
0.015115
 41
1.5084551929814309
 42
1.5448049303899341
  0
LINE
  5
2DA
100
AcDbEntity
  8
0
390
0
  6
Continuous
 62
     7
100
AcDbLine
 10
-22.75
 20
-74.195271
 30
0.0
 11
-22.75
 21
-73.763372
 31
0.0
  0
LINE
  5
2DB
100
AcDbEntity
  8
0
390
0
  6
Continuous
 62
     7
100
AcDbLine
 10
-20.609734
 20
-75.41444
 30
0.0
 11
-20.25
 21
-75.206748
 31
0.0
  0
ELLIPSE
  5
2DC
100
AcDbEntity
  8
0
390
0
  6
Continuous
 62
     7
100
AcDbEllipse
 10
0.0
 20
-88.463156
 30
0.0
 11
-60.647689226261512
 21
35.025630471816115
 31
0.0
210
0.0
220
0.0
230
1.0
 40
0.015115
 41
5.0678376620897154
 42
5.1056262251229692
  0
LINE
  5
2DD
100
AcDbEntity
  8
0
390
0
  6
Continuous
 62
     7
100
AcDbLine
 10
-1.046894
 20
-75.37816
 30
0.0
 11
-0.75
 21
-75.206748
 31
0.0
  0
ELLIPSE
  5
2DE
100
AcDbEntity
  8
0
390
0
  6
Continuous
 62
     7
100
AcDbEllipse
 10
0.0
 20
-77.204825
 30
0.0
 11
-60.647689226261512
 21
35.025630471816115
 31
0.0
210
0.0
220
0.0
230
1.0
 40
0.015115
 41
4.7383803767896486
 42
4.7747301141981531
  0
LINE
  5
2DF
100
AcDbEntity
  8
0
390
0
  6
Continuous
 62
     7
100
AcDbLine
 10
-24.860242
 20
-75.431775
 30
0.0
 11
-25.25
 21
-75.206748
 31
0.0
  0
ELLIPSE
  5
2E0
100
AcDbEntity
  8
0
390
0
  6
Continuous
 62
     7
100
AcDbEllipse
 10
0.0
 20
-62.193718
 30
0.0
 11
60.647689226261512
 21
35.025630471816179
 31
0.0
210
0.0
220
0.0
230
1.0
 40
0.015115
 41
1.946574960816414
 42
1.984407965143518
  0
LINE
  5
2E1
100
AcDbEntity
  8
0
390
0
  6
Continuous
 62
     7
100
AcDbLine
 10
11.932572
 20
-75.390015
 30
0.0
 11
12.25
 21
-75.206748
 31
0.0
  0
ELLIPSE
  5
2E2
100
AcDbEntity
  8
0
390
0
  6
Continuous
 62
     7
100
AcDbEllipse
 10
0.0
 20
-69.699272
 30
0.0
 11
-60.647689226261512
 21
35.025630471816115
 31
0.0
210
0.0
220
0.0
230
1.0
 40
0.015115
 41
4.523081566752543
 42
4.55965923611482
  0
LINE
  5
2E3
100
AcDbEntity
  8
0
390
0
  6
Continuous
 62
     7
100
AcDbLine
 10
48.75
 20
-74.307567
 30
0.0
 11
46.721287
 21
-75.478845
 31
0.0
  0
LINE
  5
2E4
100
AcDbEntity
  8
0
390
0
  6
Continuous
 62
     7
100
AcDbLine
 10
46.721287
 20
-75.478845
 30
0.0
 11
46.25
 21
-75.206748
 31
0.0
  0
LINE
  5
2E5
100
AcDbEntity
  8
0
390
0
  6
Continuous
 62
     7
100
AcDbLine
 10
48.75
 20
-74.307567
 30
0.0
 11
48.75
 21
-73.763372
 31
0.0
  0
LINE
  5
2E6
100
AcDbEntity
  8
0
390
0
  6
Continuous
 62
     7
100
AcDbLine
 10
-46.721287
 20
-75.478845
 30
0.0
 11
-48.75
 21
-74.307567
 31
0.0
  0
LINE
  5
2E7
100
AcDbEntity
  8
0
390
0
  6
Continuous
 62
     7
100
AcDbLine
 10
-48.75
 20
-74.307567
 30
0.0
 11
-48.75
 21
-73.763372
 31
0.0
  0
LINE
  5
2E8
100
AcDbEntity
  8
0
390
0
  6
Continuous
 62
     7
100
AcDbLine
 10
-46.721287
 20
-75.478845
 30
0.0
 11
-46.25
 21
-75.206748
 31
0.0
  0
ELLIPSE
  5
2E9
100
AcDbEntity
  8
0
390
0
  6
Continuous
 62
     7
100
AcDbEllipse
 10
0.0
 20
-92.215932
 30
0.0
 11
60.647689226261512
 21
35.025630471816086
 31
0.0
210
0.0
220
0.0
230
1.0
 40
0.015115
 41
1.0588167869378136
 42
1.0977684958368046
  0
LINE
  5
2EA
100
AcDbEntity
  8
0
390
0
  6
Continuous
 62
     7
100
AcDbLine
 10
27.158809
 20
-75.442774
 30
0.0
 11
26.75
 21
-75.206748
 31
0.0
  0
LINE
  5
2EB
100
AcDbEntity
  8
0
390
0
  6
Continuous
 62
     7
100
AcDbLine
 10
5.448983
 20
-75.38054
 30
0.0
 11
5.75
 21
-75.206748
 31
0.0
  0
ELLIPSE
  5
2EC
100
AcDbEntity
  8
0
390
0
  6
Continuous
 62
     7
100
AcDbEllipse
 10
0.0
 20
-73.452049
 30
0.0
 11
-60.647689226261512
 21
35.025630471816115
 31
0.0
210
0.0
220
0.0
230
1.0
 40
0.015115
 41
4.6311539015954537
 42
4.6675064572879847
  0
ELLIPSE
  5
2ED
100
AcDbEntity
  8
0
390
0
  6
Continuous
 62
     7
100
AcDbEllipse
 10
0.0
 20
-58.440942
 30
0.0
 11
60.647689226261512
 21
35.025630471816179
 31
0.0
210
0.0
220
0.0
230
1.0
 40
0.015115
 41
2.0653172559352142
 42
2.1043567648839279
  0
LINE
  5
2EE
100
AcDbEntity
  8
0
390
0
  6
Continuous
 62
     7
100
AcDbLine
 10
-31.301379
 20
-75.46576
 30
0.0
 11
-31.75
 21
-75.206748
 31
0.0
  0
LINE
  5
2EF
100
AcDbEntity
  8
0
390
0
  6
Continuous
 62
     7
100
AcDbLine
 10
-29.25
 20
-74.25757
 30
0.0
 11
-29.25
 21
-73.763372
 31
0.0
  0
LINE
  5
2F0
100
AcDbEntity
  8
0
390
0
  6
Continuous
 62
     7
100
AcDbLine
 10
50.778713
 20
-75.478845
 30
0.0
 11
51.0
 21
-75.351085
 31
0.0
  0
LINE
  5
2F1
100
AcDbEntity
  8
0
390
0
  6
Continuous
 62
     7
100
AcDbLine
 10
50.778713
 20
-75.478845
 30
0.0
 11
48.75
 21
-74.307567
 31
0.0
  0
LINE
  5
2F2
100
AcDbEntity
  8
0
390
0
  6
Continuous
 62
     7
100
AcDbLine
 10
-48.75
 20
-74.307567
 30
0.0
 11
-50.778713
 21
-75.478845
 31
0.0
  0
LINE
  5
2F3
100
AcDbEntity
  8
0
390
0
  6
Continuous
 62
     7
100
AcDbLine
 10
-50.778713
 20
-75.478845
 30
0.0
 11
-51.0
 21
-75.351085
 31
0.0
  0
ELLIPSE
  5
2F4
100
AcDbEntity
  8
0
390
0
  6
Continuous
 62
     7
100
AcDbEllipse
 10
0.0
 20
-92.215932
 30
0.0
 11
-60.647689226261512
 21
35.025630471816086
 31
0.0
210
0.0
220
0.0
230
1.0
 40
0.015115
 41
5.1854168113427779
 42
5.2243685202417689
  0
LINE
  5
2F5
100
AcDbEntity
  8
0
390
0
  6
Continuous
 62
     7
100
AcDbLine
 10
-27.158809
 20
-75.442774
 30
0.0
 11
-26.75
 21
-75.206748
 31
0.0
  0
LINE
  5
2F6
100
AcDbEntity
  8
0
390
0
  6
Continuous
 62
     7
100
AcDbLine
 10
14.075641
 20
-75.394757
 30
0.0
 11
13.75
 21
-75.206748
 31
0.0
  0
LINE
  5
2F7
100
AcDbEntity
  8
0
390
0
  6
Continuous
 62
     7
100
AcDbLine
 10
16.25
 20
-74.150708
 30
0.0
 11
16.25
 21
-73.763372
 31
0.0
  0
ELLIPSE
  5
2F8
100
AcDbEntity
  8
0
390
0
  6
Continuous
 62
     7
100
AcDbEllipse
 10
0.0
 20
-84.710379
 30
0.0
 11
60.647689226261512
 21
35.025630471816179
 31
0.0
210
0.0
220
0.0
230
1.0
 40
0.015115
 41
1.2908224098564334
 42
1.3278516890165712
  0
LINE
  5
2F9
100
AcDbEntity
  8
0
390
0
  6
Continuous
 62
     7
100
AcDbLine
 10
18.403351
 20
-75.406886
 30
0.0
 11
18.75
 21
-75.206748
 31
0.0
  0
ELLIPSE
  5
2FA
100
AcDbEntity
  8
0
390
0
  6
Continuous
 62
     7
100
AcDbEllipse
 10
0.0
 20
-65.946495
 30
0.0
 11
-60.647689226261512
 21
35.025630471816115
 31
0.0
210
0.0
220
0.0
230
1.0
 40
0.015115
 41
4.4128224132548137
 42
4.4498736741629878
  0
LINE
  5
2FB
100
AcDbEntity
  8
0
390
0
  6
Continuous
 62
     7
100
AcDbLine
 10
-33.721287
 20
-75.478845
 30
0.0
 11
-35.75
 21
-74.307567
 31
0.0
  0
LINE
  5
2FC
100
AcDbEntity
  8
0
390
0
  6
Continuous
 62
     7
100
AcDbLine
 10
-33.721287
 20
-75.478845
 30
0.0
 11
-33.25
 21
-75.206748
 31
0.0
  0
LINE
  5
2FD
100
AcDbEntity
  8
0
390
0
  6
Continuous
 62
     7
100
AcDbLine
 10
-9.75
 20
-74.121913
 30
0.0
 11
-9.75
 21
-73.763372
 31
0.0
  0
LINE
  5
2FE
100
AcDbEntity
  8
0
390
0
  6
Continuous
 62
     7
100
AcDbLine
 10
-7.554982
 20
-75.382829
 30
0.0
 11
-7.25
 21
-75.206748
 31
0.0
  0
ELLIPSE
  5
2FF
100
AcDbEntity
  8
0
390
0
  6
Continuous
 62
     7
100
AcDbEllipse
 10
0.0
 20
-80.957602
 30
0.0
 11
-60.647689226261512
 21
35.025630471816179
 31
0.0
210
0.0
220
0.0
230
1.0
 40
0.015115
 41
4.8460095921035959
 42
4.8825773353713169
  0
LINE
  5
300
100
AcDbEntity
  8
0
390
0
  6
Continuous
 62
     7
100
AcDbLine
 10
44.278713
 20
-75.478845
 30
0.0
 11
42.25
 21
-74.307567
 31
0.0
  0
LINE
  5
301
100
AcDbEntity
  8
0
390
0
  6
Continuous
 62
     7
100
AcDbLine
 10
42.25
 20
-74.307567
 30
0.0
 11
42.25
 21
-73.763372
 31
0.0
  0
LINE
  5
302
100
AcDbEntity
  8
0
390
0
  6
Continuous
 62
     7
100
AcDbLine
 10
44.278713
 20
-75.478845
 30
0.0
 11
44.75
 21
-75.206748
 31
0.0
  0
LINE
  5
303
100
AcDbEntity
  8
0
390
0
  6
Continuous
 62
     7
100
AcDbLine
 10
-11.932572
 20
-75.390015
 30
0.0
 11
-12.25
 21
-75.206748
 31
0.0
  0
ELLIPSE
  5
304
100
AcDbEntity
  8
0
390
0
  6
Continuous
 62
     7
100
AcDbEllipse
 10
0.0
 20
-69.699272
 30
0.0
 11
60.647689226261512
 21
35.025630471816179
 31
0.0
210
0.0
220
0.0
230
1.0
 40
0.015115
 41
1.7235260710647624
 42
1.7601037404270397
  0
LINE
  5
305
100
AcDbEntity
  8
0
390
0
  6
Continuous
 62
     7
100
AcDbLine
 10
42.25
 20
-74.307567
 30
0.0
 11
40.221287
 21
-75.478845
 31
0.0
  0
LINE
  5
306
100
AcDbEntity
  8
0
390
0
  6
Continuous
 62
     7
100
AcDbLine
 10
40.221287
 20
-75.478845
 30
0.0
 11
39.75
 21
-75.206748
 31
0.0
  0
LINE
  5
307
100
AcDbEntity
  8
0
390
0
  6
Continuous
 62
     7
100
AcDbLine
 10
-20.609734
 20
-77.885807
 30
0.0
 11
-20.25
 21
-78.093499
 31
0.0
  0
LINE
  5
308
100
AcDbEntity
  8
0
390
0
  6
Continuous
 62
     7
100
AcDbLine
 10
-20.609734
 20
-75.41444
 30
0.0
 11
-20.609734
 21
-77.885807
 31
0.0
  0
LINE
  5
309
100
AcDbEntity
  8
0
390
0
  6
Continuous
 62
     7
100
AcDbLine
 10
5.448983
 20
-77.919707
 30
0.0
 11
5.75
 21
-78.093499
 31
0.0
  0
LINE
  5
30A
100
AcDbEntity
  8
0
390
0
  6
Continuous
 62
     7
100
AcDbLine
 10
5.448983
 20
-75.38054
 30
0.0
 11
5.448983
 21
-77.919707
 31
0.0
  0
LINE
  5
30B
100
AcDbEntity
  8
0
390
0
  6
Continuous
 62
     7
100
AcDbLine
 10
7.554982
 20
-77.917418
 30
0.0
 11
7.25
 21
-78.093499
 31
0.0
  0
LINE
  5
30C
100
AcDbEntity
  8
0
390
0
  6
Continuous
 62
     7
100
AcDbLine
 10
7.554982
 20
-77.917418
 30
0.0
 11
7.554982
 21
-75.382829
 31
0.0
  0
LINE
  5
30D
100
AcDbEntity
  8
0
390
0
  6
Continuous
 62
     7
100
AcDbLine
 10
46.721287
 20
-75.478845
 30
0.0
 11
46.721287
 21
-77.821402
 31
0.0
  0
LINE
  5
30E
100
AcDbEntity
  8
0
390
0
  6
Continuous
 62
     7
100
AcDbLine
 10
46.721287
 20
-77.821402
 30
0.0
 11
46.25
 21
-78.093499
 31
0.0
  0
LINE
  5
30F
100
AcDbEntity
  8
0
390
0
  6
Continuous
 62
     7
100
AcDbLine
 10
-37.778713
 20
-75.478845
 30
0.0
 11
-37.778713
 21
-77.821402
 31
0.0
  0
LINE
  5
310
100
AcDbEntity
  8
0
390
0
  6
Continuous
 62
     7
100
AcDbLine
 10
-37.778713
 20
-77.821402
 30
0.0
 11
-38.25
 21
-78.093499
 31
0.0
  0
LINE
  5
311
100
AcDbEntity
  8
0
390
0
  6
Continuous
 62
     7
100
AcDbLine
 10
-40.221287
 20
-77.821402
 30
0.0
 11
-40.221287
 21
-75.478845
 31
0.0
  0
LINE
  5
312
100
AcDbEntity
  8
0
390
0
  6
Continuous
 62
     7
100
AcDbLine
 10
-40.221287
 20
-77.821402
 30
0.0
 11
-39.75
 21
-78.093499
 31
0.0
  0
LINE
  5
313
100
AcDbEntity
  8
0
390
0
  6
Continuous
 62
     7
100
AcDbLine
 10
33.721287
 20
-75.478845
 30
0.0
 11
33.721287
 21
-77.821402
 31
0.0
  0
LINE
  5
314
100
AcDbEntity
  8
0
390
0
  6
Continuous
 62
     7
100
AcDbLine
 10
33.721287
 20
-77.821402
 30
0.0
 11
33.25
 21
-78.093499
 31
0.0
  0
LINE
  5
315
100
AcDbEntity
  8
0
390
0
  6
Continuous
 62
     7
100
AcDbLine
 10
-5.448983
 20
-77.919707
 30
0.0
 11
-5.75
 21
-78.093499
 31
0.0
  0
LINE
  5
316
100
AcDbEntity
  8
0
390
0
  6
Continuous
 62
     7
100
AcDbLine
 10
-5.448983
 20
-77.919707
 30
0.0
 11
-5.448983
 21
-75.38054
 31
0.0
  0
LINE
  5
317
100
AcDbEntity
  8
0
390
0
  6
Continuous
 62
     7
100
AcDbLine
 10
-1.046894
 20
-77.922088
 30
0.0
 11
-0.75
 21
-78.093499
 31
0.0
  0
LINE
  5
318
100
AcDbEntity
  8
0
390
0
  6
Continuous
 62
     7
100
AcDbLine
 10
-1.046894
 20
-75.37816
 30
0.0
 11
-1.046894
 21
-77.922088
 31
0.0
  0
LINE
  5
319
100
AcDbEntity
  8
0
390
0
  6
Continuous
 62
     7
100
AcDbLine
 10
24.860242
 20
-77.868473
 30
0.0
 11
25.25
 21
-78.093499
 31
0.0
  0
LINE
  5
31A
100
AcDbEntity
  8
0
390
0
  6
Continuous
 62
     7
100
AcDbLine
 10
24.860242
 20
-75.431775
 30
0.0
 11
24.860242
 21
-77.868473
 31
0.0
  0
LINE
  5
31B
100
AcDbEntity
  8
0
390
0
  6
Continuous
 62
     7
100
AcDbLine
 10
-46.721287
 20
-77.821402
 30
0.0
 11
-46.721287
 21
-75.478845
 31
0.0
  0
LINE
  5
31C
100
AcDbEntity
  8
0
390
0
  6
Continuous
 62
     7
100
AcDbLine
 10
-46.721287
 20
-77.821402
 30
0.0
 11
-46.25
 21
-78.093499
 31
0.0
  0
LINE
  5
31D
100
AcDbEntity
  8
0
390
0
  6
Continuous
 62
     7
100
AcDbLine
 10
1.046894
 20
-77.922088
 30
0.0
 11
0.75
 21
-78.093499
 31
0.0
  0
LINE
  5
31E
100
AcDbEntity
  8
0
390
0
  6
Continuous
 62
     7
100
AcDbLine
 10
1.046894
 20
-77.922088
 30
0.0
 11
1.046894
 21
-75.37816
 31
0.0
  0
LINE
  5
31F
100
AcDbEntity
  8
0
390
0
  6
Continuous
 62
     7
100
AcDbLine
 10
-31.301379
 20
-75.46576
 30
0.0
 11
-31.301379
 21
-77.834488
 31
0.0
  0
LINE
  5
320
100
AcDbEntity
  8
0
390
0
  6
Continuous
 62
     7
100
AcDbLine
 10
-31.301379
 20
-77.834488
 30
0.0
 11
-31.75
 21
-78.093499
 31
0.0
  0
LINE
  5
321
100
AcDbEntity
  8
0
390
0
  6
Continuous
 62
     7
100
AcDbLine
 10
31.301379
 20
-77.834488
 30
0.0
 11
31.301379
 21
-75.46576
 31
0.0
  0
LINE
  5
322
100
AcDbEntity
  8
0
390
0
  6
Continuous
 62
     7
100
AcDbLine
 10
31.301379
 20
-77.834488
 30
0.0
 11
31.75
 21
-78.093499
 31
0.0
  0
LINE
  5
323
100
AcDbEntity
  8
0
390
0
  6
Continuous
 62
     7
100
AcDbLine
 10
-44.278713
 20
-75.478845
 30
0.0
 11
-44.278713
 21
-77.821402
 31
0.0
  0
LINE
  5
324
100
AcDbEntity
  8
0
390
0
  6
Continuous
 62
     7
100
AcDbLine
 10
-44.278713
 20
-77.821402
 30
0.0
 11
-44.75
 21
-78.093499
 31
0.0
  0
LINE
  5
325
100
AcDbEntity
  8
0
390
0
  6
Continuous
 62
     7
100
AcDbLine
 10
37.778713
 20
-77.821402
 30
0.0
 11
37.778713
 21
-75.478845
 31
0.0
  0
LINE
  5
326
100
AcDbEntity
  8
0
390
0
  6
Continuous
 62
     7
100
AcDbLine
 10
37.778713
 20
-77.821402
 30
0.0
 11
38.25
 21
-78.093499
 31
0.0
  0
LINE
  5
327
100
AcDbEntity
  8
0
390
0
  6
Continuous
 62
     7
100
AcDbLine
 10
20.609734
 20
-77.885807
 30
0.0
 11
20.25
 21
-78.093499
 31
0.0
  0
LINE
  5
328
100
AcDbEntity
  8
0
390
0
  6
Continuous
 62
     7
100
AcDbLine
 10
20.609734
 20
-77.885807
 30
0.0
 11
20.609734
 21
-75.41444
 31
0.0
  0
LINE
  5
329
100
AcDbEntity
  8
0
390
0
  6
Continuous
 62
     7
100
AcDbLine
 10
27.158809
 20
-75.442774
 30
0.0
 11
27.158809
 21
-77.857473
 31
0.0
  0
LINE
  5
32A
100
AcDbEntity
  8
0
390
0
  6
Continuous
 62
     7
100
AcDbLine
 10
27.158809
 20
-77.857473
 30
0.0
 11
26.75
 21
-78.093499
 31
0.0
  0
LINE
  5
32B
100
AcDbEntity
  8
0
390
0
  6
Continuous
 62
     7
100
AcDbLine
 10
40.221287
 20
-75.478845
 30
0.0
 11
40.221287
 21
-77.821402
 31
0.0
  0
LINE
  5
32C
100
AcDbEntity
  8
0
390
0
  6
Continuous
 62
     7
100
AcDbLine
 10
40.221287
 20
-77.821402
 30
0.0
 11
39.75
 21
-78.093499
 31
0.0
  0
LINE
  5
32D
100
AcDbEntity
  8
0
390
0
  6
Continuous
 62
     7
100
AcDbLine
 10
14.075641
 20
-77.905491
 30
0.0
 11
13.75
 21
-78.093499
 31
0.0
  0
LINE
  5
32E
100
AcDbEntity
  8
0
390
0
  6
Continuous
 62
     7
100
AcDbLine
 10
14.075641
 20
-77.905491
 30
0.0
 11
14.075641
 21
-75.394757
 31
0.0
  0
LINE
  5
32F
100
AcDbEntity
  8
0
390
0
  6
Continuous
 62
     7
100
AcDbLine
 10
-14.075641
 20
-77.905491
 30
0.0
 11
-13.75
 21
-78.093499
 31
0.0
  0
LINE
  5
330
100
AcDbEntity
  8
0
390
0
  6
Continuous
 62
     7
100
AcDbLine
 10
-14.075641
 20
-75.394757
 30
0.0
 11
-14.075641
 21
-77.905491
 31
0.0
  0
LINE
  5
331
100
AcDbEntity
  8
0
390
0
  6
Continuous
 62
     7
100
AcDbLine
 10
-24.860242
 20
-77.868473
 30
0.0
 11
-25.25
 21
-78.093499
 31
0.0
  0
LINE
  5
332
100
AcDbEntity
  8
0
390
0
  6
Continuous
 62
     7
100
AcDbLine
 10
-24.860242
 20
-77.868473
 30
0.0
 11
-24.860242
 21
-75.431775
 31
0.0
  0
LINE
  5
333
100
AcDbEntity
  8
0
390
0
  6
Continuous
 62
     7
100
AcDbLine
 10
-18.403351
 20
-77.893361
 30
0.0
 11
-18.75
 21
-78.093499
 31
0.0
  0
LINE
  5
334
100
AcDbEntity
  8
0
390
0
  6
Continuous
 62
     7
100
AcDbLine
 10
-18.403351
 20
-77.893361
 30
0.0
 11
-18.403351
 21
-75.406886
 31
0.0
  0
LINE
  5
335
100
AcDbEntity
  8
0
390
0
  6
Continuous
 62
     7
100
AcDbLine
 10
44.278713
 20
-77.821402
 30
0.0
 11
44.278713
 21
-75.478845
 31
0.0
  0
LINE
  5
336
100
AcDbEntity
  8
0
390
0
  6
Continuous
 62
     7
100
AcDbLine
 10
44.278713
 20
-77.821402
 30
0.0
 11
44.75
 21
-78.093499
 31
0.0
  0
LINE
  5
337
100
AcDbEntity
  8
0
390
0
  6
Continuous
 62
     7
100
AcDbLine
 10
-11.932572
 20
-77.910232
 30
0.0
 11
-12.25
 21
-78.093499
 31
0.0
  0
LINE
  5
338
100
AcDbEntity
  8
0
390
0
  6
Continuous
 62
     7
100
AcDbLine
 10
-11.932572
 20
-77.910232
 30
0.0
 11
-11.932572
 21
-75.390015
 31
0.0
  0
LINE
  5
339
100
AcDbEntity
  8
0
390
0
  6
Continuous
 62
     7
100
AcDbLine
 10
-7.554982
 20
-77.917418
 30
0.0
 11
-7.25
 21
-78.093499
 31
0.0
  0
LINE
  5
33A
100
AcDbEntity
  8
0
390
0
  6
Continuous
 62
     7
100
AcDbLine
 10
-7.554982
 20
-75.382829
 30
0.0
 11
-7.554982
 21
-77.917418
 31
0.0
  0
LINE
  5
33B
100
AcDbEntity
  8
0
390
0
  6
Continuous
 62
     7
100
AcDbLine
 10
-33.721287
 20
-77.821402
 30
0.0
 11
-33.721287
 21
-75.478845
 31
0.0
  0
LINE
  5
33C
100
AcDbEntity
  8
0
390
0
  6
Continuous
 62
     7
100
AcDbLine
 10
-33.721287
 20
-77.821402
 30
0.0
 11
-33.25
 21
-78.093499
 31
0.0
  0
LINE
  5
33D
100
AcDbEntity
  8
0
390
0
  6
Continuous
 62
     7
100
AcDbLine
 10
-27.158809
 20
-77.857473
 30
0.0
 11
-27.158809
 21
-75.442774
 31
0.0
  0
LINE
  5
33E
100
AcDbEntity
  8
0
390
0
  6
Continuous
 62
     7
100
AcDbLine
 10
-27.158809
 20
-77.857473
 30
0.0
 11
-26.75
 21
-78.093499
 31
0.0
  0
LINE
  5
33F
100
AcDbEntity
  8
0
390
0
  6
Continuous
 62
     7
100
AcDbLine
 10
11.932572
 20
-77.910232
 30
0.0
 11
12.25
 21
-78.093499
 31
0.0
  0
LINE
  5
340
100
AcDbEntity
  8
0
390
0
  6
Continuous
 62
     7
100
AcDbLine
 10
11.932572
 20
-75.390015
 30
0.0
 11
11.932572
 21
-77.910232
 31
0.0
  0
LINE
  5
341
100
AcDbEntity
  8
0
390
0
  6
Continuous
 62
     7
100
AcDbLine
 10
18.403351
 20
-77.893361
 30
0.0
 11
18.75
 21
-78.093499
 31
0.0
  0
LINE
  5
342
100
AcDbEntity
  8
0
390
0
  6
Continuous
 62
     7
100
AcDbLine
 10
18.403351
 20
-75.406886
 30
0.0
 11
18.403351
 21
-77.893361
 31
0.0
  0
LINE
  5
343
100
AcDbEntity
  8
0
390
0
  6
Continuous
 62
     7
100
AcDbLine
 10
-48.75
 20
-78.99268
 30
0.0
 11
-46.721287
 21
-77.821402
 31
0.0
  0
LINE
  5
344
100
AcDbEntity
  8
0
390
0
  6
Continuous
 62
     7
100
AcDbLine
 10
-48.75
 20
-78.99268
 30
0.0
 11
-48.75
 21
-79.536875
 31
0.0
  0
LINE
  5
345
100
AcDbEntity
  8
0
390
0
  6
Continuous
 62
     7
100
AcDbLine
 10
46.721287
 20
-77.821402
 30
0.0
 11
48.75
 21
-78.99268
 31
0.0
  0
LINE
  5
346
100
AcDbEntity
  8
0
390
0
  6
Continuous
 62
     7
100
AcDbLine
 10
48.75
 20
-78.99268
 30
0.0
 11
48.75
 21
-79.536875
 31
0.0
  0
LINE
  5
347
100
AcDbEntity
  8
0
390
0
  6
Continuous
 62
     7
100
AcDbLine
 10
-22.75
 20
-79.104976
 30
0.0
 11
-22.75
 21
-79.536875
 31
0.0
  0
ELLIPSE
  5
348
100
AcDbEntity
  8
0
390
0
  6
Continuous
 62
     7
100
AcDbEllipse
 10
0.0
 20
-91.106529
 30
0.0
 11
-60.647689226261512
 21
35.025630471816179
 31
0.0
210
0.0
220
0.0
230
1.0
 40
0.015115
 41
1.1571846884462769
 42
1.1950176927733782
  0
LINE
  5
349
100
AcDbEntity
  8
0
390
0
  6
Continuous
 62
     7
100
AcDbLine
 10
-37.778713
 20
-77.821402
 30
0.0
 11
-35.75
 21
-78.99268
 31
0.0
  0
LINE
  5
34A
100
AcDbEntity
  8
0
390
0
  6
Continuous
 62
     7
100
AcDbLine
 10
-35.75
 20
-78.99268
 30
0.0
 11
-35.75
 21
-79.536875
 31
0.0
  0
LINE
  5
34B
100
AcDbEntity
  8
0
390
0
  6
Continuous
 62
     7
100
AcDbLine
 10
35.75
 20
-78.99268
 30
0.0
 11
37.778713
 21
-77.821402
 31
0.0
  0
LINE
  5
34C
100
AcDbEntity
  8
0
390
0
  6
Continuous
 62
     7
100
AcDbLine
 10
35.75
 20
-78.99268
 30
0.0
 11
35.75
 21
-79.536875
 31
0.0
  0
LINE
  5
34D
100
AcDbEntity
  8
0
390
0
  6
Continuous
 62
     7
100
AcDbLine
 10
-44.278713
 20
-77.821402
 30
0.0
 11
-42.25
 21
-78.99268
 31
0.0
  0
LINE
  5
34E
100
AcDbEntity
  8
0
390
0
  6
Continuous
 62
     7
100
AcDbLine
 10
-42.25
 20
-78.99268
 30
0.0
 11
-42.25
 21
-79.536875
 31
0.0
  0
LINE
  5
34F
100
AcDbEntity
  8
0
390
0
  6
Continuous
 62
     7
100
AcDbLine
 10
48.75
 20
-78.99268
 30
0.0
 11
50.778713
 21
-77.821402
 31
0.0
  0
LINE
  5
350
100
AcDbEntity
  8
0
390
0
  6
Continuous
 62
     7
100
AcDbLine
 10
50.778713
 20
-77.821402
 30
0.0
 11
51.0
 21
-77.949162
 31
0.0
  0
ELLIPSE
  5
351
100
AcDbEntity
  8
0
390
0
  6
Continuous
 62
     7
100
AcDbEllipse
 10
0.0
 20
-94.859306
 30
0.0
 11
-60.647689226261512
 21
35.025630471816086
 31
0.0
210
0.0
220
0.0
230
1.0
 40
0.015115
 41
1.037235888705865
 42
1.0762753976545789
  0
LINE
  5
352
100
AcDbEntity
  8
0
390
0
  6
Continuous
 62
     7
100
AcDbLine
 10
-29.25
 20
-79.042677
 30
0.0
 11
-29.25
 21
-79.536875
 31
0.0
  0
LINE
  5
353
100
AcDbEntity
  8
0
390
0
  6
Continuous
 62
     7
100
AcDbLine
 10
22.75
 20
-79.104976
 30
0.0
 11
22.75
 21
-79.536875
 31
0.0
  0
ELLIPSE
  5
354
100
AcDbEntity
  8
0
390
0
  6
Continuous
 62
     7
100
AcDbEllipse
 10
0.0
 20
-91.106529
 30
0.0
 11
60.647689226261512
 21
35.025630471816115
 31
0.0
210
0.0
220
0.0
230
1.0
 40
0.015115
 41
5.0881676144062125
 42
5.1260006187333156
  0
LINE
  5
355
100
AcDbEntity
  8
0
390
0
  6
Continuous
 62
     7
100
AcDbLine
 10
-42.25
 20
-78.99268
 30
0.0
 11
-40.221287
 21
-77.821402
 31
0.0
  0
LINE
  5
356
100
AcDbEntity
  8
0
390
0
  6
Continuous
 62
     7
100
AcDbLine
 10
40.221287
 20
-77.821402
 30
0.0
 11
42.25
 21
-78.99268
 31
0.0
  0
LINE
  5
357
100
AcDbEntity
  8
0
390
0
  6
Continuous
 62
     7
100
AcDbLine
 10
42.25
 20
-78.99268
 30
0.0
 11
42.25
 21
-79.536875
 31
0.0
  0
ELLIPSE
  5
358
100
AcDbEntity
  8
0
390
0
  6
Continuous
 62
     7
100
AcDbEllipse
 10
0.0
 20
-94.859306
 30
0.0
 11
60.647689226261512
 21
35.025630471816086
 31
0.0
210
0.0
220
0.0
230
1.0
 40
0.015115
 41
5.2069099095250122
 42
5.2459494184737245
  0
LINE
  5
359
100
AcDbEntity
  8
0
390
0
  6
Continuous
 62
     7
100
AcDbLine
 10
29.25
 20
-79.042677
 30
0.0
 11
29.25
 21
-79.536875
 31
0.0
  0
LINE
  5
35A
100
AcDbEntity
  8
0
390
0
  6
Continuous
 62
     7
100
AcDbLine
 10
33.721287
 20
-77.821402
 30
0.0
 11
35.75
 21
-78.99268
 31
0.0
  0
LINE
  5
35B
100
AcDbEntity
  8
0
390
0
  6
Continuous
 62
     7
100
AcDbLine
 10
-50.778713
 20
-77.821402
 30
0.0
 11
-48.75
 21
-78.99268
 31
0.0
  0
LINE
  5
35C
100
AcDbEntity
  8
0
390
0
  6
Continuous
 62
     7
100
AcDbLine
 10
-50.778713
 20
-77.821402
 30
0.0
 11
-51.0
 21
-77.949162
 31
0.0
  0
ELLIPSE
  5
35D
100
AcDbEntity
  8
0
390
0
  6
Continuous
 62
     7
100
AcDbEllipse
 10
0.0
 20
-61.084315
 30
0.0
 11
60.647689226261512
 21
35.025630471816115
 31
0.0
210
0.0
220
0.0
230
1.0
 40
0.015115
 41
4.2004094405276113
 42
4.2393611494266015
  0
LINE
  5
35E
100
AcDbEntity
  8
0
390
0
  6
Continuous
 62
     7
100
AcDbLine
 10
-35.75
 20
-78.99268
 30
0.0
 11
-33.721287
 21
-77.821402
 31
0.0
  0
ELLIPSE
  5
35F
100
AcDbEntity
  8
0
390
0
  6
Continuous
 62
     7
100
AcDbEllipse
 10
0.0
 20
-61.084315
 30
0.0
 11
-60.647689226261512
 21
35.025630471816115
 31
0.0
210
0.0
220
0.0
230
1.0
 40
0.015115
 41
2.0438241577529892
 42
2.0827758666519802
  0
LINE
  5
360
100
AcDbEntity
  8
0
390
0
  6
Continuous
 62
     7
100
AcDbLine
 10
42.25
 20
-78.99268
 30
0.0
 11
44.278713
 21
-77.821402
 31
0.0
  0
ELLIPSE
  5
361
100
AcDbEntity
  8
0
390
0
  6
Continuous
 62
     7
100
AcDbEllipse
 10
0.0
 20
-64.837092
 30
0.0
 11
60.647689226261512
 21
35.025630471816115
 31
0.0
210
0.0
220
0.0
230
1.0
 40
0.015115
 41
4.3191517356464102
 42
4.3569402986796639
  0
LINE
  5
362
100
AcDbEntity
  8
0
390
0
  6
Continuous
 62
     7
100
AcDbLine
 10
3.25
 20
-79.192477
 30
0.0
 11
3.25
 21
-79.536875
 31
0.0
  0
ELLIPSE
  5
363
100
AcDbEntity
  8
0
390
0
  6
Continuous
 62
     7
100
AcDbEllipse
 10
0.0
 20
-76.095422
 30
0.0
 11
-60.647689226261512
 21
35.025630471816179
 31
0.0
210
0.0
220
0.0
230
1.0
 40
0.015115
 41
1.5967877231998593
 42
1.6331374606083633
  0
LINE
  5
364
100
AcDbEntity
  8
0
390
0
  6
Continuous
 62
     7
100
AcDbLine
 10
-3.25
 20
-79.192477
 30
0.0
 11
-3.25
 21
-79.536875
 31
0.0
  0
ELLIPSE
  5
365
100
AcDbEntity
  8
0
390
0
  6
Continuous
 62
     7
100
AcDbEllipse
 10
0.0
 20
-79.848199
 30
0.0
 11
-60.647689226261512
 21
35.025630471816179
 31
0.0
210
0.0
220
0.0
230
1.0
 40
0.015115
 41
1.4895612480056641
 42
1.5259138036981952
  0
LINE
  5
366
100
AcDbEntity
  8
0
390
0
  6
Continuous
 62
     7
100
AcDbLine
 10
9.75
 20
-79.178334
 30
0.0
 11
9.75
 21
-79.536875
 31
0.0
  0
ELLIPSE
  5
367
100
AcDbEntity
  8
0
390
0
  6
Continuous
 62
     7
100
AcDbEllipse
 10
0.0
 20
-83.600975
 30
0.0
 11
60.647689226261512
 21
35.025630471816115
 31
0.0
210
0.0
220
0.0
230
1.0
 40
0.015115
 41
4.8651187246545602
 42
4.9016963940168363
  0
ELLIPSE
  5
368
100
AcDbEntity
  8
0
390
0
  6
Continuous
 62
     7
100
AcDbEllipse
 10
0.0
 20
-64.837092
 30
0.0
 11
-60.647689226261512
 21
35.025630471816179
 31
0.0
210
0.0
220
0.0
230
1.0
 40
0.015115
 41
1.926245008499927
 42
1.9640335715331803
  0
ELLIPSE
  5
369
100
AcDbEntity
  8
0
390
0
  6
Continuous
 62
     7
100
AcDbEllipse
 10
0.0
 20
-72.342645
 30
0.0
 11
-60.647689226261512
 21
35.025630471816115
 31
0.0
210
0.0
220
0.0
230
1.0
 40
0.015115
 41
1.7044169385138064
 42
1.7409846817815278
  0
LINE
  5
36A
100
AcDbEntity
  8
0
390
0
  6
Continuous
 62
     7
100
AcDbLine
 10
-16.25
 20
-79.14954
 30
0.0
 11
-16.25
 21
-79.536875
 31
0.0
  0
ELLIPSE
  5
36B
100
AcDbEntity
  8
0
390
0
  6
Continuous
 62
     7
100
AcDbEllipse
 10
0.0
 20
-68.589868
 30
0.0
 11
60.647689226261512
 21
35.025630471816115
 31
0.0
210
0.0
220
0.0
230
1.0
 40
0.015115
 41
4.4324150634462303
 42
4.4694443426063684
  0
LINE
  5
36C
100
AcDbEntity
  8
0
390
0
  6
Continuous
 62
     7
100
AcDbLine
 10
-9.75
 20
-79.178334
 30
0.0
 11
-9.75
 21
-79.536875
 31
0.0
  0
ELLIPSE
  5
36D
100
AcDbEntity
  8
0
390
0
  6
Continuous
 62
     7
100
AcDbEllipse
 10
0.0
 20
-83.600975
 30
0.0
 11
-60.647689226261512
 21
35.025630471816115
 31
0.0
210
0.0
220
0.0
230
1.0
 40
0.015115
 41
1.3814889131627537
 42
1.418066582525032
  0
ELLIPSE
  5
36E
100
AcDbEntity
  8
0
390
0
  6
Continuous
 62
     7
100
AcDbEllipse
 10
0.0
 20
-76.095422
 30
0.0
 11
60.647689226261512
 21
35.025630471816115
 31
0.0
210
0.0
220
0.0
230
1.0
 40
0.015115
 41
4.6500478465712272
 42
4.6863975839797316
  0
ELLIPSE
  5
36F
100
AcDbEntity
  8
0
390
0
  6
Continuous
 62
     7
100
AcDbEllipse
 10
0.0
 20
-72.342645
 30
0.0
 11
60.647689226261512
 21
35.025630471816115
 31
0.0
210
0.0
220
0.0
230
1.0
 40
0.015115
 41
4.5422006253980625
 42
4.5787683686657834
  0
LINE
  5
370
100
AcDbEntity
  8
0
390
0
  6
Continuous
 62
     7
100
AcDbLine
 10
16.25
 20
-79.14954
 30
0.0
 11
16.25
 21
-79.536875
 31
0.0
  0
ELLIPSE
  5
371
100
AcDbEntity
  8
0
390
0
  6
Continuous
 62
     7
100
AcDbEllipse
 10
0.0
 20
-87.353752
 30
0.0
 11
60.647689226261512
 21
35.025630471816143
 31
0.0
210
0.0
220
0.0
230
1.0
 40
0.015115
 41
4.9749042866063915
 42
5.0119555475145656
  0
ELLIPSE
  5
372
100
AcDbEntity
  8
0
390
0
  6
Continuous
 62
     7
100
AcDbEllipse
 10
0.0
 20
-87.353752
 30
0.0
 11
-60.647689226261512
 21
35.0256304718162
 31
0.0
210
0.0
220
0.0
230
1.0
 40
0.015115
 41
1.271229759665025
 42
1.3082810205731987
  0
ELLIPSE
  5
373
100
AcDbEntity
  8
0
390
0
  6
Continuous
 62
     7
100
AcDbEllipse
 10
0.0
 20
-79.848199
 30
0.0
 11
60.647689226261512
 21
35.025630471816115
 31
0.0
210
0.0
220
0.0
230
1.0
 40
0.015115
 41
4.7572715034813964
 42
4.7936240591739274
  0
ELLIPSE
  5
374
100
AcDbEntity
  8
0
390
0
  6
Continuous
 62
     7
100
AcDbEllipse
 10
0.0
 20
-68.589868
 30
0.0
 11
-60.647689226261512
 21
35.025630471816179
 31
0.0
210
0.0
220
0.0
230
1.0
 40
0.015115
 41
1.8137409645732221
 42
1.8507702437333609
  0
LINE
  5
375
100
AcDbEntity
  8
0
390
0
  6
Continuous
 62
     7
100
AcDbLine
 10
-21.633626
 20
-81.047439
 30
0.0
 11
-22.0
 21
-80.835913
 31
0.0
  0
LINE
  5
376
100
AcDbEntity
  8
0
390
0
  6
Continuous
 62
     7
100
AcDbLine
 10
-19.5
 20
-79.800085
 30
0.0
 11
-19.5
 21
-79.392537
 31
0.0
  0
ELLIPSE
  5
377
100
AcDbEntity
  8
0
390
0
  6
Continuous
 62
     7
100
AcDbEllipse
 10
0.0
 20
-69.699272
 30
0.0
 11
60.647689226261512
 21
35.025630471816115
 31
0.0
210
0.0
220
0.0
230
1.0
 40
0.015115
 41
1.8893980320384052
 42
1.9267961246984471
  0
LINE
  5
378
100
AcDbEntity
  8
0
390
0
  6
Continuous
 62
     7
100
AcDbLine
 10
-36.971287
 20
-81.108011
 30
0.0
 11
-39.0
 21
-79.936732
 31
0.0
  0
LINE
  5
379
100
AcDbEntity
  8
0
390
0
  6
Continuous
 62
     7
100
AcDbLine
 10
-39.0
 20
-79.936732
 30
0.0
 11
-39.0
 21
-79.392537
 31
0.0
  0
LINE
  5
37A
100
AcDbEntity
  8
0
390
0
  6
Continuous
 62
     7
100
AcDbLine
 10
-36.971287
 20
-81.108011
 30
0.0
 11
-36.5
 21
-80.835913
 31
0.0
  0
LINE
  5
37B
100
AcDbEntity
  8
0
390
0
  6
Continuous
 62
     7
100
AcDbLine
 10
-8.692335
 20
-81.013544
 30
0.0
 11
-9.0
 21
-80.835913
 31
0.0
  0
LINE
  5
37C
100
AcDbEntity
  8
0
390
0
  6
Continuous
 62
     7
100
AcDbLine
 10
-6.5
 20
-79.742219
 30
0.0
 11
-6.5
 21
-79.392537
 31
0.0
  0
ELLIPSE
  5
37D
100
AcDbEntity
  8
0
390
0
  6
Continuous
 62
     7
100
AcDbEllipse
 10
0.0
 20
-77.204825
 30
0.0
 11
60.647689226261512
 21
35.025630471816179
 31
0.0
210
0.0
220
0.0
230
1.0
 40
0.015115
 41
1.6694455509907575
 42
1.7058818746682667
  0
LINE
  5
37E
100
AcDbEntity
  8
0
390
0
  6
Continuous
 62
     7
100
AcDbLine
 10
-43.471287
 20
-81.108011
 30
0.0
 11
-45.5
 21
-79.936732
 31
0.0
  0
LINE
  5
37F
100
AcDbEntity
  8
0
390
0
  6
Continuous
 62
     7
100
AcDbLine
 10
-45.5
 20
-79.936732
 30
0.0
 11
-45.5
 21
-79.392537
 31
0.0
  0
LINE
  5
380
100
AcDbEntity
  8
0
390
0
  6
Continuous
 62
     7
100
AcDbLine
 10
-43.471287
 20
-81.108011
 30
0.0
 11
-43.0
 21
-80.835913
 31
0.0
  0
LINE
  5
381
100
AcDbEntity
  8
0
390
0
  6
Continuous
 62
     7
100
AcDbLine
 10
45.5
 20
-79.936732
 30
0.0
 11
43.471287
 21
-81.108011
 31
0.0
  0
LINE
  5
382
100
AcDbEntity
  8
0
390
0
  6
Continuous
 62
     7
100
AcDbLine
 10
43.471287
 20
-81.108011
 30
0.0
 11
43.0
 21
-80.835913
 31
0.0
  0
LINE
  5
383
100
AcDbEntity
  8
0
390
0
  6
Continuous
 62
     7
100
AcDbLine
 10
45.5
 20
-79.936732
 30
0.0
 11
45.5
 21
-79.392537
 31
0.0
  0
LINE
  5
384
100
AcDbEntity
  8
0
390
0
  6
Continuous
 62
     7
100
AcDbLine
 10
-17.34093
 20
-81.032749
 30
0.0
 11
-17.0
 21
-80.835913
 31
0.0
  0
ELLIPSE
  5
385
100
AcDbEntity
  8
0
390
0
  6
Continuous
 62
     7
100
AcDbEllipse
 10
0.0
 20
-92.215932
 30
0.0
 11
-60.647689226261512
 21
35.025630471816086
 31
0.0
210
0.0
220
0.0
230
1.0
 40
0.015115
 41
5.0110826334506946
 42
5.048449296344959
  0
LINE
  5
386
100
AcDbEntity
  8
0
390
0
  6
Continuous
 62
     7
100
AcDbLine
 10
17.34093
 20
-81.032749
 30
0.0
 11
17.0
 21
-80.835913
 31
0.0
  0
LINE
  5
387
100
AcDbEntity
  8
0
390
0
  6
Continuous
 62
     7
100
AcDbLine
 10
19.5
 20
-79.800085
 30
0.0
 11
19.5
 21
-79.392537
 31
0.0
  0
ELLIPSE
  5
388
100
AcDbEntity
  8
0
390
0
  6
Continuous
 62
     7
100
AcDbEllipse
 10
0.0
 20
-92.215932
 30
0.0
 11
60.647689226261512
 21
35.0256304718162
 31
0.0
210
0.0
220
0.0
230
1.0
 40
0.015115
 41
1.234736010834627
 42
1.272102673728891
  0
LINE
  5
389
100
AcDbEntity
  8
0
390
0
  6
Continuous
 62
     7
100
AcDbLine
 10
13.0
 20
-79.76359
 30
0.0
 11
13.0
 21
-79.392537
 31
0.0
  0
LINE
  5
38A
100
AcDbEntity
  8
0
390
0
  6
Continuous
 62
     7
100
AcDbLine
 10
15.169615
 20
-81.026661
 30
0.0
 11
15.5
 21
-80.835913
 31
0.0
  0
ELLIPSE
  5
38B
100
AcDbEntity
  8
0
390
0
  6
Continuous
 62
     7
100
AcDbEllipse
 10
0.0
 20
-73.452049
 30
0.0
 11
-60.647689226261512
 21
35.025630471816115
 31
0.0
210
0.0
220
0.0
230
1.0
 40
0.015115
 41
4.4683168640721664
 42
4.5050975003919609
  0
LINE
  5
38C
100
AcDbEntity
  8
0
390
0
  6
Continuous
 62
     7
100
AcDbLine
 10
-4.299399
 20
-81.008771
 30
0.0
 11
-4.0
 21
-80.835913
 31
0.0
  0
ELLIPSE
  5
38D
100
AcDbEntity
  8
0
390
0
  6
Continuous
 62
     7
100
AcDbEllipse
 10
0.0
 20
-84.710379
 30
0.0
 11
-60.647689226261512
 21
35.025630471816115
 31
0.0
210
0.0
220
0.0
230
1.0
 40
0.015115
 41
4.7920664882786097
 42
4.8284968152973118
  0
LINE
  5
38E
100
AcDbEntity
  8
0
390
0
  6
Continuous
 62
     7
100
AcDbLine
 10
-45.5
 20
-79.936732
 30
0.0
 11
-47.528713
 21
-81.108011
 31
0.0
  0
LINE
  5
38F
100
AcDbEntity
  8
0
390
0
  6
Continuous
 62
     7
100
AcDbLine
 10
-47.528713
 20
-81.108011
 30
0.0
 11
-48.0
 21
-80.835913
 31
0.0
  0
LINE
  5
390
100
AcDbEntity
  8
0
390
0
  6
Continuous
 62
     7
100
AcDbLine
 10
10.813699
 20
-81.017027
 30
0.0
 11
10.5
 21
-80.835913
 31
0.0
  0
ELLIPSE
  5
391
100
AcDbEntity
  8
0
390
0
  6
Continuous
 62
     7
100
AcDbEllipse
 10
0.0
 20
-88.463156
 30
0.0
 11
60.647689226261512
 21
35.025630471816179
 31
0.0
210
0.0
220
0.0
230
1.0
 40
0.015115
 41
1.3460462360854075
 42
1.3828118082368797
  0
ELLIPSE
  5
392
100
AcDbEntity
  8
0
390
0
  6
Continuous
 62
     7
100
AcDbEllipse
 10
0.0
 20
-99.721486
 30
0.0
 11
-60.647689226261512
 21
35.025630471816143
 31
0.0
210
0.0
220
0.0
230
1.0
 40
0.015115
 41
5.2469027085634847
 42
5.2866460681363749
  0
LINE
  5
393
100
AcDbEntity
  8
0
390
0
  6
Continuous
 62
     7
100
AcDbLine
 10
-32.5
 20
-79.925503
 30
0.0
 11
-32.5
 21
-79.392537
 31
0.0
  0
LINE
  5
394
100
AcDbEntity
  8
0
390
0
  6
Continuous
 62
     7
100
AcDbLine
 10
-30.439727
 20
-81.08979
 30
0.0
 11
-30.0
 21
-80.835913
 31
0.0
  0
LINE
  5
395
100
AcDbEntity
  8
0
390
0
  6
Continuous
 62
     7
100
AcDbLine
 10
-33.361655
 20
-80.434209
 30
0.0
 11
-34.528713
 21
-81.108011
 31
0.0
  0
LINE
  5
396
100
AcDbEntity
  8
0
390
0
  6
Continuous
 62
     7
100
AcDbLine
 10
-34.528713
 20
-81.108011
 30
0.0
 11
-35.0
 21
-80.835913
 31
0.0
  0
ELLIPSE
  5
397
100
AcDbEntity
  8
0
390
0
  6
Continuous
 62
     7
100
AcDbEllipse
 10
0.0
 20
-62.193718
 30
0.0
 11
60.647689226261512
 21
35.025630471816115
 31
0.0
210
0.0
220
0.0
230
1.0
 40
0.015115
 41
2.1275948038298207
 42
2.1445132834513854
  0
LINE
  5
398
100
AcDbEntity
  8
0
390
0
  6
Continuous
 62
     7
100
AcDbLine
 10
-2.202566
 20
-81.007637
 30
0.0
 11
-2.5
 21
-80.835913
 31
0.0
  0
LINE
  5
399
100
AcDbEntity
  8
0
390
0
  6
Continuous
 62
     7
100
AcDbLine
 10
0.0
 20
-79.735179
 30
0.0
 11
0.0
 21
-79.392537
 31
0.0
  0
ELLIPSE
  5
39A
100
AcDbEntity
  8
0
390
0
  6
Continuous
 62
     7
100
AcDbEllipse
 10
0.0
 20
-80.957602
 30
0.0
 11
60.647689226261512
 21
35.025630471816115
 31
0.0
210
0.0
220
0.0
230
1.0
 40
0.015115
 41
1.562067021436516
 42
1.5983910114664304
  0
LINE
  5
39B
100
AcDbEntity
  8
0
390
0
  6
Continuous
 62
     7
100
AcDbLine
 10
47.528713
 20
-81.108011
 30
0.0
 11
45.5
 21
-79.936732
 31
0.0
  0
LINE
  5
39C
100
AcDbEntity
  8
0
390
0
  6
Continuous
 62
     7
100
AcDbLine
 10
47.528713
 20
-81.108011
 30
0.0
 11
48.0
 21
-80.835913
 31
0.0
  0
LINE
  5
39D
100
AcDbEntity
  8
0
390
0
  6
Continuous
 62
     7
100
AcDbLine
 10
-28.082939
 20
-81.076703
 30
0.0
 11
-28.5
 21
-80.835913
 31
0.0
  0
LINE
  5
39E
100
AcDbEntity
  8
0
390
0
  6
Continuous
 62
     7
100
AcDbLine
 10
-26.0
 20
-79.853201
 30
0.0
 11
-26.0
 21
-79.392537
 31
0.0
  0
ELLIPSE
  5
39F
100
AcDbEntity
  8
0
390
0
  6
Continuous
 62
     7
100
AcDbEllipse
 10
0.0
 20
-65.946495
 30
0.0
 11
60.647689226261512
 21
35.025630471816115
 31
0.0
210
0.0
220
0.0
230
1.0
 40
0.015115
 41
2.0051084189906696
 42
2.043480875022313
  0
LINE
  5
3A0
100
AcDbEntity
  8
0
390
0
  6
Continuous
 62
     7
100
AcDbLine
 10
-39.0
 20
-79.936732
 30
0.0
 11
-41.028713
 21
-81.108011
 31
0.0
  0
LINE
  5
3A1
100
AcDbEntity
  8
0
390
0
  6
Continuous
 62
     7
100
AcDbLine
 10
-41.028713
 20
-81.108011
 30
0.0
 11
-41.5
 21
-80.835913
 31
0.0
  0
ELLIPSE
  5
3A2
100
AcDbEntity
  8
0
390
0
  6
Continuous
 62
     7
100
AcDbEllipse
 10
0.0
 20
-99.721486
 30
0.0
 11
60.647689226261512
 21
35.025630471816143
 31
0.0
210
0.0
220
0.0
230
1.0
 40
0.015115
 41
0.9965392390432115
 42
1.0362825986161019
  0
LINE
  5
3A3
100
AcDbEntity
  8
0
390
0
  6
Continuous
 62
     7
100
AcDbLine
 10
30.439727
 20
-81.08979
 30
0.0
 11
30.0
 21
-80.835913
 31
0.0
  0
LINE
  5
3A4
100
AcDbEntity
  8
0
390
0
  6
Continuous
 62
     7
100
AcDbLine
 10
32.5
 20
-79.925503
 30
0.0
 11
32.5
 21
-79.392537
 31
0.0
  0
LINE
  5
3A5
100
AcDbEntity
  8
0
390
0
  6
Continuous
 62
     7
100
AcDbLine
 10
21.633626
 20
-81.047439
 30
0.0
 11
22.0
 21
-80.835913
 31
0.0
  0
ELLIPSE
  5
3A6
100
AcDbEntity
  8
0
390
0
  6
Continuous
 62
     7
100
AcDbEllipse
 10
0.0
 20
-69.699272
 30
0.0
 11
-60.647689226261512
 21
35.025630471816115
 31
0.0
210
0.0
220
0.0
230
1.0
 40
0.015115
 41
4.3563891824811396
 42
4.3937872751411815
  0
LINE
  5
3A7
100
AcDbEntity
  8
0
390
0
  6
Continuous
 62
     7
100
AcDbLine
 10
41.028713
 20
-81.108011
 30
0.0
 11
39.0
 21
-79.936732
 31
0.0
  0
LINE
  5
3A8
100
AcDbEntity
  8
0
390
0
  6
Continuous
 62
     7
100
AcDbLine
 10
39.0
 20
-79.936732
 30
0.0
 11
39.0
 21
-79.392537
 31
0.0
  0
LINE
  5
3A9
100
AcDbEntity
  8
0
390
0
  6
Continuous
 62
     7
100
AcDbLine
 10
41.028713
 20
-81.108011
 30
0.0
 11
41.5
 21
-80.835913
 31
0.0
  0
LINE
  5
3AA
100
AcDbEntity
  8
0
390
0
  6
Continuous
 62
     7
100
AcDbLine
 10
-23.882266
 20
-81.056615
 30
0.0
 11
-23.5
 21
-80.835913
 31
0.0
  0
ELLIPSE
  5
3AB
100
AcDbEntity
  8
0
390
0
  6
Continuous
 62
     7
100
AcDbEllipse
 10
0.0
 20
-95.968709
 30
0.0
 11
-60.647689226261512
 21
35.025630471816115
 31
0.0
210
0.0
220
0.0
230
1.0
 40
0.015115
 41
5.1258497234425988
 42
5.1641596832972239
  0
LINE
  5
3AC
100
AcDbEntity
  8
0
390
0
  6
Continuous
 62
     7
100
AcDbLine
 10
23.882266
 20
-81.056615
 30
0.0
 11
23.5
 21
-80.835913
 31
0.0
  0
LINE
  5
3AD
100
AcDbEntity
  8
0
390
0
  6
Continuous
 62
     7
100
AcDbLine
 10
26.0
 20
-79.853201
 30
0.0
 11
26.0
 21
-79.392537
 31
0.0
  0
ELLIPSE
  5
3AE
100
AcDbEntity
  8
0
390
0
  6
Continuous
 62
     7
100
AcDbEllipse
 10
0.0
 20
-95.968709
 30
0.0
 11
60.647689226261512
 21
35.025630471816115
 31
0.0
210
0.0
220
0.0
230
1.0
 40
0.015115
 41
1.1190256238823624
 42
1.1573355837369879
  0
LINE
  5
3AF
100
AcDbEntity
  8
0
390
0
  6
Continuous
 62
     7
100
AcDbLine
 10
34.528713
 20
-81.108011
 30
0.0
 11
33.361655
 21
-80.434209
 31
0.0
  0
ELLIPSE
  5
3B0
100
AcDbEntity
  8
0
390
0
  6
Continuous
 62
     7
100
AcDbEllipse
 10
0.0
 20
-62.193718
 30
0.0
 11
-60.647689226261512
 21
35.025630471816115
 31
0.0
210
0.0
220
0.0
230
1.0
 40
0.015115
 41
4.1386720237282013
 42
4.1555905033497655
  0
LINE
  5
3B1
100
AcDbEntity
  8
0
390
0
  6
Continuous
 62
     7
100
AcDbLine
 10
34.528713
 20
-81.108011
 30
0.0
 11
35.0
 21
-80.835913
 31
0.0
  0
LINE
  5
3B2
100
AcDbEntity
  8
0
390
0
  6
Continuous
 62
     7
100
AcDbLine
 10
2.202566
 20
-81.007637
 30
0.0
 11
2.5
 21
-80.835913
 31
0.0
  0
ELLIPSE
  5
3B3
100
AcDbEntity
  8
0
390
0
  6
Continuous
 62
     7
100
AcDbEllipse
 10
0.0
 20
-80.957602
 30
0.0
 11
-60.647689226261512
 21
35.025630471816115
 31
0.0
210
0.0
220
0.0
230
1.0
 40
0.015115
 41
4.6847942957131563
 42
4.7211182857430707
  0
LINE
  5
3B4
100
AcDbEntity
  8
0
390
0
  6
Continuous
 62
     7
100
AcDbLine
 10
4.299399
 20
-81.008771
 30
0.0
 11
4.0
 21
-80.835913
 31
0.0
  0
LINE
  5
3B5
100
AcDbEntity
  8
0
390
0
  6
Continuous
 62
     7
100
AcDbLine
 10
6.5
 20
-79.742219
 30
0.0
 11
6.5
 21
-79.392537
 31
0.0
  0
ELLIPSE
  5
3B6
100
AcDbEntity
  8
0
390
0
  6
Continuous
 62
     7
100
AcDbEllipse
 10
0.0
 20
-84.710379
 30
0.0
 11
60.647689226261512
 21
35.025630471816115
 31
0.0
210
0.0
220
0.0
230
1.0
 40
0.015115
 41
1.4546884918822758
 42
1.4911188189009759
  0
LINE
  5
3B7
100
AcDbEntity
  8
0
390
0
  6
Continuous
 62
     7
100
AcDbLine
 10
-15.169615
 20
-81.026661
 30
0.0
 11
-15.5
 21
-80.835913
 31
0.0
  0
LINE
  5
3B8
100
AcDbEntity
  8
0
390
0
  6
Continuous
 62
     7
100
AcDbLine
 10
-13.0
 20
-79.76359
 30
0.0
 11
-13.0
 21
-79.392537
 31
0.0
  0
ELLIPSE
  5
3B9
100
AcDbEntity
  8
0
390
0
  6
Continuous
 62
     7
100
AcDbEllipse
 10
0.0
 20
-73.452049
 30
0.0
 11
60.647689226261512
 21
35.025630471816179
 31
0.0
210
0.0
220
0.0
230
1.0
 40
0.015115
 41
1.7780878067876258
 42
1.8148684431074198
  0
LINE
  5
3BA
100
AcDbEntity
  8
0
390
0
  6
Continuous
 62
     7
100
AcDbLine
 10
28.082939
 20
-81.076703
 30
0.0
 11
28.5
 21
-80.835913
 31
0.0
  0
ELLIPSE
  5
3BB
100
AcDbEntity
  8
0
390
0
  6
Continuous
 62
     7
100
AcDbEllipse
 10
0.0
 20
-65.946495
 30
0.0
 11
-60.647689226261512
 21
35.025630471816115
 31
0.0
210
0.0
220
0.0
230
1.0
 40
0.015115
 41
4.2397044321572732
 42
4.2780768881889166
  0
LINE
  5
3BC
100
AcDbEntity
  8
0
390
0
  6
Continuous
 62
     7
100
AcDbLine
 10
-10.813699
 20
-81.017027
 30
0.0
 11
-10.5
 21
-80.835913
 31
0.0
  0
ELLIPSE
  5
3BD
100
AcDbEntity
  8
0
390
0
  6
Continuous
 62
     7
100
AcDbEllipse
 10
0.0
 20
-88.463156
 30
0.0
 11
-60.647689226261512
 21
35.025630471816115
 31
0.0
210
0.0
220
0.0
230
1.0
 40
0.015115
 41
4.9003734989427068
 42
4.9371390710941796
  0
LINE
  5
3BE
100
AcDbEntity
  8
0
390
0
  6
Continuous
 62
     7
100
AcDbLine
 10
39.0
 20
-79.936732
 30
0.0
 11
36.971287
 21
-81.108011
 31
0.0
  0
LINE
  5
3BF
100
AcDbEntity
  8
0
390
0
  6
Continuous
 62
     7
100
AcDbLine
 10
36.971287
 20
-81.108011
 30
0.0
 11
36.5
 21
-80.835913
 31
0.0
  0
LINE
  5
3C0
100
AcDbEntity
  8
0
390
0
  6
Continuous
 62
     7
100
AcDbLine
 10
8.692335
 20
-81.013544
 30
0.0
 11
9.0
 21
-80.835913
 31
0.0
  0
ELLIPSE
  5
3C1
100
AcDbEntity
  8
0
390
0
  6
Continuous
 62
     7
100
AcDbEllipse
 10
0.0
 20
-77.204825
 30
0.0
 11
-60.647689226261512
 21
35.025630471816115
 31
0.0
210
0.0
220
0.0
230
1.0
 40
0.015115
 41
4.5773034325113198
 42
4.6137397561888314
  0
LINE
  5
3C2
100
AcDbEntity
  8
0
390
0
  6
Continuous
 62
     7
100
AcDbLine
 10
51.0
 20
-80.514083
 30
0.0
 11
49.971287
 21
-81.108011
 31
0.0
  0
LINE
  5
3C3
100
AcDbEntity
  8
0
390
0
  6
Continuous
 62
     7
100
AcDbLine
 10
49.971287
 20
-81.108011
 30
0.0
 11
49.5
 21
-80.835913
 31
0.0
  0
LINE
  5
3C4
100
AcDbEntity
  8
0
390
0
  6
Continuous
 62
     7
100
AcDbLine
 10
-49.971287
 20
-81.108011
 30
0.0
 11
-51.0
 21
-80.514083
 31
0.0
  0
LINE
  5
3C5
100
AcDbEntity
  8
0
390
0
  6
Continuous
 62
     7
100
AcDbLine
 10
-49.971287
 20
-81.108011
 30
0.0
 11
-49.5
 21
-80.835913
 31
0.0
  0
LINE
  5
3C6
100
AcDbEntity
  8
0
390
0
  6
Continuous
 62
     7
100
AcDbLine
 10
-8.692335
 20
-83.545034
 30
0.0
 11
-9.0
 21
-83.722664
 31
0.0
  0
LINE
  5
3C7
100
AcDbEntity
  8
0
390
0
  6
Continuous
 62
     7
100
AcDbLine
 10
-8.692335
 20
-83.545034
 30
0.0
 11
-8.692335
 21
-81.013544
 31
0.0
  0
LINE
  5
3C8
100
AcDbEntity
  8
0
390
0
  6
Continuous
 62
     7
100
AcDbLine
 10
-36.971287
 20
-83.450567
 30
0.0
 11
-36.971287
 21
-81.108011
 31
0.0
  0
LINE
  5
3C9
100
AcDbEntity
  8
0
390
0
  6
Continuous
 62
     7
100
AcDbLine
 10
-36.971287
 20
-83.450567
 30
0.0
 11
-36.5
 21
-83.722664
 31
0.0
  0
LINE
  5
3CA
100
AcDbEntity
  8
0
390
0
  6
Continuous
 62
     7
100
AcDbLine
 10
41.028713
 20
-83.450567
 30
0.0
 11
41.028713
 21
-81.108011
 31
0.0
  0
LINE
  5
3CB
100
AcDbEntity
  8
0
390
0
  6
Continuous
 62
     7
100
AcDbLine
 10
41.028713
 20
-83.450567
 30
0.0
 11
41.5
 21
-83.722664
 31
0.0
  0
LINE
  5
3CC
100
AcDbEntity
  8
0
390
0
  6
Continuous
 62
     7
100
AcDbLine
 10
43.471287
 20
-81.108011
 30
0.0
 11
43.471287
 21
-83.450567
 31
0.0
  0
LINE
  5
3CD
100
AcDbEntity
  8
0
390
0
  6
Continuous
 62
     7
100
AcDbLine
 10
43.471287
 20
-83.450567
 30
0.0
 11
43.0
 21
-83.722664
 31
0.0
  0
LINE
  5
3CE
100
AcDbEntity
  8
0
390
0
  6
Continuous
 62
     7
100
AcDbLine
 10
10.813699
 20
-83.54155
 30
0.0
 11
10.5
 21
-83.722664
 31
0.0
  0
LINE
  5
3CF
100
AcDbEntity
  8
0
390
0
  6
Continuous
 62
     7
100
AcDbLine
 10
10.813699
 20
-83.54155
 30
0.0
 11
10.813699
 21
-81.017027
 31
0.0
  0
LINE
  5
3D0
100
AcDbEntity
  8
0
390
0
  6
Continuous
 62
     7
100
AcDbLine
 10
34.528713
 20
-83.450567
 30
0.0
 11
34.528713
 21
-81.108011
 31
0.0
  0
LINE
  5
3D1
100
AcDbEntity
  8
0
390
0
  6
Continuous
 62
     7
100
AcDbLine
 10
34.528713
 20
-83.450567
 30
0.0
 11
35.0
 21
-83.722664
 31
0.0
  0
LINE
  5
3D2
100
AcDbEntity
  8
0
390
0
  6
Continuous
 62
     7
100
AcDbLine
 10
-43.471287
 20
-83.450567
 30
0.0
 11
-43.471287
 21
-81.108011
 31
0.0
  0
LINE
  5
3D3
100
AcDbEntity
  8
0
390
0
  6
Continuous
 62
     7
100
AcDbLine
 10
-43.471287
 20
-83.450567
 30
0.0
 11
-43.0
 21
-83.722664
 31
0.0
  0
LINE
  5
3D4
100
AcDbEntity
  8
0
390
0
  6
Continuous
 62
     7
100
AcDbLine
 10
-10.813699
 20
-83.54155
 30
0.0
 11
-10.5
 21
-83.722664
 31
0.0
  0
LINE
  5
3D5
100
AcDbEntity
  8
0
390
0
  6
Continuous
 62
     7
100
AcDbLine
 10
-10.813699
 20
-81.017027
 30
0.0
 11
-10.813699
 21
-83.54155
 31
0.0
  0
LINE
  5
3D6
100
AcDbEntity
  8
0
390
0
  6
Continuous
 62
     7
100
AcDbLine
 10
-17.34093
 20
-83.525828
 30
0.0
 11
-17.0
 21
-83.722664
 31
0.0
  0
LINE
  5
3D7
100
AcDbEntity
  8
0
390
0
  6
Continuous
 62
     7
100
AcDbLine
 10
-17.34093
 20
-81.032749
 30
0.0
 11
-17.34093
 21
-83.525828
 31
0.0
  0
LINE
  5
3D8
100
AcDbEntity
  8
0
390
0
  6
Continuous
 62
     7
100
AcDbLine
 10
17.34093
 20
-83.525828
 30
0.0
 11
17.0
 21
-83.722664
 31
0.0
  0
LINE
  5
3D9
100
AcDbEntity
  8
0
390
0
  6
Continuous
 62
     7
100
AcDbLine
 10
17.34093
 20
-83.525828
 30
0.0
 11
17.34093
 21
-81.032749
 31
0.0
  0
LINE
  5
3DA
100
AcDbEntity
  8
0
390
0
  6
Continuous
 62
     7
100
AcDbLine
 10
-15.169615
 20
-83.531917
 30
0.0
 11
-15.5
 21
-83.722664
 31
0.0
  0
LINE
  5
3DB
100
AcDbEntity
  8
0
390
0
  6
Continuous
 62
     7
100
AcDbLine
 10
-15.169615
 20
-83.531917
 30
0.0
 11
-15.169615
 21
-81.026661
 31
0.0
  0
LINE
  5
3DC
100
AcDbEntity
  8
0
390
0
  6
Continuous
 62
     7
100
AcDbLine
 10
-28.082939
 20
-83.481874
 30
0.0
 11
-28.5
 21
-83.722664
 31
0.0
  0
LINE
  5
3DD
100
AcDbEntity
  8
0
390
0
  6
Continuous
 62
     7
100
AcDbLine
 10
-28.082939
 20
-83.481874
 30
0.0
 11
-28.082939
 21
-81.076703
 31
0.0
  0
LINE
  5
3DE
100
AcDbEntity
  8
0
390
0
  6
Continuous
 62
     7
100
AcDbLine
 10
-2.202566
 20
-83.550941
 30
0.0
 11
-2.5
 21
-83.722664
 31
0.0
  0
LINE
  5
3DF
100
AcDbEntity
  8
0
390
0
  6
Continuous
 62
     7
100
AcDbLine
 10
-2.202566
 20
-83.550941
 30
0.0
 11
-2.202566
 21
-81.007637
 31
0.0
  0
LINE
  5
3E0
100
AcDbEntity
  8
0
390
0
  6
Continuous
 62
     7
100
AcDbLine
 10
15.169615
 20
-83.531917
 30
0.0
 11
15.5
 21
-83.722664
 31
0.0
  0
LINE
  5
3E1
100
AcDbEntity
  8
0
390
0
  6
Continuous
 62
     7
100
AcDbLine
 10
15.169615
 20
-81.026661
 30
0.0
 11
15.169615
 21
-83.531917
 31
0.0
  0
LINE
  5
3E2
100
AcDbEntity
  8
0
390
0
  6
Continuous
 62
     7
100
AcDbLine
 10
28.082939
 20
-83.481874
 30
0.0
 11
28.5
 21
-83.722664
 31
0.0
  0
LINE
  5
3E3
100
AcDbEntity
  8
0
390
0
  6
Continuous
 62
     7
100
AcDbLine
 10
28.082939
 20
-81.076703
 30
0.0
 11
28.082939
 21
-83.481874
 31
0.0
  0
LINE
  5
3E4
100
AcDbEntity
  8
0
390
0
  6
Continuous
 62
     7
100
AcDbLine
 10
-4.299399
 20
-83.549806
 30
0.0
 11
-4.0
 21
-83.722664
 31
0.0
  0
LINE
  5
3E5
100
AcDbEntity
  8
0
390
0
  6
Continuous
 62
     7
100
AcDbLine
 10
-4.299399
 20
-81.008771
 30
0.0
 11
-4.299399
 21
-83.549806
 31
0.0
  0
LINE
  5
3E6
100
AcDbEntity
  8
0
390
0
  6
Continuous
 62
     7
100
AcDbLine
 10
47.528713
 20
-83.450567
 30
0.0
 11
47.528713
 21
-81.108011
 31
0.0
  0
LINE
  5
3E7
100
AcDbEntity
  8
0
390
0
  6
Continuous
 62
     7
100
AcDbLine
 10
47.528713
 20
-83.450567
 30
0.0
 11
48.0
 21
-83.722664
 31
0.0
  0
LINE
  5
3E8
100
AcDbEntity
  8
0
390
0
  6
Continuous
 62
     7
100
AcDbLine
 10
4.299399
 20
-83.549806
 30
0.0
 11
4.0
 21
-83.722664
 31
0.0
  0
LINE
  5
3E9
100
AcDbEntity
  8
0
390
0
  6
Continuous
 62
     7
100
AcDbLine
 10
4.299399
 20
-83.549806
 30
0.0
 11
4.299399
 21
-81.008771
 31
0.0
  0
LINE
  5
3EA
100
AcDbEntity
  8
0
390
0
  6
Continuous
 62
     7
100
AcDbLine
 10
-34.528713
 20
-81.108011
 30
0.0
 11
-34.528713
 21
-83.450567
 31
0.0
  0
LINE
  5
3EB
100
AcDbEntity
  8
0
390
0
  6
Continuous
 62
     7
100
AcDbLine
 10
-34.528713
 20
-83.450567
 30
0.0
 11
-35.0
 21
-83.722664
 31
0.0
  0
LINE
  5
3EC
100
AcDbEntity
  8
0
390
0
  6
Continuous
 62
     7
100
AcDbLine
 10
-23.882266
 20
-83.501963
 30
0.0
 11
-23.5
 21
-83.722664
 31
0.0
  0
LINE
  5
3ED
100
AcDbEntity
  8
0
390
0
  6
Continuous
 62
     7
100
AcDbLine
 10
-23.882266
 20
-81.056615
 30
0.0
 11
-23.882266
 21
-83.501963
 31
0.0
  0
LINE
  5
3EE
100
AcDbEntity
  8
0
390
0
  6
Continuous
 62
     7
100
AcDbLine
 10
30.439727
 20
-81.08979
 30
0.0
 11
30.439727
 21
-83.468788
 31
0.0
  0
LINE
  5
3EF
100
AcDbEntity
  8
0
390
0
  6
Continuous
 62
     7
100
AcDbLine
 10
30.439727
 20
-83.468788
 30
0.0
 11
30.0
 21
-83.722664
 31
0.0
  0
LINE
  5
3F0
100
AcDbEntity
  8
0
390
0
  6
Continuous
 62
     7
100
AcDbLine
 10
-30.439727
 20
-83.468788
 30
0.0
 11
-30.439727
 21
-81.08979
 31
0.0
  0
LINE
  5
3F1
100
AcDbEntity
  8
0
390
0
  6
Continuous
 62
     7
100
AcDbLine
 10
-30.439727
 20
-83.468788
 30
0.0
 11
-30.0
 21
-83.722664
 31
0.0
  0
LINE
  5
3F2
100
AcDbEntity
  8
0
390
0
  6
Continuous
 62
     7
100
AcDbLine
 10
-41.028713
 20
-81.108011
 30
0.0
 11
-41.028713
 21
-83.450567
 31
0.0
  0
LINE
  5
3F3
100
AcDbEntity
  8
0
390
0
  6
Continuous
 62
     7
100
AcDbLine
 10
-41.028713
 20
-83.450567
 30
0.0
 11
-41.5
 21
-83.722664
 31
0.0
  0
LINE
  5
3F4
100
AcDbEntity
  8
0
390
0
  6
Continuous
 62
     7
100
AcDbLine
 10
-49.971287
 20
-83.450567
 30
0.0
 11
-49.971287
 21
-81.108011
 31
0.0
  0
LINE
  5
3F5
100
AcDbEntity
  8
0
390
0
  6
Continuous
 62
     7
100
AcDbLine
 10
-49.971287
 20
-83.450567
 30
0.0
 11
-49.5
 21
-83.722664
 31
0.0
  0
LINE
  5
3F6
100
AcDbEntity
  8
0
390
0
  6
Continuous
 62
     7
100
AcDbLine
 10
21.633626
 20
-83.511138
 30
0.0
 11
22.0
 21
-83.722664
 31
0.0
  0
LINE
  5
3F7
100
AcDbEntity
  8
0
390
0
  6
Continuous
 62
     7
100
AcDbLine
 10
21.633626
 20
-81.047439
 30
0.0
 11
21.633626
 21
-83.511138
 31
0.0
  0
LINE
  5
3F8
100
AcDbEntity
  8
0
390
0
  6
Continuous
 62
     7
100
AcDbLine
 10
2.202566
 20
-83.550941
 30
0.0
 11
2.5
 21
-83.722664
 31
0.0
  0
LINE
  5
3F9
100
AcDbEntity
  8
0
390
0
  6
Continuous
 62
     7
100
AcDbLine
 10
2.202566
 20
-81.007637
 30
0.0
 11
2.202566
 21
-83.550941
 31
0.0
  0
LINE
  5
3FA
100
AcDbEntity
  8
0
390
0
  6
Continuous
 62
     7
100
AcDbLine
 10
36.971287
 20
-81.108011
 30
0.0
 11
36.971287
 21
-83.450567
 31
0.0
  0
LINE
  5
3FB
100
AcDbEntity
  8
0
390
0
  6
Continuous
 62
     7
100
AcDbLine
 10
36.971287
 20
-83.450567
 30
0.0
 11
36.5
 21
-83.722664
 31
0.0
  0
LINE
  5
3FC
100
AcDbEntity
  8
0
390
0
  6
Continuous
 62
     7
100
AcDbLine
 10
49.971287
 20
-81.108011
 30
0.0
 11
49.971287
 21
-83.450567
 31
0.0
  0
LINE
  5
3FD
100
AcDbEntity
  8
0
390
0
  6
Continuous
 62
     7
100
AcDbLine
 10
49.971287
 20
-83.450567
 30
0.0
 11
49.5
 21
-83.722664
 31
0.0
  0
LINE
  5
3FE
100
AcDbEntity
  8
0
390
0
  6
Continuous
 62
     7
100
AcDbLine
 10
-47.528713
 20
-81.108011
 30
0.0
 11
-47.528713
 21
-83.450567
 31
0.0
  0
LINE
  5
3FF
100
AcDbEntity
  8
0
390
0
  6
Continuous
 62
     7
100
AcDbLine
 10
-47.528713
 20
-83.450567
 30
0.0
 11
-48.0
 21
-83.722664
 31
0.0
  0
LINE
  5
400
100
AcDbEntity
  8
0
390
0
  6
Continuous
 62
     7
100
AcDbLine
 10
23.882266
 20
-83.501963
 30
0.0
 11
23.5
 21
-83.722664
 31
0.0
  0
LINE
  5
401
100
AcDbEntity
  8
0
390
0
  6
Continuous
 62
     7
100
AcDbLine
 10
23.882266
 20
-83.501963
 30
0.0
 11
23.882266
 21
-81.056615
 31
0.0
  0
LINE
  5
402
100
AcDbEntity
  8
0
390
0
  6
Continuous
 62
     7
100
AcDbLine
 10
8.692335
 20
-83.545034
 30
0.0
 11
9.0
 21
-83.722664
 31
0.0
  0
LINE
  5
403
100
AcDbEntity
  8
0
390
0
  6
Continuous
 62
     7
100
AcDbLine
 10
8.692335
 20
-81.013544
 30
0.0
 11
8.692335
 21
-83.545034
 31
0.0
  0
LINE
  5
404
100
AcDbEntity
  8
0
390
0
  6
Continuous
 62
     7
100
AcDbLine
 10
-21.633626
 20
-83.511138
 30
0.0
 11
-22.0
 21
-83.722664
 31
0.0
  0
LINE
  5
405
100
AcDbEntity
  8
0
390
0
  6
Continuous
 62
     7
100
AcDbLine
 10
-21.633626
 20
-83.511138
 30
0.0
 11
-21.633626
 21
-81.047439
 31
0.0
  0
LINE
  5
406
100
AcDbEntity
  8
0
390
0
  6
Continuous
 62
     7
100
AcDbLine
 10
-26.0
 20
-84.705376
 30
0.0
 11
-26.0
 21
-85.16604
 31
0.0
  0
ELLIPSE
  5
407
100
AcDbEntity
  8
0
390
0
  6
Continuous
 62
     7
100
AcDbEllipse
 10
0.0
 20
-68.589868
 30
0.0
 11
60.647689226261512
 21
35.025630471816115
 31
0.0
210
0.0
220
0.0
230
1.0
 40
0.015115
 41
4.2606182774721555
 42
4.2989282373267805
  0
ELLIPSE
  5
408
100
AcDbEntity
  8
0
390
0
  6
Continuous
 62
     7
100
AcDbEllipse
 10
0.0
 20
-98.612082
 30
0.0
 11
-60.647689226261512
 21
35.025630471816172
 31
0.0
210
0.0
220
0.0
230
1.0
 40
0.015115
 41
1.0981117785674801
 42
1.1364842345991235
  0
LINE
  5
409
100
AcDbEntity
  8
0
390
0
  6
Continuous
 62
     7
100
AcDbLine
 10
-39.0
 20
-84.621845
 30
0.0
 11
-36.971287
 21
-83.450567
 31
0.0
  0
LINE
  5
40A
100
AcDbEntity
  8
0
390
0
  6
Continuous
 62
     7
100
AcDbLine
 10
-39.0
 20
-84.621845
 30
0.0
 11
-39.0
 21
-85.16604
 31
0.0
  0
LINE
  5
40B
100
AcDbEntity
  8
0
390
0
  6
Continuous
 62
     7
100
AcDbLine
 10
19.5
 20
-84.758493
 30
0.0
 11
19.5
 21
-85.16604
 31
0.0
  0
ELLIPSE
  5
40C
100
AcDbEntity
  8
0
390
0
  6
Continuous
 62
     7
100
AcDbEllipse
 10
0.0
 20
-72.342645
 30
0.0
 11
-60.647689226261512
 21
35.025630471816179
 31
0.0
210
0.0
220
0.0
230
1.0
 40
0.015115
 41
1.8694899798609028
 42
1.9068566427551668
  0
ELLIPSE
  5
40D
100
AcDbEntity
  8
0
390
0
  6
Continuous
 62
     7
100
AcDbEllipse
 10
0.0
 20
-64.837092
 30
0.0
 11
60.647689226261512
 21
35.025630471816115
 31
0.0
210
0.0
220
0.0
230
1.0
 40
0.015115
 41
4.1381318926330044
 42
4.1778752522058955
  0
LINE
  5
40E
100
AcDbEntity
  8
0
390
0
  6
Continuous
 62
     7
100
AcDbLine
 10
-32.5
 20
-84.633075
 30
0.0
 11
-32.5
 21
-85.16604
 31
0.0
  0
LINE
  5
40F
100
AcDbEntity
  8
0
390
0
  6
Continuous
 62
     7
100
AcDbLine
 10
33.361655
 20
-84.124368
 30
0.0
 11
34.528713
 21
-83.450567
 31
0.0
  0
LINE
  5
410
100
AcDbEntity
  8
0
390
0
  6
Continuous
 62
     7
100
AcDbLine
 10
32.5
 20
-84.633075
 30
0.0
 11
32.5
 21
-85.16604
 31
0.0
  0
ELLIPSE
  5
411
100
AcDbEntity
  8
0
390
0
  6
Continuous
 62
     7
100
AcDbEllipse
 10
0.0
 20
-102.364859
 30
0.0
 11
60.647689226261512
 21
35.025630471816086
 31
0.0
210
0.0
220
0.0
230
1.0
 40
0.015115
 41
5.2691874574196129
 42
5.286105937041178
  0
LINE
  5
412
100
AcDbEntity
  8
0
390
0
  6
Continuous
 62
     7
100
AcDbLine
 10
39.0
 20
-84.621845
 30
0.0
 11
41.028713
 21
-83.450567
 31
0.0
  0
LINE
  5
413
100
AcDbEntity
  8
0
390
0
  6
Continuous
 62
     7
100
AcDbLine
 10
39.0
 20
-84.621845
 30
0.0
 11
39.0
 21
-85.16604
 31
0.0
  0
LINE
  5
414
100
AcDbEntity
  8
0
390
0
  6
Continuous
 62
     7
100
AcDbLine
 10
-51.0
 20
-84.044495
 30
0.0
 11
-49.971287
 21
-83.450567
 31
0.0
  0
ELLIPSE
  5
415
100
AcDbEntity
  8
0
390
0
  6
Continuous
 62
     7
100
AcDbEllipse
 10
0.0
 20
-94.859306
 30
0.0
 11
60.647689226261512
 21
35.025630471816086
 31
0.0
210
0.0
220
0.0
230
1.0
 40
0.015115
 41
5.0309906856281978
 42
5.0683887782882397
  0
LINE
  5
416
100
AcDbEntity
  8
0
390
0
  6
Continuous
 62
     7
100
AcDbLine
 10
43.471287
 20
-83.450567
 30
0.0
 11
45.5
 21
-84.621845
 31
0.0
  0
LINE
  5
417
100
AcDbEntity
  8
0
390
0
  6
Continuous
 62
     7
100
AcDbLine
 10
45.5
 20
-84.621845
 30
0.0
 11
45.5
 21
-85.16604
 31
0.0
  0
LINE
  5
418
100
AcDbEntity
  8
0
390
0
  6
Continuous
 62
     7
100
AcDbLine
 10
-45.5
 20
-84.621845
 30
0.0
 11
-43.471287
 21
-83.450567
 31
0.0
  0
LINE
  5
419
100
AcDbEntity
  8
0
390
0
  6
Continuous
 62
     7
100
AcDbLine
 10
-45.5
 20
-84.621845
 30
0.0
 11
-45.5
 21
-85.16604
 31
0.0
  0
ELLIPSE
  5
41A
100
AcDbEntity
  8
0
390
0
  6
Continuous
 62
     7
100
AcDbEllipse
 10
0.0
 20
-64.837092
 30
0.0
 11
-60.647689226261512
 21
35.025630471816115
 31
0.0
210
0.0
220
0.0
230
1.0
 40
0.015115
 41
2.1053100549736921
 42
2.1450534145465827
  0
LINE
  5
41B
100
AcDbEntity
  8
0
390
0
  6
Continuous
 62
     7
100
AcDbLine
 10
49.971287
 20
-83.450567
 30
0.0
 11
51.0
 21
-84.044495
 31
0.0
  0
LINE
  5
41C
100
AcDbEntity
  8
0
390
0
  6
Continuous
 62
     7
100
AcDbLine
 10
-41.028713
 20
-83.450567
 30
0.0
 11
-39.0
 21
-84.621845
 31
0.0
  0
LINE
  5
41D
100
AcDbEntity
  8
0
390
0
  6
Continuous
 62
     7
100
AcDbLine
 10
-34.528713
 20
-83.450567
 30
0.0
 11
-33.361655
 21
-84.124368
 31
0.0
  0
ELLIPSE
  5
41E
100
AcDbEntity
  8
0
390
0
  6
Continuous
 62
     7
100
AcDbEllipse
 10
0.0
 20
-102.364859
 30
0.0
 11
-60.647689226261512
 21
35.025630471816086
 31
0.0
210
0.0
220
0.0
230
1.0
 40
0.015115
 41
0.9970793701384081
 42
1.0139978497599729
  0
LINE
  5
41F
100
AcDbEntity
  8
0
390
0
  6
Continuous
 62
     7
100
AcDbLine
 10
-19.5
 20
-84.758493
 30
0.0
 11
-19.5
 21
-85.16604
 31
0.0
  0
ELLIPSE
  5
420
100
AcDbEntity
  8
0
390
0
  6
Continuous
 62
     7
100
AcDbEllipse
 10
0.0
 20
-72.342645
 30
0.0
 11
60.647689226261512
 21
35.025630471816115
 31
0.0
210
0.0
220
0.0
230
1.0
 40
0.015115
 41
4.3763286644244204
 42
4.4136953273186847
  0
LINE
  5
421
100
AcDbEntity
  8
0
390
0
  6
Continuous
 62
     7
100
AcDbLine
 10
26.0
 20
-84.705376
 30
0.0
 11
26.0
 21
-85.16604
 31
0.0
  0
ELLIPSE
  5
422
100
AcDbEntity
  8
0
390
0
  6
Continuous
 62
     7
100
AcDbEllipse
 10
0.0
 20
-98.612082
 30
0.0
 11
60.647689226261512
 21
35.025630471816115
 31
0.0
210
0.0
220
0.0
230
1.0
 40
0.015115
 41
5.1467010725804627
 42
5.1850735286121061
  0
ELLIPSE
  5
423
100
AcDbEntity
  8
0
390
0
  6
Continuous
 62
     7
100
AcDbEllipse
 10
0.0
 20
-68.589868
 30
0.0
 11
-60.647689226261512
 21
35.025630471816115
 31
0.0
210
0.0
220
0.0
230
1.0
 40
0.015115
 41
1.9842570698528059
 42
2.0225670297074307
  0
LINE
  5
424
100
AcDbEntity
  8
0
390
0
  6
Continuous
 62
     7
100
AcDbLine
 10
45.5
 20
-84.621845
 30
0.0
 11
47.528713
 21
-83.450567
 31
0.0
  0
LINE
  5
425
100
AcDbEntity
  8
0
390
0
  6
Continuous
 62
     7
100
AcDbLine
 10
-47.528713
 20
-83.450567
 30
0.0
 11
-45.5
 21
-84.621845
 31
0.0
  0
LINE
  5
426
100
AcDbEntity
  8
0
390
0
  6
Continuous
 62
     7
100
AcDbLine
 10
36.971287
 20
-83.450567
 30
0.0
 11
39.0
 21
-84.621845
 31
0.0
  0
ELLIPSE
  5
427
100
AcDbEntity
  8
0
390
0
  6
Continuous
 62
     7
100
AcDbEllipse
 10
0.0
 20
-94.859306
 30
0.0
 11
-60.647689226261512
 21
35.0256304718162
 31
0.0
210
0.0
220
0.0
230
1.0
 40
0.015115
 41
1.2147965288913467
 42
1.2521946215513882
  0
LINE
  5
428
100
AcDbEntity
  8
0
390
0
  6
Continuous
 62
     7
100
AcDbLine
 10
0.0
 20
-84.823399
 30
0.0
 11
0.0
 21
-85.16604
 31
0.0
  0
ELLIPSE
  5
429
100
AcDbEntity
  8
0
390
0
  6
Continuous
 62
     7
100
AcDbEllipse
 10
0.0
 20
-83.600975
 30
0.0
 11
60.647689226261512
 21
35.025630471816115
 31
0.0
210
0.0
220
0.0
230
1.0
 40
0.015115
 41
4.7036596750263096
 42
4.7399836650562248
  0
LINE
  5
42A
100
AcDbEntity
  8
0
390
0
  6
Continuous
 62
     7
100
AcDbLine
 10
-13.0
 20
-84.794987
 30
0.0
 11
-13.0
 21
-85.16604
 31
0.0
  0
ELLIPSE
  5
42B
100
AcDbEntity
  8
0
390
0
  6
Continuous
 62
     7
100
AcDbEllipse
 10
0.0
 20
-76.095422
 30
0.0
 11
60.647689226261512
 21
35.025630471816115
 31
0.0
210
0.0
220
0.0
230
1.0
 40
0.015115
 41
4.4876388896751997
 42
4.5244044618266734
  0
LINE
  5
42C
100
AcDbEntity
  8
0
390
0
  6
Continuous
 62
     7
100
AcDbLine
 10
-6.5
 20
-84.816358
 30
0.0
 11
-6.5
 21
-85.16604
 31
0.0
  0
ELLIPSE
  5
42D
100
AcDbEntity
  8
0
390
0
  6
Continuous
 62
     7
100
AcDbEllipse
 10
0.0
 20
-87.353752
 30
0.0
 11
-60.647689226261512
 21
35.0256304718162
 31
0.0
210
0.0
220
0.0
230
1.0
 40
0.015115
 41
1.4357107789215275
 42
1.4721471025990367
  0
LINE
  5
42E
100
AcDbEntity
  8
0
390
0
  6
Continuous
 62
     7
100
AcDbLine
 10
6.5
 20
-84.816358
 30
0.0
 11
6.5
 21
-85.16604
 31
0.0
  0
ELLIPSE
  5
42F
100
AcDbEntity
  8
0
390
0
  6
Continuous
 62
     7
100
AcDbEllipse
 10
0.0
 20
-87.353752
 30
0.0
 11
60.647689226261512
 21
35.025630471816143
 31
0.0
210
0.0
220
0.0
230
1.0
 40
0.015115
 41
4.8110382045805506
 42
4.8474745282580596
  0
ELLIPSE
  5
430
100
AcDbEntity
  8
0
390
0
  6
Continuous
 62
     7
100
AcDbEllipse
 10
0.0
 20
-79.848199
 30
0.0
 11
60.647689226261512
 21
35.025630471816115
 31
0.0
210
0.0
220
0.0
230
1.0
 40
0.015115
 41
4.5962811454720685
 42
4.6327114724907696
  0
LINE
  5
431
100
AcDbEntity
  8
0
390
0
  6
Continuous
 62
     7
100
AcDbLine
 10
13.0
 20
-84.794987
 30
0.0
 11
13.0
 21
-85.16604
 31
0.0
  0
ELLIPSE
  5
432
100
AcDbEntity
  8
0
390
0
  6
Continuous
 62
     7
100
AcDbEllipse
 10
0.0
 20
-76.095422
 30
0.0
 11
-60.647689226261512
 21
35.025630471816179
 31
0.0
210
0.0
220
0.0
230
1.0
 40
0.015115
 41
1.7587808453529139
 42
1.7955464175043867
  0
ELLIPSE
  5
433
100
AcDbEntity
  8
0
390
0
  6
Continuous
 62
     7
100
AcDbEllipse
 10
0.0
 20
-83.600975
 30
0.0
 11
-60.647689226261512
 21
35.025630471816115
 31
0.0
210
0.0
220
0.0
230
1.0
 40
0.015115
 41
1.543201642123363
 42
1.5795256321532773
  0
ELLIPSE
  5
434
100
AcDbEntity
  8
0
390
0
  6
Continuous
 62
     7
100
AcDbEllipse
 10
0.0
 20
-91.106529
 30
0.0
 11
60.647689226261512
 21
35.025630471816115
 31
0.0
210
0.0
220
0.0
230
1.0
 40
0.015115
 41
4.9196804603774185
 42
4.9564610966972129
  0
ELLIPSE
  5
435
100
AcDbEntity
  8
0
390
0
  6
Continuous
 62
     7
100
AcDbEllipse
 10
0.0
 20
-91.106529
 30
0.0
 11
-60.647689226261512
 21
35.025630471816115
 31
0.0
210
0.0
220
0.0
230
1.0
 40
0.015115
 41
1.3267242104823744
 42
1.3635048468021678
  0
ELLIPSE
  5
436
100
AcDbEntity
  8
0
390
0
  6
Continuous
 62
     7
100
AcDbEllipse
 10
0.0
 20
-79.848199
 30
0.0
 11
-60.647689226261512
 21
35.025630471816115
 31
0.0
210
0.0
220
0.0
230
1.0
 40
0.015115
 41
1.650473834688817
 42
1.6869041617075184
  0
LINE
  5
437
100
AcDbEntity
  8
0
390
0
  6
Continuous
 62
     7
100
AcDbLine
 10
35.75
 20
-85.565898
 30
0.0
 11
33.721287
 21
-86.737176
 31
0.0
  0
LINE
  5
438
100
AcDbEntity
  8
0
390
0
  6
Continuous
 62
     7
100
AcDbLine
 10
33.721287
 20
-86.737176
 30
0.0
 11
33.25
 21
-86.465078
 31
0.0
  0
LINE
  5
439
100
AcDbEntity
  8
0
390
0
  6
Continuous
 62
     7
100
AcDbLine
 10
35.75
 20
-85.565898
 30
0.0
 11
35.75
 21
-85.021702
 31
0.0
  0
ELLIPSE
  5
43A
100
AcDbEntity
  8
0
390
0
  6
Continuous
 62
     7
100
AcDbEllipse
 10
0.0
 20
-77.204825
 30
0.0
 11
-60.647689226261512
 21
35.025630471816669
 31
0.0
210
0.0
220
0.0
230
1.0
 40
0.015115
 41
4.4128224132548128
 42
4.4498736741629861
  0
LINE
  5
43B
100
AcDbEntity
  8
0
390
0
  6
Continuous
 62
     7
100
AcDbLine
 10
16.25
 20
-85.409038
 30
0.0
 11
16.25
 21
-85.021702
 31
0.0
  0
LINE
  5
43C
100
AcDbEntity
  8
0
390
0
  6
Continuous
 62
     7
100
AcDbLine
 10
18.403351
 20
-86.665216
 30
0.0
 11
18.75
 21
-86.465078
 31
0.0
  0
ELLIPSE
  5
43D
100
AcDbEntity
  8
0
390
0
  6
Continuous
 62
     7
100
AcDbEllipse
 10
0.0
 20
-77.204825
 30
0.0
 11
60.647689226261512
 21
35.025630471816726
 31
0.0
210
0.0
220
0.0
230
1.0
 40
0.015115
 41
1.8333116330165966
 42
1.8703628939247701
  0
LINE
  5
43E
100
AcDbEntity
  8
0
390
0
  6
Continuous
 62
     7
100
AcDbLine
 10
-18.403351
 20
-86.665216
 30
0.0
 11
-18.75
 21
-86.465078
 31
0.0
  0
LINE
  5
43F
100
AcDbEntity
  8
0
390
0
  6
Continuous
 62
     7
100
AcDbLine
 10
-16.25
 20
-85.409038
 30
0.0
 11
-16.25
 21
-85.021702
 31
0.0
  0
LINE
  5
440
100
AcDbEntity
  8
0
390
0
  6
Continuous
 62
     7
100
AcDbLine
 10
50.778713
 20
-86.737176
 30
0.0
 11
51.0
 21
-86.609416
 31
0.0
  0
LINE
  5
441
100
AcDbEntity
  8
0
390
0
  6
Continuous
 62
     7
100
AcDbLine
 10
50.778713
 20
-86.737176
 30
0.0
 11
48.75
 21
-85.565898
 31
0.0
  0
LINE
  5
442
100
AcDbEntity
  8
0
390
0
  6
Continuous
 62
     7
100
AcDbLine
 10
48.75
 20
-85.565898
 30
0.0
 11
48.75
 21
-85.021702
 31
0.0
  0
LINE
  5
443
100
AcDbEntity
  8
0
390
0
  6
Continuous
 62
     7
100
AcDbLine
 10
37.778713
 20
-86.737176
 30
0.0
 11
35.75
 21
-85.565898
 31
0.0
  0
LINE
  5
444
100
AcDbEntity
  8
0
390
0
  6
Continuous
 62
     7
100
AcDbLine
 10
37.778713
 20
-86.737176
 30
0.0
 11
38.25
 21
-86.465078
 31
0.0
  0
LINE
  5
445
100
AcDbEntity
  8
0
390
0
  6
Continuous
 62
     7
100
AcDbLine
 10
42.25
 20
-85.565898
 30
0.0
 11
40.221287
 21
-86.737176
 31
0.0
  0
LINE
  5
446
100
AcDbEntity
  8
0
390
0
  6
Continuous
 62
     7
100
AcDbLine
 10
40.221287
 20
-86.737176
 30
0.0
 11
39.75
 21
-86.465078
 31
0.0
  0
LINE
  5
447
100
AcDbEntity
  8
0
390
0
  6
Continuous
 62
     7
100
AcDbLine
 10
42.25
 20
-85.565898
 30
0.0
 11
42.25
 21
-85.021702
 31
0.0
  0
ELLIPSE
  5
448
100
AcDbEntity
  8
0
390
0
  6
Continuous
 62
     7
100
AcDbEllipse
 10
0.0
 20
-88.463156
 30
0.0
 11
60.647689226261512
 21
35.025630471816726
 31
0.0
210
0.0
220
0.0
230
1.0
 40
0.015115
 41
1.50845519298143
 42
1.5448049303899341
  0
LINE
  5
449
100
AcDbEntity
  8
0
390
0
  6
Continuous
 62
     7
100
AcDbLine
 10
1.046894
 20
-86.63649
 30
0.0
 11
0.75
 21
-86.465078
 31
0.0
  0
LINE
  5
44A
100
AcDbEntity
  8
0
390
0
  6
Continuous
 62
     7
100
AcDbLine
 10
3.25
 20
-85.3661
 30
0.0
 11
3.25
 21
-85.021702
 31
0.0
  0
ELLIPSE
  5
44B
100
AcDbEntity
  8
0
390
0
  6
Continuous
 62
     7
100
AcDbEllipse
 10
0.0
 20
-95.968709
 30
0.0
 11
-60.647689226261512
 21
35.025630471816669
 31
0.0
210
0.0
220
0.0
230
1.0
 40
0.015115
 41
4.9553336181630128
 42
4.9923628973231509
  0
LINE
  5
44C
100
AcDbEntity
  8
0
390
0
  6
Continuous
 62
     7
100
AcDbLine
 10
-14.075641
 20
-86.653087
 30
0.0
 11
-13.75
 21
-86.465078
 31
0.0
  0
LINE
  5
44D
100
AcDbEntity
  8
0
390
0
  6
Continuous
 62
     7
100
AcDbLine
 10
-35.75
 20
-85.565898
 30
0.0
 11
-37.778713
 21
-86.737176
 31
0.0
  0
LINE
  5
44E
100
AcDbEntity
  8
0
390
0
  6
Continuous
 62
     7
100
AcDbLine
 10
-37.778713
 20
-86.737176
 30
0.0
 11
-38.25
 21
-86.465078
 31
0.0
  0
LINE
  5
44F
100
AcDbEntity
  8
0
390
0
  6
Continuous
 62
     7
100
AcDbLine
 10
-35.75
 20
-85.565898
 30
0.0
 11
-35.75
 21
-85.021702
 31
0.0
  0
ELLIPSE
  5
450
100
AcDbEntity
  8
0
390
0
  6
Continuous
 62
     7
100
AcDbEllipse
 10
0.0
 20
-99.721486
 30
0.0
 11
-60.647689226261505
 21
35.025630471816697
 31
0.0
210
0.0
220
0.0
230
1.0
 40
0.015115
 41
5.0678376620897172
 42
5.1056262251229727
  0
LINE
  5
451
100
AcDbEntity
  8
0
390
0
  6
Continuous
 62
     7
100
AcDbLine
 10
-22.75
 20
-85.453601
 30
0.0
 11
-22.75
 21
-85.021702
 31
0.0
  0
LINE
  5
452
100
AcDbEntity
  8
0
390
0
  6
Continuous
 62
     7
100
AcDbLine
 10
-20.609734
 20
-86.67277
 30
0.0
 11
-20.25
 21
-86.465078
 31
0.0
  0
LINE
  5
453
100
AcDbEntity
  8
0
390
0
  6
Continuous
 62
     7
100
AcDbLine
 10
44.278713
 20
-86.737176
 30
0.0
 11
42.25
 21
-85.565898
 31
0.0
  0
LINE
  5
454
100
AcDbEntity
  8
0
390
0
  6
Continuous
 62
     7
100
AcDbLine
 10
44.278713
 20
-86.737176
 30
0.0
 11
44.75
 21
-86.465078
 31
0.0
  0
ELLIPSE
  5
455
100
AcDbEntity
  8
0
390
0
  6
Continuous
 62
     7
100
AcDbEllipse
 10
0.0
 20
-80.957602
 30
0.0
 11
60.647689226261512
 21
35.025630471816726
 31
0.0
210
0.0
220
0.0
230
1.0
 40
0.015115
 41
1.7235260710647626
 42
1.7601037404270408
  0
LINE
  5
456
100
AcDbEntity
  8
0
390
0
  6
Continuous
 62
     7
100
AcDbLine
 10
-11.932572
 20
-86.648345
 30
0.0
 11
-12.25
 21
-86.465078
 31
0.0
  0
LINE
  5
457
100
AcDbEntity
  8
0
390
0
  6
Continuous
 62
     7
100
AcDbLine
 10
-9.75
 20
-85.380243
 30
0.0
 11
-9.75
 21
-85.021702
 31
0.0
  0
LINE
  5
458
100
AcDbEntity
  8
0
390
0
  6
Continuous
 62
     7
100
AcDbLine
 10
-40.221287
 20
-86.737176
 30
0.0
 11
-42.25
 21
-85.565898
 31
0.0
  0
LINE
  5
459
100
AcDbEntity
  8
0
390
0
  6
Continuous
 62
     7
100
AcDbLine
 10
-42.25
 20
-85.565898
 30
0.0
 11
-42.25
 21
-85.021702
 31
0.0
  0
LINE
  5
45A
100
AcDbEntity
  8
0
390
0
  6
Continuous
 62
     7
100
AcDbLine
 10
-40.221287
 20
-86.737176
 30
0.0
 11
-39.75
 21
-86.465078
 31
0.0
  0
LINE
  5
45B
100
AcDbEntity
  8
0
390
0
  6
Continuous
 62
     7
100
AcDbLine
 10
-42.25
 20
-85.565898
 30
0.0
 11
-44.278713
 21
-86.737176
 31
0.0
  0
LINE
  5
45C
100
AcDbEntity
  8
0
390
0
  6
Continuous
 62
     7
100
AcDbLine
 10
-44.278713
 20
-86.737176
 30
0.0
 11
-44.75
 21
-86.465078
 31
0.0
  0
ELLIPSE
  5
45D
100
AcDbEntity
  8
0
390
0
  6
Continuous
 62
     7
100
AcDbEllipse
 10
0.0
 20
-84.710379
 30
0.0
 11
-60.647689226261512
 21
35.025630471816669
 31
0.0
210
0.0
220
0.0
230
1.0
 40
0.015115
 41
4.6311539015954519
 42
4.6675064572879847
  0
LINE
  5
45E
100
AcDbEntity
  8
0
390
0
  6
Continuous
 62
     7
100
AcDbLine
 10
5.448983
 20
-86.638871
 30
0.0
 11
5.75
 21
-86.465078
 31
0.0
  0
LINE
  5
45F
100
AcDbEntity
  8
0
390
0
  6
Continuous
 62
     7
100
AcDbLine
 10
-46.721287
 20
-86.737176
 30
0.0
 11
-48.75
 21
-85.565898
 31
0.0
  0
LINE
  5
460
100
AcDbEntity
  8
0
390
0
  6
Continuous
 62
     7
100
AcDbLine
 10
-48.75
 20
-85.565898
 30
0.0
 11
-48.75
 21
-85.021702
 31
0.0
  0
LINE
  5
461
100
AcDbEntity
  8
0
390
0
  6
Continuous
 62
     7
100
AcDbLine
 10
-46.721287
 20
-86.737176
 30
0.0
 11
-46.25
 21
-86.465078
 31
0.0
  0
ELLIPSE
  5
462
100
AcDbEntity
  8
0
390
0
  6
Continuous
 62
     7
100
AcDbEllipse
 10
0.0
 20
-92.215932
 30
0.0
 11
-60.647689226261512
 21
35.02563047181664
 31
0.0
210
0.0
220
0.0
230
1.0
 40
0.015115
 41
4.8460095921035959
 42
4.8825773353713169
  0
LINE
  5
463
100
AcDbEntity
  8
0
390
0
  6
Continuous
 62
     7
100
AcDbLine
 10
-7.554982
 20
-86.641159
 30
0.0
 11
-7.25
 21
-86.465078
 31
0.0
  0
LINE
  5
464
100
AcDbEntity
  8
0
390
0
  6
Continuous
 62
     7
100
AcDbLine
 10
48.75
 20
-85.565898
 30
0.0
 11
46.721287
 21
-86.737176
 31
0.0
  0
LINE
  5
465
100
AcDbEntity
  8
0
390
0
  6
Continuous
 62
     7
100
AcDbLine
 10
46.721287
 20
-86.737176
 30
0.0
 11
46.25
 21
-86.465078
 31
0.0
  0
LINE
  5
466
100
AcDbEntity
  8
0
390
0
  6
Continuous
 62
     7
100
AcDbLine
 10
-33.721287
 20
-86.737176
 30
0.0
 11
-35.75
 21
-85.565898
 31
0.0
  0
LINE
  5
467
100
AcDbEntity
  8
0
390
0
  6
Continuous
 62
     7
100
AcDbLine
 10
-33.721287
 20
-86.737176
 30
0.0
 11
-33.25
 21
-86.465078
 31
0.0
  0
ELLIPSE
  5
468
100
AcDbEntity
  8
0
390
0
  6
Continuous
 62
     7
100
AcDbEllipse
 10
0.0
 20
-99.721486
 30
0.0
 11
60.647689226261505
 21
35.025630471816697
 31
0.0
210
0.0
220
0.0
230
1.0
 40
0.015115
 41
1.1775590820566111
 42
1.2153476450898646
  0
LINE
  5
469
100
AcDbEntity
  8
0
390
0
  6
Continuous
 62
     7
100
AcDbLine
 10
20.609734
 20
-86.67277
 30
0.0
 11
20.25
 21
-86.465078
 31
0.0
  0
LINE
  5
46A
100
AcDbEntity
  8
0
390
0
  6
Continuous
 62
     7
100
AcDbLine
 10
22.75
 20
-85.453601
 30
0.0
 11
22.75
 21
-85.021702
 31
0.0
  0
ELLIPSE
  5
46B
100
AcDbEntity
  8
0
390
0
  6
Continuous
 62
     7
100
AcDbEllipse
 10
0.0
 20
-103.474263
 30
0.0
 11
60.647689226261512
 21
35.025630471816669
 31
0.0
210
0.0
220
0.0
230
1.0
 40
0.015115
 41
1.0588167869378109
 42
1.0977684958368024
  0
LINE
  5
46C
100
AcDbEntity
  8
0
390
0
  6
Continuous
 62
     7
100
AcDbLine
 10
27.158809
 20
-86.701104
 30
0.0
 11
26.75
 21
-86.465078
 31
0.0
  0
LINE
  5
46D
100
AcDbEntity
  8
0
390
0
  6
Continuous
 62
     7
100
AcDbLine
 10
29.25
 20
-85.5159
 30
0.0
 11
29.25
 21
-85.021702
 31
0.0
  0
ELLIPSE
  5
46E
100
AcDbEntity
  8
0
390
0
  6
Continuous
 62
     7
100
AcDbEllipse
 10
0.0
 20
-92.215932
 30
0.0
 11
60.647689226261512
 21
35.025630471816754
 31
0.0
210
0.0
220
0.0
230
1.0
 40
0.015115
 41
1.4006079718082654
 42
1.4371757150759865
  0
LINE
  5
46F
100
AcDbEntity
  8
0
390
0
  6
Continuous
 62
     7
100
AcDbLine
 10
7.554982
 20
-86.641159
 30
0.0
 11
7.25
 21
-86.465078
 31
0.0
  0
LINE
  5
470
100
AcDbEntity
  8
0
390
0
  6
Continuous
 62
     7
100
AcDbLine
 10
9.75
 20
-85.380243
 30
0.0
 11
9.75
 21
-85.021702
 31
0.0
  0
ELLIPSE
  5
471
100
AcDbEntity
  8
0
390
0
  6
Continuous
 62
     7
100
AcDbEllipse
 10
0.0
 20
-69.699272
 30
0.0
 11
-60.647689226261512
 21
35.025630471816669
 31
0.0
210
0.0
220
0.0
230
1.0
 40
0.015115
 41
4.178828542295653
 42
4.2178680512443654
  0
LINE
  5
472
100
AcDbEntity
  8
0
390
0
  6
Continuous
 62
     7
100
AcDbLine
 10
31.301379
 20
-86.72409
 30
0.0
 11
31.75
 21
-86.465078
 31
0.0
  0
ELLIPSE
  5
473
100
AcDbEntity
  8
0
390
0
  6
Continuous
 62
     7
100
AcDbEllipse
 10
0.0
 20
-73.452049
 30
0.0
 11
-60.647689226261512
 21
35.025630471816669
 31
0.0
210
0.0
220
0.0
230
1.0
 40
0.015115
 41
4.2987773420360629
 42
4.336610346363166
  0
LINE
  5
474
100
AcDbEntity
  8
0
390
0
  6
Continuous
 62
     7
100
AcDbLine
 10
24.860242
 20
-86.690105
 30
0.0
 11
25.25
 21
-86.465078
 31
0.0
  0
ELLIPSE
  5
475
100
AcDbEntity
  8
0
390
0
  6
Continuous
 62
     7
100
AcDbEllipse
 10
0.0
 20
-88.463156
 30
0.0
 11
-60.647689226261512
 21
35.025630471816669
 31
0.0
210
0.0
220
0.0
230
1.0
 40
0.015115
 41
4.7383803767896486
 42
4.7747301141981531
  0
LINE
  5
476
100
AcDbEntity
  8
0
390
0
  6
Continuous
 62
     7
100
AcDbLine
 10
-3.25
 20
-85.3661
 30
0.0
 11
-3.25
 21
-85.021702
 31
0.0
  0
LINE
  5
477
100
AcDbEntity
  8
0
390
0
  6
Continuous
 62
     7
100
AcDbLine
 10
-1.046894
 20
-86.63649
 30
0.0
 11
-0.75
 21
-86.465078
 31
0.0
  0
ELLIPSE
  5
478
100
AcDbEntity
  8
0
390
0
  6
Continuous
 62
     7
100
AcDbEllipse
 10
0.0
 20
-80.957602
 30
0.0
 11
-60.647689226261512
 21
35.025630471816669
 31
0.0
210
0.0
220
0.0
230
1.0
 40
0.015115
 41
4.523081566752543
 42
4.55965923611482
  0
LINE
  5
479
100
AcDbEntity
  8
0
390
0
  6
Continuous
 62
     7
100
AcDbLine
 10
11.932572
 20
-86.648345
 30
0.0
 11
12.25
 21
-86.465078
 31
0.0
  0
ELLIPSE
  5
47A
100
AcDbEntity
  8
0
390
0
  6
Continuous
 62
     7
100
AcDbEllipse
 10
0.0
 20
-69.699272
 30
0.0
 11
60.647689226261512
 21
35.025630471816669
 31
0.0
210
0.0
220
0.0
230
1.0
 40
0.015115
 41
2.0653172559352169
 42
2.1043567648839301
  0
LINE
  5
47B
100
AcDbEntity
  8
0
390
0
  6
Continuous
 62
     7
100
AcDbLine
 10
-31.301379
 20
-86.72409
 30
0.0
 11
-31.75
 21
-86.465078
 31
0.0
  0
LINE
  5
47C
100
AcDbEntity
  8
0
390
0
  6
Continuous
 62
     7
100
AcDbLine
 10
-29.25
 20
-85.5159
 30
0.0
 11
-29.25
 21
-85.021702
 31
0.0
  0
ELLIPSE
  5
47D
100
AcDbEntity
  8
0
390
0
  6
Continuous
 62
     7
100
AcDbEllipse
 10
0.0
 20
-95.968709
 30
0.0
 11
60.647689226261512
 21
35.025630471816726
 31
0.0
210
0.0
220
0.0
230
1.0
 40
0.015115
 41
1.2908224098564318
 42
1.3278516890165704
  0
LINE
  5
47E
100
AcDbEntity
  8
0
390
0
  6
Continuous
 62
     7
100
AcDbLine
 10
14.075641
 20
-86.653087
 30
0.0
 11
13.75
 21
-86.465078
 31
0.0
  0
ELLIPSE
  5
47F
100
AcDbEntity
  8
0
390
0
  6
Continuous
 62
     7
100
AcDbEllipse
 10
0.0
 20
-73.452049
 30
0.0
 11
60.647689226261512
 21
35.025630471816726
 31
0.0
210
0.0
220
0.0
230
1.0
 40
0.015115
 41
1.9465749608164165
 42
1.9844079651435202
  0
LINE
  5
480
100
AcDbEntity
  8
0
390
0
  6
Continuous
 62
     7
100
AcDbLine
 10
-24.860242
 20
-86.690105
 30
0.0
 11
-25.25
 21
-86.465078
 31
0.0
  0
LINE
  5
481
100
AcDbEntity
  8
0
390
0
  6
Continuous
 62
     7
100
AcDbLine
 10
-48.75
 20
-85.565898
 30
0.0
 11
-50.778713
 21
-86.737176
 31
0.0
  0
LINE
  5
482
100
AcDbEntity
  8
0
390
0
  6
Continuous
 62
     7
100
AcDbLine
 10
-50.778713
 20
-86.737176
 30
0.0
 11
-51.0
 21
-86.609416
 31
0.0
  0
ELLIPSE
  5
483
100
AcDbEntity
  8
0
390
0
  6
Continuous
 62
     7
100
AcDbEllipse
 10
0.0
 20
-84.710379
 30
0.0
 11
60.647689226261512
 21
35.025630471816726
 31
0.0
210
0.0
220
0.0
230
1.0
 40
0.015115
 41
1.6156788498915982
 42
1.6520314055841299
  0
LINE
  5
484
100
AcDbEntity
  8
0
390
0
  6
Continuous
 62
     7
100
AcDbLine
 10
-5.448983
 20
-86.638871
 30
0.0
 11
-5.75
 21
-86.465078
 31
0.0
  0
ELLIPSE
  5
485
100
AcDbEntity
  8
0
390
0
  6
Continuous
 62
     7
100
AcDbEllipse
 10
0.0
 20
-103.474263
 30
0.0
 11
-60.647689226261512
 21
35.025630471816669
 31
0.0
210
0.0
220
0.0
230
1.0
 40
0.015115
 41
5.1854168113427805
 42
5.2243685202417707
  0
LINE
  5
486
100
AcDbEntity
  8
0
390
0
  6
Continuous
 62
     7
100
AcDbLine
 10
-27.158809
 20
-86.701104
 30
0.0
 11
-26.75
 21
-86.465078
 31
0.0
  0
LINE
  5
487
100
AcDbEntity
  8
0
390
0
  6
Continuous
 62
     7
100
AcDbLine
 10
-31.301379
 20
-86.72409
 30
0.0
 11
-31.301379
 21
-89.092818
 31
0.0
  0
LINE
  5
488
100
AcDbEntity
  8
0
390
0
  6
Continuous
 62
     7
100
AcDbLine
 10
-31.301379
 20
-89.092818
 30
0.0
 11
-31.75
 21
-89.35183
 31
0.0
  0
LINE
  5
489
100
AcDbEntity
  8
0
390
0
  6
Continuous
 62
     7
100
AcDbLine
 10
20.609734
 20
-86.67277
 30
0.0
 11
20.609734
 21
-89.144137
 31
0.0
  0
LINE
  5
48A
100
AcDbEntity
  8
0
390
0
  6
Continuous
 62
     7
100
AcDbLine
 10
20.609734
 20
-89.144137
 30
0.0
 11
20.25
 21
-89.35183
 31
0.0
  0
LINE
  5
48B
100
AcDbEntity
  8
0
390
0
  6
Continuous
 62
     7
100
AcDbLine
 10
-33.721287
 20
-89.079732
 30
0.0
 11
-33.721287
 21
-86.737176
 31
0.0
  0
LINE
  5
48C
100
AcDbEntity
  8
0
390
0
  6
Continuous
 62
     7
100
AcDbLine
 10
-33.721287
 20
-89.079732
 30
0.0
 11
-33.25
 21
-89.35183
 31
0.0
  0
LINE
  5
48D
100
AcDbEntity
  8
0
390
0
  6
Continuous
 62
     7
100
AcDbLine
 10
11.932572
 20
-89.168563
 30
0.0
 11
11.932572
 21
-86.648345
 31
0.0
  0
LINE
  5
48E
100
AcDbEntity
  8
0
390
0
  6
Continuous
 62
     7
100
AcDbLine
 10
11.932572
 20
-89.168563
 30
0.0
 11
12.25
 21
-89.35183
 31
0.0
  0
LINE
  5
48F
100
AcDbEntity
  8
0
390
0
  6
Continuous
 62
     7
100
AcDbLine
 10
33.721287
 20
-86.737176
 30
0.0
 11
33.721287
 21
-89.079732
 31
0.0
  0
LINE
  5
490
100
AcDbEntity
  8
0
390
0
  6
Continuous
 62
     7
100
AcDbLine
 10
33.721287
 20
-89.079732
 30
0.0
 11
33.25
 21
-89.35183
 31
0.0
  0
LINE
  5
491
100
AcDbEntity
  8
0
390
0
  6
Continuous
 62
     7
100
AcDbLine
 10
1.046894
 20
-86.63649
 30
0.0
 11
1.046894
 21
-89.180418
 31
0.0
  0
LINE
  5
492
100
AcDbEntity
  8
0
390
0
  6
Continuous
 62
     7
100
AcDbLine
 10
1.046894
 20
-89.180418
 30
0.0
 11
0.75
 21
-89.35183
 31
0.0
  0
LINE
  5
493
100
AcDbEntity
  8
0
390
0
  6
Continuous
 62
     7
100
AcDbLine
 10
-46.721287
 20
-89.079732
 30
0.0
 11
-46.721287
 21
-86.737176
 31
0.0
  0
LINE
  5
494
100
AcDbEntity
  8
0
390
0
  6
Continuous
 62
     7
100
AcDbLine
 10
-46.721287
 20
-89.079732
 30
0.0
 11
-46.25
 21
-89.35183
 31
0.0
  0
LINE
  5
495
100
AcDbEntity
  8
0
390
0
  6
Continuous
 62
     7
100
AcDbLine
 10
-11.932572
 20
-86.648345
 30
0.0
 11
-11.932572
 21
-89.168563
 31
0.0
  0
LINE
  5
496
100
AcDbEntity
  8
0
390
0
  6
Continuous
 62
     7
100
AcDbLine
 10
-11.932572
 20
-89.168563
 30
0.0
 11
-12.25
 21
-89.35183
 31
0.0
  0
LINE
  5
497
100
AcDbEntity
  8
0
390
0
  6
Continuous
 62
     7
100
AcDbLine
 10
-5.448983
 20
-86.638871
 30
0.0
 11
-5.448983
 21
-89.178037
 31
0.0
  0
LINE
  5
498
100
AcDbEntity
  8
0
390
0
  6
Continuous
 62
     7
100
AcDbLine
 10
-5.448983
 20
-89.178037
 30
0.0
 11
-5.75
 21
-89.35183
 31
0.0
  0
LINE
  5
499
100
AcDbEntity
  8
0
390
0
  6
Continuous
 62
     7
100
AcDbLine
 10
40.221287
 20
-86.737176
 30
0.0
 11
40.221287
 21
-89.079732
 31
0.0
  0
LINE
  5
49A
100
AcDbEntity
  8
0
390
0
  6
Continuous
 62
     7
100
AcDbLine
 10
40.221287
 20
-89.079732
 30
0.0
 11
39.75
 21
-89.35183
 31
0.0
  0
LINE
  5
49B
100
AcDbEntity
  8
0
390
0
  6
Continuous
 62
     7
100
AcDbLine
 10
18.403351
 20
-89.151691
 30
0.0
 11
18.403351
 21
-86.665216
 31
0.0
  0
LINE
  5
49C
100
AcDbEntity
  8
0
390
0
  6
Continuous
 62
     7
100
AcDbLine
 10
18.403351
 20
-89.151691
 30
0.0
 11
18.75
 21
-89.35183
 31
0.0
  0
LINE
  5
49D
100
AcDbEntity
  8
0
390
0
  6
Continuous
 62
     7
100
AcDbLine
 10
-14.075641
 20
-89.163821
 30
0.0
 11
-14.075641
 21
-86.653087
 31
0.0
  0
LINE
  5
49E
100
AcDbEntity
  8
0
390
0
  6
Continuous
 62
     7
100
AcDbLine
 10
-14.075641
 20
-89.163821
 30
0.0
 11
-13.75
 21
-89.35183
 31
0.0
  0
LINE
  5
49F
100
AcDbEntity
  8
0
390
0
  6
Continuous
 62
     7
100
AcDbLine
 10
-44.278713
 20
-86.737176
 30
0.0
 11
-44.278713
 21
-89.079732
 31
0.0
  0
LINE
  5
4A0
100
AcDbEntity
  8
0
390
0
  6
Continuous
 62
     7
100
AcDbLine
 10
-44.278713
 20
-89.079732
 30
0.0
 11
-44.75
 21
-89.35183
 31
0.0
  0
LINE
  5
4A1
100
AcDbEntity
  8
0
390
0
  6
Continuous
 62
     7
100
AcDbLine
 10
46.721287
 20
-86.737176
 30
0.0
 11
46.721287
 21
-89.079732
 31
0.0
  0
LINE
  5
4A2
100
AcDbEntity
  8
0
390
0
  6
Continuous
 62
     7
100
AcDbLine
 10
46.721287
 20
-89.079732
 30
0.0
 11
46.25
 21
-89.35183
 31
0.0
  0
LINE
  5
4A3
100
AcDbEntity
  8
0
390
0
  6
Continuous
 62
     7
100
AcDbLine
 10
14.075641
 20
-86.653087
 30
0.0
 11
14.075641
 21
-89.163821
 31
0.0
  0
LINE
  5
4A4
100
AcDbEntity
  8
0
390
0
  6
Continuous
 62
     7
100
AcDbLine
 10
14.075641
 20
-89.163821
 30
0.0
 11
13.75
 21
-89.35183
 31
0.0
  0
LINE
  5
4A5
100
AcDbEntity
  8
0
390
0
  6
Continuous
 62
     7
100
AcDbLine
 10
7.554982
 20
-86.641159
 30
0.0
 11
7.554982
 21
-89.175748
 31
0.0
  0
LINE
  5
4A6
100
AcDbEntity
  8
0
390
0
  6
Continuous
 62
     7
100
AcDbLine
 10
7.554982
 20
-89.175748
 30
0.0
 11
7.25
 21
-89.35183
 31
0.0
  0
LINE
  5
4A7
100
AcDbEntity
  8
0
390
0
  6
Continuous
 62
     7
100
AcDbLine
 10
-7.554982
 20
-89.175748
 30
0.0
 11
-7.554982
 21
-86.641159
 31
0.0
  0
LINE
  5
4A8
100
AcDbEntity
  8
0
390
0
  6
Continuous
 62
     7
100
AcDbLine
 10
-7.554982
 20
-89.175748
 30
0.0
 11
-7.25
 21
-89.35183
 31
0.0
  0
LINE
  5
4A9
100
AcDbEntity
  8
0
390
0
  6
Continuous
 62
     7
100
AcDbLine
 10
31.301379
 20
-89.092818
 30
0.0
 11
31.301379
 21
-86.72409
 31
0.0
  0
LINE
  5
4AA
100
AcDbEntity
  8
0
390
0
  6
Continuous
 62
     7
100
AcDbLine
 10
31.301379
 20
-89.092818
 30
0.0
 11
31.75
 21
-89.35183
 31
0.0
  0
LINE
  5
4AB
100
AcDbEntity
  8
0
390
0
  6
Continuous
 62
     7
100
AcDbLine
 10
24.860242
 20
-89.126803
 30
0.0
 11
24.860242
 21
-86.690105
 31
0.0
  0
LINE
  5
4AC
100
AcDbEntity
  8
0
390
0
  6
Continuous
 62
     7
100
AcDbLine
 10
24.860242
 20
-89.126803
 30
0.0
 11
25.25
 21
-89.35183
 31
0.0
  0
LINE
  5
4AD
100
AcDbEntity
  8
0
390
0
  6
Continuous
 62
     7
100
AcDbLine
 10
37.778713
 20
-89.079732
 30
0.0
 11
37.778713
 21
-86.737176
 31
0.0
  0
LINE
  5
4AE
100
AcDbEntity
  8
0
390
0
  6
Continuous
 62
     7
100
AcDbLine
 10
37.778713
 20
-89.079732
 30
0.0
 11
38.25
 21
-89.35183
 31
0.0
  0
LINE
  5
4AF
100
AcDbEntity
  8
0
390
0
  6
Continuous
 62
     7
100
AcDbLine
 10
27.158809
 20
-86.701104
 30
0.0
 11
27.158809
 21
-89.115803
 31
0.0
  0
LINE
  5
4B0
100
AcDbEntity
  8
0
390
0
  6
Continuous
 62
     7
100
AcDbLine
 10
27.158809
 20
-89.115803
 30
0.0
 11
26.75
 21
-89.35183
 31
0.0
  0
LINE
  5
4B1
100
AcDbEntity
  8
0
390
0
  6
Continuous
 62
     7
100
AcDbLine
 10
-27.158809
 20
-89.115803
 30
0.0
 11
-27.158809
 21
-86.701104
 31
0.0
  0
LINE
  5
4B2
100
AcDbEntity
  8
0
390
0
  6
Continuous
 62
     7
100
AcDbLine
 10
-27.158809
 20
-89.115803
 30
0.0
 11
-26.75
 21
-89.35183
 31
0.0
  0
LINE
  5
4B3
100
AcDbEntity
  8
0
390
0
  6
Continuous
 62
     7
100
AcDbLine
 10
-18.403351
 20
-86.665216
 30
0.0
 11
-18.403351
 21
-89.151691
 31
0.0
  0
LINE
  5
4B4
100
AcDbEntity
  8
0
390
0
  6
Continuous
 62
     7
100
AcDbLine
 10
-18.403351
 20
-89.151691
 30
0.0
 11
-18.75
 21
-89.35183
 31
0.0
  0
LINE
  5
4B5
100
AcDbEntity
  8
0
390
0
  6
Continuous
 62
     7
100
AcDbLine
 10
-1.046894
 20
-89.180418
 30
0.0
 11
-1.046894
 21
-86.63649
 31
0.0
  0
LINE
  5
4B6
100
AcDbEntity
  8
0
390
0
  6
Continuous
 62
     7
100
AcDbLine
 10
-1.046894
 20
-89.180418
 30
0.0
 11
-0.75
 21
-89.35183
 31
0.0
  0
LINE
  5
4B7
100
AcDbEntity
  8
0
390
0
  6
Continuous
 62
     7
100
AcDbLine
 10
-37.778713
 20
-86.737176
 30
0.0
 11
-37.778713
 21
-89.079732
 31
0.0
  0
LINE
  5
4B8
100
AcDbEntity
  8
0
390
0
  6
Continuous
 62
     7
100
AcDbLine
 10
-37.778713
 20
-89.079732
 30
0.0
 11
-38.25
 21
-89.35183
 31
0.0
  0
LINE
  5
4B9
100
AcDbEntity
  8
0
390
0
  6
Continuous
 62
     7
100
AcDbLine
 10
-24.860242
 20
-86.690105
 30
0.0
 11
-24.860242
 21
-89.126803
 31
0.0
  0
LINE
  5
4BA
100
AcDbEntity
  8
0
390
0
  6
Continuous
 62
     7
100
AcDbLine
 10
-24.860242
 20
-89.126803
 30
0.0
 11
-25.25
 21
-89.35183
 31
0.0
  0
LINE
  5
4BB
100
AcDbEntity
  8
0
390
0
  6
Continuous
 62
     7
100
AcDbLine
 10
-20.609734
 20
-89.144137
 30
0.0
 11
-20.609734
 21
-86.67277
 31
0.0
  0
LINE
  5
4BC
100
AcDbEntity
  8
0
390
0
  6
Continuous
 62
     7
100
AcDbLine
 10
-20.609734
 20
-89.144137
 30
0.0
 11
-20.25
 21
-89.35183
 31
0.0
  0
LINE
  5
4BD
100
AcDbEntity
  8
0
390
0
  6
Continuous
 62
     7
100
AcDbLine
 10
-40.221287
 20
-89.079732
 30
0.0
 11
-40.221287
 21
-86.737176
 31
0.0
  0
LINE
  5
4BE
100
AcDbEntity
  8
0
390
0
  6
Continuous
 62
     7
100
AcDbLine
 10
-40.221287
 20
-89.079732
 30
0.0
 11
-39.75
 21
-89.35183
 31
0.0
  0
LINE
  5
4BF
100
AcDbEntity
  8
0
390
0
  6
Continuous
 62
     7
100
AcDbLine
 10
5.448983
 20
-89.178037
 30
0.0
 11
5.448983
 21
-86.638871
 31
0.0
  0
LINE
  5
4C0
100
AcDbEntity
  8
0
390
0
  6
Continuous
 62
     7
100
AcDbLine
 10
5.448983
 20
-89.178037
 30
0.0
 11
5.75
 21
-89.35183
 31
0.0
  0
LINE
  5
4C1
100
AcDbEntity
  8
0
390
0
  6
Continuous
 62
     7
100
AcDbLine
 10
44.278713
 20
-89.079732
 30
0.0
 11
44.278713
 21
-86.737176
 31
0.0
  0
LINE
  5
4C2
100
AcDbEntity
  8
0
390
0
  6
Continuous
 62
     7
100
AcDbLine
 10
44.278713
 20
-89.079732
 30
0.0
 11
44.75
 21
-89.35183
 31
0.0
  0
LINE
  5
4C3
100
AcDbEntity
  8
0
390
0
  6
Continuous
 62
     7
100
AcDbLine
 10
-37.778713
 20
-89.079732
 30
0.0
 11
-35.75
 21
-90.25101
 31
0.0
  0
LINE
  5
4C4
100
AcDbEntity
  8
0
390
0
  6
Continuous
 62
     7
100
AcDbLine
 10
-35.75
 20
-90.25101
 30
0.0
 11
-35.75
 21
-90.795205
 31
0.0
  0
ELLIPSE
  5
4C5
100
AcDbEntity
  8
0
390
0
  6
Continuous
 62
     7
100
AcDbEllipse
 10
0.0
 20
-94.859306
 30
0.0
 11
60.647689226261512
 21
35.025630471816754
 31
0.0
210
0.0
220
0.0
230
1.0
 40
0.015115
 41
4.8651187246545602
 42
4.9016963940168381
  0
LINE
  5
4C6
100
AcDbEntity
  8
0
390
0
  6
Continuous
 62
     7
100
AcDbLine
 10
9.75
 20
-90.436665
 30
0.0
 11
9.75
 21
-90.795205
 31
0.0
  0
ELLIPSE
  5
4C7
100
AcDbEntity
  8
0
390
0
  6
Continuous
 62
     7
100
AcDbEllipse
 10
0.0
 20
-98.612082
 30
0.0
 11
-60.647689226261512
 21
35.025630471816669
 31
0.0
210
0.0
220
0.0
230
1.0
 40
0.015115
 41
1.2712297596650237
 42
1.3082810205731974
  0
LINE
  5
4C8
100
AcDbEntity
  8
0
390
0
  6
Continuous
 62
     7
100
AcDbLine
 10
-16.25
 20
-90.40787
 30
0.0
 11
-16.25
 21
-90.795205
 31
0.0
  0
ELLIPSE
  5
4C9
100
AcDbEntity
  8
0
390
0
  6
Continuous
 62
     7
100
AcDbEllipse
 10
0.0
 20
-102.364859
 30
0.0
 11
60.647689226261512
 21
35.025630471816754
 31
0.0
210
0.0
220
0.0
230
1.0
 40
0.015115
 41
5.0881676144062142
 42
5.1260006187333174
  0
LINE
  5
4CA
100
AcDbEntity
  8
0
390
0
  6
Continuous
 62
     7
100
AcDbLine
 10
22.75
 20
-90.363306
 30
0.0
 11
22.75
 21
-90.795205
 31
0.0
  0
LINE
  5
4CB
100
AcDbEntity
  8
0
390
0
  6
Continuous
 62
     7
100
AcDbLine
 10
-35.75
 20
-90.25101
 30
0.0
 11
-33.721287
 21
-89.079732
 31
0.0
  0
LINE
  5
4CC
100
AcDbEntity
  8
0
390
0
  6
Continuous
 62
     7
100
AcDbLine
 10
46.721287
 20
-89.079732
 30
0.0
 11
48.75
 21
-90.25101
 31
0.0
  0
LINE
  5
4CD
100
AcDbEntity
  8
0
390
0
  6
Continuous
 62
     7
100
AcDbLine
 10
48.75
 20
-90.25101
 30
0.0
 11
48.75
 21
-90.795205
 31
0.0
  0
LINE
  5
4CE
100
AcDbEntity
  8
0
390
0
  6
Continuous
 62
     7
100
AcDbLine
 10
-48.75
 20
-90.25101
 30
0.0
 11
-46.721287
 21
-89.079732
 31
0.0
  0
LINE
  5
4CF
100
AcDbEntity
  8
0
390
0
  6
Continuous
 62
     7
100
AcDbLine
 10
-48.75
 20
-90.25101
 30
0.0
 11
-48.75
 21
-90.795205
 31
0.0
  0
LINE
  5
4D0
100
AcDbEntity
  8
0
390
0
  6
Continuous
 62
     7
100
AcDbLine
 10
33.721287
 20
-89.079732
 30
0.0
 11
35.75
 21
-90.25101
 31
0.0
  0
LINE
  5
4D1
100
AcDbEntity
  8
0
390
0
  6
Continuous
 62
     7
100
AcDbLine
 10
35.75
 20
-90.25101
 30
0.0
 11
35.75
 21
-90.795205
 31
0.0
  0
ELLIPSE
  5
4D2
100
AcDbEntity
  8
0
390
0
  6
Continuous
 62
     7
100
AcDbEllipse
 10
0.0
 20
-79.848199
 30
0.0
 11
60.647689226261512
 21
35.025630471816726
 31
0.0
210
0.0
220
0.0
230
1.0
 40
0.015115
 41
4.4324150634462276
 42
4.4694443426063675
  0
ELLIPSE
  5
4D3
100
AcDbEntity
  8
0
390
0
  6
Continuous
 62
     7
100
AcDbEllipse
 10
0.0
 20
-94.859306
 30
0.0
 11
-60.647689226261512
 21
35.02563047181664
 31
0.0
210
0.0
220
0.0
230
1.0
 40
0.015115
 41
1.381488913162753
 42
1.4180665825250309
  0
LINE
  5
4D4
100
AcDbEntity
  8
0
390
0
  6
Continuous
 62
     7
100
AcDbLine
 10
-9.75
 20
-90.436665
 30
0.0
 11
-9.75
 21
-90.795205
 31
0.0
  0
ELLIPSE
  5
4D5
100
AcDbEntity
  8
0
390
0
  6
Continuous
 62
     7
100
AcDbEllipse
 10
0.0
 20
-76.095422
 30
0.0
 11
-60.647689226261512
 21
35.025630471816669
 31
0.0
210
0.0
220
0.0
230
1.0
 40
0.015115
 41
1.926245008499929
 42
1.9640335715331823
  0
LINE
  5
4D6
100
AcDbEntity
  8
0
390
0
  6
Continuous
 62
     7
100
AcDbLine
 10
40.221287
 20
-89.079732
 30
0.0
 11
42.25
 21
-90.25101
 31
0.0
  0
LINE
  5
4D7
100
AcDbEntity
  8
0
390
0
  6
Continuous
 62
     7
100
AcDbLine
 10
42.25
 20
-90.25101
 30
0.0
 11
42.25
 21
-90.795205
 31
0.0
  0
ELLIPSE
  5
4D8
100
AcDbEntity
  8
0
390
0
  6
Continuous
 62
     7
100
AcDbEllipse
 10
0.0
 20
-106.117636
 30
0.0
 11
-60.647689226261512
 21
35.025630471816669
 31
0.0
210
0.0
220
0.0
230
1.0
 40
0.015115
 41
1.0372358887058637
 42
1.0762753976545769
  0
LINE
  5
4D9
100
AcDbEntity
  8
0
390
0
  6
Continuous
 62
     7
100
AcDbLine
 10
-29.25
 20
-90.301007
 30
0.0
 11
-29.25
 21
-90.795205
 31
0.0
  0
ELLIPSE
  5
4DA
100
AcDbEntity
  8
0
390
0
  6
Continuous
 62
     7
100
AcDbEllipse
 10
0.0
 20
-72.342645
 30
0.0
 11
60.647689226261512
 21
35.025630471816726
 31
0.0
210
0.0
220
0.0
230
1.0
 40
0.015115
 41
4.2004094405276087
 42
4.2393611494265997
  0
ELLIPSE
  5
4DB
100
AcDbEntity
  8
0
390
0
  6
Continuous
 62
     7
100
AcDbEllipse
 10
0.0
 20
-79.848199
 30
0.0
 11
-60.647689226261512
 21
35.025630471816669
 31
0.0
210
0.0
220
0.0
230
1.0
 40
0.015115
 41
1.8137409645732232
 42
1.8507702437333624
  0
LINE
  5
4DC
100
AcDbEntity
  8
0
390
0
  6
Continuous
 62
     7
100
AcDbLine
 10
16.25
 20
-90.40787
 30
0.0
 11
16.25
 21
-90.795205
 31
0.0
  0
ELLIPSE
  5
4DD
100
AcDbEntity
  8
0
390
0
  6
Continuous
 62
     7
100
AcDbEllipse
 10
0.0
 20
-106.117636
 30
0.0
 11
60.647689226261512
 21
35.025630471816726
 31
0.0
210
0.0
220
0.0
230
1.0
 40
0.015115
 41
5.2069099095250149
 42
5.2459494184737272
  0
LINE
  5
4DE
100
AcDbEntity
  8
0
390
0
  6
Continuous
 62
     7
100
AcDbLine
 10
29.25
 20
-90.301007
 30
0.0
 11
29.25
 21
-90.795205
 31
0.0
  0
ELLIPSE
  5
4DF
100
AcDbEntity
  8
0
390
0
  6
Continuous
 62
     7
100
AcDbEllipse
 10
0.0
 20
-98.612082
 30
0.0
 11
60.647689226261512
 21
35.025630471816726
 31
0.0
210
0.0
220
0.0
230
1.0
 40
0.015115
 41
4.9749042866063951
 42
5.0119555475145674
  0
LINE
  5
4E0
100
AcDbEntity
  8
0
390
0
  6
Continuous
 62
     7
100
AcDbLine
 10
35.75
 20
-90.25101
 30
0.0
 11
37.778713
 21
-89.079732
 31
0.0
  0
LINE
  5
4E1
100
AcDbEntity
  8
0
390
0
  6
Continuous
 62
     7
100
AcDbLine
 10
-44.278713
 20
-89.079732
 30
0.0
 11
-42.25
 21
-90.25101
 31
0.0
  0
LINE
  5
4E2
100
AcDbEntity
  8
0
390
0
  6
Continuous
 62
     7
100
AcDbLine
 10
-42.25
 20
-90.25101
 30
0.0
 11
-42.25
 21
-90.795205
 31
0.0
  0
LINE
  5
4E3
100
AcDbEntity
  8
0
390
0
  6
Continuous
 62
     7
100
AcDbLine
 10
48.75
 20
-90.25101
 30
0.0
 11
50.778713
 21
-89.079732
 31
0.0
  0
LINE
  5
4E4
100
AcDbEntity
  8
0
390
0
  6
Continuous
 62
     7
100
AcDbLine
 10
50.778713
 20
-89.079732
 30
0.0
 11
51.0
 21
-89.207492
 31
0.0
  0
ELLIPSE
  5
4E5
100
AcDbEntity
  8
0
390
0
  6
Continuous
 62
     7
100
AcDbEllipse
 10
0.0
 20
-102.364859
 30
0.0
 11
-60.647689226261512
 21
35.02563047181664
 31
0.0
210
0.0
220
0.0
230
1.0
 40
0.015115
 41
1.1571846884462733
 42
1.1950176927733767
  0
LINE
  5
4E6
100
AcDbEntity
  8
0
390
0
  6
Continuous
 62
     7
100
AcDbLine
 10
-22.75
 20
-90.363306
 30
0.0
 11
-22.75
 21
-90.795205
 31
0.0
  0
LINE
  5
4E7
100
AcDbEntity
  8
0
390
0
  6
Continuous
 62
     7
100
AcDbLine
 10
-50.778713
 20
-89.079732
 30
0.0
 11
-48.75
 21
-90.25101
 31
0.0
  0
LINE
  5
4E8
100
AcDbEntity
  8
0
390
0
  6
Continuous
 62
     7
100
AcDbLine
 10
-50.778713
 20
-89.079732
 30
0.0
 11
-51.0
 21
-89.207492
 31
0.0
  0
LINE
  5
4E9
100
AcDbEntity
  8
0
390
0
  6
Continuous
 62
     7
100
AcDbLine
 10
-42.25
 20
-90.25101
 30
0.0
 11
-40.221287
 21
-89.079732
 31
0.0
  0
ELLIPSE
  5
4EA
100
AcDbEntity
  8
0
390
0
  6
Continuous
 62
     7
100
AcDbEllipse
 10
0.0
 20
-76.095422
 30
0.0
 11
60.647689226261512
 21
35.025630471816726
 31
0.0
210
0.0
220
0.0
230
1.0
 40
0.015115
 41
4.3191517356464075
 42
4.3569402986796621
  0
ELLIPSE
  5
4EB
100
AcDbEntity
  8
0
390
0
  6
Continuous
 62
     7
100
AcDbEllipse
 10
0.0
 20
-72.342645
 30
0.0
 11
-60.647689226261512
 21
35.025630471816726
 31
0.0
210
0.0
220
0.0
230
1.0
 40
0.015115
 41
2.043824157752991
 42
2.0827758666519824
  0
LINE
  5
4EC
100
AcDbEntity
  8
0
390
0
  6
Continuous
 62
     7
100
AcDbLine
 10
42.25
 20
-90.25101
 30
0.0
 11
44.278713
 21
-89.079732
 31
0.0
  0
ELLIPSE
  5
4ED
100
AcDbEntity
  8
0
390
0
  6
Continuous
 62
     7
100
AcDbEllipse
 10
0.0
 20
-87.353752
 30
0.0
 11
-60.647689226261505
 21
35.025630471816697
 31
0.0
210
0.0
220
0.0
230
1.0
 40
0.015115
 41
1.5967877231998593
 42
1.6331374606083637
  0
LINE
  5
4EE
100
AcDbEntity
  8
0
390
0
  6
Continuous
 62
     7
100
AcDbLine
 10
3.25
 20
-90.450807
 30
0.0
 11
3.25
 21
-90.795205
 31
0.0
  0
ELLIPSE
  5
4EF
100
AcDbEntity
  8
0
390
0
  6
Continuous
 62
     7
100
AcDbEllipse
 10
0.0
 20
-83.600975
 30
0.0
 11
-60.647689226261512
 21
35.025630471816669
 31
0.0
210
0.0
220
0.0
230
1.0
 40
0.015115
 41
1.704416938513807
 42
1.7409846817815284
  0
ELLIPSE
  5
4F0
100
AcDbEntity
  8
0
390
0
  6
Continuous
 62
     7
100
AcDbEllipse
 10
0.0
 20
-91.106529
 30
0.0
 11
-60.647689226261512
 21
35.025630471816669
 31
0.0
210
0.0
220
0.0
230
1.0
 40
0.015115
 41
1.4895612480056637
 42
1.5259138036981954
  0
LINE
  5
4F1
100
AcDbEntity
  8
0
390
0
  6
Continuous
 62
     7
100
AcDbLine
 10
-3.25
 20
-90.450807
 30
0.0
 11
-3.25
 21
-90.795205
 31
0.0
  0
ELLIPSE
  5
4F2
100
AcDbEntity
  8
0
390
0
  6
Continuous
 62
     7
100
AcDbEllipse
 10
0.0
 20
-91.106529
 30
0.0
 11
60.647689226261512
 21
35.025630471816726
 31
0.0
210
0.0
220
0.0
230
1.0
 40
0.015115
 41
4.7572715034813964
 42
4.7936240591739274
  0
ELLIPSE
  5
4F3
100
AcDbEntity
  8
0
390
0
  6
Continuous
 62
     7
100
AcDbEllipse
 10
0.0
 20
-87.353752
 30
0.0
 11
60.647689226261505
 21
35.025630471816697
 31
0.0
210
0.0
220
0.0
230
1.0
 40
0.015115
 41
4.6500478465712272
 42
4.6863975839797316
  0
ELLIPSE
  5
4F4
100
AcDbEntity
  8
0
390
0
  6
Continuous
 62
     7
100
AcDbEllipse
 10
0.0
 20
-83.600975
 30
0.0
 11
60.647689226261512
 21
35.025630471816726
 31
0.0
210
0.0
220
0.0
230
1.0
 40
0.015115
 41
4.5422006253980625
 42
4.5787683686657834
  0
LINE
  5
4F5
100
AcDbEntity
  8
0
390
0
  6
Continuous
 62
     7
100
AcDbLine
 10
41.028713
 20
-92.366011
 30
0.0
 11
39.0
 21
-91.194732
 31
0.0
  0
LINE
  5
4F6
100
AcDbEntity
  8
0
390
0
  6
Continuous
 62
     7
100
AcDbLine
 10
39.0
 20
-91.194732
 30
0.0
 11
39.0
 21
-90.650537
 31
0.0
  0
LINE
  5
4F7
100
AcDbEntity
  8
0
390
0
  6
Continuous
 62
     7
100
AcDbLine
 10
41.028713
 20
-92.366011
 30
0.0
 11
41.5
 21
-92.093913
 31
0.0
  0
LINE
  5
4F8
100
AcDbEntity
  8
0
390
0
  6
Continuous
 62
     7
100
AcDbLine
 10
-36.971287
 20
-92.366011
 30
0.0
 11
-39.0
 21
-91.194732
 31
0.0
  0
LINE
  5
4F9
100
AcDbEntity
  8
0
390
0
  6
Continuous
 62
     7
100
AcDbLine
 10
-39.0
 20
-91.194732
 30
0.0
 11
-39.0
 21
-90.650537
 31
0.0
  0
LINE
  5
4FA
100
AcDbEntity
  8
0
390
0
  6
Continuous
 62
     7
100
AcDbLine
 10
-36.971287
 20
-92.366011
 30
0.0
 11
-36.5
 21
-92.093913
 31
0.0
  0
LINE
  5
4FB
100
AcDbEntity
  8
0
390
0
  6
Continuous
 62
     7
100
AcDbLine
 10
39.0
 20
-91.194732
 30
0.0
 11
36.971287
 21
-92.366011
 31
0.0
  0
LINE
  5
4FC
100
AcDbEntity
  8
0
390
0
  6
Continuous
 62
     7
100
AcDbLine
 10
36.971287
 20
-92.366011
 30
0.0
 11
36.5
 21
-92.093913
 31
0.0
  0
LINE
  5
4FD
100
AcDbEntity
  8
0
390
0
  6
Continuous
 62
     7
100
AcDbLine
 10
13.0
 20
-91.02159
 30
0.0
 11
13.0
 21
-90.650537
 31
0.0
  0
LINE
  5
4FE
100
AcDbEntity
  8
0
390
0
  6
Continuous
 62
     7
100
AcDbLine
 10
15.169615
 20
-92.284661
 30
0.0
 11
15.5
 21
-92.093913
 31
0.0
  0
ELLIPSE
  5
4FF
100
AcDbEntity
  8
0
390
0
  6
Continuous
 62
     7
100
AcDbEllipse
 10
0.0
 20
-84.710049
 30
0.0
 11
-60.647689226261512
 21
35.025630471816115
 31
0.0
210
0.0
220
0.0
230
1.0
 40
0.015115
 41
4.4683168640721664
 42
4.5050975003919609
  0
LINE
  5
500
100
AcDbEntity
  8
0
390
0
  6
Continuous
 62
     7
100
AcDbLine
 10
-21.633626
 20
-92.305439
 30
0.0
 11
-22.0
 21
-92.093913
 31
0.0
  0
LINE
  5
501
100
AcDbEntity
  8
0
390
0
  6
Continuous
 62
     7
100
AcDbLine
 10
-19.5
 20
-91.058085
 30
0.0
 11
-19.5
 21
-90.650537
 31
0.0
  0
ELLIPSE
  5
502
100
AcDbEntity
  8
0
390
0
  6
Continuous
 62
     7
100
AcDbEllipse
 10
0.0
 20
-80.957272
 30
0.0
 11
60.647689226261512
 21
35.025630471816179
 31
0.0
210
0.0
220
0.0
230
1.0
 40
0.015115
 41
1.8893980320384052
 42
1.9267961246984471
  0
LINE
  5
503
100
AcDbEntity
  8
0
390
0
  6
Continuous
 62
     7
100
AcDbLine
 10
-45.5
 20
-91.194732
 30
0.0
 11
-47.528713
 21
-92.366011
 31
0.0
  0
LINE
  5
504
100
AcDbEntity
  8
0
390
0
  6
Continuous
 62
     7
100
AcDbLine
 10
-47.528713
 20
-92.366011
 30
0.0
 11
-48.0
 21
-92.093913
 31
0.0
  0
LINE
  5
505
100
AcDbEntity
  8
0
390
0
  6
Continuous
 62
     7
100
AcDbLine
 10
-45.5
 20
-91.194732
 30
0.0
 11
-45.5
 21
-90.650537
 31
0.0
  0
LINE
  5
506
100
AcDbEntity
  8
0
390
0
  6
Continuous
 62
     7
100
AcDbLine
 10
-13.0
 20
-91.02159
 30
0.0
 11
-13.0
 21
-90.650537
 31
0.0
  0
LINE
  5
507
100
AcDbEntity
  8
0
390
0
  6
Continuous
 62
     7
100
AcDbLine
 10
-10.813699
 20
-92.275027
 30
0.0
 11
-10.5
 21
-92.093913
 31
0.0
  0
ELLIPSE
  5
508
100
AcDbEntity
  8
0
390
0
  6
Continuous
 62
     7
100
AcDbEllipse
 10
0.0
 20
-99.721156
 30
0.0
 11
-60.647689226261512
 21
35.025630471816143
 31
0.0
210
0.0
220
0.0
230
1.0
 40
0.015115
 41
4.9003734989427068
 42
4.9371390710941796
  0
LINE
  5
509
100
AcDbEntity
  8
0
390
0
  6
Continuous
 62
     7
100
AcDbLine
 10
-33.361655
 20
-91.692209
 30
0.0
 11
-34.528713
 21
-92.366011
 31
0.0
  0
LINE
  5
50A
100
AcDbEntity
  8
0
390
0
  6
Continuous
 62
     7
100
AcDbLine
 10
-34.528713
 20
-92.366011
 30
0.0
 11
-35.0
 21
-92.093913
 31
0.0
  0
LINE
  5
50B
100
AcDbEntity
  8
0
390
0
  6
Continuous
 62
     7
100
AcDbLine
 10
-32.5
 20
-91.183503
 30
0.0
 11
-32.5
 21
-90.650537
 31
0.0
  0
ELLIPSE
  5
50C
100
AcDbEntity
  8
0
390
0
  6
Continuous
 62
     7
100
AcDbEllipse
 10
0.0
 20
-73.451718
 30
0.0
 11
60.647689226261512
 21
35.025630471816115
 31
0.0
210
0.0
220
0.0
230
1.0
 40
0.015115
 41
2.1275948038298207
 42
2.1445132834513854
  0
LINE
  5
50D
100
AcDbEntity
  8
0
390
0
  6
Continuous
 62
     7
100
AcDbLine
 10
-15.169615
 20
-92.284661
 30
0.0
 11
-15.5
 21
-92.093913
 31
0.0
  0
ELLIPSE
  5
50E
100
AcDbEntity
  8
0
390
0
  6
Continuous
 62
     7
100
AcDbEllipse
 10
0.0
 20
-84.710049
 30
0.0
 11
60.647689226261512
 21
35.025630471816179
 31
0.0
210
0.0
220
0.0
230
1.0
 40
0.015115
 41
1.7780878067876258
 42
1.8148684431074198
  0
LINE
  5
50F
100
AcDbEntity
  8
0
390
0
  6
Continuous
 62
     7
100
AcDbLine
 10
-28.082939
 20
-92.334703
 30
0.0
 11
-28.5
 21
-92.093913
 31
0.0
  0
LINE
  5
510
100
AcDbEntity
  8
0
390
0
  6
Continuous
 62
     7
100
AcDbLine
 10
-26.0
 20
-91.111201
 30
0.0
 11
-26.0
 21
-90.650537
 31
0.0
  0
ELLIPSE
  5
511
100
AcDbEntity
  8
0
390
0
  6
Continuous
 62
     7
100
AcDbEllipse
 10
0.0
 20
-77.204495
 30
0.0
 11
60.647689226261512
 21
35.025630471816115
 31
0.0
210
0.0
220
0.0
230
1.0
 40
0.015115
 41
2.0051084189906696
 42
2.043480875022313
  0
LINE
  5
512
100
AcDbEntity
  8
0
390
0
  6
Continuous
 62
     7
100
AcDbLine
 10
-43.471287
 20
-92.366011
 30
0.0
 11
-45.5
 21
-91.194732
 31
0.0
  0
LINE
  5
513
100
AcDbEntity
  8
0
390
0
  6
Continuous
 62
     7
100
AcDbLine
 10
-43.471287
 20
-92.366011
 30
0.0
 11
-43.0
 21
-92.093913
 31
0.0
  0
LINE
  5
514
100
AcDbEntity
  8
0
390
0
  6
Continuous
 62
     7
100
AcDbLine
 10
10.813699
 20
-92.275027
 30
0.0
 11
10.5
 21
-92.093913
 31
0.0
  0
ELLIPSE
  5
515
100
AcDbEntity
  8
0
390
0
  6
Continuous
 62
     7
100
AcDbEllipse
 10
0.0
 20
-99.721156
 30
0.0
 11
60.647689226261512
 21
35.0256304718162
 31
0.0
210
0.0
220
0.0
230
1.0
 40
0.015115
 41
1.3460462360854066
 42
1.3828118082368785
  0
LINE
  5
516
100
AcDbEntity
  8
0
390
0
  6
Continuous
 62
     7
100
AcDbLine
 10
4.299399
 20
-92.266771
 30
0.0
 11
4.0
 21
-92.093913
 31
0.0
  0
LINE
  5
517
100
AcDbEntity
  8
0
390
0
  6
Continuous
 62
     7
100
AcDbLine
 10
6.5
 20
-91.000219
 30
0.0
 11
6.5
 21
-90.650537
 31
0.0
  0
ELLIPSE
  5
518
100
AcDbEntity
  8
0
390
0
  6
Continuous
 62
     7
100
AcDbEllipse
 10
0.0
 20
-95.968379
 30
0.0
 11
60.647689226261512
 21
35.025630471816179
 31
0.0
210
0.0
220
0.0
230
1.0
 40
0.015115
 41
1.4546884918822744
 42
1.4911188189009759
  0
LINE
  5
519
100
AcDbEntity
  8
0
390
0
  6
Continuous
 62
     7
100
AcDbLine
 10
23.882266
 20
-92.314615
 30
0.0
 11
23.5
 21
-92.093913
 31
0.0
  0
LINE
  5
51A
100
AcDbEntity
  8
0
390
0
  6
Continuous
 62
     7
100
AcDbLine
 10
26.0
 20
-91.111201
 30
0.0
 11
26.0
 21
-90.650537
 31
0.0
  0
ELLIPSE
  5
51B
100
AcDbEntity
  8
0
390
0
  6
Continuous
 62
     7
100
AcDbEllipse
 10
0.0
 20
-107.226709
 30
0.0
 11
60.647689226261512
 21
35.025630471816143
 31
0.0
210
0.0
220
0.0
230
1.0
 40
0.015115
 41
1.1190256238823624
 42
1.1573355837369879
  0
ELLIPSE
  5
51C
100
AcDbEntity
  8
0
390
0
  6
Continuous
 62
     7
100
AcDbEllipse
 10
0.0
 20
-110.979486
 30
0.0
 11
60.647689226261512
 21
35.025630471816115
 31
0.0
210
0.0
220
0.0
230
1.0
 40
0.015115
 41
0.9965392390432115
 42
1.0362825986161019
  0
LINE
  5
51D
100
AcDbEntity
  8
0
390
0
  6
Continuous
 62
     7
100
AcDbLine
 10
30.439727
 20
-92.34779
 30
0.0
 11
30.0
 21
-92.093913
 31
0.0
  0
LINE
  5
51E
100
AcDbEntity
  8
0
390
0
  6
Continuous
 62
     7
100
AcDbLine
 10
32.5
 20
-91.183503
 30
0.0
 11
32.5
 21
-90.650537
 31
0.0
  0
LINE
  5
51F
100
AcDbEntity
  8
0
390
0
  6
Continuous
 62
     7
100
AcDbLine
 10
-2.202566
 20
-92.265637
 30
0.0
 11
-2.5
 21
-92.093913
 31
0.0
  0
LINE
  5
520
100
AcDbEntity
  8
0
390
0
  6
Continuous
 62
     7
100
AcDbLine
 10
0.0
 20
-90.993179
 30
0.0
 11
0.0
 21
-90.650537
 31
0.0
  0
ELLIPSE
  5
521
100
AcDbEntity
  8
0
390
0
  6
Continuous
 62
     7
100
AcDbEllipse
 10
0.0
 20
-92.215602
 30
0.0
 11
60.647689226261512
 21
35.025630471816086
 31
0.0
210
0.0
220
0.0
230
1.0
 40
0.015115
 41
1.562067021436516
 42
1.5983910114664295
  0
LINE
  5
522
100
AcDbEntity
  8
0
390
0
  6
Continuous
 62
     7
100
AcDbLine
 10
19.5
 20
-91.058085
 30
0.0
 11
19.5
 21
-90.650537
 31
0.0
  0
LINE
  5
523
100
AcDbEntity
  8
0
390
0
  6
Continuous
 62
     7
100
AcDbLine
 10
21.633626
 20
-92.305439
 30
0.0
 11
22.0
 21
-92.093913
 31
0.0
  0
ELLIPSE
  5
524
100
AcDbEntity
  8
0
390
0
  6
Continuous
 62
     7
100
AcDbEllipse
 10
0.0
 20
-80.957272
 30
0.0
 11
-60.647689226261512
 21
35.025630471816115
 31
0.0
210
0.0
220
0.0
230
1.0
 40
0.015115
 41
4.3563891824811396
 42
4.3937872751411815
  0
LINE
  5
525
100
AcDbEntity
  8
0
390
0
  6
Continuous
 62
     7
100
AcDbLine
 10
-23.882266
 20
-92.314615
 30
0.0
 11
-23.5
 21
-92.093913
 31
0.0
  0
ELLIPSE
  5
526
100
AcDbEntity
  8
0
390
0
  6
Continuous
 62
     7
100
AcDbEllipse
 10
0.0
 20
-107.226709
 30
0.0
 11
-60.647689226261512
 21
35.025630471816143
 31
0.0
210
0.0
220
0.0
230
1.0
 40
0.015115
 41
5.1258497234425988
 42
5.1641596832972239
  0
ELLIPSE
  5
527
100
AcDbEntity
  8
0
390
0
  6
Continuous
 62
     7
100
AcDbEllipse
 10
0.0
 20
-110.979486
 30
0.0
 11
-60.647689226261512
 21
35.025630471816115
 31
0.0
210
0.0
220
0.0
230
1.0
 40
0.015115
 41
5.2469027085634838
 42
5.2866460681363749
  0
LINE
  5
528
100
AcDbEntity
  8
0
390
0
  6
Continuous
 62
     7
100
AcDbLine
 10
-30.439727
 20
-92.34779
 30
0.0
 11
-30.0
 21
-92.093913
 31
0.0
  0
LINE
  5
529
100
AcDbEntity
  8
0
390
0
  6
Continuous
 62
     7
100
AcDbLine
 10
8.692335
 20
-92.271544
 30
0.0
 11
9.0
 21
-92.093913
 31
0.0
  0
ELLIPSE
  5
52A
100
AcDbEntity
  8
0
390
0
  6
Continuous
 62
     7
100
AcDbEllipse
 10
0.0
 20
-88.462825
 30
0.0
 11
-60.647689226261512
 21
35.025630471816115
 31
0.0
210
0.0
220
0.0
230
1.0
 40
0.015115
 41
4.5773034325113198
 42
4.6137397561888287
  0
LINE
  5
52B
100
AcDbEntity
  8
0
390
0
  6
Continuous
 62
     7
100
AcDbLine
 10
-17.34093
 20
-92.290749
 30
0.0
 11
-17.0
 21
-92.093913
 31
0.0
  0
ELLIPSE
  5
52C
100
AcDbEntity
  8
0
390
0
  6
Continuous
 62
     7
100
AcDbEllipse
 10
0.0
 20
-103.473932
 30
0.0
 11
-60.647689226261512
 21
35.025630471816115
 31
0.0
210
0.0
220
0.0
230
1.0
 40
0.015115
 41
5.0110826334506946
 42
5.048449296344959
  0
LINE
  5
52D
100
AcDbEntity
  8
0
390
0
  6
Continuous
 62
     7
100
AcDbLine
 10
-8.692335
 20
-92.271544
 30
0.0
 11
-9.0
 21
-92.093913
 31
0.0
  0
LINE
  5
52E
100
AcDbEntity
  8
0
390
0
  6
Continuous
 62
     7
100
AcDbLine
 10
-6.5
 20
-91.000219
 30
0.0
 11
-6.5
 21
-90.650537
 31
0.0
  0
ELLIPSE
  5
52F
100
AcDbEntity
  8
0
390
0
  6
Continuous
 62
     7
100
AcDbEllipse
 10
0.0
 20
-88.462825
 30
0.0
 11
60.647689226261512
 21
35.025630471816115
 31
0.0
210
0.0
220
0.0
230
1.0
 40
0.015115
 41
1.6694455509907566
 42
1.7058818746682667
  0
LINE
  5
530
100
AcDbEntity
  8
0
390
0
  6
Continuous
 62
     7
100
AcDbLine
 10
28.082939
 20
-92.334703
 30
0.0
 11
28.5
 21
-92.093913
 31
0.0
  0
ELLIPSE
  5
531
100
AcDbEntity
  8
0
390
0
  6
Continuous
 62
     7
100
AcDbEllipse
 10
0.0
 20
-77.204495
 30
0.0
 11
-60.647689226261512
 21
35.025630471816115
 31
0.0
210
0.0
220
0.0
230
1.0
 40
0.015115
 41
4.2397044321572732
 42
4.2780768881889166
  0
LINE
  5
532
100
AcDbEntity
  8
0
390
0
  6
Continuous
 62
     7
100
AcDbLine
 10
34.528713
 20
-92.366011
 30
0.0
 11
33.361655
 21
-91.692209
 31
0.0
  0
ELLIPSE
  5
533
100
AcDbEntity
  8
0
390
0
  6
Continuous
 62
     7
100
AcDbEllipse
 10
0.0
 20
-73.451718
 30
0.0
 11
-60.647689226261512
 21
35.025630471816115
 31
0.0
210
0.0
220
0.0
230
1.0
 40
0.015115
 41
4.1386720237282013
 42
4.1555905033497655
  0
LINE
  5
534
100
AcDbEntity
  8
0
390
0
  6
Continuous
 62
     7
100
AcDbLine
 10
34.528713
 20
-92.366011
 30
0.0
 11
35.0
 21
-92.093913
 31
0.0
  0
LINE
  5
535
100
AcDbEntity
  8
0
390
0
  6
Continuous
 62
     7
100
AcDbLine
 10
2.202566
 20
-92.265637
 30
0.0
 11
2.5
 21
-92.093913
 31
0.0
  0
ELLIPSE
  5
536
100
AcDbEntity
  8
0
390
0
  6
Continuous
 62
     7
100
AcDbEllipse
 10
0.0
 20
-92.215602
 30
0.0
 11
-60.647689226261512
 21
35.025630471816086
 31
0.0
210
0.0
220
0.0
230
1.0
 40
0.015115
 41
4.6847942957131563
 42
4.7211182857430707
  0
LINE
  5
537
100
AcDbEntity
  8
0
390
0
  6
Continuous
 62
     7
100
AcDbLine
 10
-4.299399
 20
-92.266771
 30
0.0
 11
-4.0
 21
-92.093913
 31
0.0
  0
ELLIPSE
  5
538
100
AcDbEntity
  8
0
390
0
  6
Continuous
 62
     7
100
AcDbEllipse
 10
0.0
 20
-95.968379
 30
0.0
 11
-60.647689226261512
 21
35.025630471816115
 31
0.0
210
0.0
220
0.0
230
1.0
 40
0.015115
 41
4.7920664882786097
 42
4.8284968152973109
  0
LINE
  5
539
100
AcDbEntity
  8
0
390
0
  6
Continuous
 62
     7
100
AcDbLine
 10
17.34093
 20
-92.290749
 30
0.0
 11
17.0
 21
-92.093913
 31
0.0
  0
ELLIPSE
  5
53A
100
AcDbEntity
  8
0
390
0
  6
Continuous
 62
     7
100
AcDbEllipse
 10
0.0
 20
-103.473932
 30
0.0
 11
60.647689226261512
 21
35.025630471816115
 31
0.0
210
0.0
220
0.0
230
1.0
 40
0.015115
 41
1.234736010834627
 42
1.272102673728891
  0
LINE
  5
53B
100
AcDbEntity
  8
0
390
0
  6
Continuous
 62
     7
100
AcDbLine
 10
-39.0
 20
-91.194732
 30
0.0
 11
-41.028713
 21
-92.366011
 31
0.0
  0
LINE
  5
53C
100
AcDbEntity
  8
0
390
0
  6
Continuous
 62
     7
100
AcDbLine
 10
-41.028713
 20
-92.366011
 30
0.0
 11
-41.5
 21
-92.093913
 31
0.0
  0
LINE
  5
53D
100
AcDbEntity
  8
0
390
0
  6
Continuous
 62
     7
100
AcDbLine
 10
45.5
 20
-91.194732
 30
0.0
 11
43.471287
 21
-92.366011
 31
0.0
  0
LINE
  5
53E
100
AcDbEntity
  8
0
390
0
  6
Continuous
 62
     7
100
AcDbLine
 10
43.471287
 20
-92.366011
 30
0.0
 11
43.0
 21
-92.093913
 31
0.0
  0
LINE
  5
53F
100
AcDbEntity
  8
0
390
0
  6
Continuous
 62
     7
100
AcDbLine
 10
45.5
 20
-91.194732
 30
0.0
 11
45.5
 21
-90.650537
 31
0.0
  0
LINE
  5
540
100
AcDbEntity
  8
0
390
0
  6
Continuous
 62
     7
100
AcDbLine
 10
47.528713
 20
-92.366011
 30
0.0
 11
45.5
 21
-91.194732
 31
0.0
  0
LINE
  5
541
100
AcDbEntity
  8
0
390
0
  6
Continuous
 62
     7
100
AcDbLine
 10
47.528713
 20
-92.366011
 30
0.0
 11
48.0
 21
-92.093913
 31
0.0
  0
LINE
  5
542
100
AcDbEntity
  8
0
390
0
  6
Continuous
 62
     7
100
AcDbLine
 10
47.528713
 20
-92.779289
 30
0.0
 11
47.528713
 21
-92.366011
 31
0.0
  0
LINE
  5
543
100
AcDbEntity
  8
0
390
0
  6
Continuous
 62
     7
100
AcDbLine
 10
17.34093
 20
-92.779289
 30
0.0
 11
17.34093
 21
-92.290749
 31
0.0
  0
LINE
  5
544
100
AcDbEntity
  8
0
390
0
  6
Continuous
 62
     7
100
AcDbLine
 10
-36.971287
 20
-92.779289
 30
0.0
 11
-36.971287
 21
-92.366011
 31
0.0
  0
LINE
  5
545
100
AcDbEntity
  8
0
390
0
  6
Continuous
 62
     7
100
AcDbLine
 10
-10.813699
 20
-92.275027
 30
0.0
 11
-10.813699
 21
-92.779289
 31
0.0
  0
LINE
  5
546
100
AcDbEntity
  8
0
390
0
  6
Continuous
 62
     7
100
AcDbLine
 10
-23.882266
 20
-92.314615
 30
0.0
 11
-23.882266
 21
-92.779289
 31
0.0
  0
LINE
  5
547
100
AcDbEntity
  8
0
390
0
  6
Continuous
 62
     7
100
AcDbLine
 10
-30.439727
 20
-92.779289
 30
0.0
 11
-30.439727
 21
-92.34779
 31
0.0
  0
LINE
  5
548
100
AcDbEntity
  8
0
390
0
  6
Continuous
 62
     7
100
AcDbLine
 10
-4.299399
 20
-92.266771
 30
0.0
 11
-4.299399
 21
-92.779289
 31
0.0
  0
LINE
  5
549
100
AcDbEntity
  8
0
390
0
  6
Continuous
 62
     7
100
AcDbLine
 10
8.692335
 20
-92.271544
 30
0.0
 11
8.692335
 21
-92.779289
 31
0.0
  0
LINE
  5
54A
100
AcDbEntity
  8
0
390
0
  6
Continuous
 62
     7
100
AcDbLine
 10
41.028713
 20
-92.779289
 30
0.0
 11
41.028713
 21
-92.366011
 31
0.0
  0
LINE
  5
54B
100
AcDbEntity
  8
0
390
0
  6
Continuous
 62
     7
100
AcDbLine
 10
34.528713
 20
-92.779289
 30
0.0
 11
34.528713
 21
-92.366011
 31
0.0
  0
LINE
  5
54C
100
AcDbEntity
  8
0
390
0
  6
Continuous
 62
     7
100
AcDbLine
 10
-41.028713
 20
-92.366011
 30
0.0
 11
-41.028713
 21
-92.779289
 31
0.0
  0
LINE
  5
54D
100
AcDbEntity
  8
0
390
0
  6
Continuous
 62
     7
100
AcDbLine
 10
30.439727
 20
-92.34779
 30
0.0
 11
30.439727
 21
-92.779289
 31
0.0
  0
LINE
  5
54E
100
AcDbEntity
  8
0
390
0
  6
Continuous
 62
     7
100
AcDbLine
 10
-43.471287
 20
-92.779289
 30
0.0
 11
-43.471287
 21
-92.366011
 31
0.0
  0
LINE
  5
54F
100
AcDbEntity
  8
0
390
0
  6
Continuous
 62
     7
100
AcDbLine
 10
21.633626
 20
-92.305439
 30
0.0
 11
21.633626
 21
-92.779289
 31
0.0
  0
LINE
  5
550
100
AcDbEntity
  8
0
390
0
  6
Continuous
 62
     7
100
AcDbLine
 10
2.202566
 20
-92.265637
 30
0.0
 11
2.202566
 21
-92.779289
 31
0.0
  0
LINE
  5
551
100
AcDbEntity
  8
0
390
0
  6
Continuous
 62
     7
100
AcDbLine
 10
23.882266
 20
-92.779289
 30
0.0
 11
23.882266
 21
-92.314615
 31
0.0
  0
LINE
  5
552
100
AcDbEntity
  8
0
390
0
  6
Continuous
 62
     7
100
AcDbLine
 10
10.813699
 20
-92.779289
 30
0.0
 11
10.813699
 21
-92.275027
 31
0.0
  0
LINE
  5
553
100
AcDbEntity
  8
0
390
0
  6
Continuous
 62
     7
100
AcDbLine
 10
-15.169615
 20
-92.779289
 30
0.0
 11
-15.169615
 21
-92.284661
 31
0.0
  0
LINE
  5
554
100
AcDbEntity
  8
0
390
0
  6
Continuous
 62
     7
100
AcDbLine
 10
4.299399
 20
-92.779289
 30
0.0
 11
4.299399
 21
-92.266771
 31
0.0
  0
LINE
  5
555
100
AcDbEntity
  8
0
390
0
  6
Continuous
 62
     7
100
AcDbLine
 10
-21.633626
 20
-92.779289
 30
0.0
 11
-21.633626
 21
-92.305439
 31
0.0
  0
LINE
  5
556
100
AcDbEntity
  8
0
390
0
  6
Continuous
 62
     7
100
AcDbLine
 10
36.971287
 20
-92.366011
 30
0.0
 11
36.971287
 21
-92.779289
 31
0.0
  0
LINE
  5
557
100
AcDbEntity
  8
0
390
0
  6
Continuous
 62
     7
100
AcDbLine
 10
-2.202566
 20
-92.779289
 30
0.0
 11
-2.202566
 21
-92.265637
 31
0.0
  0
LINE
  5
558
100
AcDbEntity
  8
0
390
0
  6
Continuous
 62
     7
100
AcDbLine
 10
-34.528713
 20
-92.366011
 30
0.0
 11
-34.528713
 21
-92.779289
 31
0.0
  0
LINE
  5
559
100
AcDbEntity
  8
0
390
0
  6
Continuous
 62
     7
100
AcDbLine
 10
-47.528713
 20
-92.366011
 30
0.0
 11
-47.528713
 21
-92.779289
 31
0.0
  0
LINE
  5
55A
100
AcDbEntity
  8
0
390
0
  6
Continuous
 62
     7
100
AcDbLine
 10
43.471287
 20
-92.366011
 30
0.0
 11
43.471287
 21
-92.779289
 31
0.0
  0
LINE
  5
55B
100
AcDbEntity
  8
0
390
0
  6
Continuous
 62
     7
100
AcDbLine
 10
-8.692335
 20
-92.779289
 30
0.0
 11
-8.692335
 21
-92.271544
 31
0.0
  0
LINE
  5
55C
100
AcDbEntity
  8
0
390
0
  6
Continuous
 62
     7
100
AcDbLine
 10
-17.34093
 20
-92.290749
 30
0.0
 11
-17.34093
 21
-92.779289
 31
0.0
  0
LINE
  5
55D
100
AcDbEntity
  8
0
390
0
  6
Continuous
 62
     7
100
AcDbLine
 10
28.082939
 20
-92.334703
 30
0.0
 11
28.082939
 21
-92.779289
 31
0.0
  0
LINE
  5
55E
100
AcDbEntity
  8
0
390
0
  6
Continuous
 62
     7
100
AcDbLine
 10
15.169615
 20
-92.284661
 30
0.0
 11
15.169615
 21
-92.779289
 31
0.0
  0
LINE
  5
55F
100
AcDbEntity
  8
0
390
0
  6
Continuous
 62
     7
100
AcDbLine
 10
-28.082939
 20
-92.779289
 30
0.0
 11
-28.082939
 21
-92.334703
 31
0.0
  0
LINE
  5
560
100
AcDbEntity
  8
0
390
0
  6
Continuous
 62
     7
100
AcDbLine
 10
-1.657622
 20
-69.579289
 30
0.0
 11
-0.821505
 21
-69.579289
 31
0.0
  0
LINE
  5
561
100
AcDbEntity
  8
0
390
0
  6
Continuous
 62
     7
100
AcDbLine
 10
-0.821505
 20
-69.579289
 30
0.0
 11
-0.821505
 21
-69.779289
 31
0.0
  0
LINE
  5
562
100
AcDbEntity
  8
0
390
0
  6
Continuous
 62
     7
100
AcDbLine
 10
0.340474
 20
-69.579289
 30
0.0
 11
1.176561
 21
-69.579289
 31
0.0
  0
LINE
  5
563
100
AcDbEntity
  8
0
390
0
  6
Continuous
 62
     7
100
AcDbLine
 10
1.176561
 20
-69.579289
 30
0.0
 11
1.176561
 21
-69.779289
 31
0.0
  0
LINE
  5
564
100
AcDbEntity
  8
0
390
0
  6
Continuous
 62
     7
100
AcDbLine
 10
-5.191998
 20
-69.579289
 30
0.0
 11
-5.191998
 21
-69.779289
 31
0.0
  0
LINE
  5
565
100
AcDbEntity
  8
0
390
0
  6
Continuous
 62
     7
100
AcDbLine
 10
-4.772084
 20
-69.579289
 30
0.0
 11
-4.772084
 21
-69.779289
 31
0.0
  0
LINE
  5
566
100
AcDbEntity
  8
0
390
0
  6
Continuous
 62
     7
100
AcDbLine
 10
-5.191998
 20
-69.579289
 30
0.0
 11
-4.772084
 21
-69.579289
 31
0.0
  0
LINE
  5
567
100
AcDbEntity
  8
0
390
0
  6
Continuous
 62
     7
100
AcDbLine
 10
1.176561
 20
-69.579289
 30
0.0
 11
2.404897
 21
-69.579289
 31
0.0
  0
LINE
  5
568
100
AcDbEntity
  8
0
390
0
  6
Continuous
 62
     7
100
AcDbLine
 10
2.404897
 20
-69.579289
 30
0.0
 11
2.404897
 21
-69.779289
 31
0.0
  0
LINE
  5
569
100
AcDbEntity
  8
0
390
0
  6
Continuous
 62
     7
100
AcDbLine
 10
4.819075
 20
-69.579289
 30
0.0
 11
4.819075
 21
-69.779289
 31
0.0
  0
LINE
  5
56A
100
AcDbEntity
  8
0
390
0
  6
Continuous
 62
     7
100
AcDbLine
 10
6.319075
 20
-69.579289
 30
0.0
 11
6.319075
 21
-69.779289
 31
0.0
  0
LINE
  5
56B
100
AcDbEntity
  8
0
390
0
  6
Continuous
 62
     7
100
AcDbLine
 10
4.819075
 20
-69.579289
 30
0.0
 11
6.319075
 21
-69.579289
 31
0.0
  0
LINE
  5
56C
100
AcDbEntity
  8
0
390
0
  6
Continuous
 62
     7
100
AcDbLine
 10
-0.821505
 20
-69.579289
 30
0.0
 11
0.340474
 21
-69.579289
 31
0.0
  0
LINE
  5
56D
100
AcDbEntity
  8
0
390
0
  6
Continuous
 62
     7
100
AcDbLine
 10
0.340474
 20
-69.579289
 30
0.0
 11
0.340474
 21
-69.779289
 31
0.0
  0
LINE
  5
56E
100
AcDbEntity
  8
0
390
0
  6
Continuous
 62
     7
100
AcDbLine
 10
-2.819519
 20
-69.579289
 30
0.0
 11
-2.819519
 21
-69.779289
 31
0.0
  0
LINE
  5
56F
100
AcDbEntity
  8
0
390
0
  6
Continuous
 62
     7
100
AcDbLine
 10
-2.819519
 20
-69.579289
 30
0.0
 11
-1.657622
 21
-69.579289
 31
0.0
  0
LINE
  5
570
100
AcDbEntity
  8
0
390
0
  6
Continuous
 62
     7
100
AcDbLine
 10
-1.657622
 20
-69.579289
 30
0.0
 11
-1.657622
 21
-69.779289
 31
0.0
  0
LINE
  5
571
100
AcDbEntity
  8
0
390
0
  6
Continuous
 62
     7
100
AcDbLine
 10
3.240983
 20
-69.579289
 30
0.0
 11
3.240983
 21
-69.779289
 31
0.0
  0
LINE
  5
572
100
AcDbEntity
  8
0
390
0
  6
Continuous
 62
     7
100
AcDbLine
 10
3.240983
 20
-69.579289
 30
0.0
 11
4.819075
 21
-69.579289
 31
0.0
  0
LINE
  5
573
100
AcDbEntity
  8
0
390
0
  6
Continuous
 62
     7
100
AcDbLine
 10
-6.35364
 20
-69.579289
 30
0.0
 11
-5.191998
 21
-69.579289
 31
0.0
  0
LINE
  5
574
100
AcDbEntity
  8
0
390
0
  6
Continuous
 62
     7
100
AcDbLine
 10
-6.35364
 20
-69.579289
 30
0.0
 11
-6.35364
 21
-69.779289
 31
0.0
  0
LINE
  5
575
100
AcDbEntity
  8
0
390
0
  6
Continuous
 62
     7
100
AcDbLine
 10
-4.0495
 20
-69.579289
 30
0.0
 11
-2.819519
 21
-69.579289
 31
0.0
  0
LINE
  5
576
100
AcDbEntity
  8
0
390
0
  6
Continuous
 62
     7
100
AcDbLine
 10
2.404897
 20
-69.579289
 30
0.0
 11
3.240983
 21
-69.579289
 31
0.0
  0
LINE
  5
577
100
AcDbEntity
  8
0
390
0
  6
Continuous
 62
     7
100
AcDbLine
 10
-4.0495
 20
-69.579289
 30
0.0
 11
-4.0495
 21
-69.779289
 31
0.0
  0
LINE
  5
578
100
AcDbEntity
  8
0
390
0
  6
Continuous
 62
     7
100
AcDbLine
 10
-4.772084
 20
-69.579289
 30
0.0
 11
-4.0495
 21
-69.579289
 31
0.0
  0
LINE
  5
579
100
AcDbEntity
  8
0
390
0
  6
Continuous
 62
     7
100
AcDbLine
 10
-50.778713
 20
-75.478845
 30
0.0
 11
-50.778713
 21
-77.821402
 31
0.0
  0
LINE
  5
57A
100
AcDbEntity
  8
0
390
0
  6
Continuous
 62
     7
100
AcDbLine
 10
-50.778713
 20
-86.737176
 30
0.0
 11
-50.778713
 21
-89.079732
 31
0.0
  0
LINE
  5
57B
100
AcDbEntity
  8
0
390
0
  6
Continuous
 62
     7
100
AcDbLine
 10
50.778713
 20
-77.821402
 30
0.0
 11
50.778713
 21
-75.478845
 31
0.0
  0
LINE
  5
57C
100
AcDbEntity
  8
0
390
0
  6
Continuous
 62
     7
100
AcDbLine
 10
50.778713
 20
-89.079732
 30
0.0
 11
50.778713
 21
-86.737176
 31
0.0
  0
LINE
  5
57D
100
AcDbEntity
  8
0
390
0
  6
Continuous
 62
     7
100
AcDbLine
 10
-33.361655
 20
-84.124368
 30
0.0
 11
-33.361655
 21
-80.434209
 31
0.0
  0
LINE
  5
57E
100
AcDbEntity
  8
0
390
0
  6
Continuous
 62
     7
100
AcDbLine
 10
33.361655
 20
-84.124368
 30
0.0
 11
33.361655
 21
-80.434209
 31
0.0
  0
LINE
  5
57F
100
AcDbEntity
  8
0
390
0
  6
Continuous
 62
     7
100
AcDbLine
 10
33.361655
 20
-72.866368
 30
0.0
 11
33.361655
 21
-71.779289
 31
0.0
  0
LINE
  5
580
100
AcDbEntity
  8
0
390
0
  6
Continuous
 62
     7
100
AcDbLine
 10
33.361655
 20
-92.779289
 30
0.0
 11
33.361655
 21
-91.692209
 31
0.0
  0
LINE
  5
581
100
AcDbEntity
  8
0
390
0
  6
Continuous
 62
     7
100
AcDbLine
 10
-33.361655
 20
-92.779289
 30
0.0
 11
-33.361655
 21
-91.692209
 31
0.0
  0
LINE
  5
582
100
AcDbEntity
  8
0
390
0
  6
Continuous
 62
     7
100
AcDbLine
 10
-33.361655
 20
-72.866368
 30
0.0
 11
-33.361655
 21
-71.779289
 31
0.0
  0
POINT
  5
583
100
AcDbEntity
  8
0
390
0
 62
     7
100
AcDbPoint
 10
0.0
 20
0.0
 30
0.0
  0
ENDSEC
  0
SECTION
  2
OBJECTS
  0
DICTIONARY
  5
19
100
AcDbDictionary
280
     0
281
     1
  3
ACAD_GROUP
350
1A
  3
ACAD_MLINESTYLE
350
1B
  3
ACAD_LAYOUT
350
1E
  3
ACAD_PLOTSETTINGS
350
22
  3
ACAD_PLOTSTYLENAME
350
1F
  3
ACAD_WIPEOUT_VARS
350
23
  0
DICTIONARY
  5
1A
102
{ACAD_REACTORS
330
19
102
}
100
AcDbDictionary
280
     0
281
     1
  0
DICTIONARY
  5
1B
102
{ACAD_REACTORS
330
19
102
}
100
AcDbDictionary
280
     0
281
     1
  3
Standard
350
1C
  0
MLINESTYLE
  5
1C
102
{ACAD_REACTORS
330
1B
102
}
100
AcDbMlineStyle
  2
Standard
 70
     0
  3

 62
     0
 51
90.0
 52
90.0
 71
     2
 49
0.5
 62
   256
  6
ByLayer
 49
-0.5
 62
   256
  6
ByLayer
  0
ACDBDICTIONARYWDFLT
  5
1F
102
{ACAD_REACTORS
330
19
102
}
100
AcDbDictionary
281
     1
  3
Normal
350
1D
100
AcDbDictionaryWithDefault
340
1D
  0
ACDBPLACEHOLDER
  5
1D
102
{ACAD_REACTORS
330
1F
102
}
  0
LAYOUT
  5
20
102
{ACAD_REACTORS
330
1E
102
}
100
AcDbPlotSettings
  1

  2

  4

  6

 40
0.0
 41
0.0
 42
0.0
 43
0.0
 44
0.0
 45
0.0
 46
0.0
 47
0.0
 48
0.0
 49
0.0
140
0.0
141
0.0
142
1.0
143
1.0
 70
  1024
 72
     0
 73
     0
 74
     0
  7

 75
     0
147
1.0
148
0.0
149
0.0
100
AcDbLayout
  1
Model
 70
     0
 71
     1
 10
0.0
 20
0.0
 11
0.0
 21
0.0
 12
0.0
 22
0.0
 32
0.0
 14
0.0
 24
0.0
 34
0.0
 15
0.0
 25
0.0
 35
0.0
146
0.0
 13
0.0
 23
0.0
 33
0.0
 16
0.0
 26
0.0
 36
0.0
 17
0.0
 27
0.0
 37
0.0
 76
     0
330
A
331
0
345
0
346
0
  0
LAYOUT
  5
21
102
{ACAD_REACTORS
330
1E
102
}
100
AcDbPlotSettings
  1

  2

  4

  6

 40
0.0
 41
0.0
 42
0.0
 43
0.0
 44
0.0
 45
0.0
 46
0.0
 47
0.0
 48
0.0
 49
0.0
140
0.0
141
0.0
142
1.0
143
1.0
 70
     0
 72
     0
 73
     0
 74
     0
  7

 75
     0
147
1.0
148
0.0
149
0.0
100
AcDbLayout
  1
Layout1
 70
     0
 71
     2
 10
0.0
 20
0.0
 11
0.0
 21
0.0
 12
0.0
 22
0.0
 32
0.0
 14
0.0
 24
0.0
 34
0.0
 15
0.0
 25
0.0
 35
0.0
146
0.0
 13
0.0
 23
0.0
 33
0.0
 16
0.0
 26
0.0
 36
0.0
 17
0.0
 27
0.0
 37
0.0
 76
     0
330
B
331
0
345
0
346
0
  0
DICTIONARY
  5
1E
102
{ACAD_REACTORS
330
19
102
}
100
AcDbDictionary
280
     0
281
     1
  3
Layout1
350
21
  3
Model
350
20
  0
DICTIONARY
  5
22
102
{ACAD_REACTORS
330
19
102
}
100
AcDbDictionary
280
     0
281
     1
  0
WIPEOUTVARIABLES
  5
23
100
AcDbWipeoutVariables
 70
     1
  0
ENDSEC
  0
EOF
