  0
SECTION
  2
HEADER
  9
$ACADVER
  1
AC1015
  9
$ACADMAINTVER
 70
     6
  9
$DWGCODEPAGE
  3
DOS932
  9
$INSBASE
 10
0.0
 20
0.0
 30
0.0
  9
$EXTMIN
 10
-32.8
 20
-166.55719
 30
0.0
  9
$EXTMAX
 10
163.650222
 20
28.60043
 30
9.906
  9
$LIMMIN
 10
-32.8
 20
-166.55719
  9
$LIMMAX
 10
163.650222
 20
28.60043
  9
$ORTHOMODE
 70
     0
  9
$REGENMODE
 70
     1
  9
$FILLMODE
 70
     1
  9
$QTEXTMODE
 70
     0
  9
$MIRRTEXT
 70
     1
  9
$LTSCALE
 40
10.0
  9
$ATTMODE
 70
     1
  9
$TEXTSIZE
 40
0.2
  9
$TRACEWID
 40
0.05
  9
$TEXTSTYLE
  7
Standard
  9
$CLAYER
  8
0
  9
$CELTYPE
  6
Continuous
  9
$CECOLOR
 62
   256
  9
$CELTSCALE
 40
1.0
  9
$DISPSILH
 70
     0
  9
$DIMSCALE
 40
1.0
  9
$DIMASZ
 40
1.40208
  9
$DIMEXO
 40
1.40208
  9
$DIMDLI
 40
0.38
  9
$DIMRND
 40
0.0
  9
$DIMDLE
 40
0.0
  9
$DIMEXE
 40
1.05156
  9
$DIMTP
 40
0.0
  9
$DIMTM
 40
0.0
  9
$DIMTXT
 40
3.5052
  9
$DIMCEN
 40
0.09
  9
$DIMTSZ
 40
0.0
  9
$DIMTOL
 70
     0
  9
$DIMLIM
 70
     0
  9
$DIMTIH
 70
     0
  9
$DIMTOH
 70
     0
  9
$DIMSE1
 70
     0
  9
$DIMSE2
 70
     0
  9
$DIMTAD
 70
     1
  9
$DIMZIN
 70
     0
  9
$DIMBLK
  1

  9
$DIMASO
 70
     1
  9
$DIMSHO
 70
     1
  9
$DIMPOST
  1

  9
$DIMAPOST
  1

  9
$DIMALT
 70
     0
  9
$DIMALTD
 70
     2
  9
$DIMALTF
 40
25.4
  9
$DIMLFAC
 40
1.0
  9
$DIMTOFL
 70
     0
  9
$DIMTVP
 40
0.0
  9
$DIMTIX
 70
     0
  9
$DIMSOXD
 70
     0
  9
$DIMSAH
 70
     0
  9
$DIMBLK1
  1

  9
$DIMBLK2
  1

  9
$DIMSTYLE
  2
Standard
  9
$DIMCLRD
 70
     7
  9
$DIMCLRE
 70
     7
  9
$DIMCLRT
 70
     7
  9
$DIMTFAC
 40
0.5
  9
$DIMGAP
 40
1.7526
  9
$DIMJUST
 70
     0
  9
$DIMSD1
 70
     0
  9
$DIMSD2
 70
     0
  9
$DIMTOLJ
 70
     1
  9
$DIMTZIN
 70
     0
  9
$DIMALTZ
 70
     0
  9
$DIMALTTZ
 70
     0
  9
$DIMUPT
 70
     0
  9
$DIMDEC
 70
     2
  9
$DIMTDEC
 70
     4
  9
$DIMALTU
 70
     2
  9
$DIMALTTD
 70
     2
  9
$DIMTXSTY
  7
Standard
  9
$DIMAUNIT
 70
     0
  9
$DIMADEC
 70
     0
  9
$DIMALTRND
 40
0.0
  9
$DIMAZIN
 70
     0
  9
$DIMDSEP
 70
     0
  9
$DIMATFIT
 70
     3
  9
$DIMFRAC
 70
     0
  9
$DIMLDRBLK
  1

  9
$DIMLUNIT
 70
     2
  9
$DIMLWD
 70
     0
  9
$DIMLWE
 70
     0
  9
$DIMTMOVE
 70
     0
  9
$LUNITS
 70
     2
  9
$LUPREC
 70
     4
  9
$SKETCHINC
 40
0.1
  9
$FILLETRAD
 40
0.0
  9
$AUNITS
 70
     0
  9
$AUPREC
 70
     0
  9
$MENU
  1
acad
  9
$ELEVATION
 40
0.0
  9
$PELEVATION
 40
0.0
  9
$THICKNESS
 40
0.0
  9
$LIMCHECK
 70
     0
  9
$CHAMFERA
 40
0.0
  9
$CHAMFERB
 40
0.0
  9
$CHAMFERC
 40
0.0
  9
$CHAMFERD
 40
0.0
  9
$SKPOLY
 70
     0
  9
$TDCREATE
 40
2459766.771377315
  9
$TDUCREATE
 40
0.000000000
  9
$TDUPDATE
 40
2459766.396250000
  9
$TDUUPDATE
 40
0.000000000
  9
$TDINDWG
 40
0.0000000000
  9
$TDUSRTIMER
 40
0.0000000000
  9
$USRTIMER
 70
     1
  9
$ANGBASE
 50
0.0
  9
$ANGDIR
 70
     0
  9
$PDMODE
 70
     0
  9
$PDSIZE
 40
0.0
  9
$PLINEWID
 40
0.0
  9
$SPLFRAME
 70
     0
  9
$SPLINETYPE
 70
     6
  9
$SPLINESEGS
 70
     8
  9
$HANDSEED
  5
1D4
  9
$SURFTAB1
 70
     6
  9
$SURFTAB2
 70
     6
  9
$SURFTYPE
 70
     6
  9
$SURFU
 70
     6
  9
$SURFV
 70
     6
  9
$UCSBASE
  2

  9
$UCSNAME
  2

  9
$UCSORG
 10
0.0
 20
0.0
 30
0.0
  9
$UCSXDIR
 10
1.0
 20
0.0
 30
0.0
  9
$UCSYDIR
 10
0.0
 20
1.0
 30
0.0
  9
$UCSORTHOREF
  2

  9
$UCSORTHOVIEW
 70
     0
  9
$UCSORGTOP
 10
0.0
 20
0.0
 30
0.0
  9
$UCSORGBOTTOM
 10
0.0
 20
0.0
 30
0.0
  9
$UCSORGLEFT
 10
0.0
 20
0.0
 30
0.0
  9
$UCSORGRIGHT
 10
0.0
 20
0.0
 30
0.0
  9
$UCSORGFRONT
 10
0.0
 20
0.0
 30
0.0
  9
$UCSORGBACK
 10
0.0
 20
0.0
 30
0.0
  9
$PUCSBASE
  2

  9
$PUCSNAME
  2

  9
$PUCSORG
 10
0.0
 20
0.0
 30
0.0
  9
$PUCSXDIR
 10
1.0
 20
0.0
 30
0.0
  9
$PUCSYDIR
 10
0.0
 20
1.0
 30
0.0
  9
$PUCSORTHOREF
  2

  9
$PUCSORTHOVIEW
 70
     0
  9
$PUCSORGTOP
 10
0.0
 20
0.0
 30
0.0
  9
$PUCSORGBOTTOM
 10
0.0
 20
0.0
 30
0.0
  9
$PUCSORGLEFT
 10
0.0
 20
0.0
 30
0.0
  9
$PUCSORGRIGHT
 10
0.0
 20
0.0
 30
0.0
  9
$PUCSORGFRONT
 10
0.0
 20
0.0
 30
0.0
  9
$PUCSORGBACK
 10
0.0
 20
0.0
 30
0.0
  9
$USERI1
 70
     0
  9
$USERI2
 70
     0
  9
$USERI3
 70
     0
  9
$USERI4
 70
     0
  9
$USERI5
 70
     0
  9
$USERR1
 40
0.0
  9
$USERR2
 40
0.0
  9
$USERR3
 40
0.0
  9
$USERR4
 40
0.0
  9
$USERR5
 40
0.0
  9
$WORLDVIEW
 70
     1
  9
$SHADEDGE
 70
     3
  9
$SHADEDIF
 70
    70
  9
$TILEMODE
 70
     1
  9
$MAXACTVP
 70
    16
  9
$PINSBASE
 10
0.0
 20
0.0
 30
0.0
  9
$PLIMCHECK
 70
     0
  9
$PEXTMIN
 10
1.000000E+20
 20
1.000000E+20
 30
1.000000E+20
  9
$PEXTMAX
 10
-1.000000E+20
 20
-1.000000E+20
 30
-1.000000E+20
  9
$PLIMMIN
 10
0.0
 20
0.0
  9
$PLIMMAX
 10
12.0
 20
9.0
  9
$UNITMODE
 70
     0
  9
$VISRETAIN
 70
     0
  9
$PLINEGEN
 70
     1
  9
$PSLTSCALE
 70
     0
  9
$TREEDEPTH
 70
  3020
  9
$CMLSTYLE
  2
Standard
  9
$CMLJUST
 70
     0
  9
$CMLSCALE
 40
1.0
  9
$PROXYGRAPHICS
 70
     0
  9
$MEASUREMENT
 70
     0
  9
$CELWEIGHT
370
     0
  9
$ENDCAPS
280
     0
  9
$JOINSTYLE
280
     0
  9
$LWDISPLAY
290
     0
  9
$INSUNITS
 70
     0
  9
$HYPERLINKBASE
  1

  9
$STYLESHEET
  1

  9
$XEDIT
290
     1
  9
$CEPSNTYPE
380
     0
  9
$PSTYLEMODE
290
     1
  9
$FINGERPRINTGUID
  2

  9
$VERSIONGUID
  2

  9
$EXTNAMES
290
     1
  9
$PSVPSCALE
 40
0.0
  0
ENDSEC
  0
SECTION
  2
CLASSES
  0
CLASS
  1
LWPOLYLINE
  2
AcDbPolyline
  3
AutoCAD 2000
 90
        0
280
     0
281
     1
  0
CLASS
  1
IMAGE
  2
AcDbRasterImage
  3
ISM
 90
      127
280
     0
281
     1
  0
CLASS
  1
OLE2FRAME
  2
AcDbOle2Frame
  3
AutoCAD 2000
 90
        0
280
     0
281
     1
  0
CLASS
  1
HATCH
  2
AcDbHatch
  3
AutoCAD 2000
 90
        0
280
     0
281
     1
  0
CLASS
  1
DICTIONARYVAR
  2
AcDbDictionaryVar
  3
AutoCAD 2000
 90
        0
280
     0
281
     0
  0
CLASS
  1
RASTERVARIABLES
  2
AcDbRasterVariables
  3
ISM
 90
        0
280
     0
281
     0
  0
CLASS
  1
IMAGEDEF
  2
AcDbRasterImageDef
  3
ISM
 90
        0
280
     0
281
     0
  0
CLASS
  1
IMAGEDEF_REACTOR
  2
AcDbRasterImageDefReactor
  3
ISM
 90
        1
280
     0
281
     0
  0
CLASS
  1
IDBUFFER
  2
AcDbIdBuffer
  3
AutoCAD 2000
 90
        0
280
     0
281
     0
  0
CLASS
  1
SPATIAL_FILTER
  2
AcDbSpatialFilter
  3
AutoCAD 2000
 90
        0
280
     0
281
     0
  0
CLASS
  1
XRECORD
  2
AcDbXrecord
  3
AutoCAD 2000
 90
        0
280
     0
281
     0
  0
CLASS
  1
SORTENTSTABLE
  2
AcDbSortentsTable
  3
AutoCAD 2000
 90
        0
280
     0
281
     0
  0
CLASS
  1
LAYER_INDEX
  2
AcDbLayerIndex
  3
AutoCAD 2000
 90
        0
280
     0
281
     0
  0
CLASS
  1
SPATIAL_INDEX
  2
AcDbSpatialIndex
  3
AutoCAD 2000
 90
        0
280
     0
281
     0
  0
CLASS
  1
OBJECT_PTR
  2
CAseDLPNTableRecord
  3
"ASE-LPNTableRecord"
 90
        1
280
     0
281
     0
  0
CLASS
  1
LAYOUT
  2
AcDbLayout
  3
AutoCAD 2000
 90
        0
280
     0
281
     0
  0
CLASS
  1
PLOTSETTINGS
  2
AcDbPlotSettings
  3
AutoCAD 2000
 90
        0
280
     0
281
     0
  0
CLASS
  1
ACDBDICTIONARYWDFLT
  2
AcDbDictionaryWithDefault
  3
AutoCAD 2000
 90
        0
280
     0
281
     0
  0
CLASS
  1
ACDBPLACEHOLDER
  2
AcDbPlaceHolder
  3
AutoCAD 2000
 90
        0
280
     0
281
     0
  0
CLASS
  1
VBA_PROJECT
  2
AcDbVbaProject
  3
acadvba
 90
        0
280
     0
281
     0
  0
CLASS
  1
WIPEOUT
  2
AcDbWipeout
  3
WipeOut|AutoCAD Express Tool|expresstools@autodesk.com
 90
      127
280
     0
281
     1
  0
CLASS
  1
WIPEOUTVARIABLES
  2
AcDbWipeoutVariables
  3
WipeOut|AutoCAD Express Tool|expresstools@autodesk.com
 90
        0
280
     0
281
     0
  0
CLASS
  1
RTEXT
  2
RText
  3
RText|AutoCAD Express Tool|expresstools@autodesk.com
 90
        0
280
     0
281
     1
  0
CLASS
  1
ARCALIGNEDTEXT
  2
AcDbArcAlignedText
  3
ATEXT|AutoCAD Express Tool|expresstools@autodesk.com
 90
        0
280
     0
281
     1
  0
ENDSEC
  0
SECTION
  2
TABLES
  0
TABLE
  2
VPORT
  5
7
100
AcDbSymbolTable
 70
     1
  0
VPORT
  5
15
100
AcDbSymbolTableRecord
100
AcDbViewportTableRecord
  2
*ACTIVE
 70
     0
 10
0.0
 20
0.0
 11
1.0
 21
1.0
 12
6.591288
 22
4.579184
 13
0.0
 23
0.0
 14
1.0
 24
1.0
 15
0.0
 25
0.0
 16
0.0
 26
0.0
 36
1.0
 17
0.0
 27
0.0
 37
0.0
 40
9.158369
 41
0.688564
 42
50.0
 43
0.0
 44
0.0
 50
0.0
 51
0.0
 71
     0
 72
   100
 73
     1
 74
     1
 75
     0
 76
     0
 77
     0
 78
     0
281
     0
 65
     0
110
0.0
120
0.0
130
0.0
111
1.0
121
0.0
131
0.0
112
0.0
122
1.0
132
0.0
345
0
346
0
 79
     0
146
0.0
  0
ENDTAB
  0
TABLE
  2
LTYPE
  5
4
100
AcDbSymbolTable
 70
     3
  0
LTYPE
  5
11
100
AcDbSymbolTableRecord
100
AcDbLinetypeTableRecord
  2
ByBlock
 70
    64
  3

 72
    65
 73
     0
 40
0.0
  0
LTYPE
  5
12
100
AcDbSymbolTableRecord
100
AcDbLinetypeTableRecord
  2
ByLayer
 70
    64
  3

 72
    65
 73
     0
 40
0.0
  0
LTYPE
  5
13
100
AcDbSymbolTableRecord
100
AcDbLinetypeTableRecord
  2
Continuous
 70
    64
  3
Solid line
 72
    65
 73
     0
 40
0.0
  0
ENDTAB
  0
TABLE
  2
LAYER
  5
2
100
AcDbSymbolTable
 70
     1
  0
LAYER
  5
14
100
AcDbSymbolTableRecord
100
AcDbLayerTableRecord
  2
0
 70
     0
 62
     7
  6
Continuous
290
     1
370
    -3
390
1D
  0
ENDTAB
  0
TABLE
  2
STYLE
  5
3
100
AcDbSymbolTable
 70
     1
  0
STYLE
  5
17
100
AcDbSymbolTableRecord
100
AcDbTextStyleTableRecord
  2
Standard
 70
     0
 40
0.0
 41
1.0
 50
0.0
 71
     0
 42
0.0
  3
FG教科書体NT-M
  4

1001
ACAD
1000
FG教科書体NT-M
1071
        0
  0
ENDTAB
  0
TABLE
  2
VIEW
  5
5
100
AcDbSymbolTable
 70
     0
  0
ENDTAB
  0
TABLE
  2
UCS
  5
6
100
AcDbSymbolTable
 70
     0
  0
ENDTAB
  0
TABLE
  2
APPID
  5
8
100
AcDbSymbolTable
 70
     2
  0
APPID
  5
16
100
AcDbSymbolTableRecord
100
AcDbRegAppTableRecord
  2
ACAD
 70
     0
  0
APPID
  5
26
100
AcDbSymbolTableRecord
100
AcDbRegAppTableRecord
  2
TOPsolid_Design
 70
     0
  0
ENDTAB
  0
TABLE
  2
DIMSTYLE
  5
9
100
AcDbSymbolTable
 70
     1
100
AcDbDimStyleTable
 71
     0
  0
DIMSTYLE
105
18
100
AcDbSymbolTableRecord
100
AcDbDimStyleTableRecord
  2
Standard
 70
     0
  3

  4

 40
1.0
 41
1.40208
 42
1.40208
 43
0.38
 44
1.05156
 45
0.0
 46
0.0
 47
0.0
 48
0.0
 71
     0
 72
     0
 73
     0
 74
     0
 75
     0
 76
     0
 77
     1
 78
     0
 79
     0
140
3.5052
141
0.09
142
0.0
143
25.4
144
1.0
145
0.0
146
0.5
147
1.7526
148
0.0
170
     0
171
     2
172
     0
173
     0
174
     0
175
     0
176
     7
177
     7
178
     7
179
     0
271
     2
272
     4
273
     2
274
     2
275
     0
276
     0
277
     2
278
    46
279
     0
280
     0
281
     0
282
     0
283
     1
284
     0
285
     0
286
     0
288
     0
289
     3
340
17
341
0
342
0
343
0
344
0
371
    -2
372
    -2
  0
ENDTAB
  0
TABLE
  2
BLOCK_RECORD
  5
1
100
AcDbSymbolTable
 70
     0
  0
BLOCK_RECORD
  5
A
100
AcDbSymbolTableRecord
100
AcDbBlockTableRecord
  2
*MODEL_SPACE
340
20
  0
BLOCK_RECORD
  5
B
100
AcDbSymbolTableRecord
100
AcDbBlockTableRecord
  2
*PAPER_SPACE
340
21
  0
ENDTAB
  0
ENDSEC
  0
SECTION
  2
BLOCKS
  0
BLOCK
  5
D
100
AcDbEntity
  8
0
390
0
100
AcDbBlockBegin
  2
*MODEL_SPACE
 70
     0
 10
0.0
 20
0.0
 30
0.0
  3
*MODEL_SPACE
  1

  0
ENDBLK
  5
E
100
AcDbEntity
  8
0
390
0
100
AcDbBlockEnd
  0
BLOCK
  5
F
100
AcDbEntity
 67
     1
  8
0
390
0
100
AcDbBlockBegin
  2
*PAPER_SPACE
 70
     0
 10
0.0
 20
0.0
 30
0.0
  3
*PAPER_SPACE
  1

  0
ENDBLK
  5
10
100
AcDbEntity
 67
     1
  8
0
390
0
100
AcDbBlockEnd
  0
ENDSEC
  0
SECTION
  2
ENTITIES
  0
LINE
  5
27
100
AcDbEntity
  8
0
390
0
  6
Continuous
 62
     7
100
AcDbLine
 10
27.922466
 20
-48.999445
 30
0.0
 11
27.922466
 21
-41.75
 31
0.0
  0
LINE
  5
28
100
AcDbEntity
  8
0
390
0
  6
Continuous
 62
     7
100
AcDbLine
 10
27.922466
 20
-41.75
 30
0.0
 11
32.799965
 21
-41.75
 31
0.0
  0
LINE
  5
29
100
AcDbEntity
  8
0
390
0
  6
Continuous
 62
     7
100
AcDbLine
 10
32.799965
 20
-41.75
 30
0.0
 11
32.799965
 21
-48.999445
 31
0.0
  0
POLYLINE
  5
2A
100
AcDbEntity
  8
0
390
0
  6
Continuous
 62
     7
100
AcDb2dPolyline
 66
     1
 10
0.0
 20
0.0
 30
0.0
 40
0.1
 41
0.1
  0
VERTEX
  5
2B
100
AcDbEntity
  8
0
390
0
 62
     7
100
AcDbVertex
100
AcDb2dVertex
 10
32.799965
 20
-48.999445
 30
0.0
 42
-0.100903
  0
VERTEX
  5
2C
100
AcDbEntity
  8
0
390
0
 62
     7
100
AcDbVertex
100
AcDb2dVertex
 10
30.766375
 20
-49.727544
 30
0.0
  0
VERTEX
  5
2D
100
AcDbEntity
  8
0
390
0
 62
     7
100
AcDbVertex
100
AcDb2dVertex
 10
30.361216
 20
-49.75
 30
0.0
  0
SEQEND
  5
2E
100
AcDbEntity
  8
0
390
0
  0
POLYLINE
  5
2F
100
AcDbEntity
  8
0
390
0
  6
Continuous
 62
     7
100
AcDb2dPolyline
 66
     1
 10
0.0
 20
0.0
 30
0.0
 40
0.1
 41
0.1
  0
VERTEX
  5
30
100
AcDbEntity
  8
0
390
0
 62
     7
100
AcDbVertex
100
AcDb2dVertex
 10
30.361216
 20
-49.75
 30
0.0
  0
VERTEX
  5
31
100
AcDbEntity
  8
0
390
0
 62
     7
100
AcDbVertex
100
AcDb2dVertex
 10
29.955646
 20
-49.727486
 30
0.0
 42
-0.106747
  0
VERTEX
  5
32
100
AcDbEntity
  8
0
390
0
 62
     7
100
AcDbVertex
100
AcDb2dVertex
 10
27.922466
 20
-48.999445
 30
0.0
  0
SEQEND
  5
33
100
AcDbEntity
  8
0
390
0
  0
LINE
  5
34
100
AcDbEntity
  8
0
390
0
  6
Continuous
 62
     7
100
AcDbLine
 10
18.1225
 20
-48.999445
 30
0.0
 11
18.1225
 21
-41.75
 31
0.0
  0
LINE
  5
35
100
AcDbEntity
  8
0
390
0
  6
Continuous
 62
     7
100
AcDbLine
 10
18.1225
 20
-41.75
 30
0.0
 11
27.877499
 21
-41.75
 31
0.0
  0
LINE
  5
36
100
AcDbEntity
  8
0
390
0
  6
Continuous
 62
     7
100
AcDbLine
 10
27.877499
 20
-41.75
 30
0.0
 11
27.877499
 21
-48.999445
 31
0.0
  0
ARC
  5
37
100
AcDbEntity
  8
0
390
0
  6
Continuous
 62
     7
100
AcDbCircle
 10
22.807516
 20
-32.275595
 30
0.0
 40
17.475465
210
0.0
220
0.0
230
1.0
100
AcDbArc
 50
270.631099
 51
286.865146
  0
ARC
  5
38
100
AcDbEntity
  8
0
390
0
  6
Continuous
 62
     7
100
AcDbCircle
 10
23.192824
 20
-32.273388
 30
0.0
 40
17.477676
210
0.0
220
0.0
230
1.0
100
AcDbArc
 50
253.135888
 51
269.367867
  0
LINE
  5
39
100
AcDbEntity
  8
0
390
0
  6
Continuous
 62
     7
100
AcDbLine
 10
18.077533
 20
-41.75
 30
0.0
 11
18.077533
 21
-48.999445
 31
0.0
  0
LINE
  5
3A
100
AcDbEntity
  8
0
390
0
  6
Continuous
 62
     7
100
AcDbLine
 10
13.200034
 20
-41.75
 30
0.0
 11
18.077533
 21
-41.75
 31
0.0
  0
LINE
  5
3B
100
AcDbEntity
  8
0
390
0
  6
Continuous
 62
     7
100
AcDbLine
 10
13.200034
 20
-48.999445
 30
0.0
 11
13.200034
 21
-41.75
 31
0.0
  0
POLYLINE
  5
3C
100
AcDbEntity
  8
0
390
0
  6
Continuous
 62
     7
100
AcDb2dPolyline
 66
     1
 10
0.0
 20
0.0
 30
0.0
 40
0.1
 41
0.1
  0
VERTEX
  5
3D
100
AcDbEntity
  8
0
390
0
 62
     7
100
AcDbVertex
100
AcDb2dVertex
 10
15.638784
 20
-49.75
 30
0.0
  0
VERTEX
  5
3E
100
AcDbEntity
  8
0
390
0
 62
     7
100
AcDbVertex
100
AcDb2dVertex
 10
15.232523
 20
-49.727409
 30
0.0
 42
-0.106673
  0
VERTEX
  5
3F
100
AcDbEntity
  8
0
390
0
 62
     7
100
AcDbVertex
100
AcDb2dVertex
 10
13.200034
 20
-48.999445
 30
0.0
  0
SEQEND
  5
40
100
AcDbEntity
  8
0
390
0
  0
POLYLINE
  5
41
100
AcDbEntity
  8
0
390
0
  6
Continuous
 62
     7
100
AcDb2dPolyline
 66
     1
 10
0.0
 20
0.0
 30
0.0
 40
0.1
 41
0.1
  0
VERTEX
  5
42
100
AcDbEntity
  8
0
390
0
 62
     7
100
AcDbVertex
100
AcDb2dVertex
 10
18.077533
 20
-48.999445
 30
0.0
 42
-0.100817
  0
VERTEX
  5
43
100
AcDbEntity
  8
0
390
0
 62
     7
100
AcDbVertex
100
AcDb2dVertex
 10
16.04489
 20
-49.727438
 30
0.0
  0
VERTEX
  5
44
100
AcDbEntity
  8
0
390
0
 62
     7
100
AcDbVertex
100
AcDb2dVertex
 10
15.638784
 20
-49.75
 30
0.0
  0
SEQEND
  5
45
100
AcDbEntity
  8
0
390
0
  0
LINE
  5
46
100
AcDbEntity
  8
0
390
0
  6
Continuous
 62
     7
100
AcDbLine
 10
18.077533
 20
-41.75
 30
0.0
 11
13.200034
 21
-41.75
 31
0.0
  0
LINE
  5
47
100
AcDbEntity
  8
0
390
0
  6
Continuous
 62
     7
100
AcDbLine
 10
18.1225
 20
-41.75
 30
0.0
 11
18.077533
 21
-41.75
 31
0.0
  0
LINE
  5
48
100
AcDbEntity
  8
0
390
0
  6
Continuous
 62
     7
100
AcDbLine
 10
27.877499
 20
-41.75
 30
0.0
 11
18.1225
 21
-41.75
 31
0.0
  0
LINE
  5
49
100
AcDbEntity
  8
0
390
0
  6
Continuous
 62
     7
100
AcDbLine
 10
27.922466
 20
-41.75
 30
0.0
 11
27.877499
 21
-41.75
 31
0.0
  0
LINE
  5
4A
100
AcDbEntity
  8
0
390
0
  6
Continuous
 62
     7
100
AcDbLine
 10
32.799965
 20
-41.75
 30
0.0
 11
27.922466
 21
-41.75
 31
0.0
  0
LINE
  5
4B
100
AcDbEntity
  8
0
390
0
  6
Continuous
 62
     7
100
AcDbLine
 10
27.877499
 20
-41.75
 30
0.0
 11
27.877499
 21
-48.999445
 31
0.0
  0
LINE
  5
4C
100
AcDbEntity
  8
0
390
0
  6
Continuous
 62
     7
100
AcDbLine
 10
27.922466
 20
-41.75
 30
0.0
 11
27.877499
 21
-41.75
 31
0.0
  0
LINE
  5
4D
100
AcDbEntity
  8
0
390
0
  6
Continuous
 62
     7
100
AcDbLine
 10
27.922466
 20
-48.999445
 30
0.0
 11
27.922466
 21
-41.75
 31
0.0
  0
LINE
  5
4E
100
AcDbEntity
  8
0
390
0
  6
Continuous
 62
     7
100
AcDbLine
 10
27.877499
 20
-48.999445
 30
0.0
 11
27.922466
 21
-48.999445
 31
0.0
  0
POLYLINE
  5
4F
100
AcDbEntity
  8
0
390
0
  6
Continuous
 62
     7
100
AcDb2dPolyline
 66
     1
 10
0.0
 20
0.0
 30
0.0
 40
0.1
 41
0.1
  0
VERTEX
  5
50
100
AcDbEntity
  8
0
390
0
 62
     7
100
AcDbVertex
100
AcDb2dVertex
 10
30.361216
 20
-49.75
 30
0.0
  0
VERTEX
  5
51
100
AcDbEntity
  8
0
390
0
 62
     7
100
AcDbVertex
100
AcDb2dVertex
 10
29.95224
 20
-49.727504
 30
0.0
 42
-0.106303
  0
VERTEX
  5
52
100
AcDbEntity
  8
0
390
0
 62
     7
100
AcDbVertex
100
AcDb2dVertex
 10
27.922466
 20
-48.999445
 30
0.0
  0
SEQEND
  5
53
100
AcDbEntity
  8
0
390
0
  0
LINE
  5
54
100
AcDbEntity
  8
0
390
0
  6
Continuous
 62
     7
100
AcDbLine
 10
23.0
 20
-49.75
 30
0.0
 11
30.361216
 21
-49.75
 31
0.0
  0
ARC
  5
55
100
AcDbEntity
  8
0
390
0
  6
Continuous
 62
     7
100
AcDbCircle
 10
22.807516
 20
-32.275595
 30
0.0
 40
17.475465
210
0.0
220
0.0
230
1.0
100
AcDbArc
 50
270.631099
 51
286.865146
  0
LINE
  5
56
100
AcDbEntity
  8
0
390
0
  6
Continuous
 62
     7
100
AcDbLine
 10
27.922466
 20
-48.999445
 30
0.0
 11
27.877499
 21
-48.999445
 31
0.0
  0
LINE
  5
57
100
AcDbEntity
  8
0
390
0
  6
Continuous
 62
     7
100
AcDbLine
 10
14.5
 20
-49.75
 30
0.0
 11
15.638784
 21
-49.75
 31
0.0
  0
LINE
  5
58
100
AcDbEntity
  8
0
390
0
  6
Continuous
 62
     7
100
AcDbLine
 10
30.361216
 20
-49.75
 30
0.0
 11
31.5
 21
-49.75
 31
0.0
  0
LINE
  5
59
100
AcDbEntity
  8
0
390
0
  6
Continuous
 62
     7
100
AcDbLine
 10
15.638784
 20
-49.75
 30
0.0
 11
23.0
 21
-49.75
 31
0.0
  0
LINE
  5
5A
100
AcDbEntity
  8
0
390
0
  6
Continuous
 62
     7
100
AcDbLine
 10
23.0
 20
-49.75
 30
0.0
 11
30.361216
 21
-49.75
 31
0.0
  0
LINE
  5
5B
100
AcDbEntity
  8
0
390
0
  6
Continuous
 62
     7
100
AcDbLine
 10
13.200034
 20
-48.999445
 30
0.0
 11
13.200034
 21
-41.75
 31
0.0
  0
LINE
  5
5C
100
AcDbEntity
  8
0
390
0
  6
Continuous
 62
     7
100
AcDbLine
 10
18.077533
 20
-41.75
 30
0.0
 11
18.077533
 21
-48.999445
 31
0.0
  0
LINE
  5
5D
100
AcDbEntity
  8
0
390
0
  6
Continuous
 62
     7
100
AcDbLine
 10
18.1225
 20
-41.75
 30
0.0
 11
18.077533
 21
-41.75
 31
0.0
  0
LINE
  5
5E
100
AcDbEntity
  8
0
390
0
  6
Continuous
 62
     7
100
AcDbLine
 10
18.1225
 20
-48.999445
 30
0.0
 11
18.1225
 21
-41.75
 31
0.0
  0
LINE
  5
5F
100
AcDbEntity
  8
0
390
0
  6
Continuous
 62
     7
100
AcDbLine
 10
18.077533
 20
-48.999445
 30
0.0
 11
18.1225
 21
-48.999445
 31
0.0
  0
LINE
  5
60
100
AcDbEntity
  8
0
390
0
  6
Continuous
 62
     7
100
AcDbLine
 10
32.799965
 20
-41.75
 30
0.0
 11
32.799965
 21
-48.999445
 31
0.0
  0
LINE
  5
61
100
AcDbEntity
  8
0
390
0
  6
Continuous
 62
     7
100
AcDbLine
 10
14.5
 20
-49.75
 30
0.0
 11
15.638784
 21
-49.75
 31
0.0
  0
POLYLINE
  5
62
100
AcDbEntity
  8
0
390
0
  6
Continuous
 62
     7
100
AcDb2dPolyline
 66
     1
 10
0.0
 20
0.0
 30
0.0
 40
0.1
 41
0.1
  0
VERTEX
  5
63
100
AcDbEntity
  8
0
390
0
 62
     7
100
AcDbVertex
100
AcDb2dVertex
 10
15.638784
 20
-49.75
 30
0.0
  0
VERTEX
  5
64
100
AcDbEntity
  8
0
390
0
 62
     7
100
AcDbVertex
100
AcDb2dVertex
 10
15.229551
 20
-49.727427
 30
0.0
 42
-0.106284
  0
VERTEX
  5
65
100
AcDbEntity
  8
0
390
0
 62
     7
100
AcDbVertex
100
AcDb2dVertex
 10
13.200034
 20
-48.999445
 30
0.0
  0
SEQEND
  5
66
100
AcDbEntity
  8
0
390
0
  0
ARC
  5
67
100
AcDbEntity
  8
0
390
0
  6
Continuous
 62
     7
100
AcDbCircle
 10
23.192824
 20
-32.273388
 30
0.0
 40
17.477676
210
0.0
220
0.0
230
1.0
100
AcDbArc
 50
253.135888
 51
269.367867
  0
LINE
  5
68
100
AcDbEntity
  8
0
390
0
  6
Continuous
 62
     7
100
AcDbLine
 10
15.638784
 20
-49.75
 30
0.0
 11
23.0
 21
-49.75
 31
0.0
  0
POLYLINE
  5
69
100
AcDbEntity
  8
0
390
0
  6
Continuous
 62
     7
100
AcDb2dPolyline
 66
     1
 10
0.0
 20
0.0
 30
0.0
 40
0.1
 41
0.1
  0
VERTEX
  5
6A
100
AcDbEntity
  8
0
390
0
 62
     7
100
AcDbVertex
100
AcDb2dVertex
 10
18.077533
 20
-48.999445
 30
0.0
 42
-0.100612
  0
VERTEX
  5
6B
100
AcDbEntity
  8
0
390
0
 62
     7
100
AcDbVertex
100
AcDb2dVertex
 10
16.048202
 20
-49.727456
 30
0.0
  0
VERTEX
  5
6C
100
AcDbEntity
  8
0
390
0
 62
     7
100
AcDbVertex
100
AcDb2dVertex
 10
15.638784
 20
-49.75
 30
0.0
  0
SEQEND
  5
6D
100
AcDbEntity
  8
0
390
0
  0
LINE
  5
6E
100
AcDbEntity
  8
0
390
0
  6
Continuous
 62
     7
100
AcDbLine
 10
18.1225
 20
-48.999445
 30
0.0
 11
18.077533
 21
-48.999445
 31
0.0
  0
LINE
  5
6F
100
AcDbEntity
  8
0
390
0
  6
Continuous
 62
     7
100
AcDbLine
 10
30.361216
 20
-49.75
 30
0.0
 11
31.5
 21
-49.75
 31
0.0
  0
POLYLINE
  5
70
100
AcDbEntity
  8
0
390
0
  6
Continuous
 62
     7
100
AcDb2dPolyline
 66
     1
 10
0.0
 20
0.0
 30
0.0
 40
0.1
 41
0.1
  0
VERTEX
  5
71
100
AcDbEntity
  8
0
390
0
 62
     7
100
AcDbVertex
100
AcDb2dVertex
 10
32.799965
 20
-48.999445
 30
0.0
 42
-0.100652
  0
VERTEX
  5
72
100
AcDbEntity
  8
0
390
0
 62
     7
100
AcDbVertex
100
AcDb2dVertex
 10
30.76922
 20
-49.727562
 30
0.0
  0
VERTEX
  5
73
100
AcDbEntity
  8
0
390
0
 62
     7
100
AcDbVertex
100
AcDb2dVertex
 10
30.361216
 20
-49.75
 30
0.0
  0
SEQEND
  5
74
100
AcDbEntity
  8
0
390
0
  0
LINE
  5
75
100
AcDbEntity
  8
0
390
0
  6
Continuous
 62
     7
100
AcDbLine
 10
-18.077534
 20
-48.999445
 30
0.0
 11
-18.077534
 21
-41.75
 31
0.0
  0
LINE
  5
76
100
AcDbEntity
  8
0
390
0
  6
Continuous
 62
     7
100
AcDbLine
 10
-18.077534
 20
-41.75
 30
0.0
 11
-13.200035
 21
-41.75
 31
0.0
  0
LINE
  5
77
100
AcDbEntity
  8
0
390
0
  6
Continuous
 62
     7
100
AcDbLine
 10
-13.200035
 20
-41.75
 30
0.0
 11
-13.200035
 21
-48.999445
 31
0.0
  0
POLYLINE
  5
78
100
AcDbEntity
  8
0
390
0
  6
Continuous
 62
     7
100
AcDb2dPolyline
 66
     1
 10
0.0
 20
0.0
 30
0.0
 40
0.1
 41
0.1
  0
VERTEX
  5
79
100
AcDbEntity
  8
0
390
0
 62
     7
100
AcDbVertex
100
AcDb2dVertex
 10
-13.200035
 20
-48.999445
 30
0.0
 42
-0.100903
  0
VERTEX
  5
7A
100
AcDbEntity
  8
0
390
0
 62
     7
100
AcDbVertex
100
AcDb2dVertex
 10
-15.233625
 20
-49.727544
 30
0.0
  0
VERTEX
  5
7B
100
AcDbEntity
  8
0
390
0
 62
     7
100
AcDbVertex
100
AcDb2dVertex
 10
-15.638784
 20
-49.75
 30
0.0
  0
SEQEND
  5
7C
100
AcDbEntity
  8
0
390
0
  0
POLYLINE
  5
7D
100
AcDbEntity
  8
0
390
0
  6
Continuous
 62
     7
100
AcDb2dPolyline
 66
     1
 10
0.0
 20
0.0
 30
0.0
 40
0.1
 41
0.1
  0
VERTEX
  5
7E
100
AcDbEntity
  8
0
390
0
 62
     7
100
AcDbVertex
100
AcDb2dVertex
 10
-15.638784
 20
-49.75
 30
0.0
  0
VERTEX
  5
7F
100
AcDbEntity
  8
0
390
0
 62
     7
100
AcDbVertex
100
AcDb2dVertex
 10
-16.044354
 20
-49.727486
 30
0.0
 42
-0.106747
  0
VERTEX
  5
80
100
AcDbEntity
  8
0
390
0
 62
     7
100
AcDbVertex
100
AcDb2dVertex
 10
-18.077534
 20
-48.999445
 30
0.0
  0
SEQEND
  5
81
100
AcDbEntity
  8
0
390
0
  0
LINE
  5
82
100
AcDbEntity
  8
0
390
0
  6
Continuous
 62
     7
100
AcDbLine
 10
-18.122501
 20
-41.75
 30
0.0
 11
-18.122501
 21
-48.999445
 31
0.0
  0
LINE
  5
83
100
AcDbEntity
  8
0
390
0
  6
Continuous
 62
     7
100
AcDbLine
 10
-27.8775
 20
-41.75
 30
0.0
 11
-18.122501
 21
-41.75
 31
0.0
  0
LINE
  5
84
100
AcDbEntity
  8
0
390
0
  6
Continuous
 62
     7
100
AcDbLine
 10
-27.8775
 20
-48.999445
 30
0.0
 11
-27.8775
 21
-41.75
 31
0.0
  0
ARC
  5
85
100
AcDbEntity
  8
0
390
0
  6
Continuous
 62
     7
100
AcDbCircle
 10
-22.807176
 20
-32.273388
 30
0.0
 40
17.477676
210
0.0
220
0.0
230
1.0
100
AcDbArc
 50
253.135888
 51
269.367867
  0
ARC
  5
86
100
AcDbEntity
  8
0
390
0
  6
Continuous
 62
     7
100
AcDbCircle
 10
-23.192484
 20
-32.275595
 30
0.0
 40
17.475465
210
0.0
220
0.0
230
1.0
100
AcDbArc
 50
270.631099
 51
286.865146
  0
LINE
  5
87
100
AcDbEntity
  8
0
390
0
  6
Continuous
 62
     7
100
AcDbLine
 10
-27.922467
 20
-41.75
 30
0.0
 11
-27.922467
 21
-48.999445
 31
0.0
  0
LINE
  5
88
100
AcDbEntity
  8
0
390
0
  6
Continuous
 62
     7
100
AcDbLine
 10
-32.799966
 20
-41.75
 30
0.0
 11
-27.922467
 21
-41.75
 31
0.0
  0
LINE
  5
89
100
AcDbEntity
  8
0
390
0
  6
Continuous
 62
     7
100
AcDbLine
 10
-32.799966
 20
-48.999445
 30
0.0
 11
-32.799966
 21
-41.75
 31
0.0
  0
POLYLINE
  5
8A
100
AcDbEntity
  8
0
390
0
  6
Continuous
 62
     7
100
AcDb2dPolyline
 66
     1
 10
0.0
 20
0.0
 30
0.0
 40
0.1
 41
0.1
  0
VERTEX
  5
8B
100
AcDbEntity
  8
0
390
0
 62
     7
100
AcDbVertex
100
AcDb2dVertex
 10
-30.361216
 20
-49.75
 30
0.0
  0
VERTEX
  5
8C
100
AcDbEntity
  8
0
390
0
 62
     7
100
AcDbVertex
100
AcDb2dVertex
 10
-30.767477
 20
-49.727409
 30
0.0
 42
-0.106673
  0
VERTEX
  5
8D
100
AcDbEntity
  8
0
390
0
 62
     7
100
AcDbVertex
100
AcDb2dVertex
 10
-32.799966
 20
-48.999445
 30
0.0
  0
SEQEND
  5
8E
100
AcDbEntity
  8
0
390
0
  0
POLYLINE
  5
8F
100
AcDbEntity
  8
0
390
0
  6
Continuous
 62
     7
100
AcDb2dPolyline
 66
     1
 10
0.0
 20
0.0
 30
0.0
 40
0.1
 41
0.1
  0
VERTEX
  5
90
100
AcDbEntity
  8
0
390
0
 62
     7
100
AcDbVertex
100
AcDb2dVertex
 10
-27.922467
 20
-48.999445
 30
0.0
 42
-0.100817
  0
VERTEX
  5
91
100
AcDbEntity
  8
0
390
0
 62
     7
100
AcDbVertex
100
AcDb2dVertex
 10
-29.95511
 20
-49.727438
 30
0.0
  0
VERTEX
  5
92
100
AcDbEntity
  8
0
390
0
 62
     7
100
AcDbVertex
100
AcDb2dVertex
 10
-30.361216
 20
-49.75
 30
0.0
  0
SEQEND
  5
93
100
AcDbEntity
  8
0
390
0
  0
LINE
  5
94
100
AcDbEntity
  8
0
390
0
  6
Continuous
 62
     7
100
AcDbLine
 10
-13.200035
 20
-41.75
 30
0.0
 11
-18.077534
 21
-41.75
 31
0.0
  0
LINE
  5
95
100
AcDbEntity
  8
0
390
0
  6
Continuous
 62
     7
100
AcDbLine
 10
-18.077534
 20
-41.75
 30
0.0
 11
-18.122501
 21
-41.75
 31
0.0
  0
LINE
  5
96
100
AcDbEntity
  8
0
390
0
  6
Continuous
 62
     7
100
AcDbLine
 10
-18.122501
 20
-41.75
 30
0.0
 11
-27.8775
 21
-41.75
 31
0.0
  0
LINE
  5
97
100
AcDbEntity
  8
0
390
0
  6
Continuous
 62
     7
100
AcDbLine
 10
-27.8775
 20
-41.75
 30
0.0
 11
-27.922467
 21
-41.75
 31
0.0
  0
LINE
  5
98
100
AcDbEntity
  8
0
390
0
  6
Continuous
 62
     7
100
AcDbLine
 10
-27.922467
 20
-41.75
 30
0.0
 11
-32.799966
 21
-41.75
 31
0.0
  0
LINE
  5
99
100
AcDbEntity
  8
0
390
0
  6
Continuous
 62
     7
100
AcDbLine
 10
-18.122501
 20
-41.75
 30
0.0
 11
-18.122501
 21
-48.999445
 31
0.0
  0
LINE
  5
9A
100
AcDbEntity
  8
0
390
0
  6
Continuous
 62
     7
100
AcDbLine
 10
-18.077534
 20
-41.75
 30
0.0
 11
-18.122501
 21
-41.75
 31
0.0
  0
LINE
  5
9B
100
AcDbEntity
  8
0
390
0
  6
Continuous
 62
     7
100
AcDbLine
 10
-18.077534
 20
-48.999445
 30
0.0
 11
-18.077534
 21
-41.75
 31
0.0
  0
LINE
  5
9C
100
AcDbEntity
  8
0
390
0
  6
Continuous
 62
     7
100
AcDbLine
 10
-18.122501
 20
-48.999445
 30
0.0
 11
-18.077534
 21
-48.999445
 31
0.0
  0
LINE
  5
9D
100
AcDbEntity
  8
0
390
0
  6
Continuous
 62
     7
100
AcDbLine
 10
-23.0
 20
-49.75
 30
0.0
 11
-15.638784
 21
-49.75
 31
0.0
  0
POLYLINE
  5
9E
100
AcDbEntity
  8
0
390
0
  6
Continuous
 62
     7
100
AcDb2dPolyline
 66
     1
 10
0.0
 20
0.0
 30
0.0
 40
0.1
 41
0.1
  0
VERTEX
  5
9F
100
AcDbEntity
  8
0
390
0
 62
     7
100
AcDbVertex
100
AcDb2dVertex
 10
-15.638784
 20
-49.75
 30
0.0
  0
VERTEX
  5
A0
100
AcDbEntity
  8
0
390
0
 62
     7
100
AcDbVertex
100
AcDb2dVertex
 10
-16.04776
 20
-49.727504
 30
0.0
 42
-0.106303
  0
VERTEX
  5
A1
100
AcDbEntity
  8
0
390
0
 62
     7
100
AcDbVertex
100
AcDb2dVertex
 10
-18.077534
 20
-48.999445
 30
0.0
  0
SEQEND
  5
A2
100
AcDbEntity
  8
0
390
0
  0
LINE
  5
A3
100
AcDbEntity
  8
0
390
0
  6
Continuous
 62
     7
100
AcDbLine
 10
-18.077534
 20
-48.999445
 30
0.0
 11
-18.122501
 21
-48.999445
 31
0.0
  0
ARC
  5
A4
100
AcDbEntity
  8
0
390
0
  6
Continuous
 62
     7
100
AcDbCircle
 10
-23.192484
 20
-32.275595
 30
0.0
 40
17.475465
210
0.0
220
0.0
230
1.0
100
AcDbArc
 50
270.631099
 51
286.865146
  0
LINE
  5
A5
100
AcDbEntity
  8
0
390
0
  6
Continuous
 62
     7
100
AcDbLine
 10
-31.5
 20
-49.75
 30
0.0
 11
-30.361216
 21
-49.75
 31
0.0
  0
LINE
  5
A6
100
AcDbEntity
  8
0
390
0
  6
Continuous
 62
     7
100
AcDbLine
 10
-15.638784
 20
-49.75
 30
0.0
 11
-14.5
 21
-49.75
 31
0.0
  0
LINE
  5
A7
100
AcDbEntity
  8
0
390
0
  6
Continuous
 62
     7
100
AcDbLine
 10
-30.361216
 20
-49.75
 30
0.0
 11
-23.0
 21
-49.75
 31
0.0
  0
LINE
  5
A8
100
AcDbEntity
  8
0
390
0
  6
Continuous
 62
     7
100
AcDbLine
 10
-23.0
 20
-49.75
 30
0.0
 11
-15.638784
 21
-49.75
 31
0.0
  0
LINE
  5
A9
100
AcDbEntity
  8
0
390
0
  6
Continuous
 62
     7
100
AcDbLine
 10
-32.799966
 20
-48.999445
 30
0.0
 11
-32.799966
 21
-41.75
 31
0.0
  0
LINE
  5
AA
100
AcDbEntity
  8
0
390
0
  6
Continuous
 62
     7
100
AcDbLine
 10
-27.922467
 20
-41.75
 30
0.0
 11
-27.922467
 21
-48.999445
 31
0.0
  0
LINE
  5
AB
100
AcDbEntity
  8
0
390
0
  6
Continuous
 62
     7
100
AcDbLine
 10
-27.8775
 20
-41.75
 30
0.0
 11
-27.922467
 21
-41.75
 31
0.0
  0
LINE
  5
AC
100
AcDbEntity
  8
0
390
0
  6
Continuous
 62
     7
100
AcDbLine
 10
-27.8775
 20
-48.999445
 30
0.0
 11
-27.8775
 21
-41.75
 31
0.0
  0
LINE
  5
AD
100
AcDbEntity
  8
0
390
0
  6
Continuous
 62
     7
100
AcDbLine
 10
-27.922467
 20
-48.999445
 30
0.0
 11
-27.8775
 21
-48.999445
 31
0.0
  0
LINE
  5
AE
100
AcDbEntity
  8
0
390
0
  6
Continuous
 62
     7
100
AcDbLine
 10
-13.200035
 20
-41.75
 30
0.0
 11
-13.200035
 21
-48.999445
 31
0.0
  0
LINE
  5
AF
100
AcDbEntity
  8
0
390
0
  6
Continuous
 62
     7
100
AcDbLine
 10
-31.5
 20
-49.75
 30
0.0
 11
-30.361216
 21
-49.75
 31
0.0
  0
POLYLINE
  5
B0
100
AcDbEntity
  8
0
390
0
  6
Continuous
 62
     7
100
AcDb2dPolyline
 66
     1
 10
0.0
 20
0.0
 30
0.0
 40
0.1
 41
0.1
  0
VERTEX
  5
B1
100
AcDbEntity
  8
0
390
0
 62
     7
100
AcDbVertex
100
AcDb2dVertex
 10
-30.361216
 20
-49.75
 30
0.0
  0
VERTEX
  5
B2
100
AcDbEntity
  8
0
390
0
 62
     7
100
AcDbVertex
100
AcDb2dVertex
 10
-30.770449
 20
-49.727427
 30
0.0
 42
-0.106284
  0
VERTEX
  5
B3
100
AcDbEntity
  8
0
390
0
 62
     7
100
AcDbVertex
100
AcDb2dVertex
 10
-32.799966
 20
-48.999445
 30
0.0
  0
SEQEND
  5
B4
100
AcDbEntity
  8
0
390
0
  0
LINE
  5
B5
100
AcDbEntity
  8
0
390
0
  6
Continuous
 62
     7
100
AcDbLine
 10
-30.361216
 20
-49.75
 30
0.0
 11
-23.0
 21
-49.75
 31
0.0
  0
ARC
  5
B6
100
AcDbEntity
  8
0
390
0
  6
Continuous
 62
     7
100
AcDbCircle
 10
-22.807176
 20
-32.273388
 30
0.0
 40
17.477676
210
0.0
220
0.0
230
1.0
100
AcDbArc
 50
253.135888
 51
269.367867
  0
LINE
  5
B7
100
AcDbEntity
  8
0
390
0
  6
Continuous
 62
     7
100
AcDbLine
 10
-27.8775
 20
-48.999445
 30
0.0
 11
-27.922467
 21
-48.999445
 31
0.0
  0
POLYLINE
  5
B8
100
AcDbEntity
  8
0
390
0
  6
Continuous
 62
     7
100
AcDb2dPolyline
 66
     1
 10
0.0
 20
0.0
 30
0.0
 40
0.1
 41
0.1
  0
VERTEX
  5
B9
100
AcDbEntity
  8
0
390
0
 62
     7
100
AcDbVertex
100
AcDb2dVertex
 10
-27.922467
 20
-48.999445
 30
0.0
 42
-0.100612
  0
VERTEX
  5
BA
100
AcDbEntity
  8
0
390
0
 62
     7
100
AcDbVertex
100
AcDb2dVertex
 10
-29.951798
 20
-49.727456
 30
0.0
  0
VERTEX
  5
BB
100
AcDbEntity
  8
0
390
0
 62
     7
100
AcDbVertex
100
AcDb2dVertex
 10
-30.361216
 20
-49.75
 30
0.0
  0
SEQEND
  5
BC
100
AcDbEntity
  8
0
390
0
  0
LINE
  5
BD
100
AcDbEntity
  8
0
390
0
  6
Continuous
 62
     7
100
AcDbLine
 10
-15.638784
 20
-49.75
 30
0.0
 11
-14.5
 21
-49.75
 31
0.0
  0
POLYLINE
  5
BE
100
AcDbEntity
  8
0
390
0
  6
Continuous
 62
     7
100
AcDb2dPolyline
 66
     1
 10
0.0
 20
0.0
 30
0.0
 40
0.1
 41
0.1
  0
VERTEX
  5
BF
100
AcDbEntity
  8
0
390
0
 62
     7
100
AcDbVertex
100
AcDb2dVertex
 10
-13.200035
 20
-48.999445
 30
0.0
 42
-0.100652
  0
VERTEX
  5
C0
100
AcDbEntity
  8
0
390
0
 62
     7
100
AcDbVertex
100
AcDb2dVertex
 10
-15.23078
 20
-49.727562
 30
0.0
  0
VERTEX
  5
C1
100
AcDbEntity
  8
0
390
0
 62
     7
100
AcDbVertex
100
AcDb2dVertex
 10
-15.638784
 20
-49.75
 30
0.0
  0
SEQEND
  5
C2
100
AcDbEntity
  8
0
390
0
  0
LINE
  5
C3
100
AcDbEntity
  8
0
390
0
  6
Continuous
 62
     7
100
AcDbLine
 10
-18.4
 20
-69.75
 30
0.0
 11
-27.6
 21
-69.75
 31
0.0
  0
LINE
  5
C4
100
AcDbEntity
  8
0
390
0
  6
Continuous
 62
     7
100
AcDbLine
 10
-18.4
 20
-19.75
 30
0.0
 11
-27.6
 21
-19.75
 31
0.0
  0
LINE
  5
C5
100
AcDbEntity
  8
0
390
0
  6
Continuous
 62
     7
100
AcDbLine
 10
-27.6
 20
-69.75
 30
0.0
 11
-18.4
 21
-69.75
 31
0.0
  0
LINE
  5
C6
100
AcDbEntity
  8
0
390
0
  6
Continuous
 62
     7
100
AcDbLine
 10
-18.4
 20
-19.75
 30
0.0
 11
-27.6
 21
-19.75
 31
0.0
  0
LINE
  5
C7
100
AcDbEntity
  8
0
390
0
  6
Continuous
 62
     7
100
AcDbLine
 10
27.6
 20
-69.75
 30
0.0
 11
18.4
 21
-69.75
 31
0.0
  0
LINE
  5
C8
100
AcDbEntity
  8
0
390
0
  6
Continuous
 62
     7
100
AcDbLine
 10
27.6
 20
-19.75
 30
0.0
 11
18.4
 21
-19.75
 31
0.0
  0
LINE
  5
C9
100
AcDbEntity
  8
0
390
0
  6
Continuous
 62
     7
100
AcDbLine
 10
18.4
 20
-69.75
 30
0.0
 11
27.6
 21
-69.75
 31
0.0
  0
LINE
  5
CA
100
AcDbEntity
  8
0
390
0
  6
Continuous
 62
     7
100
AcDbLine
 10
27.6
 20
-19.75
 30
0.0
 11
18.4
 21
-19.75
 31
0.0
  0
POLYLINE
  5
CB
100
AcDbEntity
  8
0
390
0
  6
Continuous
 62
     7
100
AcDb2dPolyline
 66
     1
 10
0.0
 20
0.0
 30
0.0
 40
0.1
 41
0.1
  0
VERTEX
  5
CC
100
AcDbEntity
  8
0
390
0
 62
     7
100
AcDbVertex
100
AcDb2dVertex
 10
17.25
 20
-16.45
 30
0.0
  0
VERTEX
  5
CD
100
AcDbEntity
  8
0
390
0
 62
     7
100
AcDbVertex
100
AcDb2dVertex
 10
17.25
 20
0.0
 30
0.0
 42
1.0
  0
VERTEX
  5
CE
100
AcDbEntity
  8
0
390
0
 62
     7
100
AcDbVertex
100
AcDb2dVertex
 10
-17.25
 20
0.0
 30
0.0
  0
VERTEX
  5
CF
100
AcDbEntity
  8
0
390
0
 62
     7
100
AcDbVertex
100
AcDb2dVertex
 10
-17.25
 20
-16.45
 30
0.0
  0
SEQEND
  5
D0
100
AcDbEntity
  8
0
390
0
  0
LINE
  5
D1
100
AcDbEntity
  8
0
390
0
  6
Continuous
 62
     7
100
AcDbLine
 10
28.6
 20
-16.45
 30
0.0
 11
19.25
 21
-16.45
 31
0.0
  0
POLYLINE
  5
D2
100
AcDbEntity
  8
0
390
0
  6
Continuous
 62
     7
100
AcDb2dPolyline
 66
     1
 10
0.0
 20
0.0
 30
0.0
 40
0.1
 41
0.1
  0
VERTEX
  5
D3
100
AcDbEntity
  8
0
390
0
 62
     7
100
AcDbVertex
100
AcDb2dVertex
 10
19.25
 20
-16.45
 30
0.0
  0
VERTEX
  5
D4
100
AcDbEntity
  8
0
390
0
 62
     7
100
AcDbVertex
100
AcDb2dVertex
 10
19.25
 20
0.0
 30
0.0
 42
1.0
  0
VERTEX
  5
D5
100
AcDbEntity
  8
0
390
0
 62
     7
100
AcDbVertex
100
AcDb2dVertex
 10
-19.25
 20
0.0
 30
0.0
  0
VERTEX
  5
D6
100
AcDbEntity
  8
0
390
0
 62
     7
100
AcDbVertex
100
AcDb2dVertex
 10
-19.25
 20
-16.45
 30
0.0
  0
SEQEND
  5
D7
100
AcDbEntity
  8
0
390
0
  0
LINE
  5
D8
100
AcDbEntity
  8
0
390
0
  6
Continuous
 62
     7
100
AcDbLine
 10
-19.25
 20
-16.45
 30
0.0
 11
-28.6
 21
-16.45
 31
0.0
  0
LINE
  5
D9
100
AcDbEntity
  8
0
390
0
  6
Continuous
 62
     7
100
AcDbLine
 10
-19.25
 20
-16.45
 30
0.0
 11
-17.25
 21
-16.45
 31
0.0
  0
LINE
  5
DA
100
AcDbEntity
  8
0
390
0
  6
Continuous
 62
     7
100
AcDbLine
 10
17.25
 20
-16.45
 30
0.0
 11
19.25
 21
-16.45
 31
0.0
  0
LINE
  5
DB
100
AcDbEntity
  8
0
390
0
  6
Continuous
 62
     7
100
AcDbLine
 10
19.250039
 20
-16.45
 30
0.0
 11
28.599067
 21
-16.45
 31
0.0
  0
LINE
  5
DC
100
AcDbEntity
  8
0
390
0
  6
Continuous
 62
     7
100
AcDbLine
 10
17.25
 20
-16.45
 30
0.0
 11
19.25
 21
-16.45
 31
0.0
  0
LINE
  5
DD
100
AcDbEntity
  8
0
390
0
  6
Continuous
 62
     7
100
AcDbLine
 10
-28.599997
 20
-16.45
 30
0.0
 11
-28.599059
 21
-16.45
 31
0.0
  0
LINE
  5
DE
100
AcDbEntity
  8
0
390
0
  6
Continuous
 62
     7
100
AcDbLine
 10
-28.599059
 20
-16.45
 30
0.0
 11
-19.249984
 21
-16.45
 31
0.0
  0
LINE
  5
DF
100
AcDbEntity
  8
0
390
0
  6
Continuous
 62
     7
100
AcDbLine
 10
-19.25
 20
-16.45
 30
0.0
 11
-17.25
 21
-16.45
 31
0.0
  0
LINE
  5
E0
100
AcDbEntity
  8
0
390
0
  6
Continuous
 62
     7
100
AcDbLine
 10
-18.4
 20
-69.75
 30
0.0
 11
-18.4
 21
-49.75
 31
0.0
  0
LINE
  5
E1
100
AcDbEntity
  8
0
390
0
  6
Continuous
 62
     7
100
AcDbLine
 10
-18.4
 20
-41.75
 30
0.0
 11
-18.4
 21
-19.75
 31
0.0
  0
LINE
  5
E2
100
AcDbEntity
  8
0
390
0
  6
Continuous
 62
     7
100
AcDbLine
 10
-27.6
 20
-19.75
 30
0.0
 11
-27.6
 21
-41.75
 31
0.0
  0
LINE
  5
E3
100
AcDbEntity
  8
0
390
0
  6
Continuous
 62
     7
100
AcDbLine
 10
-27.6
 20
-49.75
 30
0.0
 11
-27.6
 21
-69.75
 31
0.0
  0
LINE
  5
E4
100
AcDbEntity
  8
0
390
0
  6
Continuous
 62
     7
100
AcDbLine
 10
27.1
 20
-19.75
 30
0.0
 11
27.1
 21
-16.45
 31
0.0
  0
LINE
  5
E5
100
AcDbEntity
  8
0
390
0
  6
Continuous
 62
     7
100
AcDbLine
 10
18.9
 20
-16.45
 30
0.0
 11
18.9
 21
-19.75
 31
0.0
  0
LINE
  5
E6
100
AcDbEntity
  8
0
390
0
  6
Continuous
 62
     7
100
AcDbLine
 10
27.6
 20
-69.75
 30
0.0
 11
27.6
 21
-49.75
 31
0.0
  0
LINE
  5
E7
100
AcDbEntity
  8
0
390
0
  6
Continuous
 62
     7
100
AcDbLine
 10
27.6
 20
-41.75
 30
0.0
 11
27.6
 21
-19.75
 31
0.0
  0
LINE
  5
E8
100
AcDbEntity
  8
0
390
0
  6
Continuous
 62
     7
100
AcDbLine
 10
18.4
 20
-19.75
 30
0.0
 11
18.4
 21
-41.75
 31
0.0
  0
LINE
  5
E9
100
AcDbEntity
  8
0
390
0
  6
Continuous
 62
     7
100
AcDbLine
 10
18.4
 20
-49.75
 30
0.0
 11
18.4
 21
-69.75
 31
0.0
  0
LINE
  5
EA
100
AcDbEntity
  8
0
390
0
  6
Continuous
 62
     7
100
AcDbLine
 10
-18.9
 20
-19.75
 30
0.0
 11
-18.9
 21
-16.45
 31
0.0
  0
LINE
  5
EB
100
AcDbEntity
  8
0
390
0
  6
Continuous
 62
     7
100
AcDbLine
 10
-27.1
 20
-16.45
 30
0.0
 11
-27.1
 21
-19.75
 31
0.0
  0
POLYLINE
  5
EC
100
AcDbEntity
  8
0
390
0
  6
Continuous
 62
     7
100
AcDb2dPolyline
 66
     1
 10
0.0
 20
0.0
 30
0.0
 40
0.1
 41
0.1
  0
VERTEX
  5
ED
100
AcDbEntity
  8
0
390
0
 62
     7
100
AcDbVertex
100
AcDb2dVertex
 10
28.6
 20
-16.45
 30
0.0
  0
VERTEX
  5
EE
100
AcDbEntity
  8
0
390
0
 62
     7
100
AcDbVertex
100
AcDb2dVertex
 10
28.6
 20
-0.930297
 30
0.0
  0
VERTEX
  5
EF
100
AcDbEntity
  8
0
390
0
 62
     7
100
AcDbVertex
100
AcDb2dVertex
 10
28.598252
 20
0.314411
 30
0.0
 42
1.025179
  0
VERTEX
  5
F0
100
AcDbEntity
  8
0
390
0
 62
     7
100
AcDbVertex
100
AcDb2dVertex
 10
-28.6
 20
-1.790737
 30
0.0
  0
VERTEX
  5
F1
100
AcDbEntity
  8
0
390
0
 62
     7
100
AcDbVertex
100
AcDb2dVertex
 10
-28.6
 20
-16.45
 30
0.0
  0
SEQEND
  5
F2
100
AcDbEntity
  8
0
390
0
  0
LINE
  5
F3
100
AcDbEntity
  8
0
390
0
  6
Continuous
 62
     7
100
AcDbLine
 10
27.922466
 20
-162.531228
 30
0.0
 11
30.361216
 21
-158.30719
 31
0.0
  0
LINE
  5
F4
100
AcDbEntity
  8
0
390
0
  6
Continuous
 62
     7
100
AcDbLine
 10
30.361216
 20
-158.30719
 30
0.0
 11
32.799965
 21
-154.083151
 31
0.0
  0
LINE
  5
F5
100
AcDbEntity
  8
0
390
0
  6
Continuous
 62
     7
100
AcDbLine
 10
32.799965
 20
-154.031228
 30
0.0
 11
30.361216
 21
-149.80719
 31
0.0
  0
LINE
  5
F6
100
AcDbEntity
  8
0
390
0
  6
Continuous
 62
     7
100
AcDbLine
 10
30.361216
 20
-149.80719
 30
0.0
 11
27.922466
 21
-145.583151
 31
0.0
  0
LINE
  5
F7
100
AcDbEntity
  8
0
390
0
  6
Continuous
 62
     7
100
AcDbLine
 10
27.877499
 20
-145.55719
 30
0.0
 11
23.0
 21
-145.55719
 31
0.0
  0
LINE
  5
F8
100
AcDbEntity
  8
0
390
0
  6
Continuous
 62
     7
100
AcDbLine
 10
23.0
 20
-145.55719
 30
0.0
 11
18.1225
 21
-145.55719
 31
0.0
  0
LINE
  5
F9
100
AcDbEntity
  8
0
390
0
  6
Continuous
 62
     7
100
AcDbLine
 10
18.077533
 20
-145.583151
 30
0.0
 11
15.638784
 21
-149.80719
 31
0.0
  0
LINE
  5
FA
100
AcDbEntity
  8
0
390
0
  6
Continuous
 62
     7
100
AcDbLine
 10
15.638784
 20
-149.80719
 30
0.0
 11
13.200034
 21
-154.031228
 31
0.0
  0
LINE
  5
FB
100
AcDbEntity
  8
0
390
0
  6
Continuous
 62
     7
100
AcDbLine
 10
13.200034
 20
-154.083151
 30
0.0
 11
15.638784
 21
-158.30719
 31
0.0
  0
LINE
  5
FC
100
AcDbEntity
  8
0
390
0
  6
Continuous
 62
     7
100
AcDbLine
 10
15.638784
 20
-158.30719
 30
0.0
 11
18.077533
 21
-162.531228
 31
0.0
  0
LINE
  5
FD
100
AcDbEntity
  8
0
390
0
  6
Continuous
 62
     7
100
AcDbLine
 10
23.0
 20
-162.55719
 30
0.0
 11
27.877499
 21
-162.55719
 31
0.0
  0
LINE
  5
FE
100
AcDbEntity
  8
0
390
0
  6
Continuous
 62
     7
100
AcDbLine
 10
18.1225
 20
-162.55719
 30
0.0
 11
23.0
 21
-162.55719
 31
0.0
  0
ARC
  5
FF
100
AcDbEntity
  8
0
390
0
  6
Continuous
 62
     7
100
AcDbCircle
 10
23.0
 20
-154.05719
 30
0.0
 40
5.0
210
0.0
220
0.0
230
1.0
100
AcDbArc
 50
330.0
 51
150.0
  0
ARC
  5
100
100
AcDbEntity
  8
0
390
0
  6
Continuous
 62
     7
100
AcDbCircle
 10
23.0
 20
-154.05719
 30
0.0
 40
5.0
210
0.0
220
0.0
230
1.0
100
AcDbArc
 50
150.0
 51
330.0
  0
ARC
  5
101
100
AcDbEntity
  8
0
390
0
  6
Continuous
 62
     7
100
AcDbCircle
 10
23.0
 20
-154.05719
 30
0.0
 40
9.8
210
0.0
220
0.0
230
0.9999999999999999
100
AcDbArc
 50
59.848215
 51
60.151785
  0
ARC
  5
102
100
AcDbEntity
  8
0
390
0
  6
Continuous
 62
     7
100
AcDbCircle
 10
23.0
 20
-154.05719
 30
0.0
 40
8.5
210
0.0
220
0.0
230
1.0
100
AcDbArc
 50
30.0
 51
90.0
  0
LINE
  5
103
100
AcDbEntity
  8
0
390
0
  6
Continuous
 62
     7
100
AcDbLine
 10
30.361216
 20
-149.80719
 30
0.0
 11
27.922466
 21
-145.583151
 31
0.0
  0
ARC
  5
104
100
AcDbEntity
  8
0
390
0
  6
Continuous
 62
     7
100
AcDbCircle
 10
23.0
 20
-154.05719
 30
0.0
 40
9.8
210
0.0
220
0.0
230
0.9999999999999999
100
AcDbArc
 50
59.848215
 51
60.151785
  0
LINE
  5
105
100
AcDbEntity
  8
0
390
0
  6
Continuous
 62
     7
100
AcDbLine
 10
27.877499
 20
-145.55719
 30
0.0
 11
23.0
 21
-145.55719
 31
0.0
  0
ARC
  5
106
100
AcDbEntity
  8
0
390
0
  6
Continuous
 62
     7
100
AcDbCircle
 10
23.0
 20
-154.05719
 30
0.0
 40
8.5
210
0.0
220
0.0
230
1.0
100
AcDbArc
 50
150.0
 51
210.0
  0
ARC
  5
107
100
AcDbEntity
  8
0
390
0
  6
Continuous
 62
     7
100
AcDbCircle
 10
23.0
 20
-154.05719
 30
0.0
 40
8.5
210
0.0
220
0.0
230
1.0
100
AcDbArc
 50
210.0
 51
270.0
  0
ARC
  5
108
100
AcDbEntity
  8
0
390
0
  6
Continuous
 62
     7
100
AcDbCircle
 10
23.0
 20
-154.05719
 30
0.0
 40
8.5
210
0.0
220
0.0
230
1.0
100
AcDbArc
 50
270.0
 51
330.0
  0
ARC
  5
109
100
AcDbEntity
  8
0
390
0
  6
Continuous
 62
     7
100
AcDbCircle
 10
23.0
 20
-154.05719
 30
0.0
 40
8.5
210
0.0
220
0.0
230
1.0
100
AcDbArc
 50
330.0
 51
30.0
  0
ARC
  5
10A
100
AcDbEntity
  8
0
390
0
  6
Continuous
 62
     7
100
AcDbCircle
 10
23.0
 20
-154.05719
 30
0.0
 40
8.5
210
0.0
220
0.0
230
1.0
100
AcDbArc
 50
30.0
 51
90.0
  0
ARC
  5
10B
100
AcDbEntity
  8
0
390
0
  6
Continuous
 62
     7
100
AcDbCircle
 10
23.0
 20
-154.05719
 30
0.0
 40
8.5
210
0.0
220
0.0
230
1.0
100
AcDbArc
 50
90.0
 51
150.0
  0
ARC
  5
10C
100
AcDbEntity
  8
0
390
0
  6
Continuous
 62
     7
100
AcDbCircle
 10
23.0
 20
-154.05719
 30
0.0
 40
5.0
210
0.0
220
0.0
230
1.0
100
AcDbArc
 50
150.0
 51
330.0
  0
ARC
  5
10D
100
AcDbEntity
  8
0
390
0
  6
Continuous
 62
     7
100
AcDbCircle
 10
23.0
 20
-154.05719
 30
0.0
 40
5.0
210
0.0
220
0.0
230
1.0
100
AcDbArc
 50
330.0
 51
150.0
  0
ARC
  5
10E
100
AcDbEntity
  8
0
390
0
  6
Continuous
 62
     7
100
AcDbCircle
 10
23.0
 20
-154.05719
 30
0.0
 40
9.8
210
0.0
220
0.0
230
1.0
100
AcDbArc
 50
299.848215
 51
300.151785
  0
ARC
  5
10F
100
AcDbEntity
  8
0
390
0
  6
Continuous
 62
     7
100
AcDbCircle
 10
23.0
 20
-154.05719
 30
0.0
 40
9.8
210
0.0
220
0.0
230
1.0
100
AcDbArc
 50
239.848215
 51
240.151785
  0
ARC
  5
110
100
AcDbEntity
  8
0
390
0
  6
Continuous
 62
     7
100
AcDbCircle
 10
23.0
 20
-154.05719
 30
0.0
 40
9.8
210
0.0
220
0.0
230
1.0
100
AcDbArc
 50
179.848215
 51
180.151785
  0
ARC
  5
111
100
AcDbEntity
  8
0
390
0
  6
Continuous
 62
     7
100
AcDbCircle
 10
23.0
 20
-154.05719
 30
0.0
 40
9.8
210
0.0
220
0.0
230
1.0
100
AcDbArc
 50
119.848215
 51
120.151785
  0
ARC
  5
112
100
AcDbEntity
  8
0
390
0
  6
Continuous
 62
     7
100
AcDbCircle
 10
23.0
 20
-154.05719
 30
0.0
 40
9.8
210
0.0
220
0.0
230
1.0
100
AcDbArc
 50
359.848215
 51
0.151785
  0
LINE
  5
113
100
AcDbEntity
  8
0
390
0
  6
Continuous
 62
     7
100
AcDbLine
 10
15.638784
 20
-158.30719
 30
0.0
 11
18.077533
 21
-162.531228
 31
0.0
  0
ARC
  5
114
100
AcDbEntity
  8
0
390
0
  6
Continuous
 62
     7
100
AcDbCircle
 10
23.0
 20
-154.05719
 30
0.0
 40
8.5
210
0.0
220
0.0
230
1.0
100
AcDbArc
 50
210.0
 51
270.0
  0
LINE
  5
115
100
AcDbEntity
  8
0
390
0
  6
Continuous
 62
     7
100
AcDbLine
 10
18.1225
 20
-162.55719
 30
0.0
 11
23.0
 21
-162.55719
 31
0.0
  0
ARC
  5
116
100
AcDbEntity
  8
0
390
0
  6
Continuous
 62
     7
100
AcDbCircle
 10
23.0
 20
-154.05719
 30
0.0
 40
9.8
210
0.0
220
0.0
230
1.0
100
AcDbArc
 50
239.848215
 51
240.151785
  0
ARC
  5
117
100
AcDbEntity
  8
0
390
0
  6
Continuous
 62
     7
100
AcDbCircle
 10
23.0
 20
-154.05719
 30
0.0
 40
8.5
210
0.0
220
0.0
230
1.0
100
AcDbArc
 50
150.0
 51
210.0
  0
LINE
  5
118
100
AcDbEntity
  8
0
390
0
  6
Continuous
 62
     7
100
AcDbLine
 10
15.638784
 20
-149.80719
 30
0.0
 11
13.200034
 21
-154.031228
 31
0.0
  0
ARC
  5
119
100
AcDbEntity
  8
0
390
0
  6
Continuous
 62
     7
100
AcDbCircle
 10
23.0
 20
-154.05719
 30
0.0
 40
9.8
210
0.0
220
0.0
230
1.0
100
AcDbArc
 50
179.848215
 51
180.151785
  0
LINE
  5
11A
100
AcDbEntity
  8
0
390
0
  6
Continuous
 62
     7
100
AcDbLine
 10
13.200034
 20
-154.083151
 30
0.0
 11
15.638784
 21
-158.30719
 31
0.0
  0
ARC
  5
11B
100
AcDbEntity
  8
0
390
0
  6
Continuous
 62
     7
100
AcDbCircle
 10
23.0
 20
-154.05719
 30
0.0
 40
8.5
210
0.0
220
0.0
230
1.0
100
AcDbArc
 50
90.0
 51
150.0
  0
LINE
  5
11C
100
AcDbEntity
  8
0
390
0
  6
Continuous
 62
     7
100
AcDbLine
 10
23.0
 20
-145.55719
 30
0.0
 11
18.1225
 21
-145.55719
 31
0.0
  0
ARC
  5
11D
100
AcDbEntity
  8
0
390
0
  6
Continuous
 62
     7
100
AcDbCircle
 10
23.0
 20
-154.05719
 30
0.0
 40
9.8
210
0.0
220
0.0
230
1.0
100
AcDbArc
 50
119.848215
 51
120.151785
  0
LINE
  5
11E
100
AcDbEntity
  8
0
390
0
  6
Continuous
 62
     7
100
AcDbLine
 10
18.077533
 20
-145.583151
 30
0.0
 11
15.638784
 21
-149.80719
 31
0.0
  0
ARC
  5
11F
100
AcDbEntity
  8
0
390
0
  6
Continuous
 62
     7
100
AcDbCircle
 10
23.0
 20
-154.05719
 30
0.0
 40
8.5
210
0.0
220
0.0
230
1.0
100
AcDbArc
 50
330.0
 51
30.0
  0
LINE
  5
120
100
AcDbEntity
  8
0
390
0
  6
Continuous
 62
     7
100
AcDbLine
 10
30.361216
 20
-158.30719
 30
0.0
 11
32.799965
 21
-154.083151
 31
0.0
  0
ARC
  5
121
100
AcDbEntity
  8
0
390
0
  6
Continuous
 62
     7
100
AcDbCircle
 10
23.0
 20
-154.05719
 30
0.0
 40
9.8
210
0.0
220
0.0
230
1.0
100
AcDbArc
 50
359.848215
 51
0.151785
  0
LINE
  5
122
100
AcDbEntity
  8
0
390
0
  6
Continuous
 62
     7
100
AcDbLine
 10
32.799965
 20
-154.031228
 30
0.0
 11
30.361216
 21
-149.80719
 31
0.0
  0
ARC
  5
123
100
AcDbEntity
  8
0
390
0
  6
Continuous
 62
     7
100
AcDbCircle
 10
23.0
 20
-154.05719
 30
0.0
 40
9.8
210
0.0
220
0.0
230
1.0
100
AcDbArc
 50
299.848215
 51
300.151785
  0
LINE
  5
124
100
AcDbEntity
  8
0
390
0
  6
Continuous
 62
     7
100
AcDbLine
 10
27.922466
 20
-162.531228
 30
0.0
 11
30.361216
 21
-158.30719
 31
0.0
  0
ARC
  5
125
100
AcDbEntity
  8
0
390
0
  6
Continuous
 62
     7
100
AcDbCircle
 10
23.0
 20
-154.05719
 30
0.0
 40
8.5
210
0.0
220
0.0
230
1.0
100
AcDbArc
 50
270.0
 51
330.0
  0
LINE
  5
126
100
AcDbEntity
  8
0
390
0
  6
Continuous
 62
     7
100
AcDbLine
 10
23.0
 20
-162.55719
 30
0.0
 11
27.877499
 21
-162.55719
 31
0.0
  0
LINE
  5
127
100
AcDbEntity
  8
0
390
0
  6
Continuous
 62
     7
100
AcDbLine
 10
-18.077534
 20
-162.531228
 30
0.0
 11
-15.638784
 21
-158.30719
 31
0.0
  0
LINE
  5
128
100
AcDbEntity
  8
0
390
0
  6
Continuous
 62
     7
100
AcDbLine
 10
-15.638784
 20
-158.30719
 30
0.0
 11
-13.200035
 21
-154.083151
 31
0.0
  0
LINE
  5
129
100
AcDbEntity
  8
0
390
0
  6
Continuous
 62
     7
100
AcDbLine
 10
-15.638784
 20
-149.80719
 30
0.0
 11
-18.077534
 21
-145.583151
 31
0.0
  0
LINE
  5
12A
100
AcDbEntity
  8
0
390
0
  6
Continuous
 62
     7
100
AcDbLine
 10
-13.200035
 20
-154.031228
 30
0.0
 11
-15.638784
 21
-149.80719
 31
0.0
  0
LINE
  5
12B
100
AcDbEntity
  8
0
390
0
  6
Continuous
 62
     7
100
AcDbLine
 10
-23.0
 20
-145.55719
 30
0.0
 11
-27.8775
 21
-145.55719
 31
0.0
  0
LINE
  5
12C
100
AcDbEntity
  8
0
390
0
  6
Continuous
 62
     7
100
AcDbLine
 10
-18.122501
 20
-145.55719
 30
0.0
 11
-23.0
 21
-145.55719
 31
0.0
  0
LINE
  5
12D
100
AcDbEntity
  8
0
390
0
  6
Continuous
 62
     7
100
AcDbLine
 10
-27.922467
 20
-145.583151
 30
0.0
 11
-30.361216
 21
-149.80719
 31
0.0
  0
LINE
  5
12E
100
AcDbEntity
  8
0
390
0
  6
Continuous
 62
     7
100
AcDbLine
 10
-30.361216
 20
-149.80719
 30
0.0
 11
-32.799966
 21
-154.031228
 31
0.0
  0
LINE
  5
12F
100
AcDbEntity
  8
0
390
0
  6
Continuous
 62
     7
100
AcDbLine
 10
-32.799966
 20
-154.083151
 30
0.0
 11
-30.361216
 21
-158.30719
 31
0.0
  0
LINE
  5
130
100
AcDbEntity
  8
0
390
0
  6
Continuous
 62
     7
100
AcDbLine
 10
-30.361216
 20
-158.30719
 30
0.0
 11
-27.922467
 21
-162.531228
 31
0.0
  0
LINE
  5
131
100
AcDbEntity
  8
0
390
0
  6
Continuous
 62
     7
100
AcDbLine
 10
-23.0
 20
-162.55719
 30
0.0
 11
-18.122501
 21
-162.55719
 31
0.0
  0
LINE
  5
132
100
AcDbEntity
  8
0
390
0
  6
Continuous
 62
     7
100
AcDbLine
 10
-27.8775
 20
-162.55719
 30
0.0
 11
-23.0
 21
-162.55719
 31
0.0
  0
ARC
  5
133
100
AcDbEntity
  8
0
390
0
  6
Continuous
 62
     7
100
AcDbCircle
 10
-23.0
 20
-154.05719
 30
0.0
 40
5.0
210
0.0
220
0.0
230
1.0
100
AcDbArc
 50
150.0
 51
330.0
  0
ARC
  5
134
100
AcDbEntity
  8
0
390
0
  6
Continuous
 62
     7
100
AcDbCircle
 10
-23.0
 20
-154.05719
 30
0.0
 40
5.0
210
0.0
220
0.0
230
1.0
100
AcDbArc
 50
330.0
 51
150.0
  0
ARC
  5
135
100
AcDbEntity
  8
0
390
0
  6
Continuous
 62
     7
100
AcDbCircle
 10
-23.0
 20
-154.05719
 30
0.0
 40
9.8
210
0.0
220
0.0
230
0.9999999999999999
100
AcDbArc
 50
59.848215
 51
60.151785
  0
ARC
  5
136
100
AcDbEntity
  8
0
390
0
  6
Continuous
 62
     7
100
AcDbCircle
 10
-23.0
 20
-154.05719
 30
0.0
 40
8.5
210
0.0
220
0.0
230
1.0
100
AcDbArc
 50
30.0
 51
90.0
  0
LINE
  5
137
100
AcDbEntity
  8
0
390
0
  6
Continuous
 62
     7
100
AcDbLine
 10
-15.638784
 20
-149.80719
 30
0.0
 11
-18.077534
 21
-145.583151
 31
0.0
  0
ARC
  5
138
100
AcDbEntity
  8
0
390
0
  6
Continuous
 62
     7
100
AcDbCircle
 10
-23.0
 20
-154.05719
 30
0.0
 40
9.8
210
0.0
220
0.0
230
0.9999999999999999
100
AcDbArc
 50
59.848215
 51
60.151785
  0
LINE
  5
139
100
AcDbEntity
  8
0
390
0
  6
Continuous
 62
     7
100
AcDbLine
 10
-18.122501
 20
-145.55719
 30
0.0
 11
-23.0
 21
-145.55719
 31
0.0
  0
ARC
  5
13A
100
AcDbEntity
  8
0
390
0
  6
Continuous
 62
     7
100
AcDbCircle
 10
-23.0
 20
-154.05719
 30
0.0
 40
8.5
210
0.0
220
0.0
230
1.0
100
AcDbArc
 50
150.0
 51
210.0
  0
ARC
  5
13B
100
AcDbEntity
  8
0
390
0
  6
Continuous
 62
     7
100
AcDbCircle
 10
-23.0
 20
-154.05719
 30
0.0
 40
8.5
210
0.0
220
0.0
230
1.0
100
AcDbArc
 50
210.0
 51
270.0
  0
ARC
  5
13C
100
AcDbEntity
  8
0
390
0
  6
Continuous
 62
     7
100
AcDbCircle
 10
-22.999587
 20
-154.057906
 30
0.0
 40
8.499284
210
0.0
220
0.0
230
1.0
100
AcDbArc
 50
269.997213
 51
330.002787
  0
ARC
  5
13D
100
AcDbEntity
  8
0
390
0
  6
Continuous
 62
     7
100
AcDbCircle
 10
-23.0
 20
-154.05719
 30
0.0
 40
8.5
210
0.0
220
0.0
230
1.0
100
AcDbArc
 50
330.0
 51
30.0
  0
ARC
  5
13E
100
AcDbEntity
  8
0
390
0
  6
Continuous
 62
     7
100
AcDbCircle
 10
-23.0
 20
-154.05719
 30
0.0
 40
8.5
210
0.0
220
0.0
230
1.0
100
AcDbArc
 50
30.0
 51
90.0
  0
ARC
  5
13F
100
AcDbEntity
  8
0
390
0
  6
Continuous
 62
     7
100
AcDbCircle
 10
-23.0
 20
-154.05719
 30
0.0
 40
8.5
210
0.0
220
0.0
230
1.0
100
AcDbArc
 50
90.0
 51
150.0
  0
ARC
  5
140
100
AcDbEntity
  8
0
390
0
  6
Continuous
 62
     7
100
AcDbCircle
 10
-23.0
 20
-154.05719
 30
0.0
 40
5.0
210
0.0
220
0.0
230
1.0
100
AcDbArc
 50
150.0
 51
330.0
  0
ARC
  5
141
100
AcDbEntity
  8
0
390
0
  6
Continuous
 62
     7
100
AcDbCircle
 10
-23.0
 20
-154.05719
 30
0.0
 40
5.0
210
0.0
220
0.0
230
1.0
100
AcDbArc
 50
330.0
 51
150.0
  0
ARC
  5
142
100
AcDbEntity
  8
0
390
0
  6
Continuous
 62
     7
100
AcDbCircle
 10
-23.0
 20
-154.05719
 30
0.0
 40
9.8
210
0.0
220
0.0
230
1.0
100
AcDbArc
 50
299.848215
 51
300.151785
  0
ARC
  5
143
100
AcDbEntity
  8
0
390
0
  6
Continuous
 62
     7
100
AcDbCircle
 10
-23.0
 20
-154.05719
 30
0.0
 40
9.8
210
0.0
220
0.0
230
0.9999999999999999
100
AcDbArc
 50
239.848215
 51
240.151785
  0
ARC
  5
144
100
AcDbEntity
  8
0
390
0
  6
Continuous
 62
     7
100
AcDbCircle
 10
-23.0
 20
-154.05719
 30
0.0
 40
9.8
210
0.0
220
0.0
230
1.0
100
AcDbArc
 50
179.848215
 51
180.151785
  0
ARC
  5
145
100
AcDbEntity
  8
0
390
0
  6
Continuous
 62
     7
100
AcDbCircle
 10
-23.0
 20
-154.05719
 30
0.0
 40
9.8
210
0.0
220
0.0
230
0.9999999999999999
100
AcDbArc
 50
119.848215
 51
120.151785
  0
ARC
  5
146
100
AcDbEntity
  8
0
390
0
  6
Continuous
 62
     7
100
AcDbCircle
 10
-23.0
 20
-154.05719
 30
0.0
 40
9.8
210
0.0
220
0.0
230
1.0
100
AcDbArc
 50
359.848215
 51
0.151785
  0
LINE
  5
147
100
AcDbEntity
  8
0
390
0
  6
Continuous
 62
     7
100
AcDbLine
 10
-30.361216
 20
-158.30719
 30
0.0
 11
-27.922467
 21
-162.531228
 31
0.0
  0
ARC
  5
148
100
AcDbEntity
  8
0
390
0
  6
Continuous
 62
     7
100
AcDbCircle
 10
-23.0
 20
-154.05719
 30
0.0
 40
8.5
210
0.0
220
0.0
230
1.0
100
AcDbArc
 50
210.0
 51
270.0
  0
LINE
  5
149
100
AcDbEntity
  8
0
390
0
  6
Continuous
 62
     7
100
AcDbLine
 10
-27.8775
 20
-162.55719
 30
0.0
 11
-23.0
 21
-162.55719
 31
0.0
  0
ARC
  5
14A
100
AcDbEntity
  8
0
390
0
  6
Continuous
 62
     7
100
AcDbCircle
 10
-23.0
 20
-154.05719
 30
0.0
 40
9.8
210
0.0
220
0.0
230
0.9999999999999999
100
AcDbArc
 50
239.848215
 51
240.151785
  0
LINE
  5
14B
100
AcDbEntity
  8
0
390
0
  6
Continuous
 62
     7
100
AcDbLine
 10
-30.361216
 20
-149.80719
 30
0.0
 11
-32.799966
 21
-154.031228
 31
0.0
  0
ARC
  5
14C
100
AcDbEntity
  8
0
390
0
  6
Continuous
 62
     7
100
AcDbCircle
 10
-23.0
 20
-154.05719
 30
0.0
 40
8.5
210
0.0
220
0.0
230
1.0
100
AcDbArc
 50
150.0
 51
210.0
  0
LINE
  5
14D
100
AcDbEntity
  8
0
390
0
  6
Continuous
 62
     7
100
AcDbLine
 10
-32.799966
 20
-154.083151
 30
0.0
 11
-30.361216
 21
-158.30719
 31
0.0
  0
ARC
  5
14E
100
AcDbEntity
  8
0
390
0
  6
Continuous
 62
     7
100
AcDbCircle
 10
-23.0
 20
-154.05719
 30
0.0
 40
9.8
210
0.0
220
0.0
230
1.0
100
AcDbArc
 50
179.848215
 51
180.151785
  0
ARC
  5
14F
100
AcDbEntity
  8
0
390
0
  6
Continuous
 62
     7
100
AcDbCircle
 10
-23.0
 20
-154.05719
 30
0.0
 40
8.5
210
0.0
220
0.0
230
1.0
100
AcDbArc
 50
90.0
 51
150.0
  0
LINE
  5
150
100
AcDbEntity
  8
0
390
0
  6
Continuous
 62
     7
100
AcDbLine
 10
-23.0
 20
-145.55719
 30
0.0
 11
-27.8775
 21
-145.55719
 31
0.0
  0
ARC
  5
151
100
AcDbEntity
  8
0
390
0
  6
Continuous
 62
     7
100
AcDbCircle
 10
-23.0
 20
-154.05719
 30
0.0
 40
9.8
210
0.0
220
0.0
230
0.9999999999999999
100
AcDbArc
 50
119.848215
 51
120.151785
  0
LINE
  5
152
100
AcDbEntity
  8
0
390
0
  6
Continuous
 62
     7
100
AcDbLine
 10
-27.922467
 20
-145.583151
 30
0.0
 11
-30.361216
 21
-149.80719
 31
0.0
  0
ARC
  5
153
100
AcDbEntity
  8
0
390
0
  6
Continuous
 62
     7
100
AcDbCircle
 10
-23.0
 20
-154.05719
 30
0.0
 40
8.5
210
0.0
220
0.0
230
1.0
100
AcDbArc
 50
330.0
 51
30.0
  0
LINE
  5
154
100
AcDbEntity
  8
0
390
0
  6
Continuous
 62
     7
100
AcDbLine
 10
-15.638784
 20
-158.30719
 30
0.0
 11
-13.200035
 21
-154.083151
 31
0.0
  0
ARC
  5
155
100
AcDbEntity
  8
0
390
0
  6
Continuous
 62
     7
100
AcDbCircle
 10
-23.0
 20
-154.05719
 30
0.0
 40
9.8
210
0.0
220
0.0
230
1.0
100
AcDbArc
 50
359.848215
 51
0.151785
  0
LINE
  5
156
100
AcDbEntity
  8
0
390
0
  6
Continuous
 62
     7
100
AcDbLine
 10
-13.200035
 20
-154.031228
 30
0.0
 11
-15.638784
 21
-149.80719
 31
0.0
  0
ARC
  5
157
100
AcDbEntity
  8
0
390
0
  6
Continuous
 62
     7
100
AcDbCircle
 10
-23.0
 20
-154.05719
 30
0.0
 40
9.8
210
0.0
220
0.0
230
1.0
100
AcDbArc
 50
299.848215
 51
300.151785
  0
LINE
  5
158
100
AcDbEntity
  8
0
390
0
  6
Continuous
 62
     7
100
AcDbLine
 10
-18.077534
 20
-162.531228
 30
0.0
 11
-15.638784
 21
-158.30719
 31
0.0
  0
ARC
  5
159
100
AcDbEntity
  8
0
390
0
  6
Continuous
 62
     7
100
AcDbCircle
 10
-23.0
 20
-154.05719
 30
0.0
 40
8.5
210
0.0
220
0.0
230
1.0
100
AcDbArc
 50
270.0
 51
330.0
  0
LINE
  5
15A
100
AcDbEntity
  8
0
390
0
  6
Continuous
 62
     7
100
AcDbLine
 10
-23.0
 20
-162.55719
 30
0.0
 11
-18.122501
 21
-162.55719
 31
0.0
  0
CIRCLE
  5
15B
100
AcDbEntity
  8
0
390
0
  6
Continuous
 62
     7
100
AcDbCircle
 10
-23.0
 20
-154.060713
 30
0.0
 40
4.600001
210
0.0
220
0.0
230
1.0
  0
CIRCLE
  5
15C
100
AcDbEntity
  8
0
390
0
  6
Continuous
 62
     7
100
AcDbCircle
 10
-23.0
 20
-154.05719
 30
0.0
 40
4.6
210
0.0
220
0.0
230
0.9999999999999999
  0
CIRCLE
  5
15D
100
AcDbEntity
  8
0
390
0
  6
Continuous
 62
     7
100
AcDbCircle
 10
22.999865
 20
-154.06071
 30
0.0
 40
4.600137
210
0.0
220
0.0
230
1.0
  0
LINE
  5
15E
100
AcDbEntity
  8
0
390
0
  6
Continuous
 62
     7
100
AcDbLine
 10
27.6
 20
-154.05719
 30
0.0
 11
27.58625
 21
-154.412583
 31
0.0
  0
ARC
  5
15F
100
AcDbEntity
  8
0
390
0
  6
Continuous
 62
     7
100
AcDbCircle
 10
23.0
 20
-154.05719
 30
0.0
 40
4.6
210
0.0
220
0.0
230
0.9999999999999999
100
AcDbArc
 50
0.0
 51
355.56894
  0
LINE
  5
160
100
AcDbEntity
  8
0
390
0
  6
Continuous
 62
     7
100
AcDbLine
 10
-17.25
 20
-141.55719
 30
0.0
 11
-17.25
 21
-147.016482
 31
0.0
  0
LINE
  5
161
100
AcDbEntity
  8
0
390
0
  6
Continuous
 62
     7
100
AcDbLine
 10
-17.25
 20
-161.097897
 30
0.0
 11
-17.25
 21
-166.55719
 31
0.0
  0
LINE
  5
162
100
AcDbEntity
  8
0
390
0
  6
Continuous
 62
     7
100
AcDbLine
 10
17.25
 20
-141.55719
 30
0.0
 11
-17.25
 21
-141.55719
 31
0.0
  0
LINE
  5
163
100
AcDbEntity
  8
0
390
0
  6
Continuous
 62
     7
100
AcDbLine
 10
17.25
 20
-166.55719
 30
0.0
 11
17.25
 21
-161.097897
 31
0.0
  0
LINE
  5
164
100
AcDbEntity
  8
0
390
0
  6
Continuous
 62
     7
100
AcDbLine
 10
17.25
 20
-147.016482
 30
0.0
 11
17.25
 21
-141.55719
 31
0.0
  0
LINE
  5
165
100
AcDbEntity
  8
0
390
0
  6
Continuous
 62
     7
100
AcDbLine
 10
-17.25
 20
-166.55719
 30
0.0
 11
17.25
 21
-166.55719
 31
0.0
  0
LINE
  5
166
100
AcDbEntity
  8
0
390
0
  6
Continuous
 62
     7
100
AcDbLine
 10
-19.25
 20
-162.557041
 30
0.0
 11
-19.25
 21
-166.55719
 31
0.0
  0
LINE
  5
167
100
AcDbEntity
  8
0
390
0
  6
Continuous
 62
     7
100
AcDbLine
 10
19.25
 20
-145.557338
 30
0.0
 11
19.25
 21
-141.55719
 31
0.0
  0
LINE
  5
168
100
AcDbEntity
  8
0
390
0
  6
Continuous
 62
     7
100
AcDbLine
 10
19.25
 20
-166.55719
 30
0.0
 11
19.25
 21
-162.557043
 31
0.0
  0
LINE
  5
169
100
AcDbEntity
  8
0
390
0
  6
Continuous
 62
     7
100
AcDbLine
 10
-19.25
 20
-141.55719
 30
0.0
 11
-19.25
 21
-145.557337
 31
0.0
  0
LINE
  5
16A
100
AcDbEntity
  8
0
390
0
  6
Continuous
 62
     7
100
AcDbLine
 10
17.25
 20
-166.55719
 30
0.0
 11
19.25
 21
-166.55719
 31
0.0
  0
LINE
  5
16B
100
AcDbEntity
  8
0
390
0
  6
Continuous
 62
     7
100
AcDbLine
 10
-17.249936
 20
-166.55719
 30
0.0
 11
17.250002
 21
-166.55719
 31
0.0
  0
LINE
  5
16C
100
AcDbEntity
  8
0
390
0
  6
Continuous
 62
     7
100
AcDbLine
 10
-19.25
 20
-166.55719
 30
0.0
 11
-17.25
 21
-166.55719
 31
0.0
  0
LINE
  5
16D
100
AcDbEntity
  8
0
390
0
  6
Continuous
 62
     7
100
AcDbLine
 10
-17.249936
 20
-141.55719
 30
0.0
 11
17.250002
 21
-141.55719
 31
0.0
  0
LINE
  5
16E
100
AcDbEntity
  8
0
390
0
  6
Continuous
 62
     7
100
AcDbLine
 10
-19.25
 20
-141.55719
 30
0.0
 11
-17.25
 21
-141.55719
 31
0.0
  0
LINE
  5
16F
100
AcDbEntity
  8
0
390
0
  6
Continuous
 62
     7
100
AcDbLine
 10
17.25
 20
-141.55719
 30
0.0
 11
19.25
 21
-141.55719
 31
0.0
  0
LINE
  5
170
100
AcDbEntity
  8
0
390
0
  6
Continuous
 62
     7
100
AcDbLine
 10
19.25
 20
-141.55719
 30
0.0
 11
19.25
 21
-145.557338
 31
0.0
  0
LINE
  5
171
100
AcDbEntity
  8
0
390
0
  6
Continuous
 62
     7
100
AcDbLine
 10
19.250134
 20
-162.557043
 30
0.0
 11
19.25
 21
-166.55719
 31
0.0
  0
LINE
  5
172
100
AcDbEntity
  8
0
390
0
  6
Continuous
 62
     7
100
AcDbLine
 10
17.25
 20
-141.55719
 30
0.0
 11
19.25
 21
-141.55719
 31
0.0
  0
LINE
  5
173
100
AcDbEntity
  8
0
390
0
  6
Continuous
 62
     7
100
AcDbLine
 10
17.25
 20
-166.55719
 30
0.0
 11
17.25
 21
-161.097897
 31
0.0
  0
LINE
  5
174
100
AcDbEntity
  8
0
390
0
  6
Continuous
 62
     7
100
AcDbLine
 10
17.25
 20
-147.016482
 30
0.0
 11
17.25
 21
-141.55719
 31
0.0
  0
LINE
  5
175
100
AcDbEntity
  8
0
390
0
  6
Continuous
 62
     7
100
AcDbLine
 10
19.25
 20
-166.55719
 30
0.0
 11
17.25
 21
-166.55719
 31
0.0
  0
LINE
  5
176
100
AcDbEntity
  8
0
390
0
  6
Continuous
 62
     7
100
AcDbLine
 10
-19.25
 20
-166.55719
 30
0.0
 11
-19.25
 21
-162.557041
 31
0.0
  0
LINE
  5
177
100
AcDbEntity
  8
0
390
0
  6
Continuous
 62
     7
100
AcDbLine
 10
-19.250135
 20
-145.557337
 30
0.0
 11
-19.25
 21
-141.55719
 31
0.0
  0
LINE
  5
178
100
AcDbEntity
  8
0
390
0
  6
Continuous
 62
     7
100
AcDbLine
 10
-17.25
 20
-166.55719
 30
0.0
 11
-19.25
 21
-166.55719
 31
0.0
  0
LINE
  5
179
100
AcDbEntity
  8
0
390
0
  6
Continuous
 62
     7
100
AcDbLine
 10
-17.25
 20
-141.55719
 30
0.0
 11
-17.25
 21
-147.016482
 31
0.0
  0
LINE
  5
17A
100
AcDbEntity
  8
0
390
0
  6
Continuous
 62
     7
100
AcDbLine
 10
-17.25
 20
-161.097897
 30
0.0
 11
-17.25
 21
-166.55719
 31
0.0
  0
LINE
  5
17B
100
AcDbEntity
  8
0
390
0
  6
Continuous
 62
     7
100
AcDbLine
 10
-19.25
 20
-141.55719
 30
0.0
 11
-17.25
 21
-141.55719
 31
0.0
  0
LINE
  5
17C
100
AcDbEntity
  8
0
390
0
  6
Continuous
 62
     7
100
AcDbLine
 10
159.62426
 20
-41.75
 30
0.0
 11
159.62426
 21
-48.999445
 31
0.0
  0
LINE
  5
17D
100
AcDbEntity
  8
0
390
0
  6
Continuous
 62
     7
100
AcDbLine
 10
151.176184
 20
-41.75
 30
0.0
 11
159.62426
 21
-41.75
 31
0.0
  0
LINE
  5
17E
100
AcDbEntity
  8
0
390
0
  6
Continuous
 62
     7
100
AcDbLine
 10
151.176184
 20
-48.999445
 30
0.0
 11
151.176184
 21
-41.75
 31
0.0
  0
ARC
  5
17F
100
AcDbEntity
  8
0
390
0
  6
Continuous
 62
     7
100
AcDbCircle
 10
155.581551
 20
-36.468028
 30
0.0
 40
13.28321
210
0.0
220
0.0
230
1.0
100
AcDbArc
 50
250.63109
 51
269.217834
  0
ARC
  5
180
100
AcDbEntity
  8
0
390
0
  6
Continuous
 62
     7
100
AcDbCircle
 10
155.219056
 20
-36.468943
 30
0.0
 40
13.282292
210
0.0
220
0.0
230
1.0
100
AcDbArc
 50
270.781519
 51
289.369558
  0
LINE
  5
181
100
AcDbEntity
  8
0
390
0
  6
Continuous
 62
     7
100
AcDbLine
 10
151.12426
 20
-41.75
 30
0.0
 11
151.12426
 21
-48.999445
 31
0.0
  0
LINE
  5
182
100
AcDbEntity
  8
0
390
0
  6
Continuous
 62
     7
100
AcDbLine
 10
142.676184
 20
-41.75
 30
0.0
 11
151.12426
 21
-41.75
 31
0.0
  0
LINE
  5
183
100
AcDbEntity
  8
0
390
0
  6
Continuous
 62
     7
100
AcDbLine
 10
142.676184
 20
-48.999445
 30
0.0
 11
142.676184
 21
-41.75
 31
0.0
  0
ARC
  5
184
100
AcDbEntity
  8
0
390
0
  6
Continuous
 62
     7
100
AcDbCircle
 10
147.081128
 20
-36.470406
 30
0.0
 40
13.280827
210
0.0
220
0.0
230
0.9999999999999999
100
AcDbArc
 50
250.629407
 51
269.219516
  0
ARC
  5
185
100
AcDbEntity
  8
0
390
0
  6
Continuous
 62
     7
100
AcDbCircle
 10
146.719634
 20
-36.472197
 30
0.0
 40
13.279031
210
0.0
220
0.0
230
1.0
100
AcDbArc
 50
270.779216
 51
289.371861
  0
LINE
  5
186
100
AcDbEntity
  8
0
390
0
  6
Continuous
 62
     7
100
AcDbLine
 10
142.650222
 20
-41.75
 30
0.0
 11
142.650222
 21
-48.999445
 31
0.0
  0
LINE
  5
187
100
AcDbEntity
  8
0
390
0
  6
Continuous
 62
     7
100
AcDbLine
 10
142.650222
 20
-48.999445
 30
0.0
 11
142.650222
 21
-49.75
 31
0.0
  0
LINE
  5
188
100
AcDbEntity
  8
0
390
0
  6
Continuous
 62
     7
100
AcDbLine
 10
159.650222
 20
-48.999445
 30
0.0
 11
159.650222
 21
-41.75
 31
0.0
  0
LINE
  5
189
100
AcDbEntity
  8
0
390
0
  6
Continuous
 62
     7
100
AcDbLine
 10
159.650222
 20
-49.75
 30
0.0
 11
159.650222
 21
-48.999445
 31
0.0
  0
LINE
  5
18A
100
AcDbEntity
  8
0
390
0
  6
Continuous
 62
     7
100
AcDbLine
 10
151.12426
 20
-41.75
 30
0.0
 11
142.676184
 21
-41.75
 31
0.0
  0
LINE
  5
18B
100
AcDbEntity
  8
0
390
0
  6
Continuous
 62
     7
100
AcDbLine
 10
159.62426
 20
-41.75
 30
0.0
 11
151.176184
 21
-41.75
 31
0.0
  0
LINE
  5
18C
100
AcDbEntity
  8
0
390
0
  6
Continuous
 62
     7
100
AcDbLine
 10
151.176184
 20
-41.75
 30
0.0
 11
151.12426
 21
-41.75
 31
0.0
  0
LINE
  5
18D
100
AcDbEntity
  8
0
390
0
  6
Continuous
 62
     7
100
AcDbLine
 10
142.650222
 20
-41.75
 30
0.0
 11
142.650222
 21
-48.999445
 31
0.0
  0
LINE
  5
18E
100
AcDbEntity
  8
0
390
0
  6
Continuous
 62
     7
100
AcDbLine
 10
142.676184
 20
-41.75
 30
0.0
 11
142.650222
 21
-41.75
 31
0.0
  0
LINE
  5
18F
100
AcDbEntity
  8
0
390
0
  6
Continuous
 62
     7
100
AcDbLine
 10
142.676184
 20
-48.999445
 30
0.0
 11
142.676184
 21
-41.75
 31
0.0
  0
LINE
  5
190
100
AcDbEntity
  8
0
390
0
  6
Continuous
 62
     7
100
AcDbLine
 10
142.650222
 20
-48.999445
 30
0.0
 11
142.676184
 21
-48.999445
 31
0.0
  0
LINE
  5
191
100
AcDbEntity
  8
0
390
0
  6
Continuous
 62
     7
100
AcDbLine
 10
142.650222
 20
-49.75
 30
0.0
 11
146.900222
 21
-49.75
 31
0.0
  0
ARC
  5
192
100
AcDbEntity
  8
0
390
0
  6
Continuous
 62
     7
100
AcDbCircle
 10
147.081128
 20
-36.470406
 30
0.0
 40
13.280827
210
0.0
220
0.0
230
0.9999999999999999
100
AcDbArc
 50
250.629407
 51
269.219516
  0
LINE
  5
193
100
AcDbEntity
  8
0
390
0
  6
Continuous
 62
     7
100
AcDbLine
 10
142.676184
 20
-48.999445
 30
0.0
 11
142.650222
 21
-48.999445
 31
0.0
  0
LINE
  5
194
100
AcDbEntity
  8
0
390
0
  6
Continuous
 62
     7
100
AcDbLine
 10
142.650222
 20
-48.999445
 30
0.0
 11
142.65047
 21
-49.660159
 31
0.0
  0
LINE
  5
195
100
AcDbEntity
  8
0
390
0
  6
Continuous
 62
     7
100
AcDbLine
 10
142.65047
 20
-49.660159
 30
0.0
 11
142.650222
 21
-49.75
 31
0.0
  0
LINE
  5
196
100
AcDbEntity
  8
0
390
0
  6
Continuous
 62
     7
100
AcDbLine
 10
155.400222
 20
-49.75
 30
0.0
 11
159.63175
 21
-49.75
 31
0.0
  0
LINE
  5
197
100
AcDbEntity
  8
0
390
0
  6
Continuous
 62
     7
100
AcDbLine
 10
159.63175
 20
-49.75
 30
0.0
 11
159.650222
 21
-49.75
 31
0.0
  0
LINE
  5
198
100
AcDbEntity
  8
0
390
0
  6
Continuous
 62
     7
100
AcDbLine
 10
146.900222
 20
-49.75
 30
0.0
 11
155.400222
 21
-49.75
 31
0.0
  0
LINE
  5
199
100
AcDbEntity
  8
0
390
0
  6
Continuous
 62
     7
100
AcDbLine
 10
142.650222
 20
-49.75
 30
0.0
 11
146.900222
 21
-49.75
 31
0.0
  0
LINE
  5
19A
100
AcDbEntity
  8
0
390
0
  6
Continuous
 62
     7
100
AcDbLine
 10
159.62426
 20
-41.75
 30
0.0
 11
159.62426
 21
-48.999445
 31
0.0
  0
LINE
  5
19B
100
AcDbEntity
  8
0
390
0
  6
Continuous
 62
     7
100
AcDbLine
 10
159.650222
 20
-41.75
 30
0.0
 11
159.62426
 21
-41.75
 31
0.0
  0
LINE
  5
19C
100
AcDbEntity
  8
0
390
0
  6
Continuous
 62
     7
100
AcDbLine
 10
159.650222
 20
-48.999445
 30
0.0
 11
159.650222
 21
-41.75
 31
0.0
  0
LINE
  5
19D
100
AcDbEntity
  8
0
390
0
  6
Continuous
 62
     7
100
AcDbLine
 10
159.62426
 20
-48.999445
 30
0.0
 11
159.650222
 21
-48.999445
 31
0.0
  0
LINE
  5
19E
100
AcDbEntity
  8
0
390
0
  6
Continuous
 62
     7
100
AcDbLine
 10
151.12426
 20
-41.75
 30
0.0
 11
151.12426
 21
-48.999445
 31
0.0
  0
LINE
  5
19F
100
AcDbEntity
  8
0
390
0
  6
Continuous
 62
     7
100
AcDbLine
 10
151.176184
 20
-41.75
 30
0.0
 11
151.12426
 21
-41.75
 31
0.0
  0
LINE
  5
1A0
100
AcDbEntity
  8
0
390
0
  6
Continuous
 62
     7
100
AcDbLine
 10
151.176184
 20
-48.999445
 30
0.0
 11
151.176184
 21
-41.75
 31
0.0
  0
LINE
  5
1A1
100
AcDbEntity
  8
0
390
0
  6
Continuous
 62
     7
100
AcDbLine
 10
151.12426
 20
-48.999445
 30
0.0
 11
151.176184
 21
-48.999445
 31
0.0
  0
LINE
  5
1A2
100
AcDbEntity
  8
0
390
0
  6
Continuous
 62
     7
100
AcDbLine
 10
159.650222
 20
-48.999445
 30
0.0
 11
159.650222
 21
-49.75
 31
0.0
  0
LINE
  5
1A3
100
AcDbEntity
  8
0
390
0
  6
Continuous
 62
     7
100
AcDbLine
 10
142.650222
 20
-49.75
 30
0.0
 11
142.650482
 21
-49.727513
 31
0.0
  0
LINE
  5
1A4
100
AcDbEntity
  8
0
390
0
  6
Continuous
 62
     7
100
AcDbLine
 10
142.650482
 20
-49.727513
 30
0.0
 11
142.650222
 21
-48.999445
 31
0.0
  0
ARC
  5
1A5
100
AcDbEntity
  8
0
390
0
  6
Continuous
 62
     7
100
AcDbCircle
 10
155.581551
 20
-36.468028
 30
0.0
 40
13.28321
210
0.0
220
0.0
230
1.0
100
AcDbArc
 50
250.63109
 51
269.217834
  0
LINE
  5
1A6
100
AcDbEntity
  8
0
390
0
  6
Continuous
 62
     7
100
AcDbLine
 10
146.900222
 20
-49.75
 30
0.0
 11
155.400222
 21
-49.75
 31
0.0
  0
ARC
  5
1A7
100
AcDbEntity
  8
0
390
0
  6
Continuous
 62
     7
100
AcDbCircle
 10
146.719634
 20
-36.472197
 30
0.0
 40
13.279031
210
0.0
220
0.0
230
1.0
100
AcDbArc
 50
270.779216
 51
289.371861
  0
LINE
  5
1A8
100
AcDbEntity
  8
0
390
0
  6
Continuous
 62
     7
100
AcDbLine
 10
151.176184
 20
-48.999445
 30
0.0
 11
151.12426
 21
-48.999445
 31
0.0
  0
LINE
  5
1A9
100
AcDbEntity
  8
0
390
0
  6
Continuous
 62
     7
100
AcDbLine
 10
159.650222
 20
-48.999445
 30
0.0
 11
159.62426
 21
-48.999445
 31
0.0
  0
ARC
  5
1AA
100
AcDbEntity
  8
0
390
0
  6
Continuous
 62
     7
100
AcDbCircle
 10
155.219056
 20
-36.468943
 30
0.0
 40
13.282292
210
0.0
220
0.0
230
1.0
100
AcDbArc
 50
270.781519
 51
289.369558
  0
LINE
  5
1AB
100
AcDbEntity
  8
0
390
0
  6
Continuous
 62
     7
100
AcDbLine
 10
155.400222
 20
-49.75
 30
0.0
 11
159.650222
 21
-49.75
 31
0.0
  0
LINE
  5
1AC
100
AcDbEntity
  8
0
390
0
  6
Continuous
 62
     7
100
AcDbLine
 10
159.650222
 20
-49.75
 30
0.0
 11
159.650222
 21
-48.999445
 31
0.0
  0
LINE
  5
1AD
100
AcDbEntity
  8
0
390
0
  6
Continuous
 62
     7
100
AcDbLine
 10
155.251544
 20
-16.45
 30
0.0
 11
155.148958
 21
-16.45
 31
0.0
  0
LINE
  5
1AE
100
AcDbEntity
  8
0
390
0
  6
Continuous
 62
     7
100
AcDbLine
 10
155.750222
 20
-69.75
 30
0.0
 11
151.150222
 21
-69.75
 31
0.0
  0
LINE
  5
1AF
100
AcDbEntity
  8
0
390
0
  6
Continuous
 62
     7
100
AcDbLine
 10
151.150222
 20
-69.75
 30
0.0
 11
146.550222
 21
-69.75
 31
0.0
  0
LINE
  5
1B0
100
AcDbEntity
  8
0
390
0
  6
Continuous
 62
     7
100
AcDbLine
 10
155.750222
 20
-19.75
 30
0.0
 11
151.150222
 21
-19.75
 31
0.0
  0
LINE
  5
1B1
100
AcDbEntity
  8
0
390
0
  6
Continuous
 62
     7
100
AcDbLine
 10
151.150222
 20
-19.75
 30
0.0
 11
146.550222
 21
-19.75
 31
0.0
  0
SPLINE
  5
1B2
100
AcDbEntity
  8
0
390
0
  6
Continuous
 62
     7
100
AcDbSpline
210
0.0
220
0.0
230
1.0
 70
     4
 71
     3
 72
     8
 73
     4
 74
     0
 42
0.000001
 43
0.000001
 40
0.2494384183342177
 40
0.2494384183342177
 40
0.2494384183342177
 40
0.2494384183342177
 40
0.25
 40
0.25
 40
0.25
 40
0.25
 10
146.55022200543794
 20
-69.749999958296087
 30
0.0
 41
0.4999999999999997
 10
146.55022200543794
 20
-69.749999958296087
 30
0.0
 41
0.4999999999999997
 10
146.55023747976119
 20
-69.749999958296087
 30
0.0
 41
0.500000840997246
 10
146.55026842825163
 20
-69.749999958296087
 30
0.0
 41
0.5000025229917384
  0
LINE
  5
1B3
100
AcDbEntity
  8
0
390
0
  6
Continuous
 62
     7
100
AcDbLine
 10
146.550268
 20
-69.75
 30
0.0
 11
151.150222
 21
-69.75
 31
0.0
  0
LINE
  5
1B4
100
AcDbEntity
  8
0
390
0
  6
Continuous
 62
     7
100
AcDbLine
 10
155.750222
 20
-19.75
 30
0.0
 11
151.150222
 21
-19.75
 31
0.0
  0
LINE
  5
1B5
100
AcDbEntity
  8
0
390
0
  6
Continuous
 62
     7
100
AcDbLine
 10
151.150222
 20
-69.75
 30
0.0
 11
155.750222
 21
-69.75
 31
0.0
  0
LINE
  5
1B6
100
AcDbEntity
  8
0
390
0
  6
Continuous
 62
     7
100
AcDbLine
 10
151.150222
 20
-19.75
 30
0.0
 11
146.550222
 21
-19.75
 31
0.0
  0
LINE
  5
1B7
100
AcDbEntity
  8
0
390
0
  6
Continuous
 62
     7
100
AcDbLine
 10
163.650222
 20
19.25
 30
0.0
 11
163.650222
 21
-16.45
 31
0.0
  0
LINE
  5
1B8
100
AcDbEntity
  8
0
390
0
  6
Continuous
 62
     7
100
AcDbLine
 10
138.650222
 20
-16.45
 30
0.0
 11
138.650222
 21
19.25
 31
0.0
  0
LINE
  5
1B9
100
AcDbEntity
  8
0
390
0
  6
Continuous
 62
     7
100
AcDbLine
 10
163.650222
 20
-16.45
 30
0.0
 11
156.824384
 21
-16.45
 31
0.0
  0
LINE
  5
1BA
100
AcDbEntity
  8
0
390
0
  6
Continuous
 62
     7
100
AcDbLine
 10
156.824384
 20
-16.45
 30
0.0
 11
156.750222
 21
-16.45
 31
0.0
  0
LINE
  5
1BB
100
AcDbEntity
  8
0
390
0
  6
Continuous
 62
     7
100
AcDbLine
 10
156.750222
 20
-16.45
 30
0.0
 11
155.246866
 21
-16.45
 31
0.0
  0
LINE
  5
1BC
100
AcDbEntity
  8
0
390
0
  6
Continuous
 62
     7
100
AcDbLine
 10
155.246866
 20
-16.45
 30
0.0
 11
147.053944
 21
-16.45
 31
0.0
  0
LINE
  5
1BD
100
AcDbEntity
  8
0
390
0
  6
Continuous
 62
     7
100
AcDbLine
 10
147.053944
 20
-16.45
 30
0.0
 11
145.550222
 21
-16.45
 31
0.0
  0
LINE
  5
1BE
100
AcDbEntity
  8
0
390
0
  6
Continuous
 62
     7
100
AcDbLine
 10
145.550222
 20
-16.45
 30
0.0
 11
138.650222
 21
-16.45
 31
0.0
  0
LINE
  5
1BF
100
AcDbEntity
  8
0
390
0
  6
Continuous
 62
     7
100
AcDbLine
 10
163.650222
 20
-16.45
 30
0.0
 11
163.650222
 21
19.25
 31
0.0
  0
LINE
  5
1C0
100
AcDbEntity
  8
0
390
0
  6
Continuous
 62
     7
100
AcDbLine
 10
138.650222
 20
-16.45
 30
0.0
 11
138.650222
 21
19.25
 31
0.0
  0
LINE
  5
1C1
100
AcDbEntity
  8
0
390
0
  6
Continuous
 62
     7
100
AcDbLine
 10
138.650222
 20
-16.45
 30
0.0
 11
145.467415
 21
-16.45
 31
0.0
  0
LINE
  5
1C2
100
AcDbEntity
  8
0
390
0
  6
Continuous
 62
     7
100
AcDbLine
 10
145.467415
 20
-16.45
 30
0.0
 11
147.054194
 21
-16.45
 31
0.0
  0
LINE
  5
1C3
100
AcDbEntity
  8
0
390
0
  6
Continuous
 62
     7
100
AcDbLine
 10
147.054194
 20
-16.45
 30
0.0
 11
155.246424
 21
-16.45
 31
0.0
  0
LINE
  5
1C4
100
AcDbEntity
  8
0
390
0
  6
Continuous
 62
     7
100
AcDbLine
 10
155.246424
 20
-16.45
 30
0.0
 11
156.849893
 21
-16.45
 31
0.0
  0
LINE
  5
1C5
100
AcDbEntity
  8
0
390
0
  6
Continuous
 62
     7
100
AcDbLine
 10
156.849893
 20
-16.45
 30
0.0
 11
156.901934
 21
-16.45
 31
0.0
  0
LINE
  5
1C6
100
AcDbEntity
  8
0
390
0
  6
Continuous
 62
     7
100
AcDbLine
 10
156.901934
 20
-16.45
 30
0.0
 11
163.650222
 21
-16.45
 31
0.0
  0
LINE
  5
1C7
100
AcDbEntity
  8
0
390
0
  6
Continuous
 62
     7
100
AcDbLine
 10
155.250222
 20
-19.75
 30
0.0
 11
155.250222
 21
-16.45
 31
0.0
  0
LINE
  5
1C8
100
AcDbEntity
  8
0
390
0
  6
Continuous
 62
     7
100
AcDbLine
 10
147.050222
 20
-16.45
 30
0.0
 11
147.050222
 21
-19.75
 31
0.0
  0
LINE
  5
1C9
100
AcDbEntity
  8
0
390
0
  6
Continuous
 62
     7
100
AcDbLine
 10
155.750222
 20
-69.75
 30
0.0
 11
155.750222
 21
-49.75
 31
0.0
  0
LINE
  5
1CA
100
AcDbEntity
  8
0
390
0
  6
Continuous
 62
     7
100
AcDbLine
 10
155.750222
 20
-41.75
 30
0.0
 11
155.750222
 21
-19.75
 31
0.0
  0
LINE
  5
1CB
100
AcDbEntity
  8
0
390
0
  6
Continuous
 62
     7
100
AcDbLine
 10
146.550222
 20
-19.75
 30
0.0
 11
146.550222
 21
-41.75
 31
0.0
  0
LINE
  5
1CC
100
AcDbEntity
  8
0
390
0
  6
Continuous
 62
     7
100
AcDbLine
 10
146.550222
 20
-49.75
 30
0.0
 11
146.550222
 21
-69.75
 31
0.0
  0
LINE
  5
1CD
100
AcDbEntity
  8
0
390
0
  6
Continuous
 62
     7
100
AcDbLine
 10
138.650222
 20
19.25
 30
0.0
 11
143.550222
 21
19.25
 31
0.0
  0
ARC
  5
1CE
100
AcDbEntity
  8
0
390
0
  6
Continuous
 62
     7
100
AcDbCircle
 10
143.550223
 20
21.249999
 30
0.0
 40
1.999999
210
0.0
220
0.0
230
1.0
100
AcDbArc
 50
269.999957
 51
0.000043
  0
LINE
  5
1CF
100
AcDbEntity
  8
0
390
0
  6
Continuous
 62
     7
100
AcDbLine
 10
145.550222
 20
-16.45
 30
0.0
 11
145.550222
 21
23.00043
 31
0.0
  0
ARC
  5
1D0
100
AcDbEntity
  8
0
390
0
  6
Continuous
 62
     7
100
AcDbCircle
 10
151.150222
 20
23.00043
 30
0.0
 40
5.6
210
0.0
220
0.0
230
1.0
100
AcDbArc
 50
0.0
 51
180.0
  0
LINE
  5
1D1
100
AcDbEntity
  8
0
390
0
  6
Continuous
 62
     7
100
AcDbLine
 10
156.750222
 20
23.00043
 30
0.0
 11
156.750222
 21
-16.45
 31
0.0
  0
ARC
  5
1D2
100
AcDbEntity
  8
0
390
0
  6
Continuous
 62
     7
100
AcDbCircle
 10
158.750221
 20
21.249999
 30
0.0
 40
1.999999
210
0.0
220
0.0
230
1.0
100
AcDbArc
 50
179.999957
 51
270.000043
  0
LINE
  5
1D3
100
AcDbEntity
  8
0
390
0
  6
Continuous
 62
     7
100
AcDbLine
 10
158.750222
 20
19.25
 30
0.0
 11
163.650222
 21
19.25
 31
0.0
  0
ENDSEC
  0
SECTION
  2
OBJECTS
  0
DICTIONARY
  5
19
100
AcDbDictionary
280
     0
281
     1
  3
ACAD_GROUP
350
1A
  3
ACAD_MLINESTYLE
350
1B
  3
ACAD_LAYOUT
350
1E
  3
ACAD_PLOTSETTINGS
350
22
  3
ACAD_PLOTSTYLENAME
350
1F
  3
ACAD_WIPEOUT_VARS
350
23
  0
DICTIONARY
  5
1A
102
{ACAD_REACTORS
330
19
102
}
100
AcDbDictionary
280
     0
281
     1
  0
DICTIONARY
  5
1B
102
{ACAD_REACTORS
330
19
102
}
100
AcDbDictionary
280
     0
281
     1
  3
Standard
350
1C
  0
MLINESTYLE
  5
1C
102
{ACAD_REACTORS
330
1B
102
}
100
AcDbMlineStyle
  2
Standard
 70
     0
  3

 62
     0
 51
90.0
 52
90.0
 71
     2
 49
0.5
 62
   256
  6
ByLayer
 49
-0.5
 62
   256
  6
ByLayer
  0
ACDBDICTIONARYWDFLT
  5
1F
102
{ACAD_REACTORS
330
19
102
}
100
AcDbDictionary
281
     1
  3
Normal
350
1D
100
AcDbDictionaryWithDefault
340
1D
  0
ACDBPLACEHOLDER
  5
1D
102
{ACAD_REACTORS
330
1F
102
}
  0
LAYOUT
  5
20
102
{ACAD_REACTORS
330
1E
102
}
100
AcDbPlotSettings
  1

  2

  4

  6

 40
0.0
 41
0.0
 42
0.0
 43
0.0
 44
0.0
 45
0.0
 46
0.0
 47
0.0
 48
0.0
 49
0.0
140
0.0
141
0.0
142
1.0
143
1.0
 70
  1024
 72
     0
 73
     0
 74
     0
  7

 75
     0
147
1.0
148
0.0
149
0.0
100
AcDbLayout
  1
Model
 70
     0
 71
     1
 10
0.0
 20
0.0
 11
0.0
 21
0.0
 12
0.0
 22
0.0
 32
0.0
 14
0.0
 24
0.0
 34
0.0
 15
0.0
 25
0.0
 35
0.0
146
0.0
 13
0.0
 23
0.0
 33
0.0
 16
0.0
 26
0.0
 36
0.0
 17
0.0
 27
0.0
 37
0.0
 76
     0
330
A
331
0
345
0
346
0
  0
LAYOUT
  5
21
102
{ACAD_REACTORS
330
1E
102
}
100
AcDbPlotSettings
  1

  2

  4

  6

 40
0.0
 41
0.0
 42
0.0
 43
0.0
 44
0.0
 45
0.0
 46
0.0
 47
0.0
 48
0.0
 49
0.0
140
0.0
141
0.0
142
1.0
143
1.0
 70
     0
 72
     0
 73
     0
 74
     0
  7

 75
     0
147
1.0
148
0.0
149
0.0
100
AcDbLayout
  1
Layout1
 70
     0
 71
     2
 10
0.0
 20
0.0
 11
0.0
 21
0.0
 12
0.0
 22
0.0
 32
0.0
 14
0.0
 24
0.0
 34
0.0
 15
0.0
 25
0.0
 35
0.0
146
0.0
 13
0.0
 23
0.0
 33
0.0
 16
0.0
 26
0.0
 36
0.0
 17
0.0
 27
0.0
 37
0.0
 76
     0
330
B
331
0
345
0
346
0
  0
DICTIONARY
  5
1E
102
{ACAD_REACTORS
330
19
102
}
100
AcDbDictionary
280
     0
281
     1
  3
Layout1
350
21
  3
Model
350
20
  0
DICTIONARY
  5
22
102
{ACAD_REACTORS
330
19
102
}
100
AcDbDictionary
280
     0
281
     1
  0
WIPEOUTVARIABLES
  5
23
100
AcDbWipeoutVariables
 70
     1
  0
ENDSEC
  0
EOF
