  0
SECTION
  2
HEADER
  9
$ACADVER
  1
AC1015
  9
$ACADMAINTVER
 70
     6
  9
$DWGCODEPAGE
  3
DOS932
  9
$INSBASE
 10
0.0
 20
0.0
 30
0.0
  9
$EXTMIN
 10
-97.264301
 20
-9.9
 30
0.0
  9
$EXTMAX
 10
245.881662
 20
179.765249
 30
9.906
  9
$LIMMIN
 10
-97.264301
 20
-9.9
  9
$LIMMAX
 10
245.881662
 20
179.765249
  9
$ORTHOMODE
 70
     0
  9
$REGENMODE
 70
     1
  9
$FILLMODE
 70
     1
  9
$QTEXTMODE
 70
     0
  9
$MIRRTEXT
 70
     1
  9
$LTSCALE
 40
10.0
  9
$ATTMODE
 70
     1
  9
$TEXTSIZE
 40
0.2
  9
$TRACEWID
 40
0.05
  9
$TEXTSTYLE
  7
Standard
  9
$CLAYER
  8
0
  9
$CELTYPE
  6
Continuous
  9
$CECOLOR
 62
   256
  9
$CELTSCALE
 40
1.0
  9
$DISPSILH
 70
     0
  9
$DIMSCALE
 40
1.0
  9
$DIMASZ
 40
1.40208
  9
$DIMEXO
 40
1.40208
  9
$DIMDLI
 40
0.38
  9
$DIMRND
 40
0.0
  9
$DIMDLE
 40
0.0
  9
$DIMEXE
 40
1.05156
  9
$DIMTP
 40
0.0
  9
$DIMTM
 40
0.0
  9
$DIMTXT
 40
3.5052
  9
$DIMCEN
 40
0.09
  9
$DIMTSZ
 40
0.0
  9
$DIMTOL
 70
     0
  9
$DIMLIM
 70
     0
  9
$DIMTIH
 70
     0
  9
$DIMTOH
 70
     0
  9
$DIMSE1
 70
     0
  9
$DIMSE2
 70
     0
  9
$DIMTAD
 70
     1
  9
$DIMZIN
 70
     0
  9
$DIMBLK
  1

  9
$DIMASO
 70
     1
  9
$DIMSHO
 70
     1
  9
$DIMPOST
  1

  9
$DIMAPOST
  1

  9
$DIMALT
 70
     0
  9
$DIMALTD
 70
     2
  9
$DIMALTF
 40
25.4
  9
$DIMLFAC
 40
1.0
  9
$DIMTOFL
 70
     0
  9
$DIMTVP
 40
0.0
  9
$DIMTIX
 70
     0
  9
$DIMSOXD
 70
     0
  9
$DIMSAH
 70
     0
  9
$DIMBLK1
  1

  9
$DIMBLK2
  1

  9
$DIMSTYLE
  2
Standard
  9
$DIMCLRD
 70
     7
  9
$DIMCLRE
 70
     7
  9
$DIMCLRT
 70
     7
  9
$DIMTFAC
 40
0.5
  9
$DIMGAP
 40
1.7526
  9
$DIMJUST
 70
     0
  9
$DIMSD1
 70
     0
  9
$DIMSD2
 70
     0
  9
$DIMTOLJ
 70
     1
  9
$DIMTZIN
 70
     0
  9
$DIMALTZ
 70
     0
  9
$DIMALTTZ
 70
     0
  9
$DIMUPT
 70
     0
  9
$DIMDEC
 70
     2
  9
$DIMTDEC
 70
     4
  9
$DIMALTU
 70
     2
  9
$DIMALTTD
 70
     2
  9
$DIMTXSTY
  7
Standard
  9
$DIMAUNIT
 70
     0
  9
$DIMADEC
 70
     0
  9
$DIMALTRND
 40
0.0
  9
$DIMAZIN
 70
     0
  9
$DIMDSEP
 70
     0
  9
$DIMATFIT
 70
     3
  9
$DIMFRAC
 70
     0
  9
$DIMLDRBLK
  1

  9
$DIMLUNIT
 70
     2
  9
$DIMLWD
 70
     0
  9
$DIMLWE
 70
     0
  9
$DIMTMOVE
 70
     0
  9
$LUNITS
 70
     2
  9
$LUPREC
 70
     4
  9
$SKETCHINC
 40
0.1
  9
$FILLETRAD
 40
0.0
  9
$AUNITS
 70
     0
  9
$AUPREC
 70
     0
  9
$MENU
  1
acad
  9
$ELEVATION
 40
0.0
  9
$PELEVATION
 40
0.0
  9
$THICKNESS
 40
0.0
  9
$LIMCHECK
 70
     0
  9
$CHAMFERA
 40
0.0
  9
$CHAMFERB
 40
0.0
  9
$CHAMFERC
 40
0.0
  9
$CHAMFERD
 40
0.0
  9
$SKPOLY
 70
     0
  9
$TDCREATE
 40
2459788.457928241
  9
$TDUCREATE
 40
0.000000000
  9
$TDUPDATE
 40
2459788.082858796
  9
$TDUUPDATE
 40
0.000000000
  9
$TDINDWG
 40
0.0000000000
  9
$TDUSRTIMER
 40
0.0000000000
  9
$USRTIMER
 70
     1
  9
$ANGBASE
 50
0.0
  9
$ANGDIR
 70
     0
  9
$PDMODE
 70
     0
  9
$PDSIZE
 40
0.0
  9
$PLINEWID
 40
0.0
  9
$SPLFRAME
 70
     0
  9
$SPLINETYPE
 70
     6
  9
$SPLINESEGS
 70
     8
  9
$HANDSEED
  5
1F2
  9
$SURFTAB1
 70
     6
  9
$SURFTAB2
 70
     6
  9
$SURFTYPE
 70
     6
  9
$SURFU
 70
     6
  9
$SURFV
 70
     6
  9
$UCSBASE
  2

  9
$UCSNAME
  2

  9
$UCSORG
 10
0.0
 20
0.0
 30
0.0
  9
$UCSXDIR
 10
1.0
 20
0.0
 30
0.0
  9
$UCSYDIR
 10
0.0
 20
1.0
 30
0.0
  9
$UCSORTHOREF
  2

  9
$UCSORTHOVIEW
 70
     0
  9
$UCSORGTOP
 10
0.0
 20
0.0
 30
0.0
  9
$UCSORGBOTTOM
 10
0.0
 20
0.0
 30
0.0
  9
$UCSORGLEFT
 10
0.0
 20
0.0
 30
0.0
  9
$UCSORGRIGHT
 10
0.0
 20
0.0
 30
0.0
  9
$UCSORGFRONT
 10
0.0
 20
0.0
 30
0.0
  9
$UCSORGBACK
 10
0.0
 20
0.0
 30
0.0
  9
$PUCSBASE
  2

  9
$PUCSNAME
  2

  9
$PUCSORG
 10
0.0
 20
0.0
 30
0.0
  9
$PUCSXDIR
 10
1.0
 20
0.0
 30
0.0
  9
$PUCSYDIR
 10
0.0
 20
1.0
 30
0.0
  9
$PUCSORTHOREF
  2

  9
$PUCSORTHOVIEW
 70
     0
  9
$PUCSORGTOP
 10
0.0
 20
0.0
 30
0.0
  9
$PUCSORGBOTTOM
 10
0.0
 20
0.0
 30
0.0
  9
$PUCSORGLEFT
 10
0.0
 20
0.0
 30
0.0
  9
$PUCSORGRIGHT
 10
0.0
 20
0.0
 30
0.0
  9
$PUCSORGFRONT
 10
0.0
 20
0.0
 30
0.0
  9
$PUCSORGBACK
 10
0.0
 20
0.0
 30
0.0
  9
$USERI1
 70
     0
  9
$USERI2
 70
     0
  9
$USERI3
 70
     0
  9
$USERI4
 70
     0
  9
$USERI5
 70
     0
  9
$USERR1
 40
0.0
  9
$USERR2
 40
0.0
  9
$USERR3
 40
0.0
  9
$USERR4
 40
0.0
  9
$USERR5
 40
0.0
  9
$WORLDVIEW
 70
     1
  9
$SHADEDGE
 70
     3
  9
$SHADEDIF
 70
    70
  9
$TILEMODE
 70
     1
  9
$MAXACTVP
 70
    16
  9
$PINSBASE
 10
0.0
 20
0.0
 30
0.0
  9
$PLIMCHECK
 70
     0
  9
$PEXTMIN
 10
1.000000E+20
 20
1.000000E+20
 30
1.000000E+20
  9
$PEXTMAX
 10
-1.000000E+20
 20
-1.000000E+20
 30
-1.000000E+20
  9
$PLIMMIN
 10
0.0
 20
0.0
  9
$PLIMMAX
 10
12.0
 20
9.0
  9
$UNITMODE
 70
     0
  9
$VISRETAIN
 70
     0
  9
$PLINEGEN
 70
     1
  9
$PSLTSCALE
 70
     0
  9
$TREEDEPTH
 70
  3020
  9
$CMLSTYLE
  2
Standard
  9
$CMLJUST
 70
     0
  9
$CMLSCALE
 40
1.0
  9
$PROXYGRAPHICS
 70
     0
  9
$MEASUREMENT
 70
     0
  9
$CELWEIGHT
370
     0
  9
$ENDCAPS
280
     0
  9
$JOINSTYLE
280
     0
  9
$LWDISPLAY
290
     0
  9
$INSUNITS
 70
     0
  9
$HYPERLINKBASE
  1

  9
$STYLESHEET
  1

  9
$XEDIT
290
     1
  9
$CEPSNTYPE
380
     0
  9
$PSTYLEMODE
290
     1
  9
$FINGERPRINTGUID
  2

  9
$VERSIONGUID
  2

  9
$EXTNAMES
290
     1
  9
$PSVPSCALE
 40
0.0
  0
ENDSEC
  0
SECTION
  2
CLASSES
  0
CLASS
  1
LWPOLYLINE
  2
AcDbPolyline
  3
AutoCAD 2000
 90
        0
280
     0
281
     1
  0
CLASS
  1
IMAGE
  2
AcDbRasterImage
  3
ISM
 90
      127
280
     0
281
     1
  0
CLASS
  1
OLE2FRAME
  2
AcDbOle2Frame
  3
AutoCAD 2000
 90
        0
280
     0
281
     1
  0
CLASS
  1
HATCH
  2
AcDbHatch
  3
AutoCAD 2000
 90
        0
280
     0
281
     1
  0
CLASS
  1
DICTIONARYVAR
  2
AcDbDictionaryVar
  3
AutoCAD 2000
 90
        0
280
     0
281
     0
  0
CLASS
  1
RASTERVARIABLES
  2
AcDbRasterVariables
  3
ISM
 90
        0
280
     0
281
     0
  0
CLASS
  1
IMAGEDEF
  2
AcDbRasterImageDef
  3
ISM
 90
        0
280
     0
281
     0
  0
CLASS
  1
IMAGEDEF_REACTOR
  2
AcDbRasterImageDefReactor
  3
ISM
 90
        1
280
     0
281
     0
  0
CLASS
  1
IDBUFFER
  2
AcDbIdBuffer
  3
AutoCAD 2000
 90
        0
280
     0
281
     0
  0
CLASS
  1
SPATIAL_FILTER
  2
AcDbSpatialFilter
  3
AutoCAD 2000
 90
        0
280
     0
281
     0
  0
CLASS
  1
XRECORD
  2
AcDbXrecord
  3
AutoCAD 2000
 90
        0
280
     0
281
     0
  0
CLASS
  1
SORTENTSTABLE
  2
AcDbSortentsTable
  3
AutoCAD 2000
 90
        0
280
     0
281
     0
  0
CLASS
  1
LAYER_INDEX
  2
AcDbLayerIndex
  3
AutoCAD 2000
 90
        0
280
     0
281
     0
  0
CLASS
  1
SPATIAL_INDEX
  2
AcDbSpatialIndex
  3
AutoCAD 2000
 90
        0
280
     0
281
     0
  0
CLASS
  1
OBJECT_PTR
  2
CAseDLPNTableRecord
  3
"ASE-LPNTableRecord"
 90
        1
280
     0
281
     0
  0
CLASS
  1
LAYOUT
  2
AcDbLayout
  3
AutoCAD 2000
 90
        0
280
     0
281
     0
  0
CLASS
  1
PLOTSETTINGS
  2
AcDbPlotSettings
  3
AutoCAD 2000
 90
        0
280
     0
281
     0
  0
CLASS
  1
ACDBDICTIONARYWDFLT
  2
AcDbDictionaryWithDefault
  3
AutoCAD 2000
 90
        0
280
     0
281
     0
  0
CLASS
  1
ACDBPLACEHOLDER
  2
AcDbPlaceHolder
  3
AutoCAD 2000
 90
        0
280
     0
281
     0
  0
CLASS
  1
VBA_PROJECT
  2
AcDbVbaProject
  3
acadvba
 90
        0
280
     0
281
     0
  0
CLASS
  1
WIPEOUT
  2
AcDbWipeout
  3
WipeOut|AutoCAD Express Tool|expresstools@autodesk.com
 90
      127
280
     0
281
     1
  0
CLASS
  1
WIPEOUTVARIABLES
  2
AcDbWipeoutVariables
  3
WipeOut|AutoCAD Express Tool|expresstools@autodesk.com
 90
        0
280
     0
281
     0
  0
CLASS
  1
RTEXT
  2
RText
  3
RText|AutoCAD Express Tool|expresstools@autodesk.com
 90
        0
280
     0
281
     1
  0
CLASS
  1
ARCALIGNEDTEXT
  2
AcDbArcAlignedText
  3
ATEXT|AutoCAD Express Tool|expresstools@autodesk.com
 90
        0
280
     0
281
     1
  0
ENDSEC
  0
SECTION
  2
TABLES
  0
TABLE
  2
VPORT
  5
7
100
AcDbSymbolTable
 70
     1
  0
VPORT
  5
15
100
AcDbSymbolTableRecord
100
AcDbViewportTableRecord
  2
*ACTIVE
 70
     0
 10
0.0
 20
0.0
 11
1.0
 21
1.0
 12
6.591288
 22
4.579184
 13
0.0
 23
0.0
 14
1.0
 24
1.0
 15
0.0
 25
0.0
 16
0.0
 26
0.0
 36
1.0
 17
0.0
 27
0.0
 37
0.0
 40
9.158369
 41
0.688564
 42
50.0
 43
0.0
 44
0.0
 50
0.0
 51
0.0
 71
     0
 72
   100
 73
     1
 74
     1
 75
     0
 76
     0
 77
     0
 78
     0
281
     0
 65
     0
110
0.0
120
0.0
130
0.0
111
1.0
121
0.0
131
0.0
112
0.0
122
1.0
132
0.0
345
0
346
0
 79
     0
146
0.0
  0
ENDTAB
  0
TABLE
  2
LTYPE
  5
4
100
AcDbSymbolTable
 70
     3
  0
LTYPE
  5
11
100
AcDbSymbolTableRecord
100
AcDbLinetypeTableRecord
  2
ByBlock
 70
    64
  3

 72
    65
 73
     0
 40
0.0
  0
LTYPE
  5
12
100
AcDbSymbolTableRecord
100
AcDbLinetypeTableRecord
  2
ByLayer
 70
    64
  3

 72
    65
 73
     0
 40
0.0
  0
LTYPE
  5
13
100
AcDbSymbolTableRecord
100
AcDbLinetypeTableRecord
  2
Continuous
 70
    64
  3
Solid line
 72
    65
 73
     0
 40
0.0
  0
ENDTAB
  0
TABLE
  2
LAYER
  5
2
100
AcDbSymbolTable
 70
     1
  0
LAYER
  5
14
100
AcDbSymbolTableRecord
100
AcDbLayerTableRecord
  2
0
 70
     0
 62
     7
  6
Continuous
290
     1
370
    -3
390
1D
  0
ENDTAB
  0
TABLE
  2
STYLE
  5
3
100
AcDbSymbolTable
 70
     1
  0
STYLE
  5
17
100
AcDbSymbolTableRecord
100
AcDbTextStyleTableRecord
  2
Standard
 70
     0
 40
0.0
 41
1.0
 50
0.0
 71
     0
 42
0.0
  3
FG教科書体NT-M
  4

1001
ACAD
1000
FG教科書体NT-M
1071
        0
  0
ENDTAB
  0
TABLE
  2
VIEW
  5
5
100
AcDbSymbolTable
 70
     0
  0
ENDTAB
  0
TABLE
  2
UCS
  5
6
100
AcDbSymbolTable
 70
     0
  0
ENDTAB
  0
TABLE
  2
APPID
  5
8
100
AcDbSymbolTable
 70
     2
  0
APPID
  5
16
100
AcDbSymbolTableRecord
100
AcDbRegAppTableRecord
  2
ACAD
 70
     0
  0
APPID
  5
26
100
AcDbSymbolTableRecord
100
AcDbRegAppTableRecord
  2
TOPsolid_Design
 70
     0
  0
ENDTAB
  0
TABLE
  2
DIMSTYLE
  5
9
100
AcDbSymbolTable
 70
     1
100
AcDbDimStyleTable
 71
     0
  0
DIMSTYLE
105
18
100
AcDbSymbolTableRecord
100
AcDbDimStyleTableRecord
  2
Standard
 70
     0
  3

  4

 40
1.0
 41
1.40208
 42
1.40208
 43
0.38
 44
1.05156
 45
0.0
 46
0.0
 47
0.0
 48
0.0
 71
     0
 72
     0
 73
     0
 74
     0
 75
     0
 76
     0
 77
     1
 78
     0
 79
     0
140
3.5052
141
0.09
142
0.0
143
25.4
144
1.0
145
0.0
146
0.5
147
1.7526
148
0.0
170
     0
171
     2
172
     0
173
     0
174
     0
175
     0
176
     7
177
     7
178
     7
179
     0
271
     2
272
     4
273
     2
274
     2
275
     0
276
     0
277
     2
278
    46
279
     0
280
     0
281
     0
282
     0
283
     1
284
     0
285
     0
286
     0
288
     0
289
     3
340
17
341
0
342
0
343
0
344
0
371
    -2
372
    -2
  0
ENDTAB
  0
TABLE
  2
BLOCK_RECORD
  5
1
100
AcDbSymbolTable
 70
     0
  0
BLOCK_RECORD
  5
A
100
AcDbSymbolTableRecord
100
AcDbBlockTableRecord
  2
*MODEL_SPACE
340
20
  0
BLOCK_RECORD
  5
B
100
AcDbSymbolTableRecord
100
AcDbBlockTableRecord
  2
*PAPER_SPACE
340
21
  0
ENDTAB
  0
ENDSEC
  0
SECTION
  2
BLOCKS
  0
BLOCK
  5
D
100
AcDbEntity
  8
0
390
0
100
AcDbBlockBegin
  2
*MODEL_SPACE
 70
     0
 10
0.0
 20
0.0
 30
0.0
  3
*MODEL_SPACE
  1

  0
ENDBLK
  5
E
100
AcDbEntity
  8
0
390
0
100
AcDbBlockEnd
  0
BLOCK
  5
F
100
AcDbEntity
 67
     1
  8
0
390
0
100
AcDbBlockBegin
  2
*PAPER_SPACE
 70
     0
 10
0.0
 20
0.0
 30
0.0
  3
*PAPER_SPACE
  1

  0
ENDBLK
  5
10
100
AcDbEntity
 67
     1
  8
0
390
0
100
AcDbBlockEnd
  0
ENDSEC
  0
SECTION
  2
ENTITIES
  0
LINE
  5
27
100
AcDbEntity
  8
0
390
0
  6
Continuous
 62
     7
100
AcDbLine
 10
3.0
 20
9.9
 30
0.0
 11
3.0
 21
-9.9
 31
0.0
  0
LINE
  5
28
100
AcDbEntity
  8
0
390
0
  6
Continuous
 62
     7
100
AcDbLine
 10
4.5
 20
9.9
 30
0.0
 11
4.5
 21
-9.9
 31
0.0
  0
LINE
  5
29
100
AcDbEntity
  8
0
390
0
  6
Continuous
 62
     7
100
AcDbLine
 10
1.700962
 20
-9.15
 30
0.0
 11
1.700962
 21
9.15
 31
0.0
  0
LINE
  5
2A
100
AcDbEntity
  8
0
390
0
  6
Continuous
 62
     7
100
AcDbLine
 10
1.538612
 20
8.868802
 30
0.0
 11
1.349686
 21
8.226586
 31
0.0
  0
LINE
  5
2B
100
AcDbEntity
  8
0
390
0
  6
Continuous
 62
     7
100
AcDbLine
 10
1.349686
 20
-8.226587
 30
0.0
 11
1.538612
 21
-8.868803
 31
0.0
  0
ARC
  5
2C
100
AcDbEntity
  8
0
390
0
  6
Continuous
 62
     7
100
AcDbCircle
 10
4.605768
 20
-7.165092
 30
0.0
 40
3.424739
210
0.0
220
0.0
230
1.0
100
AcDbArc
 50
161.943832
 51
198.056168
  0
ARC
  5
2D
100
AcDbEntity
  8
0
390
0
  6
Continuous
 62
     7
100
AcDbCircle
 10
-9.017272
 20
-4.113294
 30
0.0
 40
10.556284
210
0.0
220
0.0
230
1.0
100
AcDbArc
 50
349.132289
 51
10.867711
  0
ARC
  5
2E
100
AcDbEntity
  8
0
390
0
  6
Continuous
 62
     7
100
AcDbCircle
 10
14.658139
 20
0.0
 30
0.0
 40
13.476721
210
0.0
220
0.0
230
1.0
100
AcDbArc
 50
170.936433
 51
189.063567
  0
ARC
  5
2F
100
AcDbEntity
  8
0
390
0
  6
Continuous
 62
     7
100
AcDbCircle
 10
-8.843144
 20
4.113293
 30
0.0
 40
10.385331
210
0.0
220
0.0
230
1.0
100
AcDbArc
 50
348.951163
 51
11.048837
  0
ARC
  5
30
100
AcDbEntity
  8
0
390
0
  6
Continuous
 62
     7
100
AcDbCircle
 10
4.620535
 20
7.165091
 30
0.0
 40
3.438782
210
0.0
220
0.0
230
1.0
100
AcDbArc
 50
162.020093
 51
197.979907
  0
ARC
  5
31
100
AcDbEntity
  8
0
390
0
  6
Continuous
 62
     7
100
AcDbCircle
 10
15.807483
 20
0.0
 30
0.0
 40
15.925174
210
0.0
220
0.0
230
1.0
100
AcDbArc
 50
171.661809
 51
188.338191
  0
LINE
  5
32
100
AcDbEntity
  8
0
390
0
  6
Continuous
 62
     7
100
AcDbLine
 10
1.349686
 20
2.12299
 30
0.0
 11
0.050648
 21
2.309401
 31
0.0
  0
LINE
  5
33
100
AcDbEntity
  8
0
390
0
  6
Continuous
 62
     7
100
AcDbLine
 10
1.349686
 20
-2.122991
 30
0.0
 11
0.050648
 21
-2.309402
 31
0.0
  0
ARC
  5
34
100
AcDbEntity
  8
0
390
0
  6
Continuous
 62
     7
100
AcDbCircle
 10
-5.927563
 20
-3.824946
 30
0.0
 40
6.167323
210
0.0
220
0.0
230
1.0
100
AcDbArc
 50
345.774561
 51
14.225439
  0
ELLIPSE
  5
35
100
AcDbEntity
  8
0
390
0
  6
Continuous
 62
     7
100
AcDbEllipse
 10
0.050648
 20
-6.639529
 30
0.0
 11
1.4417958480792692
 21
-0.4137931034482734
 31
0.0
210
0.0
220
0.0
230
1.0
 40
0.857244
 41
0.7468106621110051
 42
1.812032884313725
  0
ARC
  5
36
100
AcDbEntity
  8
0
390
0
  6
Continuous
 62
     7
100
AcDbCircle
 10
-5.831017
 20
3.824945
 30
0.0
 40
6.073785
210
0.0
220
0.0
230
1.0
100
AcDbArc
 50
345.550757
 51
14.449243
  0
ELLIPSE
  5
37
100
AcDbEntity
  8
0
390
0
  6
Continuous
 62
     7
100
AcDbEllipse
 10
0.050648
 20
6.639528
 30
0.0
 11
-1.4417958480792692
 21
-0.4137931034482734
 31
0.0
210
0.0
220
0.0
230
1.0
 40
0.857244
 41
1.3295597692760694
 42
2.3947819914787889
  0
LINE
  5
38
100
AcDbEntity
  8
0
390
0
  6
Continuous
 62
     7
100
AcDbLine
 10
-1.5
 20
-5.34049
 30
0.0
 11
-1.5
 21
-2.309402
 31
0.0
  0
ELLIPSE
  5
39
100
AcDbEntity
  8
0
390
0
  6
Continuous
 62
     7
100
AcDbEllipse
 10
-1.5
 20
-2.742414
 30
0.0
 11
3.0000000000000027
 21
0.0
 31
0.0
210
0.0
220
0.0
230
1.0
 40
0.866025
 41
3.1415926535897931
 42
4.7123889803846897
  0
LINE
  5
3A
100
AcDbEntity
  8
0
390
0
  6
Continuous
 62
     7
100
AcDbLine
 10
-4.5
 20
-2.309402
 30
0.0
 11
-4.5
 21
-2.742414
 31
0.0
  0
LINE
  5
3B
100
AcDbEntity
  8
0
390
0
  6
Continuous
 62
     7
100
AcDbLine
 10
-4.5
 20
-2.309402
 30
0.0
 11
-1.5
 21
-2.309402
 31
0.0
  0
LINE
  5
3C
100
AcDbEntity
  8
0
390
0
  6
Continuous
 62
     7
100
AcDbLine
 10
-1.5
 20
2.309401
 30
0.0
 11
-1.5
 21
5.340489
 31
0.0
  0
LINE
  5
3D
100
AcDbEntity
  8
0
390
0
  6
Continuous
 62
     7
100
AcDbLine
 10
-1.5
 20
2.309401
 30
0.0
 11
-4.5
 21
2.309401
 31
0.0
  0
LINE
  5
3E
100
AcDbEntity
  8
0
390
0
  6
Continuous
 62
     7
100
AcDbLine
 10
-4.5
 20
2.742413
 30
0.0
 11
-4.5
 21
2.309401
 31
0.0
  0
ELLIPSE
  5
3F
100
AcDbEntity
  8
0
390
0
  6
Continuous
 62
     7
100
AcDbEllipse
 10
-1.5
 20
2.742413
 30
0.0
 11
-3.0000000000000027
 21
0.0
 31
0.0
210
0.0
220
0.0
230
1.0
 40
0.866025
 41
4.7123889803846879
 42
6.2831853071795845
  0
LINE
  5
40
100
AcDbEntity
  8
0
390
0
  6
Continuous
 62
     7
100
AcDbLine
 10
-4.5
 20
-2.309402
 30
0.0
 11
-4.5
 21
2.309401
 31
0.0
  0
LINE
  5
41
100
AcDbEntity
  8
0
390
0
  6
Continuous
 62
     7
100
AcDbLine
 10
-1.5
 20
2.309401
 30
0.0
 11
-1.5
 21
-2.309402
 31
0.0
  0
LINE
  5
42
100
AcDbEntity
  8
0
390
0
  6
Continuous
 62
     7
100
AcDbLine
 10
0.050648
 20
2.309401
 30
0.0
 11
-1.5
 21
2.309401
 31
0.0
  0
LINE
  5
43
100
AcDbEntity
  8
0
390
0
  6
Continuous
 62
     7
100
AcDbLine
 10
-1.5
 20
-2.309402
 30
0.0
 11
0.050648
 21
-2.309402
 31
0.0
  0
LINE
  5
44
100
AcDbEntity
  8
0
390
0
  6
Continuous
 62
     7
100
AcDbLine
 10
-1.5
 20
5.340489
 30
0.0
 11
0.050648
 21
5.340489
 31
0.0
  0
LINE
  5
45
100
AcDbEntity
  8
0
390
0
  6
Continuous
 62
     7
100
AcDbLine
 10
0.050648
 20
-5.34049
 30
0.0
 11
-1.5
 21
-5.34049
 31
0.0
  0
ARC
  5
46
100
AcDbEntity
  8
0
390
0
  6
Continuous
 62
     7
100
AcDbCircle
 10
3.926736
 20
6.49519
 30
0.0
 40
4.044427
210
0.0
220
0.0
230
1.0
100
AcDbArc
 50
163.411018
 51
196.588982
  0
ELLIPSE
  5
47
100
AcDbEntity
  8
0
390
0
  6
Continuous
 62
     7
100
AcDbEllipse
 10
0.050648
 20
8.948929
 30
0.0
 11
-1.4417958480792692
 21
0.4137931034482734
 31
0.0
210
0.0
220
0.0
230
1.0
 40
0.857244
 41
1.8120328843137228
 42
2.8772551065164436
  0
ARC
  5
48
100
AcDbEntity
  8
0
390
0
  6
Continuous
 62
     7
100
AcDbCircle
 10
3.926736
 20
-6.495191
 30
0.0
 40
4.044427
210
0.0
220
0.0
230
1.0
100
AcDbArc
 50
163.411018
 51
196.588982
  0
ELLIPSE
  5
49
100
AcDbEntity
  8
0
390
0
  6
Continuous
 62
     7
100
AcDbEllipse
 10
0.050648
 20
-8.94893
 30
0.0
 11
1.4417958480792692
 21
0.4137931034482734
 31
0.0
210
0.0
220
0.0
230
1.0
 40
0.857244
 41
0.2643375470733508
 42
1.3295597692760694
  0
LINE
  5
4A
100
AcDbEntity
  8
0
390
0
  6
Continuous
 62
     7
100
AcDbLine
 10
-4.5
 20
2.742413
 30
0.0
 11
-4.5
 21
5.051814
 31
0.0
  0
ELLIPSE
  5
4B
100
AcDbEntity
  8
0
390
0
  6
Continuous
 62
     7
100
AcDbEllipse
 10
-1.5
 20
5.051814
 30
0.0
 11
3.0000000000000027
 21
0.0
 31
0.0
210
0.0
220
0.0
230
1.0
 40
0.866025
 41
1.5707963267948966
 42
3.1415926535897931
  0
LINE
  5
4C
100
AcDbEntity
  8
0
390
0
  6
Continuous
 62
     7
100
AcDbLine
 10
-1.5
 20
7.649891
 30
0.0
 11
-1.5
 21
5.340489
 31
0.0
  0
LINE
  5
4D
100
AcDbEntity
  8
0
390
0
  6
Continuous
 62
     7
100
AcDbLine
 10
0.050648
 20
7.649891
 30
0.0
 11
-1.5
 21
7.649891
 31
0.0
  0
ELLIPSE
  5
4E
100
AcDbEntity
  8
0
390
0
  6
Continuous
 62
     7
100
AcDbEllipse
 10
-1.5
 20
-5.051815
 30
0.0
 11
-3.0000000000000027
 21
0.0
 31
0.0
210
0.0
220
0.0
230
1.0
 40
0.866025
 41
6.2831853071795853
 42
7.8539816339744819
  0
LINE
  5
4F
100
AcDbEntity
  8
0
390
0
  6
Continuous
 62
     7
100
AcDbLine
 10
-4.5
 20
-5.051815
 30
0.0
 11
-4.5
 21
-2.742414
 31
0.0
  0
LINE
  5
50
100
AcDbEntity
  8
0
390
0
  6
Continuous
 62
     7
100
AcDbLine
 10
-1.5
 20
-5.34049
 30
0.0
 11
-1.5
 21
-7.649892
 31
0.0
  0
LINE
  5
51
100
AcDbEntity
  8
0
390
0
  6
Continuous
 62
     7
100
AcDbLine
 10
-1.5
 20
-7.649892
 30
0.0
 11
0.050648
 21
-7.649892
 31
0.0
  0
LINE
  5
52
100
AcDbEntity
  8
0
390
0
  6
Continuous
 62
     7
100
AcDbLine
 10
0.050648
 20
7.649891
 30
0.0
 11
0.239574
 21
8.118802
 31
0.0
  0
LINE
  5
53
100
AcDbEntity
  8
0
390
0
  6
Continuous
 62
     7
100
AcDbLine
 10
0.239574
 20
-8.118803
 30
0.0
 11
0.050648
 21
-7.649892
 31
0.0
  0
LINE
  5
54
100
AcDbEntity
  8
0
390
0
  6
Continuous
 62
     7
100
AcDbLine
 10
-4.5
 20
5.118802
 30
0.0
 11
-4.5
 21
5.051814
 31
0.0
  0
LINE
  5
55
100
AcDbEntity
  8
0
390
0
  6
Continuous
 62
     7
100
AcDbLine
 10
-1.5
 20
7.649891
 30
0.0
 11
-1.5
 21
8.118802
 31
0.0
  0
LINE
  5
56
100
AcDbEntity
  8
0
390
0
  6
Continuous
 62
     7
100
AcDbLine
 10
-1.5
 20
-8.118803
 30
0.0
 11
-1.5
 21
-7.649892
 31
0.0
  0
LINE
  5
57
100
AcDbEntity
  8
0
390
0
  6
Continuous
 62
     7
100
AcDbLine
 10
-4.5
 20
-5.051815
 30
0.0
 11
-4.5
 21
-5.118803
 31
0.0
  0
LINE
  5
58
100
AcDbEntity
  8
0
390
0
  6
Continuous
 62
     7
100
AcDbLine
 10
4.5
 20
9.9
 30
0.0
 11
3.0
 21
9.9
 31
0.0
  0
LINE
  5
59
100
AcDbEntity
  8
0
390
0
  6
Continuous
 62
     7
100
AcDbLine
 10
3.0
 20
-9.9
 30
0.0
 11
4.5
 21
-9.9
 31
0.0
  0
ARC
  5
5A
100
AcDbEntity
  8
0
390
0
  6
Continuous
 62
     7
100
AcDbCircle
 10
3.0
 20
-8.4
 30
0.0
 40
1.5
210
0.0
220
0.0
230
1.0
100
AcDbArc
 50
210.0
 51
270.0
  0
ARC
  5
5B
100
AcDbEntity
  8
0
390
0
  6
Continuous
 62
     7
100
AcDbCircle
 10
3.0
 20
8.4
 30
0.0
 40
1.5
210
0.0
220
0.0
230
1.0
100
AcDbArc
 50
90.0
 51
150.0
  0
LINE
  5
5C
100
AcDbEntity
  8
0
390
0
  6
Continuous
 62
     7
100
AcDbLine
 10
1.700962
 20
9.15
 30
0.0
 11
1.538612
 21
8.868802
 31
0.0
  0
LINE
  5
5D
100
AcDbEntity
  8
0
390
0
  6
Continuous
 62
     7
100
AcDbLine
 10
1.538612
 20
8.868802
 30
0.0
 11
1.538259
 21
8.86819
 31
0.0
  0
LINE
  5
5E
100
AcDbEntity
  8
0
390
0
  6
Continuous
 62
     7
100
AcDbLine
 10
1.538259
 20
-8.868191
 30
0.0
 11
1.538612
 21
-8.868803
 31
0.0
  0
LINE
  5
5F
100
AcDbEntity
  8
0
390
0
  6
Continuous
 62
     7
100
AcDbLine
 10
1.538612
 20
-8.868803
 30
0.0
 11
1.700962
 21
-9.15
 31
0.0
  0
ARC
  5
60
100
AcDbEntity
  8
0
390
0
  6
Continuous
 62
     7
100
AcDbCircle
 10
0.239574
 20
9.618802
 30
0.0
 40
1.5
210
0.0
220
0.0
230
1.0
100
AcDbArc
 50
270.0
 51
330.0
  0
ARC
  5
61
100
AcDbEntity
  8
0
390
0
  6
Continuous
 62
     7
100
AcDbCircle
 10
0.239574
 20
-9.618803
 30
0.0
 40
1.5
210
0.0
220
0.0
230
1.0
100
AcDbArc
 50
30.0
 51
90.0
  0
ARC
  5
62
100
AcDbEntity
  8
0
390
0
  6
Continuous
 62
     7
100
AcDbCircle
 10
-1.5
 20
5.118802
 30
0.0
 40
3.0
210
0.0
220
0.0
230
1.0
100
AcDbArc
 50
90.0
 51
180.0
  0
LINE
  5
63
100
AcDbEntity
  8
0
390
0
  6
Continuous
 62
     7
100
AcDbLine
 10
0.239436
 20
8.118802
 30
0.0
 11
-1.5
 21
8.118802
 31
0.0
  0
ARC
  5
64
100
AcDbEntity
  8
0
390
0
  6
Continuous
 62
     7
100
AcDbCircle
 10
-1.5
 20
-5.118803
 30
0.0
 40
3.0
210
0.0
220
0.0
230
1.0
100
AcDbArc
 50
180.0
 51
270.0
  0
LINE
  5
65
100
AcDbEntity
  8
0
390
0
  6
Continuous
 62
     7
100
AcDbLine
 10
-1.5
 20
-8.118803
 30
0.0
 11
0.239436
 21
-8.118803
 31
0.0
  0
CIRCLE
  5
66
100
AcDbEntity
  8
0
390
0
  6
Continuous
 62
     7
100
AcDbCircle
 10
84.402321
 20
0.0
 30
0.0
 40
8.478612
210
0.0
220
0.0
230
1.0
  0
CIRCLE
  5
67
100
AcDbEntity
  8
0
390
0
  6
Continuous
 62
     7
100
AcDbCircle
 10
84.402321
 20
0.0
 30
0.0
 40
9.9
210
0.0
220
0.0
230
1.0
  0
CIRCLE
  5
68
100
AcDbEntity
  8
0
390
0
  6
Continuous
 62
     7
100
AcDbCircle
 10
84.402321
 20
0.0
 30
0.0
 40
8.4
210
0.0
220
0.0
230
1.0
  0
ARC
  5
69
100
AcDbEntity
  8
0
390
0
  6
Continuous
 62
     7
100
AcDbCircle
 10
122.901118
 20
-66.681872
 30
0.0
 40
70.247427
210
0.0
220
0.0
230
1.0
100
AcDbArc
 50
117.647873
 51
122.352127
  0
ARC
  5
6A
100
AcDbEntity
  8
0
390
0
  6
Continuous
 62
     7
100
AcDbCircle
 10
89.510308
 20
-2.949098
 30
0.0
 40
1.702648
210
0.0
220
0.0
230
1.0
100
AcDbArc
 50
297.775619
 51
2.224381
  0
ARC
  5
6B
100
AcDbEntity
  8
0
390
0
  6
Continuous
 62
     7
100
AcDbCircle
 10
161.399914
 20
0.0
 30
0.0
 40
70.247427
210
0.0
220
0.0
230
1.0
100
AcDbArc
 50
177.647873
 51
182.352127
  0
ARC
  5
6C
100
AcDbEntity
  8
0
390
0
  6
Continuous
 62
     7
100
AcDbCircle
 10
89.510308
 20
2.949097
 30
0.0
 40
1.702648
210
0.0
220
0.0
230
1.0
100
AcDbArc
 50
357.775619
 51
62.224381
  0
ARC
  5
6D
100
AcDbEntity
  8
0
390
0
  6
Continuous
 62
     7
100
AcDbCircle
 10
122.901118
 20
66.681871
 30
0.0
 40
70.247427
210
0.0
220
0.0
230
1.0
100
AcDbArc
 50
237.647873
 51
242.352127
  0
ARC
  5
6E
100
AcDbEntity
  8
0
390
0
  6
Continuous
 62
     7
100
AcDbCircle
 10
84.402321
 20
5.898134
 30
0.0
 40
1.702699
210
0.0
220
0.0
230
1.0
100
AcDbArc
 50
57.776712
 51
122.223288
  0
ARC
  5
6F
100
AcDbEntity
  8
0
390
0
  6
Continuous
 62
     7
100
AcDbCircle
 10
45.903524
 20
66.681871
 30
0.0
 40
70.247427
210
0.0
220
0.0
230
0.9999999999999999
100
AcDbArc
 50
297.647873
 51
302.352127
  0
ARC
  5
70
100
AcDbEntity
  8
0
390
0
  6
Continuous
 62
     7
100
AcDbCircle
 10
79.294334
 20
2.949097
 30
0.0
 40
1.702648
210
0.0
220
0.0
230
1.0
100
AcDbArc
 50
117.775619
 51
182.224381
  0
ARC
  5
71
100
AcDbEntity
  8
0
390
0
  6
Continuous
 62
     7
100
AcDbCircle
 10
7.404728
 20
0.0
 30
0.0
 40
70.247427
210
0.0
220
0.0
230
1.0
100
AcDbArc
 50
357.647873
 51
2.352127
  0
ARC
  5
72
100
AcDbEntity
  8
0
390
0
  6
Continuous
 62
     7
100
AcDbCircle
 10
79.294334
 20
-2.949098
 30
0.0
 40
1.702648
210
0.0
220
0.0
230
1.0
100
AcDbArc
 50
177.775619
 51
242.224381
  0
ARC
  5
73
100
AcDbEntity
  8
0
390
0
  6
Continuous
 62
     7
100
AcDbCircle
 10
45.903524
 20
-66.681872
 30
0.0
 40
70.247427
210
0.0
220
0.0
230
1.0
100
AcDbArc
 50
57.647873
 51
62.352127
  0
ARC
  5
74
100
AcDbEntity
  8
0
390
0
  6
Continuous
 62
     7
100
AcDbCircle
 10
84.402321
 20
-5.898135
 30
0.0
 40
1.702699
210
0.0
220
0.0
230
1.0
100
AcDbArc
 50
237.776712
 51
302.223288
  0
ELLIPSE
  5
75
100
AcDbEntity
  8
0
390
0
  6
Continuous
 62
     7
100
AcDbEllipse
 10
83.402321
 20
8.082903
 30
0.0
 11
0.7500000000000007
 21
-1.2990381056766642
 31
0.0
210
0.0
220
0.0
230
1.0
 40
0.219605
 41
5.1908706008967131
 42
6.2831853071795862
  0
LINE
  5
76
100
AcDbEntity
  8
0
390
0
  6
Continuous
 62
     7
100
AcDbLine
 10
78.652321
 20
3.608439
 30
0.0
 11
84.152321
 21
6.783865
 31
0.0
  0
ELLIPSE
  5
77
100
AcDbEntity
  8
0
390
0
  6
Continuous
 62
     7
100
AcDbEllipse
 10
77.902321
 20
4.907477
 30
0.0
 11
-0.7500000000000007
 21
1.2990381056766365
 31
0.0
210
0.0
220
0.0
230
1.0
 40
0.219605
 41
3.1415926535897838
 42
4.233907359872644
  0
LINE
  5
78
100
AcDbEntity
  8
0
390
0
  6
Continuous
 62
     7
100
AcDbLine
 10
84.152321
 20
-6.783866
 30
0.0
 11
78.652321
 21
-3.60844
 31
0.0
  0
ELLIPSE
  5
79
100
AcDbEntity
  8
0
390
0
  6
Continuous
 62
     7
100
AcDbEllipse
 10
83.402321
 20
-8.082904
 30
0.0
 11
-0.7500000000000007
 21
-1.2990381056766642
 31
0.0
210
0.0
220
0.0
230
1.0
 40
0.219605
 41
3.1415926535897931
 42
4.2339073598726928
  0
ELLIPSE
  5
7A
100
AcDbEntity
  8
0
390
0
  6
Continuous
 62
     7
100
AcDbEllipse
 10
77.902321
 20
-4.907478
 30
0.0
 11
-0.7500000000000007
 21
-1.2990381056766642
 31
0.0
210
0.0
220
0.0
230
1.0
 40
0.219605
 41
2.0492779473068969
 42
3.1415926535897585
  0
LINE
  5
7B
100
AcDbEntity
  8
0
390
0
  6
Continuous
 62
     7
100
AcDbLine
 10
78.402321
 20
-3.175427
 30
0.0
 11
78.402321
 21
3.175426
 31
0.0
  0
ELLIPSE
  5
7C
100
AcDbEntity
  8
0
390
0
  6
Continuous
 62
     7
100
AcDbEllipse
 10
76.902321
 20
-3.175427
 30
0.0
 11
-1.5000000000000013
 21
0.0
 31
0.0
210
0.0
220
0.0
230
1.0
 40
0.219605
 41
3.1415926535897931
 42
4.2339073598726795
  0
ELLIPSE
  5
7D
100
AcDbEntity
  8
0
390
0
  6
Continuous
 62
     7
100
AcDbEllipse
 10
76.902321
 20
3.175426
 30
0.0
 11
-1.5000000000000013
 21
0.0
 31
0.0
210
0.0
220
0.0
230
1.0
 40
0.219605
 41
2.049277947306908
 42
3.1415926535897931
  0
ELLIPSE
  5
7E
100
AcDbEntity
  8
0
390
0
  6
Continuous
 62
     7
100
AcDbEllipse
 10
90.902321
 20
4.907477
 30
0.0
 11
-0.7500000000000007
 21
-1.2990381056766365
 31
0.0
210
0.0
220
0.0
230
1.0
 40
0.219605
 41
5.1908706008966998
 42
6.2831853071795463
  0
LINE
  5
7F
100
AcDbEntity
  8
0
390
0
  6
Continuous
 62
     7
100
AcDbLine
 10
84.652321
 20
6.783865
 30
0.0
 11
90.152321
 21
3.608439
 31
0.0
  0
ELLIPSE
  5
80
100
AcDbEntity
  8
0
390
0
  6
Continuous
 62
     7
100
AcDbEllipse
 10
85.402321
 20
8.082903
 30
0.0
 11
-0.7500000000000007
 21
-1.2990381056766642
 31
0.0
210
0.0
220
0.0
230
1.0
 40
0.219605
 41
0.0
 42
1.0923147062828997
  0
ELLIPSE
  5
81
100
AcDbEntity
  8
0
390
0
  6
Continuous
 62
     7
100
AcDbEllipse
 10
91.902321
 20
-3.175427
 30
0.0
 11
-1.5000000000000013
 21
0.0
 31
0.0
210
0.0
220
0.0
230
1.0
 40
0.219605
 41
5.1908706008967007
 42
6.2831853071795862
  0
LINE
  5
82
100
AcDbEntity
  8
0
390
0
  6
Continuous
 62
     7
100
AcDbLine
 10
90.402321
 20
3.175426
 30
0.0
 11
90.402321
 21
-3.175427
 31
0.0
  0
ELLIPSE
  5
83
100
AcDbEntity
  8
0
390
0
  6
Continuous
 62
     7
100
AcDbEllipse
 10
91.902321
 20
3.175426
 30
0.0
 11
-1.5000000000000013
 21
0.0
 31
0.0
210
0.0
220
0.0
230
1.0
 40
0.219605
 41
6.2831853071795862
 42
7.3755000134624717
  0
ELLIPSE
  5
84
100
AcDbEntity
  8
0
390
0
  6
Continuous
 62
     7
100
AcDbEllipse
 10
85.402321
 20
-8.082904
 30
0.0
 11
0.7500000000000007
 21
-1.2990381056766642
 31
0.0
210
0.0
220
0.0
230
1.0
 40
0.219605
 41
2.0492779473068938
 42
3.1415926535897931
  0
LINE
  5
85
100
AcDbEntity
  8
0
390
0
  6
Continuous
 62
     7
100
AcDbLine
 10
90.152321
 20
-3.60844
 30
0.0
 11
84.652321
 21
-6.783866
 31
0.0
  0
ELLIPSE
  5
86
100
AcDbEntity
  8
0
390
0
  6
Continuous
 62
     7
100
AcDbEllipse
 10
90.902321
 20
-4.907478
 30
0.0
 11
-0.7500000000000007
 21
1.2990381056766365
 31
0.0
210
0.0
220
0.0
230
1.0
 40
0.219605
 41
0.0000000000000414
 42
1.092314706282921
  0
POLYLINE
  5
87
100
AcDbEntity
  8
0
390
0
  6
Continuous
 62
     7
100
AcDb2dPolyline
 66
     1
 10
0.0
 20
0.0
 30
0.0
 40
0.1
 41
0.1
  0
VERTEX
  5
88
100
AcDbEntity
  8
0
390
0
 62
     7
100
AcDbVertex
100
AcDb2dVertex
 10
78.402321
 20
3.175426
 30
0.0
  0
VERTEX
  5
89
100
AcDbEntity
  8
0
390
0
 62
     7
100
AcDbVertex
100
AcDb2dVertex
 10
78.402539
 20
3.190211
 30
0.0
  0
VERTEX
  5
8A
100
AcDbEntity
  8
0
390
0
 62
     7
100
AcDbVertex
100
AcDb2dVertex
 10
78.403217
 20
3.205354
 30
0.0
  0
VERTEX
  5
8B
100
AcDbEntity
  8
0
390
0
 62
     7
100
AcDbVertex
100
AcDb2dVertex
 10
78.404388
 20
3.220845
 30
0.0
  0
VERTEX
  5
8C
100
AcDbEntity
  8
0
390
0
 62
     7
100
AcDbVertex
100
AcDb2dVertex
 10
78.40612
 20
3.236944
 30
0.0
  0
VERTEX
  5
8D
100
AcDbEntity
  8
0
390
0
 62
     7
100
AcDbVertex
100
AcDb2dVertex
 10
78.40844
 20
3.253407
 30
0.0
  0
VERTEX
  5
8E
100
AcDbEntity
  8
0
390
0
 62
     7
100
AcDbVertex
100
AcDb2dVertex
 10
78.411386
 20
3.270202
 30
0.0
  0
VERTEX
  5
8F
100
AcDbEntity
  8
0
390
0
 62
     7
100
AcDbVertex
100
AcDb2dVertex
 10
78.414355
 20
3.284463
 30
0.0
  0
VERTEX
  5
90
100
AcDbEntity
  8
0
390
0
 62
     7
100
AcDbVertex
100
AcDb2dVertex
 10
78.417814
 20
3.29893
 30
0.0
  0
VERTEX
  5
91
100
AcDbEntity
  8
0
390
0
 62
     7
100
AcDbVertex
100
AcDb2dVertex
 10
78.420431
 20
3.308774
 30
0.0
  0
VERTEX
  5
92
100
AcDbEntity
  8
0
390
0
 62
     7
100
AcDbVertex
100
AcDb2dVertex
 10
78.423287
 20
3.318694
 30
0.0
  0
VERTEX
  5
93
100
AcDbEntity
  8
0
390
0
 62
     7
100
AcDbVertex
100
AcDb2dVertex
 10
78.426385
 20
3.328675
 30
0.0
  0
VERTEX
  5
94
100
AcDbEntity
  8
0
390
0
 62
     7
100
AcDbVertex
100
AcDb2dVertex
 10
78.429637
 20
3.338428
 30
0.0
  0
VERTEX
  5
95
100
AcDbEntity
  8
0
390
0
 62
     7
100
AcDbVertex
100
AcDb2dVertex
 10
78.433127
 20
3.348218
 30
0.0
  0
VERTEX
  5
96
100
AcDbEntity
  8
0
390
0
 62
     7
100
AcDbVertex
100
AcDb2dVertex
 10
78.436881
 20
3.358089
 30
0.0
  0
VERTEX
  5
97
100
AcDbEntity
  8
0
390
0
 62
     7
100
AcDbVertex
100
AcDb2dVertex
 10
78.44088
 20
3.367968
 30
0.0
  0
VERTEX
  5
98
100
AcDbEntity
  8
0
390
0
 62
     7
100
AcDbVertex
100
AcDb2dVertex
 10
78.445214
 20
3.37804
 30
0.0
  0
VERTEX
  5
99
100
AcDbEntity
  8
0
390
0
 62
     7
100
AcDbVertex
100
AcDb2dVertex
 10
78.449799
 20
3.388085
 30
0.0
  0
VERTEX
  5
9A
100
AcDbEntity
  8
0
390
0
 62
     7
100
AcDbVertex
100
AcDb2dVertex
 10
78.454671
 20
3.398158
 30
0.0
  0
VERTEX
  5
9B
100
AcDbEntity
  8
0
390
0
 62
     7
100
AcDbVertex
100
AcDb2dVertex
 10
78.459789
 20
3.408161
 30
0.0
  0
VERTEX
  5
9C
100
AcDbEntity
  8
0
390
0
 62
     7
100
AcDbVertex
100
AcDb2dVertex
 10
78.465423
 20
3.41857
 30
0.0
  0
VERTEX
  5
9D
100
AcDbEntity
  8
0
390
0
 62
     7
100
AcDbVertex
100
AcDb2dVertex
 10
78.47131
 20
3.428861
 30
0.0
  0
VERTEX
  5
9E
100
AcDbEntity
  8
0
390
0
 62
     7
100
AcDbVertex
100
AcDb2dVertex
 10
78.477433
 20
3.438998
 30
0.0
  0
VERTEX
  5
9F
100
AcDbEntity
  8
0
390
0
 62
     7
100
AcDbVertex
100
AcDb2dVertex
 10
78.483916
 20
3.449172
 30
0.0
  0
VERTEX
  5
A0
100
AcDbEntity
  8
0
390
0
 62
     7
100
AcDbVertex
100
AcDb2dVertex
 10
78.490618
 20
3.459152
 30
0.0
  0
VERTEX
  5
A1
100
AcDbEntity
  8
0
390
0
 62
     7
100
AcDbVertex
100
AcDb2dVertex
 10
78.497514
 20
3.468907
 30
0.0
  0
VERTEX
  5
A2
100
AcDbEntity
  8
0
390
0
 62
     7
100
AcDbVertex
100
AcDb2dVertex
 10
78.504976
 20
3.478933
 30
0.0
  0
VERTEX
  5
A3
100
AcDbEntity
  8
0
390
0
 62
     7
100
AcDbVertex
100
AcDb2dVertex
 10
78.512613
 20
3.488679
 30
0.0
  0
VERTEX
  5
A4
100
AcDbEntity
  8
0
390
0
 62
     7
100
AcDbVertex
100
AcDb2dVertex
 10
78.520474
 20
3.498215
 30
0.0
  0
VERTEX
  5
A5
100
AcDbEntity
  8
0
390
0
 62
     7
100
AcDbVertex
100
AcDb2dVertex
 10
78.528469
 20
3.507442
 30
0.0
  0
VERTEX
  5
A6
100
AcDbEntity
  8
0
390
0
 62
     7
100
AcDbVertex
100
AcDb2dVertex
 10
78.536781
 20
3.516572
 30
0.0
  0
VERTEX
  5
A7
100
AcDbEntity
  8
0
390
0
 62
     7
100
AcDbVertex
100
AcDb2dVertex
 10
78.545192
 20
3.525367
 30
0.0
  0
VERTEX
  5
A8
100
AcDbEntity
  8
0
390
0
 62
     7
100
AcDbVertex
100
AcDb2dVertex
 10
78.55374
 20
3.533883
 30
0.0
  0
VERTEX
  5
A9
100
AcDbEntity
  8
0
390
0
 62
     7
100
AcDbVertex
100
AcDb2dVertex
 10
78.562351
 20
3.54206
 30
0.0
  0
VERTEX
  5
AA
100
AcDbEntity
  8
0
390
0
 62
     7
100
AcDbVertex
100
AcDb2dVertex
 10
78.573015
 20
3.551667
 30
0.0
  0
VERTEX
  5
AB
100
AcDbEntity
  8
0
390
0
 62
     7
100
AcDbVertex
100
AcDb2dVertex
 10
78.583721
 20
3.560775
 30
0.0
  0
VERTEX
  5
AC
100
AcDbEntity
  8
0
390
0
 62
     7
100
AcDbVertex
100
AcDb2dVertex
 10
78.594523
 20
3.569457
 30
0.0
  0
VERTEX
  5
AD
100
AcDbEntity
  8
0
390
0
 62
     7
100
AcDbVertex
100
AcDb2dVertex
 10
78.605326
 20
3.577662
 30
0.0
  0
VERTEX
  5
AE
100
AcDbEntity
  8
0
390
0
 62
     7
100
AcDbVertex
100
AcDb2dVertex
 10
78.617115
 20
3.586106
 30
0.0
  0
VERTEX
  5
AF
100
AcDbEntity
  8
0
390
0
 62
     7
100
AcDbVertex
100
AcDb2dVertex
 10
78.628867
 20
3.594022
 30
0.0
  0
VERTEX
  5
B0
100
AcDbEntity
  8
0
390
0
 62
     7
100
AcDbVertex
100
AcDb2dVertex
 10
78.640627
 20
3.601473
 30
0.0
  0
VERTEX
  5
B1
100
AcDbEntity
  8
0
390
0
 62
     7
100
AcDbVertex
100
AcDb2dVertex
 10
78.652321
 20
3.608439
 30
0.0
  0
SEQEND
  5
B2
100
AcDbEntity
  8
0
390
0
  0
POLYLINE
  5
B3
100
AcDbEntity
  8
0
390
0
  6
Continuous
 62
     7
100
AcDb2dPolyline
 66
     1
 10
0.0
 20
0.0
 30
0.0
 40
0.1
 41
0.1
  0
VERTEX
  5
B4
100
AcDbEntity
  8
0
390
0
 62
     7
100
AcDbVertex
100
AcDb2dVertex
 10
78.652321
 20
-3.60844
 30
0.0
  0
VERTEX
  5
B5
100
AcDbEntity
  8
0
390
0
 62
     7
100
AcDbVertex
100
AcDb2dVertex
 10
78.639626
 20
-3.600858
 30
0.0
  0
VERTEX
  5
B6
100
AcDbEntity
  8
0
390
0
 62
     7
100
AcDbVertex
100
AcDb2dVertex
 10
78.626851
 20
-3.5927
 30
0.0
  0
VERTEX
  5
B7
100
AcDbEntity
  8
0
390
0
 62
     7
100
AcDbVertex
100
AcDb2dVertex
 10
78.614021
 20
-3.58394
 30
0.0
  0
VERTEX
  5
B8
100
AcDbEntity
  8
0
390
0
 62
     7
100
AcDbVertex
100
AcDb2dVertex
 10
78.600945
 20
-3.574391
 30
0.0
  0
VERTEX
  5
B9
100
AcDbEntity
  8
0
390
0
 62
     7
100
AcDbVertex
100
AcDb2dVertex
 10
78.587847
 20
-3.56415
 30
0.0
  0
VERTEX
  5
BA
100
AcDbEntity
  8
0
390
0
 62
     7
100
AcDbVertex
100
AcDb2dVertex
 10
78.574775
 20
-3.553201
 30
0.0
  0
VERTEX
  5
BB
100
AcDbEntity
  8
0
390
0
 62
     7
100
AcDbVertex
100
AcDb2dVertex
 10
78.563909
 20
-3.543499
 30
0.0
  0
VERTEX
  5
BC
100
AcDbEntity
  8
0
390
0
 62
     7
100
AcDbVertex
100
AcDb2dVertex
 10
78.55311
 20
-3.53327
 30
0.0
  0
VERTEX
  5
BD
100
AcDbEntity
  8
0
390
0
 62
     7
100
AcDbVertex
100
AcDb2dVertex
 10
78.545893
 20
-3.526082
 30
0.0
  0
VERTEX
  5
BE
100
AcDbEntity
  8
0
390
0
 62
     7
100
AcDbVertex
100
AcDb2dVertex
 10
78.53873
 20
-3.518649
 30
0.0
  0
VERTEX
  5
BF
100
AcDbEntity
  8
0
390
0
 62
     7
100
AcDbVertex
100
AcDb2dVertex
 10
78.531636
 20
-3.510975
 30
0.0
  0
VERTEX
  5
C0
100
AcDbEntity
  8
0
390
0
 62
     7
100
AcDbVertex
100
AcDb2dVertex
 10
78.524815
 20
-3.503282
 30
0.0
  0
VERTEX
  5
C1
100
AcDbEntity
  8
0
390
0
 62
     7
100
AcDbVertex
100
AcDb2dVertex
 10
78.518082
 20
-3.495365
 30
0.0
  0
VERTEX
  5
C2
100
AcDbEntity
  8
0
390
0
 62
     7
100
AcDbVertex
100
AcDb2dVertex
 10
78.51141
 20
-3.487178
 30
0.0
  0
VERTEX
  5
C3
100
AcDbEntity
  8
0
390
0
 62
     7
100
AcDbVertex
100
AcDb2dVertex
 10
78.504854
 20
-3.478775
 30
0.0
  0
VERTEX
  5
C4
100
AcDbEntity
  8
0
390
0
 62
     7
100
AcDbVertex
100
AcDb2dVertex
 10
78.498298
 20
-3.469986
 30
0.0
  0
VERTEX
  5
C5
100
AcDbEntity
  8
0
390
0
 62
     7
100
AcDbVertex
100
AcDb2dVertex
 10
78.491892
 20
-3.460993
 30
0.0
  0
VERTEX
  5
C6
100
AcDbEntity
  8
0
390
0
 62
     7
100
AcDbVertex
100
AcDb2dVertex
 10
78.485605
 20
-3.451737
 30
0.0
  0
VERTEX
  5
C7
100
AcDbEntity
  8
0
390
0
 62
     7
100
AcDbVertex
100
AcDb2dVertex
 10
78.479501
 20
-3.442303
 30
0.0
  0
VERTEX
  5
C8
100
AcDbEntity
  8
0
390
0
 62
     7
100
AcDbVertex
100
AcDb2dVertex
 10
78.473303
 20
-3.43222
 30
0.0
  0
VERTEX
  5
C9
100
AcDbEntity
  8
0
390
0
 62
     7
100
AcDbVertex
100
AcDb2dVertex
 10
78.467335
 20
-3.421976
 30
0.0
  0
VERTEX
  5
CA
100
AcDbEntity
  8
0
390
0
 62
     7
100
AcDbVertex
100
AcDb2dVertex
 10
78.461617
 20
-3.411605
 30
0.0
  0
VERTEX
  5
CB
100
AcDbEntity
  8
0
390
0
 62
     7
100
AcDbVertex
100
AcDb2dVertex
 10
78.456048
 20
-3.400903
 30
0.0
  0
VERTEX
  5
CC
100
AcDbEntity
  8
0
390
0
 62
     7
100
AcDbVertex
100
AcDb2dVertex
 10
78.450756
 20
-3.390109
 30
0.0
  0
VERTEX
  5
CD
100
AcDbEntity
  8
0
390
0
 62
     7
100
AcDbVertex
100
AcDb2dVertex
 10
78.445755
 20
-3.37926
 30
0.0
  0
VERTEX
  5
CE
100
AcDbEntity
  8
0
390
0
 62
     7
100
AcDbVertex
100
AcDb2dVertex
 10
78.440804
 20
-3.367785
 30
0.0
  0
VERTEX
  5
CF
100
AcDbEntity
  8
0
390
0
 62
     7
100
AcDbVertex
100
AcDb2dVertex
 10
78.436182
 20
-3.356297
 30
0.0
  0
VERTEX
  5
D0
100
AcDbEntity
  8
0
390
0
 62
     7
100
AcDbVertex
100
AcDb2dVertex
 10
78.431854
 20
-3.344722
 30
0.0
  0
VERTEX
  5
D1
100
AcDbEntity
  8
0
390
0
 62
     7
100
AcDbVertex
100
AcDb2dVertex
 10
78.427861
 20
-3.333184
 30
0.0
  0
VERTEX
  5
D2
100
AcDbEntity
  8
0
390
0
 62
     7
100
AcDbVertex
100
AcDb2dVertex
 10
78.42411
 20
-3.321421
 30
0.0
  0
VERTEX
  5
D3
100
AcDbEntity
  8
0
390
0
 62
     7
100
AcDbVertex
100
AcDb2dVertex
 10
78.420699
 20
-3.30974
 30
0.0
  0
VERTEX
  5
D4
100
AcDbEntity
  8
0
390
0
 62
     7
100
AcDbVertex
100
AcDb2dVertex
 10
78.417598
 20
-3.298078
 30
0.0
  0
VERTEX
  5
D5
100
AcDbEntity
  8
0
390
0
 62
     7
100
AcDbVertex
100
AcDb2dVertex
 10
78.414822
 20
-3.286533
 30
0.0
  0
VERTEX
  5
D6
100
AcDbEntity
  8
0
390
0
 62
     7
100
AcDbVertex
100
AcDb2dVertex
 10
78.411834
 20
-3.272494
 30
0.0
  0
VERTEX
  5
D7
100
AcDbEntity
  8
0
390
0
 62
     7
100
AcDbVertex
100
AcDb2dVertex
 10
78.409299
 20
-3.258668
 30
0.0
  0
VERTEX
  5
D8
100
AcDbEntity
  8
0
390
0
 62
     7
100
AcDbVertex
100
AcDb2dVertex
 10
78.407181
 20
-3.244972
 30
0.0
  0
VERTEX
  5
D9
100
AcDbEntity
  8
0
390
0
 62
     7
100
AcDbVertex
100
AcDb2dVertex
 10
78.405477
 20
-3.231514
 30
0.0
  0
VERTEX
  5
DA
100
AcDbEntity
  8
0
390
0
 62
     7
100
AcDbVertex
100
AcDb2dVertex
 10
78.404059
 20
-3.217083
 30
0.0
  0
VERTEX
  5
DB
100
AcDbEntity
  8
0
390
0
 62
     7
100
AcDbVertex
100
AcDb2dVertex
 10
78.403079
 20
-3.202947
 30
0.0
  0
VERTEX
  5
DC
100
AcDbEntity
  8
0
390
0
 62
     7
100
AcDbVertex
100
AcDb2dVertex
 10
78.402506
 20
-3.189038
 30
0.0
  0
VERTEX
  5
DD
100
AcDbEntity
  8
0
390
0
 62
     7
100
AcDbVertex
100
AcDb2dVertex
 10
78.402321
 20
-3.175427
 30
0.0
  0
SEQEND
  5
DE
100
AcDbEntity
  8
0
390
0
  0
POLYLINE
  5
DF
100
AcDbEntity
  8
0
390
0
  6
Continuous
 62
     7
100
AcDb2dPolyline
 66
     1
 10
0.0
 20
0.0
 30
0.0
 40
0.1
 41
0.1
  0
VERTEX
  5
E0
100
AcDbEntity
  8
0
390
0
 62
     7
100
AcDbVertex
100
AcDb2dVertex
 10
84.152321
 20
6.783865
 30
0.0
  0
VERTEX
  5
E1
100
AcDbEntity
  8
0
390
0
 62
     7
100
AcDbVertex
100
AcDb2dVertex
 10
84.161942
 20
6.789279
 30
0.0
  0
VERTEX
  5
E2
100
AcDbEntity
  8
0
390
0
 62
     7
100
AcDbVertex
100
AcDb2dVertex
 10
84.17186
 20
6.794573
 30
0.0
  0
VERTEX
  5
E3
100
AcDbEntity
  8
0
390
0
 62
     7
100
AcDbVertex
100
AcDb2dVertex
 10
84.182117
 20
6.799751
 30
0.0
  0
VERTEX
  5
E4
100
AcDbEntity
  8
0
390
0
 62
     7
100
AcDbVertex
100
AcDb2dVertex
 10
84.192688
 20
6.804784
 30
0.0
  0
VERTEX
  5
E5
100
AcDbEntity
  8
0
390
0
 62
     7
100
AcDbVertex
100
AcDb2dVertex
 10
84.203711
 20
6.809714
 30
0.0
  0
VERTEX
  5
E6
100
AcDbEntity
  8
0
390
0
 62
     7
100
AcDbVertex
100
AcDb2dVertex
 10
84.215069
 20
6.814465
 30
0.0
  0
VERTEX
  5
E7
100
AcDbEntity
  8
0
390
0
 62
     7
100
AcDbVertex
100
AcDb2dVertex
 10
84.226828
 20
6.819043
 30
0.0
  0
VERTEX
  5
E8
100
AcDbEntity
  8
0
390
0
 62
     7
100
AcDbVertex
100
AcDb2dVertex
 10
84.238932
 20
6.823403
 30
0.0
  0
VERTEX
  5
E9
100
AcDbEntity
  8
0
390
0
 62
     7
100
AcDbVertex
100
AcDb2dVertex
 10
84.252751
 20
6.827957
 30
0.0
  0
VERTEX
  5
EA
100
AcDbEntity
  8
0
390
0
 62
     7
100
AcDbVertex
100
AcDb2dVertex
 10
84.267025
 20
6.8322
 30
0.0
  0
VERTEX
  5
EB
100
AcDbEntity
  8
0
390
0
 62
     7
100
AcDbVertex
100
AcDb2dVertex
 10
84.281824
 20
6.836116
 30
0.0
  0
VERTEX
  5
EC
100
AcDbEntity
  8
0
390
0
 62
     7
100
AcDbVertex
100
AcDb2dVertex
 10
84.289398
 20
6.837934
 30
0.0
  0
VERTEX
  5
ED
100
AcDbEntity
  8
0
390
0
 62
     7
100
AcDbVertex
100
AcDb2dVertex
 10
84.297071
 20
6.839649
 30
0.0
  0
VERTEX
  5
EE
100
AcDbEntity
  8
0
390
0
 62
     7
100
AcDbVertex
100
AcDb2dVertex
 10
84.307143
 20
6.84171
 30
0.0
  0
VERTEX
  5
EF
100
AcDbEntity
  8
0
390
0
 62
     7
100
AcDbVertex
100
AcDb2dVertex
 10
84.317366
 20
6.843582
 30
0.0
  0
VERTEX
  5
F0
100
AcDbEntity
  8
0
390
0
 62
     7
100
AcDbVertex
100
AcDb2dVertex
 10
84.327792
 20
6.845267
 30
0.0
  0
VERTEX
  5
F1
100
AcDbEntity
  8
0
390
0
 62
     7
100
AcDbVertex
100
AcDb2dVertex
 10
84.338347
 20
6.846743
 30
0.0
  0
VERTEX
  5
F2
100
AcDbEntity
  8
0
390
0
 62
     7
100
AcDbVertex
100
AcDb2dVertex
 10
84.349237
 20
6.848026
 30
0.0
  0
VERTEX
  5
F3
100
AcDbEntity
  8
0
390
0
 62
     7
100
AcDbVertex
100
AcDb2dVertex
 10
84.360228
 20
6.849077
 30
0.0
  0
VERTEX
  5
F4
100
AcDbEntity
  8
0
390
0
 62
     7
100
AcDbVertex
100
AcDb2dVertex
 10
84.371387
 20
6.849895
 30
0.0
  0
VERTEX
  5
F5
100
AcDbEntity
  8
0
390
0
 62
     7
100
AcDbVertex
100
AcDb2dVertex
 10
84.38261
 20
6.850464
 30
0.0
  0
VERTEX
  5
F6
100
AcDbEntity
  8
0
390
0
 62
     7
100
AcDbVertex
100
AcDb2dVertex
 10
84.391459
 20
6.850734
 30
0.0
  0
VERTEX
  5
F7
100
AcDbEntity
  8
0
390
0
 62
     7
100
AcDbVertex
100
AcDb2dVertex
 10
84.400323
 20
6.850848
 30
0.0
  0
VERTEX
  5
F8
100
AcDbEntity
  8
0
390
0
 62
     7
100
AcDbVertex
100
AcDb2dVertex
 10
84.409234
 20
6.850805
 30
0.0
  0
VERTEX
  5
F9
100
AcDbEntity
  8
0
390
0
 62
     7
100
AcDbVertex
100
AcDb2dVertex
 10
84.418137
 20
6.850602
 30
0.0
  0
VERTEX
  5
FA
100
AcDbEntity
  8
0
390
0
 62
     7
100
AcDbVertex
100
AcDb2dVertex
 10
84.42716
 20
6.850235
 30
0.0
  0
VERTEX
  5
FB
100
AcDbEntity
  8
0
390
0
 62
     7
100
AcDbVertex
100
AcDb2dVertex
 10
84.43615
 20
6.849707
 30
0.0
  0
VERTEX
  5
FC
100
AcDbEntity
  8
0
390
0
 62
     7
100
AcDbVertex
100
AcDb2dVertex
 10
84.445142
 20
6.849015
 30
0.0
  0
VERTEX
  5
FD
100
AcDbEntity
  8
0
390
0
 62
     7
100
AcDbVertex
100
AcDb2dVertex
 10
84.454079
 20
6.848166
 30
0.0
  0
VERTEX
  5
FE
100
AcDbEntity
  8
0
390
0
 62
     7
100
AcDbVertex
100
AcDb2dVertex
 10
84.466493
 20
6.846717
 30
0.0
  0
VERTEX
  5
FF
100
AcDbEntity
  8
0
390
0
 62
     7
100
AcDbVertex
100
AcDb2dVertex
 10
84.478752
 20
6.844976
 30
0.0
  0
VERTEX
  5
100
100
AcDbEntity
  8
0
390
0
 62
     7
100
AcDbVertex
100
AcDb2dVertex
 10
84.490941
 20
6.842936
 30
0.0
  0
VERTEX
  5
101
100
AcDbEntity
  8
0
390
0
 62
     7
100
AcDbVertex
100
AcDb2dVertex
 10
84.502929
 20
6.840626
 30
0.0
  0
VERTEX
  5
102
100
AcDbEntity
  8
0
390
0
 62
     7
100
AcDbVertex
100
AcDb2dVertex
 10
84.514992
 20
6.837992
 30
0.0
  0
VERTEX
  5
103
100
AcDbEntity
  8
0
390
0
 62
     7
100
AcDbVertex
100
AcDb2dVertex
 10
84.526814
 20
6.835106
 30
0.0
  0
VERTEX
  5
104
100
AcDbEntity
  8
0
390
0
 62
     7
100
AcDbVertex
100
AcDb2dVertex
 10
84.538464
 20
6.831961
 30
0.0
  0
VERTEX
  5
105
100
AcDbEntity
  8
0
390
0
 62
     7
100
AcDbVertex
100
AcDb2dVertex
 10
84.54985
 20
6.828592
 30
0.0
  0
VERTEX
  5
106
100
AcDbEntity
  8
0
390
0
 62
     7
100
AcDbVertex
100
AcDb2dVertex
 10
84.563489
 20
6.824165
 30
0.0
  0
VERTEX
  5
107
100
AcDbEntity
  8
0
390
0
 62
     7
100
AcDbVertex
100
AcDb2dVertex
 10
84.576743
 20
6.819443
 30
0.0
  0
VERTEX
  5
108
100
AcDbEntity
  8
0
390
0
 62
     7
100
AcDbVertex
100
AcDb2dVertex
 10
84.589653
 20
6.814433
 30
0.0
  0
VERTEX
  5
109
100
AcDbEntity
  8
0
390
0
 62
     7
100
AcDbVertex
100
AcDb2dVertex
 10
84.60217
 20
6.809176
 30
0.0
  0
VERTEX
  5
10A
100
AcDbEntity
  8
0
390
0
 62
     7
100
AcDbVertex
100
AcDb2dVertex
 10
84.615368
 20
6.803192
 30
0.0
  0
VERTEX
  5
10B
100
AcDbEntity
  8
0
390
0
 62
     7
100
AcDbVertex
100
AcDb2dVertex
 10
84.628109
 20
6.796969
 30
0.0
  0
VERTEX
  5
10C
100
AcDbEntity
  8
0
390
0
 62
     7
100
AcDbVertex
100
AcDb2dVertex
 10
84.640434
 20
6.790514
 30
0.0
  0
VERTEX
  5
10D
100
AcDbEntity
  8
0
390
0
 62
     7
100
AcDbVertex
100
AcDb2dVertex
 10
84.652321
 20
6.783865
 30
0.0
  0
SEQEND
  5
10E
100
AcDbEntity
  8
0
390
0
  0
POLYLINE
  5
10F
100
AcDbEntity
  8
0
390
0
  6
Continuous
 62
     7
100
AcDb2dPolyline
 66
     1
 10
0.0
 20
0.0
 30
0.0
 40
0.1
 41
0.1
  0
VERTEX
  5
110
100
AcDbEntity
  8
0
390
0
 62
     7
100
AcDbVertex
100
AcDb2dVertex
 10
84.652321
 20
-6.783866
 30
0.0
  0
VERTEX
  5
111
100
AcDbEntity
  8
0
390
0
 62
     7
100
AcDbVertex
100
AcDb2dVertex
 10
84.6427
 20
-6.78928
 30
0.0
  0
VERTEX
  5
112
100
AcDbEntity
  8
0
390
0
 62
     7
100
AcDbVertex
100
AcDb2dVertex
 10
84.632782
 20
-6.794574
 30
0.0
  0
VERTEX
  5
113
100
AcDbEntity
  8
0
390
0
 62
     7
100
AcDbVertex
100
AcDb2dVertex
 10
84.622525
 20
-6.799752
 30
0.0
  0
VERTEX
  5
114
100
AcDbEntity
  8
0
390
0
 62
     7
100
AcDbVertex
100
AcDb2dVertex
 10
84.611954
 20
-6.804785
 30
0.0
  0
VERTEX
  5
115
100
AcDbEntity
  8
0
390
0
 62
     7
100
AcDbVertex
100
AcDb2dVertex
 10
84.600931
 20
-6.809715
 30
0.0
  0
VERTEX
  5
116
100
AcDbEntity
  8
0
390
0
 62
     7
100
AcDbVertex
100
AcDb2dVertex
 10
84.589573
 20
-6.814466
 30
0.0
  0
VERTEX
  5
117
100
AcDbEntity
  8
0
390
0
 62
     7
100
AcDbVertex
100
AcDb2dVertex
 10
84.577814
 20
-6.819044
 30
0.0
  0
VERTEX
  5
118
100
AcDbEntity
  8
0
390
0
 62
     7
100
AcDbVertex
100
AcDb2dVertex
 10
84.56571
 20
-6.823404
 30
0.0
  0
VERTEX
  5
119
100
AcDbEntity
  8
0
390
0
 62
     7
100
AcDbVertex
100
AcDb2dVertex
 10
84.551891
 20
-6.827958
 30
0.0
  0
VERTEX
  5
11A
100
AcDbEntity
  8
0
390
0
 62
     7
100
AcDbVertex
100
AcDb2dVertex
 10
84.537617
 20
-6.832201
 30
0.0
  0
VERTEX
  5
11B
100
AcDbEntity
  8
0
390
0
 62
     7
100
AcDbVertex
100
AcDb2dVertex
 10
84.522818
 20
-6.836117
 30
0.0
  0
VERTEX
  5
11C
100
AcDbEntity
  8
0
390
0
 62
     7
100
AcDbVertex
100
AcDb2dVertex
 10
84.515244
 20
-6.837935
 30
0.0
  0
VERTEX
  5
11D
100
AcDbEntity
  8
0
390
0
 62
     7
100
AcDbVertex
100
AcDb2dVertex
 10
84.507571
 20
-6.83965
 30
0.0
  0
VERTEX
  5
11E
100
AcDbEntity
  8
0
390
0
 62
     7
100
AcDbVertex
100
AcDb2dVertex
 10
84.497499
 20
-6.841711
 30
0.0
  0
VERTEX
  5
11F
100
AcDbEntity
  8
0
390
0
 62
     7
100
AcDbVertex
100
AcDb2dVertex
 10
84.487276
 20
-6.843583
 30
0.0
  0
VERTEX
  5
120
100
AcDbEntity
  8
0
390
0
 62
     7
100
AcDbVertex
100
AcDb2dVertex
 10
84.47685
 20
-6.845268
 30
0.0
  0
VERTEX
  5
121
100
AcDbEntity
  8
0
390
0
 62
     7
100
AcDbVertex
100
AcDb2dVertex
 10
84.466295
 20
-6.846744
 30
0.0
  0
VERTEX
  5
122
100
AcDbEntity
  8
0
390
0
 62
     7
100
AcDbVertex
100
AcDb2dVertex
 10
84.455405
 20
-6.848027
 30
0.0
  0
VERTEX
  5
123
100
AcDbEntity
  8
0
390
0
 62
     7
100
AcDbVertex
100
AcDb2dVertex
 10
84.444414
 20
-6.849078
 30
0.0
  0
VERTEX
  5
124
100
AcDbEntity
  8
0
390
0
 62
     7
100
AcDbVertex
100
AcDb2dVertex
 10
84.433255
 20
-6.849896
 30
0.0
  0
VERTEX
  5
125
100
AcDbEntity
  8
0
390
0
 62
     7
100
AcDbVertex
100
AcDb2dVertex
 10
84.422032
 20
-6.850465
 30
0.0
  0
VERTEX
  5
126
100
AcDbEntity
  8
0
390
0
 62
     7
100
AcDbVertex
100
AcDb2dVertex
 10
84.413183
 20
-6.850735
 30
0.0
  0
VERTEX
  5
127
100
AcDbEntity
  8
0
390
0
 62
     7
100
AcDbVertex
100
AcDb2dVertex
 10
84.40432
 20
-6.850849
 30
0.0
  0
VERTEX
  5
128
100
AcDbEntity
  8
0
390
0
 62
     7
100
AcDbVertex
100
AcDb2dVertex
 10
84.395408
 20
-6.850806
 30
0.0
  0
VERTEX
  5
129
100
AcDbEntity
  8
0
390
0
 62
     7
100
AcDbVertex
100
AcDb2dVertex
 10
84.386505
 20
-6.850603
 30
0.0
  0
VERTEX
  5
12A
100
AcDbEntity
  8
0
390
0
 62
     7
100
AcDbVertex
100
AcDb2dVertex
 10
84.377482
 20
-6.850236
 30
0.0
  0
VERTEX
  5
12B
100
AcDbEntity
  8
0
390
0
 62
     7
100
AcDbVertex
100
AcDb2dVertex
 10
84.368492
 20
-6.849708
 30
0.0
  0
VERTEX
  5
12C
100
AcDbEntity
  8
0
390
0
 62
     7
100
AcDbVertex
100
AcDb2dVertex
 10
84.3595
 20
-6.849016
 30
0.0
  0
VERTEX
  5
12D
100
AcDbEntity
  8
0
390
0
 62
     7
100
AcDbVertex
100
AcDb2dVertex
 10
84.350563
 20
-6.848167
 30
0.0
  0
VERTEX
  5
12E
100
AcDbEntity
  8
0
390
0
 62
     7
100
AcDbVertex
100
AcDb2dVertex
 10
84.338149
 20
-6.846718
 30
0.0
  0
VERTEX
  5
12F
100
AcDbEntity
  8
0
390
0
 62
     7
100
AcDbVertex
100
AcDb2dVertex
 10
84.32589
 20
-6.844977
 30
0.0
  0
VERTEX
  5
130
100
AcDbEntity
  8
0
390
0
 62
     7
100
AcDbVertex
100
AcDb2dVertex
 10
84.313701
 20
-6.842937
 30
0.0
  0
VERTEX
  5
131
100
AcDbEntity
  8
0
390
0
 62
     7
100
AcDbVertex
100
AcDb2dVertex
 10
84.301713
 20
-6.840627
 30
0.0
  0
VERTEX
  5
132
100
AcDbEntity
  8
0
390
0
 62
     7
100
AcDbVertex
100
AcDb2dVertex
 10
84.28965
 20
-6.837993
 30
0.0
  0
VERTEX
  5
133
100
AcDbEntity
  8
0
390
0
 62
     7
100
AcDbVertex
100
AcDb2dVertex
 10
84.277828
 20
-6.835107
 30
0.0
  0
VERTEX
  5
134
100
AcDbEntity
  8
0
390
0
 62
     7
100
AcDbVertex
100
AcDb2dVertex
 10
84.266178
 20
-6.831962
 30
0.0
  0
VERTEX
  5
135
100
AcDbEntity
  8
0
390
0
 62
     7
100
AcDbVertex
100
AcDb2dVertex
 10
84.254792
 20
-6.828593
 30
0.0
  0
VERTEX
  5
136
100
AcDbEntity
  8
0
390
0
 62
     7
100
AcDbVertex
100
AcDb2dVertex
 10
84.241153
 20
-6.824166
 30
0.0
  0
VERTEX
  5
137
100
AcDbEntity
  8
0
390
0
 62
     7
100
AcDbVertex
100
AcDb2dVertex
 10
84.227899
 20
-6.819444
 30
0.0
  0
VERTEX
  5
138
100
AcDbEntity
  8
0
390
0
 62
     7
100
AcDbVertex
100
AcDb2dVertex
 10
84.214989
 20
-6.814434
 30
0.0
  0
VERTEX
  5
139
100
AcDbEntity
  8
0
390
0
 62
     7
100
AcDbVertex
100
AcDb2dVertex
 10
84.202472
 20
-6.809177
 30
0.0
  0
VERTEX
  5
13A
100
AcDbEntity
  8
0
390
0
 62
     7
100
AcDbVertex
100
AcDb2dVertex
 10
84.189274
 20
-6.803193
 30
0.0
  0
VERTEX
  5
13B
100
AcDbEntity
  8
0
390
0
 62
     7
100
AcDbVertex
100
AcDb2dVertex
 10
84.176533
 20
-6.79697
 30
0.0
  0
VERTEX
  5
13C
100
AcDbEntity
  8
0
390
0
 62
     7
100
AcDbVertex
100
AcDb2dVertex
 10
84.164208
 20
-6.790515
 30
0.0
  0
VERTEX
  5
13D
100
AcDbEntity
  8
0
390
0
 62
     7
100
AcDbVertex
100
AcDb2dVertex
 10
84.152321
 20
-6.783866
 30
0.0
  0
SEQEND
  5
13E
100
AcDbEntity
  8
0
390
0
  0
POLYLINE
  5
13F
100
AcDbEntity
  8
0
390
0
  6
Continuous
 62
     7
100
AcDb2dPolyline
 66
     1
 10
0.0
 20
0.0
 30
0.0
 40
0.1
 41
0.1
  0
VERTEX
  5
140
100
AcDbEntity
  8
0
390
0
 62
     7
100
AcDbVertex
100
AcDb2dVertex
 10
90.152321
 20
3.608439
 30
0.0
  0
VERTEX
  5
141
100
AcDbEntity
  8
0
390
0
 62
     7
100
AcDbVertex
100
AcDb2dVertex
 10
90.165016
 20
3.600857
 30
0.0
  0
VERTEX
  5
142
100
AcDbEntity
  8
0
390
0
 62
     7
100
AcDbVertex
100
AcDb2dVertex
 10
90.177791
 20
3.592699
 30
0.0
  0
VERTEX
  5
143
100
AcDbEntity
  8
0
390
0
 62
     7
100
AcDbVertex
100
AcDb2dVertex
 10
90.190621
 20
3.583939
 30
0.0
  0
VERTEX
  5
144
100
AcDbEntity
  8
0
390
0
 62
     7
100
AcDbVertex
100
AcDb2dVertex
 10
90.203697
 20
3.57439
 30
0.0
  0
VERTEX
  5
145
100
AcDbEntity
  8
0
390
0
 62
     7
100
AcDbVertex
100
AcDb2dVertex
 10
90.216795
 20
3.564149
 30
0.0
  0
VERTEX
  5
146
100
AcDbEntity
  8
0
390
0
 62
     7
100
AcDbVertex
100
AcDb2dVertex
 10
90.229867
 20
3.5532
 30
0.0
  0
VERTEX
  5
147
100
AcDbEntity
  8
0
390
0
 62
     7
100
AcDbVertex
100
AcDb2dVertex
 10
90.240733
 20
3.543498
 30
0.0
  0
VERTEX
  5
148
100
AcDbEntity
  8
0
390
0
 62
     7
100
AcDbVertex
100
AcDb2dVertex
 10
90.251532
 20
3.533269
 30
0.0
  0
VERTEX
  5
149
100
AcDbEntity
  8
0
390
0
 62
     7
100
AcDbVertex
100
AcDb2dVertex
 10
90.258749
 20
3.526081
 30
0.0
  0
VERTEX
  5
14A
100
AcDbEntity
  8
0
390
0
 62
     7
100
AcDbVertex
100
AcDb2dVertex
 10
90.265912
 20
3.518648
 30
0.0
  0
VERTEX
  5
14B
100
AcDbEntity
  8
0
390
0
 62
     7
100
AcDbVertex
100
AcDb2dVertex
 10
90.273006
 20
3.510974
 30
0.0
  0
VERTEX
  5
14C
100
AcDbEntity
  8
0
390
0
 62
     7
100
AcDbVertex
100
AcDb2dVertex
 10
90.279827
 20
3.503281
 30
0.0
  0
VERTEX
  5
14D
100
AcDbEntity
  8
0
390
0
 62
     7
100
AcDbVertex
100
AcDb2dVertex
 10
90.28656
 20
3.495364
 30
0.0
  0
VERTEX
  5
14E
100
AcDbEntity
  8
0
390
0
 62
     7
100
AcDbVertex
100
AcDb2dVertex
 10
90.293232
 20
3.487177
 30
0.0
  0
VERTEX
  5
14F
100
AcDbEntity
  8
0
390
0
 62
     7
100
AcDbVertex
100
AcDb2dVertex
 10
90.299788
 20
3.478774
 30
0.0
  0
VERTEX
  5
150
100
AcDbEntity
  8
0
390
0
 62
     7
100
AcDbVertex
100
AcDb2dVertex
 10
90.306344
 20
3.469985
 30
0.0
  0
VERTEX
  5
151
100
AcDbEntity
  8
0
390
0
 62
     7
100
AcDbVertex
100
AcDb2dVertex
 10
90.31275
 20
3.460992
 30
0.0
  0
VERTEX
  5
152
100
AcDbEntity
  8
0
390
0
 62
     7
100
AcDbVertex
100
AcDb2dVertex
 10
90.319037
 20
3.451736
 30
0.0
  0
VERTEX
  5
153
100
AcDbEntity
  8
0
390
0
 62
     7
100
AcDbVertex
100
AcDb2dVertex
 10
90.325141
 20
3.442302
 30
0.0
  0
VERTEX
  5
154
100
AcDbEntity
  8
0
390
0
 62
     7
100
AcDbVertex
100
AcDb2dVertex
 10
90.331339
 20
3.432219
 30
0.0
  0
VERTEX
  5
155
100
AcDbEntity
  8
0
390
0
 62
     7
100
AcDbVertex
100
AcDb2dVertex
 10
90.337307
 20
3.421975
 30
0.0
  0
VERTEX
  5
156
100
AcDbEntity
  8
0
390
0
 62
     7
100
AcDbVertex
100
AcDb2dVertex
 10
90.343025
 20
3.411604
 30
0.0
  0
VERTEX
  5
157
100
AcDbEntity
  8
0
390
0
 62
     7
100
AcDbVertex
100
AcDb2dVertex
 10
90.348594
 20
3.400902
 30
0.0
  0
VERTEX
  5
158
100
AcDbEntity
  8
0
390
0
 62
     7
100
AcDbVertex
100
AcDb2dVertex
 10
90.353886
 20
3.390108
 30
0.0
  0
VERTEX
  5
159
100
AcDbEntity
  8
0
390
0
 62
     7
100
AcDbVertex
100
AcDb2dVertex
 10
90.358887
 20
3.379259
 30
0.0
  0
VERTEX
  5
15A
100
AcDbEntity
  8
0
390
0
 62
     7
100
AcDbVertex
100
AcDb2dVertex
 10
90.363839
 20
3.367784
 30
0.0
  0
VERTEX
  5
15B
100
AcDbEntity
  8
0
390
0
 62
     7
100
AcDbVertex
100
AcDb2dVertex
 10
90.36846
 20
3.356296
 30
0.0
  0
VERTEX
  5
15C
100
AcDbEntity
  8
0
390
0
 62
     7
100
AcDbVertex
100
AcDb2dVertex
 10
90.372788
 20
3.344721
 30
0.0
  0
VERTEX
  5
15D
100
AcDbEntity
  8
0
390
0
 62
     7
100
AcDbVertex
100
AcDb2dVertex
 10
90.376781
 20
3.333183
 30
0.0
  0
VERTEX
  5
15E
100
AcDbEntity
  8
0
390
0
 62
     7
100
AcDbVertex
100
AcDb2dVertex
 10
90.380532
 20
3.32142
 30
0.0
  0
VERTEX
  5
15F
100
AcDbEntity
  8
0
390
0
 62
     7
100
AcDbVertex
100
AcDb2dVertex
 10
90.383943
 20
3.309739
 30
0.0
  0
VERTEX
  5
160
100
AcDbEntity
  8
0
390
0
 62
     7
100
AcDbVertex
100
AcDb2dVertex
 10
90.387044
 20
3.298077
 30
0.0
  0
VERTEX
  5
161
100
AcDbEntity
  8
0
390
0
 62
     7
100
AcDbVertex
100
AcDb2dVertex
 10
90.38982
 20
3.286532
 30
0.0
  0
VERTEX
  5
162
100
AcDbEntity
  8
0
390
0
 62
     7
100
AcDbVertex
100
AcDb2dVertex
 10
90.392808
 20
3.272493
 30
0.0
  0
VERTEX
  5
163
100
AcDbEntity
  8
0
390
0
 62
     7
100
AcDbVertex
100
AcDb2dVertex
 10
90.395343
 20
3.258667
 30
0.0
  0
VERTEX
  5
164
100
AcDbEntity
  8
0
390
0
 62
     7
100
AcDbVertex
100
AcDb2dVertex
 10
90.397461
 20
3.244971
 30
0.0
  0
VERTEX
  5
165
100
AcDbEntity
  8
0
390
0
 62
     7
100
AcDbVertex
100
AcDb2dVertex
 10
90.399165
 20
3.231513
 30
0.0
  0
VERTEX
  5
166
100
AcDbEntity
  8
0
390
0
 62
     7
100
AcDbVertex
100
AcDb2dVertex
 10
90.400583
 20
3.217082
 30
0.0
  0
VERTEX
  5
167
100
AcDbEntity
  8
0
390
0
 62
     7
100
AcDbVertex
100
AcDb2dVertex
 10
90.401563
 20
3.202946
 30
0.0
  0
VERTEX
  5
168
100
AcDbEntity
  8
0
390
0
 62
     7
100
AcDbVertex
100
AcDb2dVertex
 10
90.402136
 20
3.189037
 30
0.0
  0
VERTEX
  5
169
100
AcDbEntity
  8
0
390
0
 62
     7
100
AcDbVertex
100
AcDb2dVertex
 10
90.402321
 20
3.175426
 30
0.0
  0
SEQEND
  5
16A
100
AcDbEntity
  8
0
390
0
  0
POLYLINE
  5
16B
100
AcDbEntity
  8
0
390
0
  6
Continuous
 62
     7
100
AcDb2dPolyline
 66
     1
 10
0.0
 20
0.0
 30
0.0
 40
0.1
 41
0.1
  0
VERTEX
  5
16C
100
AcDbEntity
  8
0
390
0
 62
     7
100
AcDbVertex
100
AcDb2dVertex
 10
90.402321
 20
-3.175427
 30
0.0
  0
VERTEX
  5
16D
100
AcDbEntity
  8
0
390
0
 62
     7
100
AcDbVertex
100
AcDb2dVertex
 10
90.402103
 20
-3.190212
 30
0.0
  0
VERTEX
  5
16E
100
AcDbEntity
  8
0
390
0
 62
     7
100
AcDbVertex
100
AcDb2dVertex
 10
90.401425
 20
-3.205355
 30
0.0
  0
VERTEX
  5
16F
100
AcDbEntity
  8
0
390
0
 62
     7
100
AcDbVertex
100
AcDb2dVertex
 10
90.400254
 20
-3.220846
 30
0.0
  0
VERTEX
  5
170
100
AcDbEntity
  8
0
390
0
 62
     7
100
AcDbVertex
100
AcDb2dVertex
 10
90.398522
 20
-3.236944
 30
0.0
  0
VERTEX
  5
171
100
AcDbEntity
  8
0
390
0
 62
     7
100
AcDbVertex
100
AcDb2dVertex
 10
90.396202
 20
-3.253408
 30
0.0
  0
VERTEX
  5
172
100
AcDbEntity
  8
0
390
0
 62
     7
100
AcDbVertex
100
AcDb2dVertex
 10
90.393256
 20
-3.270203
 30
0.0
  0
VERTEX
  5
173
100
AcDbEntity
  8
0
390
0
 62
     7
100
AcDbVertex
100
AcDb2dVertex
 10
90.390287
 20
-3.284464
 30
0.0
  0
VERTEX
  5
174
100
AcDbEntity
  8
0
390
0
 62
     7
100
AcDbVertex
100
AcDb2dVertex
 10
90.386828
 20
-3.298931
 30
0.0
  0
VERTEX
  5
175
100
AcDbEntity
  8
0
390
0
 62
     7
100
AcDbVertex
100
AcDb2dVertex
 10
90.384211
 20
-3.308775
 30
0.0
  0
VERTEX
  5
176
100
AcDbEntity
  8
0
390
0
 62
     7
100
AcDbVertex
100
AcDb2dVertex
 10
90.381355
 20
-3.318695
 30
0.0
  0
VERTEX
  5
177
100
AcDbEntity
  8
0
390
0
 62
     7
100
AcDbVertex
100
AcDb2dVertex
 10
90.378257
 20
-3.328676
 30
0.0
  0
VERTEX
  5
178
100
AcDbEntity
  8
0
390
0
 62
     7
100
AcDbVertex
100
AcDb2dVertex
 10
90.375005
 20
-3.338429
 30
0.0
  0
VERTEX
  5
179
100
AcDbEntity
  8
0
390
0
 62
     7
100
AcDbVertex
100
AcDb2dVertex
 10
90.371515
 20
-3.348219
 30
0.0
  0
VERTEX
  5
17A
100
AcDbEntity
  8
0
390
0
 62
     7
100
AcDbVertex
100
AcDb2dVertex
 10
90.367761
 20
-3.35809
 30
0.0
  0
VERTEX
  5
17B
100
AcDbEntity
  8
0
390
0
 62
     7
100
AcDbVertex
100
AcDb2dVertex
 10
90.363762
 20
-3.367969
 30
0.0
  0
VERTEX
  5
17C
100
AcDbEntity
  8
0
390
0
 62
     7
100
AcDbVertex
100
AcDb2dVertex
 10
90.359429
 20
-3.378041
 30
0.0
  0
VERTEX
  5
17D
100
AcDbEntity
  8
0
390
0
 62
     7
100
AcDbVertex
100
AcDb2dVertex
 10
90.354843
 20
-3.388086
 30
0.0
  0
VERTEX
  5
17E
100
AcDbEntity
  8
0
390
0
 62
     7
100
AcDbVertex
100
AcDb2dVertex
 10
90.349971
 20
-3.398159
 30
0.0
  0
VERTEX
  5
17F
100
AcDbEntity
  8
0
390
0
 62
     7
100
AcDbVertex
100
AcDb2dVertex
 10
90.344853
 20
-3.408162
 30
0.0
  0
VERTEX
  5
180
100
AcDbEntity
  8
0
390
0
 62
     7
100
AcDbVertex
100
AcDb2dVertex
 10
90.33922
 20
-3.418571
 30
0.0
  0
VERTEX
  5
181
100
AcDbEntity
  8
0
390
0
 62
     7
100
AcDbVertex
100
AcDb2dVertex
 10
90.333332
 20
-3.428862
 30
0.0
  0
VERTEX
  5
182
100
AcDbEntity
  8
0
390
0
 62
     7
100
AcDbVertex
100
AcDb2dVertex
 10
90.327209
 20
-3.438999
 30
0.0
  0
VERTEX
  5
183
100
AcDbEntity
  8
0
390
0
 62
     7
100
AcDbVertex
100
AcDb2dVertex
 10
90.320726
 20
-3.449173
 30
0.0
  0
VERTEX
  5
184
100
AcDbEntity
  8
0
390
0
 62
     7
100
AcDbVertex
100
AcDb2dVertex
 10
90.314024
 20
-3.459153
 30
0.0
  0
VERTEX
  5
185
100
AcDbEntity
  8
0
390
0
 62
     7
100
AcDbVertex
100
AcDb2dVertex
 10
90.307128
 20
-3.468908
 30
0.0
  0
VERTEX
  5
186
100
AcDbEntity
  8
0
390
0
 62
     7
100
AcDbVertex
100
AcDb2dVertex
 10
90.299666
 20
-3.478934
 30
0.0
  0
VERTEX
  5
187
100
AcDbEntity
  8
0
390
0
 62
     7
100
AcDbVertex
100
AcDb2dVertex
 10
90.292029
 20
-3.48868
 30
0.0
  0
VERTEX
  5
188
100
AcDbEntity
  8
0
390
0
 62
     7
100
AcDbVertex
100
AcDb2dVertex
 10
90.284168
 20
-3.498216
 30
0.0
  0
VERTEX
  5
189
100
AcDbEntity
  8
0
390
0
 62
     7
100
AcDbVertex
100
AcDb2dVertex
 10
90.276173
 20
-3.507443
 30
0.0
  0
VERTEX
  5
18A
100
AcDbEntity
  8
0
390
0
 62
     7
100
AcDbVertex
100
AcDb2dVertex
 10
90.267861
 20
-3.516573
 30
0.0
  0
VERTEX
  5
18B
100
AcDbEntity
  8
0
390
0
 62
     7
100
AcDbVertex
100
AcDb2dVertex
 10
90.25945
 20
-3.525368
 30
0.0
  0
VERTEX
  5
18C
100
AcDbEntity
  8
0
390
0
 62
     7
100
AcDbVertex
100
AcDb2dVertex
 10
90.250902
 20
-3.533884
 30
0.0
  0
VERTEX
  5
18D
100
AcDbEntity
  8
0
390
0
 62
     7
100
AcDbVertex
100
AcDb2dVertex
 10
90.242291
 20
-3.542061
 30
0.0
  0
VERTEX
  5
18E
100
AcDbEntity
  8
0
390
0
 62
     7
100
AcDbVertex
100
AcDb2dVertex
 10
90.231627
 20
-3.551668
 30
0.0
  0
VERTEX
  5
18F
100
AcDbEntity
  8
0
390
0
 62
     7
100
AcDbVertex
100
AcDb2dVertex
 10
90.220921
 20
-3.560776
 30
0.0
  0
VERTEX
  5
190
100
AcDbEntity
  8
0
390
0
 62
     7
100
AcDbVertex
100
AcDb2dVertex
 10
90.210119
 20
-3.569458
 30
0.0
  0
VERTEX
  5
191
100
AcDbEntity
  8
0
390
0
 62
     7
100
AcDbVertex
100
AcDb2dVertex
 10
90.199316
 20
-3.577663
 30
0.0
  0
VERTEX
  5
192
100
AcDbEntity
  8
0
390
0
 62
     7
100
AcDbVertex
100
AcDb2dVertex
 10
90.187527
 20
-3.586107
 30
0.0
  0
VERTEX
  5
193
100
AcDbEntity
  8
0
390
0
 62
     7
100
AcDbVertex
100
AcDb2dVertex
 10
90.175775
 20
-3.594023
 30
0.0
  0
VERTEX
  5
194
100
AcDbEntity
  8
0
390
0
 62
     7
100
AcDbVertex
100
AcDb2dVertex
 10
90.164015
 20
-3.601474
 30
0.0
  0
VERTEX
  5
195
100
AcDbEntity
  8
0
390
0
 62
     7
100
AcDbVertex
100
AcDb2dVertex
 10
90.152321
 20
-3.60844
 30
0.0
  0
SEQEND
  5
196
100
AcDbEntity
  8
0
390
0
  0
LINE
  5
197
100
AcDbEntity
  8
0
390
0
  6
Continuous
 62
     7
100
AcDbLine
 10
78.667057
 20
3.582915
 30
0.0
 11
78.752321
 21
3.435234
 31
0.0
  0
LINE
  5
198
100
AcDbEntity
  8
0
390
0
  6
Continuous
 62
     7
100
AcDbLine
 10
78.658057
 20
3.598504
 30
0.0
 11
78.667057
 21
3.582915
 31
0.0
  0
LINE
  5
199
100
AcDbEntity
  8
0
390
0
  6
Continuous
 62
     7
100
AcDbLine
 10
78.652321
 20
3.608439
 30
0.0
 11
78.658057
 21
3.598504
 31
0.0
  0
ARC
  5
19A
100
AcDbEntity
  8
0
390
0
  6
Continuous
 62
     7
100
AcDbCircle
 10
78.902321
 20
3.175426
 30
0.0
 40
0.3
210
0.0
220
0.0
230
1.0
100
AcDbArc
 50
120.0
 51
180.0
  0
LINE
  5
19B
100
AcDbEntity
  8
0
390
0
  6
Continuous
 62
     7
100
AcDbLine
 10
78.602321
 20
3.175426
 30
0.0
 11
78.402321
 21
3.175426
 31
0.0
  0
ARC
  5
19C
100
AcDbEntity
  8
0
390
0
  6
Continuous
 62
     7
100
AcDbCircle
 10
78.902321
 20
-3.175427
 30
0.0
 40
0.3
210
0.0
220
0.0
230
1.0
100
AcDbArc
 50
180.0
 51
240.0
  0
LINE
  5
19D
100
AcDbEntity
  8
0
390
0
  6
Continuous
 62
     7
100
AcDbLine
 10
78.752321
 20
-3.435235
 30
0.0
 11
78.652321
 21
-3.60844
 31
0.0
  0
LINE
  5
19E
100
AcDbEntity
  8
0
390
0
  6
Continuous
 62
     7
100
AcDbLine
 10
78.602321
 20
-3.175427
 30
0.0
 11
78.402321
 21
-3.175427
 31
0.0
  0
LINE
  5
19F
100
AcDbEntity
  8
0
390
0
  6
Continuous
 62
     7
100
AcDbLine
 10
84.152321
 20
6.783865
 30
0.0
 11
84.252321
 21
6.61066
 31
0.0
  0
LINE
  5
1A0
100
AcDbEntity
  8
0
390
0
  6
Continuous
 62
     7
100
AcDbLine
 10
78.752321
 20
3.435234
 30
0.0
 11
84.252321
 21
6.61066
 31
0.0
  0
LINE
  5
1A1
100
AcDbEntity
  8
0
390
0
  6
Continuous
 62
     7
100
AcDbLine
 10
84.252321
 20
-6.610661
 30
0.0
 11
78.752321
 21
-3.435235
 31
0.0
  0
LINE
  5
1A2
100
AcDbEntity
  8
0
390
0
  6
Continuous
 62
     7
100
AcDbLine
 10
84.252321
 20
-6.610661
 30
0.0
 11
84.152321
 21
-6.783866
 31
0.0
  0
LINE
  5
1A3
100
AcDbEntity
  8
0
390
0
  6
Continuous
 62
     7
100
AcDbLine
 10
78.602321
 20
-3.175427
 30
0.0
 11
78.602321
 21
3.175426
 31
0.0
  0
LINE
  5
1A4
100
AcDbEntity
  8
0
390
0
  6
Continuous
 62
     7
100
AcDbLine
 10
90.052321
 20
-3.435235
 30
0.0
 11
84.552321
 21
-6.610661
 31
0.0
  0
LINE
  5
1A5
100
AcDbEntity
  8
0
390
0
  6
Continuous
 62
     7
100
AcDbLine
 10
90.052321
 20
-3.435235
 30
0.0
 11
90.152321
 21
-3.60844
 31
0.0
  0
LINE
  5
1A6
100
AcDbEntity
  8
0
390
0
  6
Continuous
 62
     7
100
AcDbLine
 10
84.552321
 20
-6.610661
 30
0.0
 11
84.652321
 21
-6.783866
 31
0.0
  0
LINE
  5
1A7
100
AcDbEntity
  8
0
390
0
  6
Continuous
 62
     7
100
AcDbLine
 10
84.631656
 20
6.748073
 30
0.0
 11
84.552321
 21
6.61066
 31
0.0
  0
LINE
  5
1A8
100
AcDbEntity
  8
0
390
0
  6
Continuous
 62
     7
100
AcDbLine
 10
84.652321
 20
6.783865
 30
0.0
 11
84.631656
 21
6.748073
 31
0.0
  0
ARC
  5
1A9
100
AcDbEntity
  8
0
390
0
  6
Continuous
 62
     7
100
AcDbCircle
 10
84.402321
 20
6.350852
 30
0.0
 40
0.3
210
0.0
220
0.0
230
1.0
100
AcDbArc
 50
60.0
 51
120.0
  0
ARC
  5
1AA
100
AcDbEntity
  8
0
390
0
  6
Continuous
 62
     7
100
AcDbCircle
 10
84.402321
 20
-6.350853
 30
0.0
 40
0.3
210
0.0
220
0.0
230
1.0
100
AcDbArc
 50
240.0
 51
300.0
  0
LINE
  5
1AB
100
AcDbEntity
  8
0
390
0
  6
Continuous
 62
     7
100
AcDbLine
 10
90.152321
 20
3.608439
 30
0.0
 11
90.052321
 21
3.435234
 31
0.0
  0
LINE
  5
1AC
100
AcDbEntity
  8
0
390
0
  6
Continuous
 62
     7
100
AcDbLine
 10
84.552321
 20
6.61066
 30
0.0
 11
90.052321
 21
3.435234
 31
0.0
  0
LINE
  5
1AD
100
AcDbEntity
  8
0
390
0
  6
Continuous
 62
     7
100
AcDbLine
 10
90.402321
 20
-3.175427
 30
0.0
 11
90.202321
 21
-3.175427
 31
0.0
  0
LINE
  5
1AE
100
AcDbEntity
  8
0
390
0
  6
Continuous
 62
     7
100
AcDbLine
 10
90.202321
 20
3.175426
 30
0.0
 11
90.202321
 21
-3.175427
 31
0.0
  0
LINE
  5
1AF
100
AcDbEntity
  8
0
390
0
  6
Continuous
 62
     7
100
AcDbLine
 10
90.402321
 20
3.175426
 30
0.0
 11
90.202321
 21
3.175426
 31
0.0
  0
ARC
  5
1B0
100
AcDbEntity
  8
0
390
0
  6
Continuous
 62
     7
100
AcDbCircle
 10
89.902321
 20
-3.175427
 30
0.0
 40
0.3
210
0.0
220
0.0
230
1.0
100
AcDbArc
 50
300.0
 51
360.0
  0
ARC
  5
1B1
100
AcDbEntity
  8
0
390
0
  6
Continuous
 62
     7
100
AcDbCircle
 10
89.902321
 20
3.175426
 30
0.0
 40
0.3
210
0.0
220
0.0
230
1.0
100
AcDbArc
 50
0.0
 51
60.0
  0
LINE
  5
1B2
100
AcDbEntity
  8
0
390
0
  6
Continuous
 62
     7
100
AcDbLine
 10
-84.654301
 20
5.051814
 30
0.0
 11
-86.154301
 21
7.649891
 31
0.0
  0
LINE
  5
1B3
100
AcDbEntity
  8
0
390
0
  6
Continuous
 62
     7
100
AcDbLine
 10
-84.654301
 20
5.051814
 30
0.0
 11
-88.654301
 21
2.742413
 31
0.0
  0
LINE
  5
1B4
100
AcDbEntity
  8
0
390
0
  6
Continuous
 62
     7
100
AcDbLine
 10
-90.154301
 20
5.340489
 30
0.0
 11
-88.654301
 21
2.742413
 31
0.0
  0
LINE
  5
1B5
100
AcDbEntity
  8
0
390
0
  6
Continuous
 62
     7
100
AcDbLine
 10
-90.154301
 20
5.340489
 30
0.0
 11
-86.154301
 21
7.649891
 31
0.0
  0
ARC
  5
1B6
100
AcDbEntity
  8
0
390
0
  6
Continuous
 62
     7
100
AcDbCircle
 10
-84.404301
 20
4.618802
 30
0.0
 40
3.5
210
0.0
220
0.0
230
1.0
100
AcDbArc
 50
60.0
 51
120.0
  0
LINE
  5
1B7
100
AcDbEntity
  8
0
390
0
  6
Continuous
 62
     7
100
AcDbLine
 10
-82.654301
 20
7.649891
 30
0.0
 11
-84.154301
 21
5.051814
 31
0.0
  0
ARC
  5
1B8
100
AcDbEntity
  8
0
390
0
  6
Continuous
 62
     7
100
AcDbCircle
 10
-84.404301
 20
4.618802
 30
0.0
 40
0.5
210
0.0
220
0.0
230
1.0
100
AcDbArc
 50
60.0
 51
120.0
  0
LINE
  5
1B9
100
AcDbEntity
  8
0
390
0
  6
Continuous
 62
     7
100
AcDbLine
 10
-80.154301
 20
2.742413
 30
0.0
 11
-78.654301
 21
5.340489
 31
0.0
  0
LINE
  5
1BA
100
AcDbEntity
  8
0
390
0
  6
Continuous
 62
     7
100
AcDbLine
 10
-80.154301
 20
2.742413
 30
0.0
 11
-84.154301
 21
5.051814
 31
0.0
  0
LINE
  5
1BB
100
AcDbEntity
  8
0
390
0
  6
Continuous
 62
     7
100
AcDbLine
 10
-82.654301
 20
7.649891
 30
0.0
 11
-78.654301
 21
5.340489
 31
0.0
  0
ARC
  5
1BC
100
AcDbEntity
  8
0
390
0
  6
Continuous
 62
     7
100
AcDbCircle
 10
-80.404301
 20
2.309401
 30
0.0
 40
3.5
210
0.0
220
0.0
230
0.9999999999999999
100
AcDbArc
 50
0.0
 51
60.0
  0
LINE
  5
1BD
100
AcDbEntity
  8
0
390
0
  6
Continuous
 62
     7
100
AcDbLine
 10
-76.904301
 20
2.309401
 30
0.0
 11
-79.904301
 21
2.309401
 31
0.0
  0
ARC
  5
1BE
100
AcDbEntity
  8
0
390
0
  6
Continuous
 62
     7
100
AcDbCircle
 10
-80.404301
 20
2.309401
 30
0.0
 40
0.5
210
0.0
220
0.0
230
1.0
100
AcDbArc
 50
0.0
 51
60.0
  0
LINE
  5
1BF
100
AcDbEntity
  8
0
390
0
  6
Continuous
 62
     7
100
AcDbLine
 10
-79.904301
 20
-2.309402
 30
0.0
 11
-76.904301
 21
-2.309402
 31
0.0
  0
LINE
  5
1C0
100
AcDbEntity
  8
0
390
0
  6
Continuous
 62
     7
100
AcDbLine
 10
-79.904301
 20
-2.309402
 30
0.0
 11
-79.904301
 21
2.309401
 31
0.0
  0
LINE
  5
1C1
100
AcDbEntity
  8
0
390
0
  6
Continuous
 62
     7
100
AcDbLine
 10
-76.904301
 20
2.309401
 30
0.0
 11
-76.904301
 21
-2.309402
 31
0.0
  0
ARC
  5
1C2
100
AcDbEntity
  8
0
390
0
  6
Continuous
 62
     7
100
AcDbCircle
 10
-80.404301
 20
-2.309402
 30
0.0
 40
3.5
210
0.0
220
0.0
230
1.0
100
AcDbArc
 50
300.0
 51
360.0
  0
LINE
  5
1C3
100
AcDbEntity
  8
0
390
0
  6
Continuous
 62
     7
100
AcDbLine
 10
-78.654301
 20
-5.34049
 30
0.0
 11
-80.154301
 21
-2.742414
 31
0.0
  0
ARC
  5
1C4
100
AcDbEntity
  8
0
390
0
  6
Continuous
 62
     7
100
AcDbCircle
 10
-80.404301
 20
-2.309402
 30
0.0
 40
0.5
210
0.0
220
0.0
230
1.0
100
AcDbArc
 50
300.0
 51
360.0
  0
LINE
  5
1C5
100
AcDbEntity
  8
0
390
0
  6
Continuous
 62
     7
100
AcDbLine
 10
-88.904301
 20
2.309401
 30
0.0
 11
-91.904301
 21
2.309401
 31
0.0
  0
LINE
  5
1C6
100
AcDbEntity
  8
0
390
0
  6
Continuous
 62
     7
100
AcDbLine
 10
-88.904301
 20
2.309401
 30
0.0
 11
-88.904301
 21
-2.309402
 31
0.0
  0
LINE
  5
1C7
100
AcDbEntity
  8
0
390
0
  6
Continuous
 62
     7
100
AcDbLine
 10
-91.904301
 20
-2.309402
 30
0.0
 11
-88.904301
 21
-2.309402
 31
0.0
  0
LINE
  5
1C8
100
AcDbEntity
  8
0
390
0
  6
Continuous
 62
     7
100
AcDbLine
 10
-91.904301
 20
-2.309402
 30
0.0
 11
-91.904301
 21
2.309401
 31
0.0
  0
ARC
  5
1C9
100
AcDbEntity
  8
0
390
0
  6
Continuous
 62
     7
100
AcDbCircle
 10
-84.404301
 20
-4.618803
 30
0.0
 40
0.5
210
0.0
220
0.0
230
1.0
100
AcDbArc
 50
240.0
 51
300.0
  0
LINE
  5
1CA
100
AcDbEntity
  8
0
390
0
  6
Continuous
 62
     7
100
AcDbLine
 10
-84.154301
 20
-5.051815
 30
0.0
 11
-82.654301
 21
-7.649892
 31
0.0
  0
ARC
  5
1CB
100
AcDbEntity
  8
0
390
0
  6
Continuous
 62
     7
100
AcDbCircle
 10
-84.404301
 20
-4.618803
 30
0.0
 40
3.5
210
0.0
220
0.0
230
1.0
100
AcDbArc
 50
240.0
 51
300.0
  0
LINE
  5
1CC
100
AcDbEntity
  8
0
390
0
  6
Continuous
 62
     7
100
AcDbLine
 10
-86.154301
 20
-7.649892
 30
0.0
 11
-84.654301
 21
-5.051815
 31
0.0
  0
LINE
  5
1CD
100
AcDbEntity
  8
0
390
0
  6
Continuous
 62
     7
100
AcDbLine
 10
-88.654301
 20
-2.742414
 30
0.0
 11
-90.154301
 21
-5.34049
 31
0.0
  0
LINE
  5
1CE
100
AcDbEntity
  8
0
390
0
  6
Continuous
 62
     7
100
AcDbLine
 10
-88.654301
 20
-2.742414
 30
0.0
 11
-84.654301
 21
-5.051815
 31
0.0
  0
LINE
  5
1CF
100
AcDbEntity
  8
0
390
0
  6
Continuous
 62
     7
100
AcDbLine
 10
-86.154301
 20
-7.649892
 30
0.0
 11
-90.154301
 21
-5.34049
 31
0.0
  0
ARC
  5
1D0
100
AcDbEntity
  8
0
390
0
  6
Continuous
 62
     7
100
AcDbCircle
 10
-88.404301
 20
2.309401
 30
0.0
 40
0.5
210
0.0
220
0.0
230
1.0
100
AcDbArc
 50
120.0
 51
180.0
  0
ARC
  5
1D1
100
AcDbEntity
  8
0
390
0
  6
Continuous
 62
     7
100
AcDbCircle
 10
-88.404301
 20
2.309401
 30
0.0
 40
3.5
210
0.0
220
0.0
230
1.0
100
AcDbArc
 50
120.0
 51
180.0
  0
LINE
  5
1D2
100
AcDbEntity
  8
0
390
0
  6
Continuous
 62
     7
100
AcDbLine
 10
-84.154301
 20
-5.051815
 30
0.0
 11
-80.154301
 21
-2.742414
 31
0.0
  0
LINE
  5
1D3
100
AcDbEntity
  8
0
390
0
  6
Continuous
 62
     7
100
AcDbLine
 10
-78.654301
 20
-5.34049
 30
0.0
 11
-82.654301
 21
-7.649892
 31
0.0
  0
ARC
  5
1D4
100
AcDbEntity
  8
0
390
0
  6
Continuous
 62
     7
100
AcDbCircle
 10
-88.404301
 20
-2.309402
 30
0.0
 40
0.5
210
0.0
220
0.0
230
1.0
100
AcDbArc
 50
180.0
 51
240.0
  0
ARC
  5
1D5
100
AcDbEntity
  8
0
390
0
  6
Continuous
 62
     7
100
AcDbCircle
 10
-88.404301
 20
-2.309402
 30
0.0
 40
3.5
210
0.0
220
0.0
230
0.9999999999999999
100
AcDbArc
 50
180.0
 51
240.0
  0
ELLIPSE
  5
1D6
100
AcDbEntity
  8
0
390
0
  6
Continuous
 62
     7
100
AcDbEllipse
 10
-77.904301
 20
-6.639529
 30
0.0
 11
0.7500000000000007
 21
-1.2990381056766642
 31
0.0
210
0.0
220
0.0
230
0.9999999999999999
 40
0.142044
 41
3.1415926535897851
 42
4.206814875792519
  0
LINE
  5
1D7
100
AcDbEntity
  8
0
390
0
  6
Continuous
 62
     7
100
AcDbLine
 10
-78.42897
 20
-6.103597
 30
0.0
 11
-82.106097
 21
-8.226587
 31
0.0
  0
ELLIPSE
  5
1D8
100
AcDbEntity
  8
0
390
0
  6
Continuous
 62
     7
100
AcDbEllipse
 10
-81.904301
 20
-8.94893
 30
0.0
 11
0.7500000000000007
 21
-1.2990381056766642
 31
0.0
210
0.0
220
0.0
230
0.9999999999999999
 40
0.142044
 41
2.0763704313871121
 42
3.1415926535897851
  0
LINE
  5
1D9
100
AcDbEntity
  8
0
390
0
  6
Continuous
 62
     7
100
AcDbLine
 10
-92.677837
 20
-2.122991
 30
0.0
 11
-92.677837
 21
2.12299
 31
0.0
  0
ELLIPSE
  5
1DA
100
AcDbEntity
  8
0
390
0
  6
Continuous
 62
     7
100
AcDbEllipse
 10
-93.404301
 20
2.309401
 30
0.0
 11
1.5000000000000013
 21
0.0
 31
0.0
210
0.0
220
0.0
230
1.0
 40
0.142044
 41
5.2179630849768381
 42
6.2831853071795862
  0
ELLIPSE
  5
1DB
100
AcDbEntity
  8
0
390
0
  6
Continuous
 62
     7
100
AcDbEllipse
 10
-93.404301
 20
-2.309402
 30
0.0
 11
1.5000000000000013
 21
0.0
 31
0.0
210
0.0
220
0.0
230
1.0
 40
0.142044
 41
0.0
 42
1.0652222222027483
  0
LINE
  5
1DC
100
AcDbEntity
  8
0
390
0
  6
Continuous
 62
     7
100
AcDbLine
 10
-90.379632
 20
6.103596
 30
0.0
 11
-86.702506
 21
8.226586
 31
0.0
  0
ELLIPSE
  5
1DD
100
AcDbEntity
  8
0
390
0
  6
Continuous
 62
     7
100
AcDbEllipse
 10
-86.904301
 20
8.948929
 30
0.0
 11
0.7500000000000007
 21
-1.2990381056766642
 31
0.0
210
0.0
220
0.0
230
0.9999999999999999
 40
0.142044
 41
5.2179630849768657
 42
6.2831853071795702
  0
ELLIPSE
  5
1DE
100
AcDbEntity
  8
0
390
0
  6
Continuous
 62
     7
100
AcDbEllipse
 10
-90.904301
 20
6.639528
 30
0.0
 11
0.7500000000000007
 21
-1.2990381056766642
 31
0.0
210
0.0
220
0.0
230
0.9999999999999999
 40
0.142044
 41
6.2831853071795791
 42
7.3484075293822766
  0
ELLIPSE
  5
1DF
100
AcDbEntity
  8
0
390
0
  6
Continuous
 62
     7
100
AcDbEllipse
 10
-75.404301
 20
2.309401
 30
0.0
 11
1.4999999999999876
 21
0.0
 31
0.0
210
0.0
220
0.0
230
0.9999999999999999
 40
0.142044
 41
3.1415926535897931
 42
4.2068148757925421
  0
LINE
  5
1E0
100
AcDbEntity
  8
0
390
0
  6
Continuous
 62
     7
100
AcDbLine
 10
-76.130766
 20
2.12299
 30
0.0
 11
-76.130766
 21
-2.122991
 31
0.0
  0
ELLIPSE
  5
1E1
100
AcDbEntity
  8
0
390
0
  6
Continuous
 62
     7
100
AcDbEllipse
 10
-75.404301
 20
-2.309402
 30
0.0
 11
1.4999999999999876
 21
0.0
 31
0.0
210
0.0
220
0.0
230
0.9999999999999999
 40
0.142044
 41
2.076370431387045
 42
3.1415926535897931
  0
LINE
  5
1E2
100
AcDbEntity
  8
0
390
0
  6
Continuous
 62
     7
100
AcDbLine
 10
-82.106097
 20
8.226586
 30
0.0
 11
-78.42897
 21
6.103596
 31
0.0
  0
ELLIPSE
  5
1E3
100
AcDbEntity
  8
0
390
0
  6
Continuous
 62
     7
100
AcDbEllipse
 10
-77.904301
 20
6.639528
 30
0.0
 11
-0.7500000000000007
 21
-1.2990381056766642
 31
0.0
210
0.0
220
0.0
230
0.9999999999999999
 40
0.142044
 41
5.2179630849768612
 42
6.2831853071795942
  0
ELLIPSE
  5
1E4
100
AcDbEntity
  8
0
390
0
  6
Continuous
 62
     7
100
AcDbEllipse
 10
-81.904301
 20
8.948929
 30
0.0
 11
-0.7500000000000007
 21
-1.2990381056766642
 31
0.0
210
0.0
220
0.0
230
0.9999999999999999
 40
0.142044
 41
0.0000000000000079
 42
1.0652222222027286
  0
ELLIPSE
  5
1E5
100
AcDbEntity
  8
0
390
0
  6
Continuous
 62
     7
100
AcDbEllipse
 10
-86.904301
 20
-8.94893
 30
0.0
 11
-0.7500000000000007
 21
-1.2990381056766642
 31
0.0
210
0.0
220
0.0
230
0.9999999999999999
 40
0.142044
 41
3.1415926535898016
 42
4.2068148757925137
  0
LINE
  5
1E6
100
AcDbEntity
  8
0
390
0
  6
Continuous
 62
     7
100
AcDbLine
 10
-86.702506
 20
-8.226587
 30
0.0
 11
-90.379632
 21
-6.103597
 31
0.0
  0
ELLIPSE
  5
1E7
100
AcDbEntity
  8
0
390
0
  6
Continuous
 62
     7
100
AcDbEllipse
 10
-90.904301
 20
-6.639529
 30
0.0
 11
-0.7500000000000007
 21
-1.2990381056766642
 31
0.0
210
0.0
220
0.0
230
0.9999999999999999
 40
0.142044
 41
2.0763704313871032
 42
3.1415926535898016
  0
ARC
  5
1E8
100
AcDbEntity
  8
0
390
0
  6
Continuous
 62
     7
100
AcDbCircle
 10
-88.245506
 20
-2.217721
 30
0.0
 40
4.433343
210
0.0
220
0.0
230
0.9999999999999999
100
AcDbArc
 50
178.77563
 51
241.22437
  0
ARC
  5
1E9
100
AcDbEntity
  8
0
390
0
  6
Continuous
 62
     7
100
AcDbCircle
 10
-88.245506
 20
2.21772
 30
0.0
 40
4.433343
210
0.0
220
0.0
230
1.0
100
AcDbArc
 50
118.77563
 51
181.22437
  0
ARC
  5
1EA
100
AcDbEntity
  8
0
390
0
  6
Continuous
 62
     7
100
AcDbCircle
 10
-84.404301
 20
-4.435441
 30
0.0
 40
4.433343
210
0.0
220
0.0
230
1.0
100
AcDbArc
 50
238.77563
 51
301.22437
  0
ARC
  5
1EB
100
AcDbEntity
  8
0
390
0
  6
Continuous
 62
     7
100
AcDbCircle
 10
-80.563097
 20
-2.217721
 30
0.0
 40
4.433343
210
0.0
220
0.0
230
1.0
100
AcDbArc
 50
298.77563
 51
1.22437
  0
ARC
  5
1EC
100
AcDbEntity
  8
0
390
0
  6
Continuous
 62
     7
100
AcDbCircle
 10
-84.404301
 20
4.43544
 30
0.0
 40
4.433343
210
0.0
220
0.0
230
1.0
100
AcDbArc
 50
58.77563
 51
121.22437
  0
ARC
  5
1ED
100
AcDbEntity
  8
0
390
0
  6
Continuous
 62
     7
100
AcDbCircle
 10
-80.563097
 20
2.21772
 30
0.0
 40
4.433343
210
0.0
220
0.0
230
0.9999999999999999
100
AcDbArc
 50
358.77563
 51
61.22437
  0
CIRCLE
  5
1EE
100
AcDbEntity
  8
0
390
0
  6
Continuous
 62
     7
100
AcDbCircle
 10
-84.404301
 20
0.0
 30
0.0
 40
9.15
210
0.0
220
0.0
230
0.9999999999999999
  0
ARC
  5
1EF
100
AcDbEntity
  8
0
390
0
  6
Continuous
 62
     7
100
AcDbCircle
 10
-84.404301
 20
0.0
 30
0.0
 40
9.9
210
0.0
220
0.0
230
1.0
100
AcDbArc
 50
270.0
 51
360.0
  0
ARC
  5
1F0
100
AcDbEntity
  8
0
390
0
  6
Continuous
 62
     7
100
AcDbCircle
 10
-84.404301
 20
0.0
 30
0.0
 40
9.9
210
0.0
220
0.0
230
1.0
100
AcDbArc
 50
0.0
 51
270.0
  0
POINT
  5
1F1
100
AcDbEntity
  8
0
390
0
 62
     7
100
AcDbPoint
 10
0.0
 20
0.0
 30
0.0
  0
ENDSEC
  0
SECTION
  2
OBJECTS
  0
DICTIONARY
  5
19
100
AcDbDictionary
280
     0
281
     1
  3
ACAD_GROUP
350
1A
  3
ACAD_MLINESTYLE
350
1B
  3
ACAD_LAYOUT
350
1E
  3
ACAD_PLOTSETTINGS
350
22
  3
ACAD_PLOTSTYLENAME
350
1F
  3
ACAD_WIPEOUT_VARS
350
23
  0
DICTIONARY
  5
1A
102
{ACAD_REACTORS
330
19
102
}
100
AcDbDictionary
280
     0
281
     1
  0
DICTIONARY
  5
1B
102
{ACAD_REACTORS
330
19
102
}
100
AcDbDictionary
280
     0
281
     1
  3
Standard
350
1C
  0
MLINESTYLE
  5
1C
102
{ACAD_REACTORS
330
1B
102
}
100
AcDbMlineStyle
  2
Standard
 70
     0
  3

 62
     0
 51
90.0
 52
90.0
 71
     2
 49
0.5
 62
   256
  6
ByLayer
 49
-0.5
 62
   256
  6
ByLayer
  0
ACDBDICTIONARYWDFLT
  5
1F
102
{ACAD_REACTORS
330
19
102
}
100
AcDbDictionary
281
     1
  3
Normal
350
1D
100
AcDbDictionaryWithDefault
340
1D
  0
ACDBPLACEHOLDER
  5
1D
102
{ACAD_REACTORS
330
1F
102
}
  0
LAYOUT
  5
20
102
{ACAD_REACTORS
330
1E
102
}
100
AcDbPlotSettings
  1

  2

  4

  6

 40
0.0
 41
0.0
 42
0.0
 43
0.0
 44
0.0
 45
0.0
 46
0.0
 47
0.0
 48
0.0
 49
0.0
140
0.0
141
0.0
142
1.0
143
1.0
 70
  1024
 72
     0
 73
     0
 74
     0
  7

 75
     0
147
1.0
148
0.0
149
0.0
100
AcDbLayout
  1
Model
 70
     0
 71
     1
 10
0.0
 20
0.0
 11
0.0
 21
0.0
 12
0.0
 22
0.0
 32
0.0
 14
0.0
 24
0.0
 34
0.0
 15
0.0
 25
0.0
 35
0.0
146
0.0
 13
0.0
 23
0.0
 33
0.0
 16
0.0
 26
0.0
 36
0.0
 17
0.0
 27
0.0
 37
0.0
 76
     0
330
A
331
0
345
0
346
0
  0
LAYOUT
  5
21
102
{ACAD_REACTORS
330
1E
102
}
100
AcDbPlotSettings
  1

  2

  4

  6

 40
0.0
 41
0.0
 42
0.0
 43
0.0
 44
0.0
 45
0.0
 46
0.0
 47
0.0
 48
0.0
 49
0.0
140
0.0
141
0.0
142
1.0
143
1.0
 70
     0
 72
     0
 73
     0
 74
     0
  7

 75
     0
147
1.0
148
0.0
149
0.0
100
AcDbLayout
  1
Layout1
 70
     0
 71
     2
 10
0.0
 20
0.0
 11
0.0
 21
0.0
 12
0.0
 22
0.0
 32
0.0
 14
0.0
 24
0.0
 34
0.0
 15
0.0
 25
0.0
 35
0.0
146
0.0
 13
0.0
 23
0.0
 33
0.0
 16
0.0
 26
0.0
 36
0.0
 17
0.0
 27
0.0
 37
0.0
 76
     0
330
B
331
0
345
0
346
0
  0
DICTIONARY
  5
1E
102
{ACAD_REACTORS
330
19
102
}
100
AcDbDictionary
280
     0
281
     1
  3
Layout1
350
21
  3
Model
350
20
  0
DICTIONARY
  5
22
102
{ACAD_REACTORS
330
19
102
}
100
AcDbDictionary
280
     0
281
     1
  0
WIPEOUTVARIABLES
  5
23
100
AcDbWipeoutVariables
 70
     1
  0
ENDSEC
  0
EOF
