ISO-10303-21;
HEADER;
FILE_DESCRIPTION( ( 'STEP AP203' ), '1' );
FILE_NAME( 'C:/Documents and Settings/JP/fXNgbv/_E[hpCADf[^/{g»ÏLbv/M6/M6.step', '2022-07-27T01:05:03', ( ' ' ), ( ' ' ), 'XStep 1.0', ' ', ' ' );
FILE_SCHEMA( ( 'CONFIG_CONTROL_DESIGN' ) );
ENDSEC;
DATA;
#1 = DESIGN_CONTEXT( '', #27, 'design' );
#2 = APPLICATION_PROTOCOL_DEFINITION( 'INTERNATIONAL STANDARD', 'config_control_design', 1994, #27 );
#3 = PRODUCT_CATEGORY_RELATIONSHIP( 'NONE', 'NONE', #28, #29 );
#4 = DATE_AND_TIME( #30, #31 );
#5 = DATE_TIME_ROLE( 'creation_date' );
#6 = DATE_TIME_ROLE( 'classification_date' );
#7 = PERSON_AND_ORGANIZATION_ROLE( 'creator' );
#8 = PERSON_AND_ORGANIZATION_ROLE( 'design_supplier' );
#9 = PERSON_AND_ORGANIZATION_ROLE( 'classification_officer' );
#10 = PERSON_AND_ORGANIZATION_ROLE( 'design_owner' );
#11 = APPROVAL_PERSON_ORGANIZATION( #32, #33, #34 );
#12 = APPROVAL_DATE_TIME( #4, #33 );
#13 = CC_DESIGN_APPROVAL( #33, ( #35, #36, #37 ) );
#14 = CC_DESIGN_DATE_AND_TIME_ASSIGNMENT( #4, #5, ( #37 ) );
#15 = CC_DESIGN_DATE_AND_TIME_ASSIGNMENT( #4, #6, ( #35 ) );
#16 = CC_DESIGN_PERSON_AND_ORGANIZATION_ASSIGNMENT( #32, #10, ( #38 ) );
#17 = CC_DESIGN_PERSON_AND_ORGANIZATION_ASSIGNMENT( #32, #7, ( #37 ) );
#18 = CC_DESIGN_PERSON_AND_ORGANIZATION_ASSIGNMENT( #32, #7, ( #36 ) );
#19 = CC_DESIGN_PERSON_AND_ORGANIZATION_ASSIGNMENT( #32, #8, ( #36 ) );
#20 = CC_DESIGN_SECURITY_CLASSIFICATION( #35, ( #36 ) );
#21 = CC_DESIGN_PERSON_AND_ORGANIZATION_ASSIGNMENT( #32, #9, ( #35 ) );
#22 = SHAPE_DEFINITION_REPRESENTATION( #39, #40 );
#23 =  ( GEOMETRIC_REPRESENTATION_CONTEXT( 3 )GLOBAL_UNCERTAINTY_ASSIGNED_CONTEXT( ( #43 ) )GLOBAL_UNIT_ASSIGNED_CONTEXT( ( #45, #46, #47 ) )REPRESENTATION_CONTEXT( 'NONE', 'WORKSPACE' ) );
#27 = APPLICATION_CONTEXT( 'CONFIGURATION CONTROLLED 3D DESIGNS OF MECHANICAL PARTS AND ASSEMBLIES' );
#28 = PRODUCT_CATEGORY( 'part', 'NONE' );
#29 = PRODUCT_RELATED_PRODUCT_CATEGORY( 'detail', ' ', ( #38 ) );
#30 = CALENDAR_DATE( 2022, 27, 6 );
#31 = LOCAL_TIME( 10, 5, 3.00000000000000, #49 );
#32 = PERSON_AND_ORGANIZATION( #50, #51 );
#33 = APPROVAL( #52, 'SOLID MODEL' );
#34 = APPROVAL_ROLE( 'APPROVED' );
#35 = SECURITY_CLASSIFICATION( '', '', #53 );
#36 = PRODUCT_DEFINITION_FORMATION_WITH_SPECIFIED_SOURCE( ' ', 'NONE', #38, .NOT_KNOWN. );
#37 = PRODUCT_DEFINITION( 'NONE', 'NONE', #36, #1 );
#38 = PRODUCT( '1', '1', 'PART-1-DESC', ( #54 ) );
#39 = PRODUCT_DEFINITION_SHAPE( 'NONE', 'NONE', #37 );
#40 = ADVANCED_BREP_SHAPE_REPRESENTATION( '1', ( #55, #56 ), #23 );
#43 = UNCERTAINTY_MEASURE_WITH_UNIT( LENGTH_MEASURE( 0.00100000000000000 ), #45, '', '' );
#45 =  ( CONVERSION_BASED_UNIT( 'MILLIMETRE', #59 )LENGTH_UNIT(  )NAMED_UNIT( #62 ) );
#46 =  ( NAMED_UNIT( #64 )PLANE_ANGLE_UNIT(  )SI_UNIT( $, .RADIAN. ) );
#47 =  ( NAMED_UNIT( #64 )SOLID_ANGLE_UNIT(  )SI_UNIT( $, .STERADIAN. ) );
#49 = COORDINATED_UNIVERSAL_TIME_OFFSET( 9, 0, .AHEAD. );
#50 = PERSON( '', 'UNSPECIFIED', $, $, $, $ );
#51 = ORGANIZATION( 'UNSPECIFIED', 'UNSPECIFIED', 'UNSPECIFIED' );
#52 = APPROVAL_STATUS( 'approved' );
#53 = SECURITY_CLASSIFICATION_LEVEL( 'unclassified' );
#54 = MECHANICAL_CONTEXT( '', #27, 'mechanical' );
#55 = MANIFOLD_SOLID_BREP( '1', #70 );
#56 = AXIS2_PLACEMENT_3D( '', #71, #72, #73 );
#59 = LENGTH_MEASURE_WITH_UNIT( LENGTH_MEASURE( 1.00000000000000 ), #74 );
#62 = DIMENSIONAL_EXPONENTS( 1.00000000000000, 0.000000000000000, 0.000000000000000, 0.000000000000000, 0.000000000000000, 0.000000000000000, 0.000000000000000 );
#64 = DIMENSIONAL_EXPONENTS( 0.000000000000000, 0.000000000000000, 0.000000000000000, 0.000000000000000, 0.000000000000000, 0.000000000000000, 0.000000000000000 );
#70 = CLOSED_SHELL( '', ( #75, #76, #77, #78, #79, #80, #81, #82, #83 ) );
#71 = CARTESIAN_POINT( '', ( 0.000000000000000, 0.000000000000000, 0.000000000000000 ) );
#72 = DIRECTION( '', ( 0.000000000000000, 0.000000000000000, 1.00000000000000 ) );
#73 = DIRECTION( '', ( 1.00000000000000, 0.000000000000000, 0.000000000000000 ) );
#74 =  ( NAMED_UNIT( #62 )LENGTH_UNIT(  )SI_UNIT( .MILLI., .METRE. ) );
#75 = ADVANCED_FACE( '', ( #85, #86 ), #87, .T. );
#76 = ADVANCED_FACE( '', ( #88 ), #89, .T. );
#77 = ADVANCED_FACE( '', ( #90, #91 ), #92, .F. );
#78 = ADVANCED_FACE( '', ( #93, #94 ), #95, .F. );
#79 = ADVANCED_FACE( '', ( #96, #97 ), #98, .T. );
#80 = ADVANCED_FACE( '', ( #99, #100 ), #101, .F. );
#81 = ADVANCED_FACE( '', ( #102, #103 ), #104, .T. );
#82 = ADVANCED_FACE( '', ( #105, #106 ), #107, .T. );
#83 = ADVANCED_FACE( '', ( #108, #109 ), #110, .T. );
#85 = FACE_BOUND( '', #111, .T. );
#86 = FACE_OUTER_BOUND( '', #112, .T. );
#87 = ( B_SPLINE_SURFACE( 3, 3, ( ( #114, #115, #116, #117, #118, #119, #120 ), ( #121, #122, #123, #124, #125, #126, #127 ), ( #128, #129, #130, #131, #132, #133, #134 ), ( #135, #136, #137, #138, #139, #140, #141 ) ), .UNSPECIFIED., .F., .T., .F. )B_SPLINE_SURFACE_WITH_KNOTS( ( 4, 4 ), ( 4, 3, 4 ), ( 0.000000000000000, 6.28318530717959 ), ( -1.57626867344154, -1.49579194047186, -1.41531520750218 ), .UNSPECIFIED. )RATIONAL_B_SPLINE_SURFACE( ( ( 1.00000000000000, 0.333333333333333, 0.333333333333333, 1.00000000000000, 0.333333333333333, 0.333333333333333, 1.00000000000000 ), ( 0.997842330040647, 0.332614110013549, 0.332614110013549, 0.997842330040647, 0.332614110013549, 0.332614110013549, 0.997842330040647 ), ( 0.997842330040647, 0.332614110013549, 0.332614110013549, 0.997842330040647, 0.332614110013549, 0.332614110013549, 0.997842330040647 ), ( 1.00000000000000, 0.333333333333333, 0.333333333333333, 1.00000000000000, 0.333333333333333, 0.333333333333333, 1.00000000000000 ) ) )BOUNDED_SURFACE(  )REPRESENTATION_ITEM( '' )GEOMETRIC_REPRESENTATION_ITEM(  )SURFACE(  ) );
#88 = FACE_OUTER_BOUND( '', #148, .T. );
#89 = PLANE( '', #149 );
#90 = FACE_OUTER_BOUND( '', #150, .T. );
#91 = FACE_BOUND( '', #151, .T. );
#92 = CONICAL_SURFACE( '', #152, 4.89999999999998, 1.04719755119660 );
#93 = FACE_OUTER_BOUND( '', #153, .T. );
#94 = FACE_BOUND( '', #154, .T. );
#95 = CONICAL_SURFACE( '', #155, 5.41560086827988, 0.0523598775598343 );
#96 = FACE_OUTER_BOUND( '', #156, .T. );
#97 = FACE_BOUND( '', #157, .T. );
#98 = PLANE( '', #158 );
#99 = FACE_OUTER_BOUND( '', #159, .T. );
#100 = FACE_BOUND( '', #160, .T. );
#101 = CONICAL_SURFACE( '', #161, 6.36351227136310, 0.0523598775598184 );
#102 = FACE_OUTER_BOUND( '', #162, .T. );
#103 = FACE_OUTER_BOUND( '', #163, .T. );
#104 = TOROIDAL_SURFACE( '', #164, 4.38147916221463, 2.00000000000000 );
#105 = FACE_BOUND( '', #165, .T. );
#106 = FACE_OUTER_BOUND( '', #166, .T. );
#107 = CONICAL_SURFACE( '', #167, 7.43583500677366, 0.261799387799146 );
#108 = FACE_OUTER_BOUND( '', #168, .T. );
#109 = FACE_BOUND( '', #169, .T. );
#110 = PLANE( '', #170 );
#111 = VERTEX_LOOP( '', #171 );
#112 = EDGE_LOOP( '', ( #172 ) );
#114 = CARTESIAN_POINT( '', ( 0.000000000000000, 4.69119002784276, 5.64747886834189 ) );
#115 = CARTESIAN_POINT( '', ( 9.38238005568553, 4.69119002784276, 5.64747886834189 ) );
#116 = CARTESIAN_POINT( '', ( 9.38238005568553, -4.69119002784276, 5.64747886834189 ) );
#117 = CARTESIAN_POINT( '', ( 0.000000000000000, -4.69119002784276, 5.64747886834189 ) );
#118 = CARTESIAN_POINT( '', ( -9.38238005568553, -4.69119002784276, 5.64747886834189 ) );
#119 = CARTESIAN_POINT( '', ( -9.38238005568553, 4.69119002784276, 5.64747886834189 ) );
#120 = CARTESIAN_POINT( '', ( 0.000000000000000, 4.69119002784276, 5.64747886834189 ) );
#121 = CARTESIAN_POINT( '', ( 0.000000000000000, 3.13861747800708, 5.89083877876316 ) );
#122 = CARTESIAN_POINT( '', ( 6.27723495601415, 3.13861747800708, 5.89083877876316 ) );
#123 = CARTESIAN_POINT( '', ( 6.27723495601415, -3.13861747800708, 5.89083877876316 ) );
#124 = CARTESIAN_POINT( '', ( 0.000000000000000, -3.13861747800708, 5.89083877876316 ) );
#125 = CARTESIAN_POINT( '', ( -6.27723495601415, -3.13861747800708, 5.89083877876316 ) );
#126 = CARTESIAN_POINT( '', ( -6.27723495601415, 3.13861747800708, 5.89083877876316 ) );
#127 = CARTESIAN_POINT( '', ( 0.000000000000000, 3.13861747800708, 5.89083877876316 ) );
#128 = CARTESIAN_POINT( '', ( 0.000000000000000, 1.57150615971170, 6.00859991230942 ) );
#129 = CARTESIAN_POINT( '', ( 3.14301231942341, 1.57150615971170, 6.00859991230942 ) );
#130 = CARTESIAN_POINT( '', ( 3.14301231942341, -1.57150615971170, 6.00859991230942 ) );
#131 = CARTESIAN_POINT( '', ( 0.000000000000000, -1.57150615971170, 6.00859991230942 ) );
#132 = CARTESIAN_POINT( '', ( -3.14301231942341, -1.57150615971170, 6.00859991230942 ) );
#133 = CARTESIAN_POINT( '', ( -3.14301231942341, 1.57150615971170, 6.00859991230942 ) );
#134 = CARTESIAN_POINT( '', ( 0.000000000000000, 1.57150615971170, 6.00859991230942 ) );
#135 = CARTESIAN_POINT( '', ( 0.000000000000000, 5.55653613398821E-015, 5.99999999999999 ) );
#136 = CARTESIAN_POINT( '', ( 1.09451645721493E-014, 5.55653613398821E-015, 5.99999999999999 ) );
#137 = CARTESIAN_POINT( '', ( 1.09451645721493E-014, -5.38862843816112E-015, 5.99999999999999 ) );
#138 = CARTESIAN_POINT( '', ( 0.000000000000000, -5.38862843816112E-015, 5.99999999999999 ) );
#139 = CARTESIAN_POINT( '', ( -1.09451645721493E-014, -5.38862843816112E-015, 5.99999999999999 ) );
#140 = CARTESIAN_POINT( '', ( -1.09451645721493E-014, 5.55653613398821E-015, 5.99999999999999 ) );
#141 = CARTESIAN_POINT( '', ( 0.000000000000000, 5.55653613398821E-015, 5.99999999999999 ) );
#148 = EDGE_LOOP( '', ( #173 ) );
#149 = AXIS2_PLACEMENT_3D( '', #174, #175, #176 );
#150 = EDGE_LOOP( '', ( #177 ) );
#151 = EDGE_LOOP( '', ( #178 ) );
#152 = AXIS2_PLACEMENT_3D( '', #179, #180, #181 );
#153 = EDGE_LOOP( '', ( #182 ) );
#154 = EDGE_LOOP( '', ( #183 ) );
#155 = AXIS2_PLACEMENT_3D( '', #184, #185, #186 );
#156 = EDGE_LOOP( '', ( #187 ) );
#157 = EDGE_LOOP( '', ( #188 ) );
#158 = AXIS2_PLACEMENT_3D( '', #189, #190, #191 );
#159 = EDGE_LOOP( '', ( #192 ) );
#160 = EDGE_LOOP( '', ( #193 ) );
#161 = AXIS2_PLACEMENT_3D( '', #194, #195, #196 );
#162 = EDGE_LOOP( '', ( #197 ) );
#163 = EDGE_LOOP( '', ( #198 ) );
#164 = AXIS2_PLACEMENT_3D( '', #199, #200, #201 );
#165 = EDGE_LOOP( '', ( #202 ) );
#166 = EDGE_LOOP( '', ( #203 ) );
#167 = AXIS2_PLACEMENT_3D( '', #204, #205, #206 );
#168 = EDGE_LOOP( '', ( #207 ) );
#169 = EDGE_LOOP( '', ( #208 ) );
#170 = AXIS2_PLACEMENT_3D( '', #209, #210, #211 );
#171 = VERTEX_POINT( '', #212 );
#172 = ORIENTED_EDGE( '', *, *, #213, .F. );
#173 = ORIENTED_EDGE( '', *, *, #214, .T. );
#174 = CARTESIAN_POINT( '', ( 0.000000000000000, -9.54872784226559E-032, 4.50000000000000 ) );
#175 = DIRECTION( '', ( 0.000000000000000, -6.12303176911189E-017, -1.00000000000000 ) );
#176 = DIRECTION( '', ( 0.000000000000000, 1.00000000000000, -6.12303176911189E-017 ) );
#177 = ORIENTED_EDGE( '', *, *, #215, .T. );
#178 = ORIENTED_EDGE( '', *, *, #214, .F. );
#179 = CARTESIAN_POINT( '', ( 0.000000000000000, -1.83708438423211E-032, 4.50000000000000 ) );
#180 = DIRECTION( '', ( 0.000000000000000, -6.12303176911189E-017, -1.00000000000000 ) );
#181 = DIRECTION( '', ( 0.000000000000000, 1.00000000000000, -6.12303176911189E-017 ) );
#182 = ORIENTED_EDGE( '', *, *, #216, .T. );
#183 = ORIENTED_EDGE( '', *, *, #215, .F. );
#184 = CARTESIAN_POINT( '', ( 0.000000000000000, -1.82271818058887E-017, 4.20231769990420 ) );
#185 = DIRECTION( '', ( 0.000000000000000, -6.12303176911189E-017, -1.00000000000000 ) );
#186 = DIRECTION( '', ( 0.000000000000000, 1.00000000000000, -6.12303176911189E-017 ) );
#187 = ORIENTED_EDGE( '', *, *, #217, .T. );
#188 = ORIENTED_EDGE( '', *, *, #216, .F. );
#189 = CARTESIAN_POINT( '', ( -1.02196687156200E-015, -5.56351227136309, 1.38000000000000 ) );
#190 = DIRECTION( '', ( 0.000000000000000, -6.12303176911189E-017, -1.00000000000000 ) );
#191 = DIRECTION( '', ( 0.000000000000000, 1.00000000000000, -6.12303176911189E-017 ) );
#192 = ORIENTED_EDGE( '', *, *, #218, .T. );
#193 = ORIENTED_EDGE( '', *, *, #217, .F. );
#194 = CARTESIAN_POINT( '', ( 0.000000000000000, -1.91038591196291E-016, 1.38000000000000 ) );
#195 = DIRECTION( '', ( 0.000000000000000, -6.12303176911189E-017, -1.00000000000000 ) );
#196 = DIRECTION( '', ( 0.000000000000000, 1.00000000000000, -6.12303176911189E-017 ) );
#197 = ORIENTED_EDGE( '', *, *, #213, .T. );
#198 = ORIENTED_EDGE( '', *, *, #219, .F. );
#199 = CARTESIAN_POINT( '', ( 0.000000000000000, 0.000000000000000, 3.67160458597674 ) );
#200 = DIRECTION( '', ( 0.000000000000000, -6.12303176911189E-017, -1.00000000000000 ) );
#201 = DIRECTION( '', ( 0.000000000000000, 1.00000000000000, -6.12303176911189E-017 ) );
#202 = ORIENTED_EDGE( '', *, *, #219, .T. );
#203 = ORIENTED_EDGE( '', *, *, #220, .F. );
#204 = CARTESIAN_POINT( '', ( 0.000000000000000, -2.75536429610035E-016, -8.67361737988404E-016 ) );
#205 = DIRECTION( '', ( 0.000000000000000, -6.12303176911189E-017, -1.00000000000000 ) );
#206 = DIRECTION( '', ( 0.000000000000000, 1.00000000000000, -6.12303176911189E-017 ) );
#207 = ORIENTED_EDGE( '', *, *, #220, .T. );
#208 = ORIENTED_EDGE( '', *, *, #218, .F. );
#209 = CARTESIAN_POINT( '', ( -1.18220466621713E-015, -6.43583500677368, 0.000000000000000 ) );
#210 = DIRECTION( '', ( 0.000000000000000, -6.12303176911189E-017, -1.00000000000000 ) );
#211 = DIRECTION( '', ( 0.000000000000000, 1.00000000000000, -6.12303176911189E-017 ) );
#212 = CARTESIAN_POINT( '', ( -1.68711831204990E-032, 0.000000000000000, 5.99999999999999 ) );
#213 = EDGE_CURVE( '', #221, #221, #222, .T. );
#214 = EDGE_CURVE( '', #223, #223, #224, .T. );
#215 = EDGE_CURVE( '', #225, #225, #226, .T. );
#216 = EDGE_CURVE( '', #227, #227, #228, .T. );
#217 = EDGE_CURVE( '', #229, #229, #230, .T. );
#218 = EDGE_CURVE( '', #231, #231, #232, .T. );
#219 = EDGE_CURVE( '', #233, #233, #234, .T. );
#220 = EDGE_CURVE( '', #235, #235, #236, .T. );
#221 = VERTEX_POINT( '', #237 );
#222 = CIRCLE( '', #238, 4.69119002784275 );
#223 = VERTEX_POINT( '', #239 );
#224 = CIRCLE( '', #240, 4.89999999999998 );
#225 = VERTEX_POINT( '', #241 );
#226 = CIRCLE( '', #242, 5.41560086827988 );
#227 = VERTEX_POINT( '', #243 );
#228 = CIRCLE( '', #244, 5.56351227136309 );
#229 = VERTEX_POINT( '', #245 );
#230 = CIRCLE( '', #246, 6.36351227136310 );
#231 = VERTEX_POINT( '', #247 );
#232 = CIRCLE( '', #248, 6.43583500677368 );
#233 = VERTEX_POINT( '', #249 );
#234 = CIRCLE( '', #250, 6.31333081479277 );
#235 = VERTEX_POINT( '', #251 );
#236 = CIRCLE( '', #252, 7.43583500677366 );
#237 = CARTESIAN_POINT( '', ( 0.000000000000000, 4.69119002784275, 5.64747886834186 ) );
#238 = AXIS2_PLACEMENT_3D( '', #253, #254, #255 );
#239 = CARTESIAN_POINT( '', ( 0.000000000000000, 4.89999999999998, 4.50000000000000 ) );
#240 = AXIS2_PLACEMENT_3D( '', #256, #257, #258 );
#241 = CARTESIAN_POINT( '', ( 0.000000000000000, 5.41560086827988, 4.20231769990420 ) );
#242 = AXIS2_PLACEMENT_3D( '', #259, #260, #261 );
#243 = CARTESIAN_POINT( '', ( 0.000000000000000, 5.56351227136309, 1.38000000000000 ) );
#244 = AXIS2_PLACEMENT_3D( '', #262, #263, #264 );
#245 = CARTESIAN_POINT( '', ( 0.000000000000000, 6.36351227136310, 1.38000000000000 ) );
#246 = AXIS2_PLACEMENT_3D( '', #265, #266, #267 );
#247 = CARTESIAN_POINT( '', ( 0.000000000000000, 6.43583500677368, -1.26142996006078E-015 ) );
#248 = AXIS2_PLACEMENT_3D( '', #268, #269, #270 );
#249 = CARTESIAN_POINT( '', ( 0.000000000000000, 6.31333081479277, 4.18924267618178 ) );
#250 = AXIS2_PLACEMENT_3D( '', #271, #272, #273 );
#251 = CARTESIAN_POINT( '', ( 0.000000000000000, 7.43583500677366, -1.32266027775190E-015 ) );
#252 = AXIS2_PLACEMENT_3D( '', #274, #275, #276 );
#253 = CARTESIAN_POINT( '', ( 0.000000000000000, 7.02604956524179E-017, 5.64747886834186 ) );
#254 = DIRECTION( '', ( 0.000000000000000, -6.12303176911189E-017, -1.00000000000000 ) );
#255 = DIRECTION( '', ( 0.000000000000000, 1.00000000000000, -6.12303176911189E-017 ) );
#256 = CARTESIAN_POINT( '', ( 0.000000000000000, -1.83708438423211E-032, 4.50000000000000 ) );
#257 = DIRECTION( '', ( 0.000000000000000, -6.12303176911189E-017, -1.00000000000000 ) );
#258 = DIRECTION( '', ( 0.000000000000000, 1.00000000000000, -6.12303176911189E-017 ) );
#259 = CARTESIAN_POINT( '', ( 0.000000000000000, -1.82271818058887E-017, 4.20231769990420 ) );
#260 = DIRECTION( '', ( 0.000000000000000, -6.12303176911189E-017, -1.00000000000000 ) );
#261 = DIRECTION( '', ( 0.000000000000000, 1.00000000000000, -6.12303176911189E-017 ) );
#262 = CARTESIAN_POINT( '', ( 0.000000000000000, -1.91038591196291E-016, 1.38000000000000 ) );
#263 = DIRECTION( '', ( 0.000000000000000, -6.12303176911189E-017, -1.00000000000000 ) );
#264 = DIRECTION( '', ( 0.000000000000000, 1.00000000000000, -6.12303176911189E-017 ) );
#265 = CARTESIAN_POINT( '', ( 0.000000000000000, -1.91038591196291E-016, 1.38000000000000 ) );
#266 = DIRECTION( '', ( 0.000000000000000, -6.12303176911189E-017, -1.00000000000000 ) );
#267 = DIRECTION( '', ( 0.000000000000000, 1.00000000000000, -6.12303176911189E-017 ) );
#268 = CARTESIAN_POINT( '', ( 0.000000000000000, -2.75536429610035E-016, -8.67361737988404E-016 ) );
#269 = DIRECTION( '', ( 0.000000000000000, -6.12303176911189E-017, -1.00000000000000 ) );
#270 = DIRECTION( '', ( 0.000000000000000, 1.00000000000000, -6.12303176911189E-017 ) );
#271 = CARTESIAN_POINT( '', ( 0.000000000000000, -1.90277696622317E-017, 4.18924267618178 ) );
#272 = DIRECTION( '', ( 0.000000000000000, -6.12303176911189E-017, -1.00000000000000 ) );
#273 = DIRECTION( '', ( 0.000000000000000, 1.00000000000000, -6.12303176911189E-017 ) );
#274 = CARTESIAN_POINT( '', ( 0.000000000000000, -2.75536429610035E-016, -8.67361737988404E-016 ) );
#275 = DIRECTION( '', ( 0.000000000000000, -6.12303176911189E-017, -1.00000000000000 ) );
#276 = DIRECTION( '', ( 0.000000000000000, 1.00000000000000, -6.12303176911189E-017 ) );
ENDSEC;
END-ISO-10303-21;
