  0
SECTION
  2
HEADER
  9
$ACADVER
  1
AC1015
  9
$ACADMAINTVER
 70
     6
  9
$DWGCODEPAGE
  3
DOS932
  9
$INSBASE
 10
0.0
 20
0.0
 30
0.0
  9
$EXTMIN
 10
-99.733047
 20
-10.9
 30
0.0
  9
$EXTMAX
 10
249.332528
 20
170.85938
 30
9.906
  9
$LIMMIN
 10
-99.733047
 20
-10.9
  9
$LIMMAX
 10
249.332528
 20
170.85938
  9
$ORTHOMODE
 70
     0
  9
$REGENMODE
 70
     1
  9
$FILLMODE
 70
     1
  9
$QTEXTMODE
 70
     0
  9
$MIRRTEXT
 70
     1
  9
$LTSCALE
 40
10.0
  9
$ATTMODE
 70
     1
  9
$TEXTSIZE
 40
0.2
  9
$TRACEWID
 40
0.05
  9
$TEXTSTYLE
  7
Standard
  9
$CLAYER
  8
0
  9
$CELTYPE
  6
Continuous
  9
$CECOLOR
 62
   256
  9
$CELTSCALE
 40
1.0
  9
$DISPSILH
 70
     0
  9
$DIMSCALE
 40
1.0
  9
$DIMASZ
 40
1.40208
  9
$DIMEXO
 40
1.40208
  9
$DIMDLI
 40
0.38
  9
$DIMRND
 40
0.0
  9
$DIMDLE
 40
0.0
  9
$DIMEXE
 40
1.05156
  9
$DIMTP
 40
0.0
  9
$DIMTM
 40
0.0
  9
$DIMTXT
 40
3.5052
  9
$DIMCEN
 40
0.09
  9
$DIMTSZ
 40
0.0
  9
$DIMTOL
 70
     0
  9
$DIMLIM
 70
     0
  9
$DIMTIH
 70
     0
  9
$DIMTOH
 70
     0
  9
$DIMSE1
 70
     0
  9
$DIMSE2
 70
     0
  9
$DIMTAD
 70
     1
  9
$DIMZIN
 70
     0
  9
$DIMBLK
  1

  9
$DIMASO
 70
     1
  9
$DIMSHO
 70
     1
  9
$DIMPOST
  1

  9
$DIMAPOST
  1

  9
$DIMALT
 70
     0
  9
$DIMALTD
 70
     2
  9
$DIMALTF
 40
25.4
  9
$DIMLFAC
 40
1.0
  9
$DIMTOFL
 70
     0
  9
$DIMTVP
 40
0.0
  9
$DIMTIX
 70
     0
  9
$DIMSOXD
 70
     0
  9
$DIMSAH
 70
     0
  9
$DIMBLK1
  1

  9
$DIMBLK2
  1

  9
$DIMSTYLE
  2
Standard
  9
$DIMCLRD
 70
     7
  9
$DIMCLRE
 70
     7
  9
$DIMCLRT
 70
     7
  9
$DIMTFAC
 40
0.5
  9
$DIMGAP
 40
1.7526
  9
$DIMJUST
 70
     0
  9
$DIMSD1
 70
     0
  9
$DIMSD2
 70
     0
  9
$DIMTOLJ
 70
     1
  9
$DIMTZIN
 70
     0
  9
$DIMALTZ
 70
     0
  9
$DIMALTTZ
 70
     0
  9
$DIMUPT
 70
     0
  9
$DIMDEC
 70
     2
  9
$DIMTDEC
 70
     4
  9
$DIMALTU
 70
     2
  9
$DIMALTTD
 70
     2
  9
$DIMTXSTY
  7
Standard
  9
$DIMAUNIT
 70
     0
  9
$DIMADEC
 70
     0
  9
$DIMALTRND
 40
0.0
  9
$DIMAZIN
 70
     0
  9
$DIMDSEP
 70
     0
  9
$DIMATFIT
 70
     3
  9
$DIMFRAC
 70
     0
  9
$DIMLDRBLK
  1

  9
$DIMLUNIT
 70
     2
  9
$DIMLWD
 70
     0
  9
$DIMLWE
 70
     0
  9
$DIMTMOVE
 70
     0
  9
$LUNITS
 70
     2
  9
$LUPREC
 70
     4
  9
$SKETCHINC
 40
0.1
  9
$FILLETRAD
 40
0.0
  9
$AUNITS
 70
     0
  9
$AUPREC
 70
     0
  9
$MENU
  1
acad
  9
$ELEVATION
 40
0.0
  9
$PELEVATION
 40
0.0
  9
$THICKNESS
 40
0.0
  9
$LIMCHECK
 70
     0
  9
$CHAMFERA
 40
0.0
  9
$CHAMFERB
 40
0.0
  9
$CHAMFERC
 40
0.0
  9
$CHAMFERD
 40
0.0
  9
$SKPOLY
 70
     0
  9
$TDCREATE
 40
2459788.466296296
  9
$TDUCREATE
 40
0.000000000
  9
$TDUPDATE
 40
2459788.091226852
  9
$TDUUPDATE
 40
0.000000000
  9
$TDINDWG
 40
0.0000000000
  9
$TDUSRTIMER
 40
0.0000000000
  9
$USRTIMER
 70
     1
  9
$ANGBASE
 50
0.0
  9
$ANGDIR
 70
     0
  9
$PDMODE
 70
     0
  9
$PDSIZE
 40
0.0
  9
$PLINEWID
 40
0.0
  9
$SPLFRAME
 70
     0
  9
$SPLINETYPE
 70
     6
  9
$SPLINESEGS
 70
     8
  9
$HANDSEED
  5
20F
  9
$SURFTAB1
 70
     6
  9
$SURFTAB2
 70
     6
  9
$SURFTYPE
 70
     6
  9
$SURFU
 70
     6
  9
$SURFV
 70
     6
  9
$UCSBASE
  2

  9
$UCSNAME
  2

  9
$UCSORG
 10
0.0
 20
0.0
 30
0.0
  9
$UCSXDIR
 10
1.0
 20
0.0
 30
0.0
  9
$UCSYDIR
 10
0.0
 20
1.0
 30
0.0
  9
$UCSORTHOREF
  2

  9
$UCSORTHOVIEW
 70
     0
  9
$UCSORGTOP
 10
0.0
 20
0.0
 30
0.0
  9
$UCSORGBOTTOM
 10
0.0
 20
0.0
 30
0.0
  9
$UCSORGLEFT
 10
0.0
 20
0.0
 30
0.0
  9
$UCSORGRIGHT
 10
0.0
 20
0.0
 30
0.0
  9
$UCSORGFRONT
 10
0.0
 20
0.0
 30
0.0
  9
$UCSORGBACK
 10
0.0
 20
0.0
 30
0.0
  9
$PUCSBASE
  2

  9
$PUCSNAME
  2

  9
$PUCSORG
 10
0.0
 20
0.0
 30
0.0
  9
$PUCSXDIR
 10
1.0
 20
0.0
 30
0.0
  9
$PUCSYDIR
 10
0.0
 20
1.0
 30
0.0
  9
$PUCSORTHOREF
  2

  9
$PUCSORTHOVIEW
 70
     0
  9
$PUCSORGTOP
 10
0.0
 20
0.0
 30
0.0
  9
$PUCSORGBOTTOM
 10
0.0
 20
0.0
 30
0.0
  9
$PUCSORGLEFT
 10
0.0
 20
0.0
 30
0.0
  9
$PUCSORGRIGHT
 10
0.0
 20
0.0
 30
0.0
  9
$PUCSORGFRONT
 10
0.0
 20
0.0
 30
0.0
  9
$PUCSORGBACK
 10
0.0
 20
0.0
 30
0.0
  9
$USERI1
 70
     0
  9
$USERI2
 70
     0
  9
$USERI3
 70
     0
  9
$USERI4
 70
     0
  9
$USERI5
 70
     0
  9
$USERR1
 40
0.0
  9
$USERR2
 40
0.0
  9
$USERR3
 40
0.0
  9
$USERR4
 40
0.0
  9
$USERR5
 40
0.0
  9
$WORLDVIEW
 70
     1
  9
$SHADEDGE
 70
     3
  9
$SHADEDIF
 70
    70
  9
$TILEMODE
 70
     1
  9
$MAXACTVP
 70
    16
  9
$PINSBASE
 10
0.0
 20
0.0
 30
0.0
  9
$PLIMCHECK
 70
     0
  9
$PEXTMIN
 10
1.000000E+20
 20
1.000000E+20
 30
1.000000E+20
  9
$PEXTMAX
 10
-1.000000E+20
 20
-1.000000E+20
 30
-1.000000E+20
  9
$PLIMMIN
 10
0.0
 20
0.0
  9
$PLIMMAX
 10
12.0
 20
9.0
  9
$UNITMODE
 70
     0
  9
$VISRETAIN
 70
     0
  9
$PLINEGEN
 70
     1
  9
$PSLTSCALE
 70
     0
  9
$TREEDEPTH
 70
  3020
  9
$CMLSTYLE
  2
Standard
  9
$CMLJUST
 70
     0
  9
$CMLSCALE
 40
1.0
  9
$PROXYGRAPHICS
 70
     0
  9
$MEASUREMENT
 70
     0
  9
$CELWEIGHT
370
     0
  9
$ENDCAPS
280
     0
  9
$JOINSTYLE
280
     0
  9
$LWDISPLAY
290
     0
  9
$INSUNITS
 70
     0
  9
$HYPERLINKBASE
  1

  9
$STYLESHEET
  1

  9
$XEDIT
290
     1
  9
$CEPSNTYPE
380
     0
  9
$PSTYLEMODE
290
     1
  9
$FINGERPRINTGUID
  2

  9
$VERSIONGUID
  2

  9
$EXTNAMES
290
     1
  9
$PSVPSCALE
 40
0.0
  0
ENDSEC
  0
SECTION
  2
CLASSES
  0
CLASS
  1
LWPOLYLINE
  2
AcDbPolyline
  3
AutoCAD 2000
 90
        0
280
     0
281
     1
  0
CLASS
  1
IMAGE
  2
AcDbRasterImage
  3
ISM
 90
      127
280
     0
281
     1
  0
CLASS
  1
OLE2FRAME
  2
AcDbOle2Frame
  3
AutoCAD 2000
 90
        0
280
     0
281
     1
  0
CLASS
  1
HATCH
  2
AcDbHatch
  3
AutoCAD 2000
 90
        0
280
     0
281
     1
  0
CLASS
  1
DICTIONARYVAR
  2
AcDbDictionaryVar
  3
AutoCAD 2000
 90
        0
280
     0
281
     0
  0
CLASS
  1
RASTERVARIABLES
  2
AcDbRasterVariables
  3
ISM
 90
        0
280
     0
281
     0
  0
CLASS
  1
IMAGEDEF
  2
AcDbRasterImageDef
  3
ISM
 90
        0
280
     0
281
     0
  0
CLASS
  1
IMAGEDEF_REACTOR
  2
AcDbRasterImageDefReactor
  3
ISM
 90
        1
280
     0
281
     0
  0
CLASS
  1
IDBUFFER
  2
AcDbIdBuffer
  3
AutoCAD 2000
 90
        0
280
     0
281
     0
  0
CLASS
  1
SPATIAL_FILTER
  2
AcDbSpatialFilter
  3
AutoCAD 2000
 90
        0
280
     0
281
     0
  0
CLASS
  1
XRECORD
  2
AcDbXrecord
  3
AutoCAD 2000
 90
        0
280
     0
281
     0
  0
CLASS
  1
SORTENTSTABLE
  2
AcDbSortentsTable
  3
AutoCAD 2000
 90
        0
280
     0
281
     0
  0
CLASS
  1
LAYER_INDEX
  2
AcDbLayerIndex
  3
AutoCAD 2000
 90
        0
280
     0
281
     0
  0
CLASS
  1
SPATIAL_INDEX
  2
AcDbSpatialIndex
  3
AutoCAD 2000
 90
        0
280
     0
281
     0
  0
CLASS
  1
OBJECT_PTR
  2
CAseDLPNTableRecord
  3
"ASE-LPNTableRecord"
 90
        1
280
     0
281
     0
  0
CLASS
  1
LAYOUT
  2
AcDbLayout
  3
AutoCAD 2000
 90
        0
280
     0
281
     0
  0
CLASS
  1
PLOTSETTINGS
  2
AcDbPlotSettings
  3
AutoCAD 2000
 90
        0
280
     0
281
     0
  0
CLASS
  1
ACDBDICTIONARYWDFLT
  2
AcDbDictionaryWithDefault
  3
AutoCAD 2000
 90
        0
280
     0
281
     0
  0
CLASS
  1
ACDBPLACEHOLDER
  2
AcDbPlaceHolder
  3
AutoCAD 2000
 90
        0
280
     0
281
     0
  0
CLASS
  1
VBA_PROJECT
  2
AcDbVbaProject
  3
acadvba
 90
        0
280
     0
281
     0
  0
CLASS
  1
WIPEOUT
  2
AcDbWipeout
  3
WipeOut|AutoCAD Express Tool|expresstools@autodesk.com
 90
      127
280
     0
281
     1
  0
CLASS
  1
WIPEOUTVARIABLES
  2
AcDbWipeoutVariables
  3
WipeOut|AutoCAD Express Tool|expresstools@autodesk.com
 90
        0
280
     0
281
     0
  0
CLASS
  1
RTEXT
  2
RText
  3
RText|AutoCAD Express Tool|expresstools@autodesk.com
 90
        0
280
     0
281
     1
  0
CLASS
  1
ARCALIGNEDTEXT
  2
AcDbArcAlignedText
  3
ATEXT|AutoCAD Express Tool|expresstools@autodesk.com
 90
        0
280
     0
281
     1
  0
ENDSEC
  0
SECTION
  2
TABLES
  0
TABLE
  2
VPORT
  5
7
100
AcDbSymbolTable
 70
     1
  0
VPORT
  5
15
100
AcDbSymbolTableRecord
100
AcDbViewportTableRecord
  2
*ACTIVE
 70
     0
 10
0.0
 20
0.0
 11
1.0
 21
1.0
 12
6.591288
 22
4.579184
 13
0.0
 23
0.0
 14
1.0
 24
1.0
 15
0.0
 25
0.0
 16
0.0
 26
0.0
 36
1.0
 17
0.0
 27
0.0
 37
0.0
 40
9.158369
 41
0.688564
 42
50.0
 43
0.0
 44
0.0
 50
0.0
 51
0.0
 71
     0
 72
   100
 73
     1
 74
     1
 75
     0
 76
     0
 77
     0
 78
     0
281
     0
 65
     0
110
0.0
120
0.0
130
0.0
111
1.0
121
0.0
131
0.0
112
0.0
122
1.0
132
0.0
345
0
346
0
 79
     0
146
0.0
  0
ENDTAB
  0
TABLE
  2
LTYPE
  5
4
100
AcDbSymbolTable
 70
     3
  0
LTYPE
  5
11
100
AcDbSymbolTableRecord
100
AcDbLinetypeTableRecord
  2
ByBlock
 70
    64
  3

 72
    65
 73
     0
 40
0.0
  0
LTYPE
  5
12
100
AcDbSymbolTableRecord
100
AcDbLinetypeTableRecord
  2
ByLayer
 70
    64
  3

 72
    65
 73
     0
 40
0.0
  0
LTYPE
  5
13
100
AcDbSymbolTableRecord
100
AcDbLinetypeTableRecord
  2
Continuous
 70
    64
  3
Solid line
 72
    65
 73
     0
 40
0.0
  0
ENDTAB
  0
TABLE
  2
LAYER
  5
2
100
AcDbSymbolTable
 70
     1
  0
LAYER
  5
14
100
AcDbSymbolTableRecord
100
AcDbLayerTableRecord
  2
0
 70
     0
 62
     7
  6
Continuous
290
     1
370
    -3
390
1D
  0
ENDTAB
  0
TABLE
  2
STYLE
  5
3
100
AcDbSymbolTable
 70
     1
  0
STYLE
  5
17
100
AcDbSymbolTableRecord
100
AcDbTextStyleTableRecord
  2
Standard
 70
     0
 40
0.0
 41
1.0
 50
0.0
 71
     0
 42
0.0
  3
FG教科書体NT-M
  4

1001
ACAD
1000
FG教科書体NT-M
1071
        0
  0
ENDTAB
  0
TABLE
  2
VIEW
  5
5
100
AcDbSymbolTable
 70
     0
  0
ENDTAB
  0
TABLE
  2
UCS
  5
6
100
AcDbSymbolTable
 70
     0
  0
ENDTAB
  0
TABLE
  2
APPID
  5
8
100
AcDbSymbolTable
 70
     2
  0
APPID
  5
16
100
AcDbSymbolTableRecord
100
AcDbRegAppTableRecord
  2
ACAD
 70
     0
  0
APPID
  5
26
100
AcDbSymbolTableRecord
100
AcDbRegAppTableRecord
  2
TOPsolid_Design
 70
     0
  0
ENDTAB
  0
TABLE
  2
DIMSTYLE
  5
9
100
AcDbSymbolTable
 70
     1
100
AcDbDimStyleTable
 71
     0
  0
DIMSTYLE
105
18
100
AcDbSymbolTableRecord
100
AcDbDimStyleTableRecord
  2
Standard
 70
     0
  3

  4

 40
1.0
 41
1.40208
 42
1.40208
 43
0.38
 44
1.05156
 45
0.0
 46
0.0
 47
0.0
 48
0.0
 71
     0
 72
     0
 73
     0
 74
     0
 75
     0
 76
     0
 77
     1
 78
     0
 79
     0
140
3.5052
141
0.09
142
0.0
143
25.4
144
1.0
145
0.0
146
0.5
147
1.7526
148
0.0
170
     0
171
     2
172
     0
173
     0
174
     0
175
     0
176
     7
177
     7
178
     7
179
     0
271
     2
272
     4
273
     2
274
     2
275
     0
276
     0
277
     2
278
    46
279
     0
280
     0
281
     0
282
     0
283
     1
284
     0
285
     0
286
     0
288
     0
289
     3
340
17
341
0
342
0
343
0
344
0
371
    -2
372
    -2
  0
ENDTAB
  0
TABLE
  2
BLOCK_RECORD
  5
1
100
AcDbSymbolTable
 70
     0
  0
BLOCK_RECORD
  5
A
100
AcDbSymbolTableRecord
100
AcDbBlockTableRecord
  2
*MODEL_SPACE
340
20
  0
BLOCK_RECORD
  5
B
100
AcDbSymbolTableRecord
100
AcDbBlockTableRecord
  2
*PAPER_SPACE
340
21
  0
ENDTAB
  0
ENDSEC
  0
SECTION
  2
BLOCKS
  0
BLOCK
  5
D
100
AcDbEntity
  8
0
390
0
100
AcDbBlockBegin
  2
*MODEL_SPACE
 70
     0
 10
0.0
 20
0.0
 30
0.0
  3
*MODEL_SPACE
  1

  0
ENDBLK
  5
E
100
AcDbEntity
  8
0
390
0
100
AcDbBlockEnd
  0
BLOCK
  5
F
100
AcDbEntity
 67
     1
  8
0
390
0
100
AcDbBlockBegin
  2
*PAPER_SPACE
 70
     0
 10
0.0
 20
0.0
 30
0.0
  3
*PAPER_SPACE
  1

  0
ENDBLK
  5
10
100
AcDbEntity
 67
     1
  8
0
390
0
100
AcDbBlockEnd
  0
ENDSEC
  0
SECTION
  2
ENTITIES
  0
LINE
  5
27
100
AcDbEntity
  8
0
390
0
  6
Continuous
 62
     7
100
AcDbLine
 10
3.45
 20
10.9
 30
0.0
 11
3.45
 21
-10.9
 31
0.0
  0
LINE
  5
28
100
AcDbEntity
  8
0
390
0
  6
Continuous
 62
     7
100
AcDbLine
 10
2.150962
 20
-10.15
 30
0.0
 11
2.150962
 21
10.15
 31
0.0
  0
LINE
  5
29
100
AcDbEntity
  8
0
390
0
  6
Continuous
 62
     7
100
AcDbLine
 10
5.25
 20
10.9
 30
0.0
 11
5.25
 21
-10.9
 31
0.0
  0
LINE
  5
2A
100
AcDbEntity
  8
0
390
0
  6
Continuous
 62
     7
100
AcDbLine
 10
2.077928
 20
10.023502
 30
0.0
 11
1.867096
 21
9.375585
 31
0.0
  0
LINE
  5
2B
100
AcDbEntity
  8
0
390
0
  6
Continuous
 62
     7
100
AcDbLine
 10
1.867096
 20
-9.375586
 30
0.0
 11
2.077928
 21
-10.023503
 31
0.0
  0
ARC
  5
2C
100
AcDbEntity
  8
0
390
0
  6
Continuous
 62
     7
100
AcDbCircle
 10
5.573426
 20
-8.036217
 30
0.0
 40
3.940912
210
0.0
220
0.0
230
1.0
100
AcDbArc
 50
160.131487
 51
199.868513
  0
ARC
  5
2D
100
AcDbEntity
  8
0
390
0
  6
Continuous
 62
     7
100
AcDbCircle
 10
-7.554438
 20
-4.687793
 30
0.0
 40
9.633359
210
0.0
220
0.0
230
1.0
100
AcDbArc
 50
347.962504
 51
12.037496
  0
ARC
  5
2E
100
AcDbEntity
  8
0
390
0
  6
Continuous
 62
     7
100
AcDbCircle
 10
16.975831
 20
0.0
 30
0.0
 40
15.344365
210
0.0
220
0.0
230
1.0
100
AcDbArc
 50
169.946087
 51
190.053913
  0
ARC
  5
2F
100
AcDbEntity
  8
0
390
0
  6
Continuous
 62
     7
100
AcDbCircle
 10
-7.444483
 20
4.687792
 30
0.0
 40
9.525849
210
0.0
220
0.0
230
1.0
100
AcDbArc
 50
347.824577
 51
12.175423
  0
ARC
  5
30
100
AcDbEntity
  8
0
390
0
  6
Continuous
 62
     7
100
AcDbCircle
 10
5.538289
 20
8.036216
 30
0.0
 40
3.907885
210
0.0
220
0.0
230
1.0
100
AcDbArc
 50
159.956403
 51
200.043597
  0
ARC
  5
31
100
AcDbEntity
  8
0
390
0
  6
Continuous
 62
     7
100
AcDbCircle
 10
18.124397
 20
0.0
 30
0.0
 40
17.792088
210
0.0
220
0.0
230
1.0
100
AcDbArc
 50
170.66253
 51
189.33747
  0
LINE
  5
32
100
AcDbEntity
  8
0
390
0
  6
Continuous
 62
     7
100
AcDbLine
 10
1.867096
 20
2.678738
 30
0.0
 11
0.568058
 21
2.886751
 31
0.0
  0
LINE
  5
33
100
AcDbEntity
  8
0
390
0
  6
Continuous
 62
     7
100
AcDbLine
 10
1.867096
 20
-2.678739
 30
0.0
 11
0.568058
 21
-2.886752
 31
0.0
  0
ARC
  5
34
100
AcDbEntity
  8
0
390
0
  6
Continuous
 62
     7
100
AcDbCircle
 10
-4.694851
 20
4.402295
 30
0.0
 40
5.476776
210
0.0
220
0.0
230
1.0
100
AcDbArc
 50
343.93534
 51
16.06466
  0
ELLIPSE
  5
35
100
AcDbEntity
  8
0
390
0
  6
Continuous
 62
     7
100
AcDbEllipse
 10
0.568058
 20
7.216878
 30
0.0
 11
-1.4285298997286089
 21
-0.4574957109978184
 31
0.0
210
0.0
220
0.0
230
0.9999999999999999
 40
0.855132
 41
1.3034890838711648
 42
2.3731923974007079
  0
ARC
  5
36
100
AcDbEntity
  8
0
390
0
  6
Continuous
 62
     7
100
AcDbCircle
 10
-4.754647
 20
-4.402296
 30
0.0
 40
5.534262
210
0.0
220
0.0
230
1.0
100
AcDbArc
 50
344.106649
 51
15.893351
  0
ELLIPSE
  5
37
100
AcDbEntity
  8
0
390
0
  6
Continuous
 62
     7
100
AcDbEllipse
 10
0.568058
 20
-7.216879
 30
0.0
 11
1.4285298997286089
 21
-0.4574957109978184
 31
0.0
210
0.0
220
0.0
230
0.9999999999999999
 40
0.855132
 41
0.7684002561890865
 42
1.8381035697186279
  0
LINE
  5
38
100
AcDbEntity
  8
0
390
0
  6
Continuous
 62
     7
100
AcDbLine
 10
-2.25
 20
2.886751
 30
0.0
 11
-2.25
 21
-2.886752
 31
0.0
  0
LINE
  5
39
100
AcDbEntity
  8
0
390
0
  6
Continuous
 62
     7
100
AcDbLine
 10
0.568058
 20
2.886751
 30
0.0
 11
-2.25
 21
2.886751
 31
0.0
  0
LINE
  5
3A
100
AcDbEntity
  8
0
390
0
  6
Continuous
 62
     7
100
AcDbLine
 10
-2.25
 20
-2.886752
 30
0.0
 11
0.568058
 21
-2.886752
 31
0.0
  0
LINE
  5
3B
100
AcDbEntity
  8
0
390
0
  6
Continuous
 62
     7
100
AcDbLine
 10
-2.25
 20
2.886751
 30
0.0
 11
-2.25
 21
5.91784
 31
0.0
  0
LINE
  5
3C
100
AcDbEntity
  8
0
390
0
  6
Continuous
 62
     7
100
AcDbLine
 10
-2.25
 20
5.91784
 30
0.0
 11
0.568058
 21
5.91784
 31
0.0
  0
LINE
  5
3D
100
AcDbEntity
  8
0
390
0
  6
Continuous
 62
     7
100
AcDbLine
 10
-2.25
 20
2.886751
 30
0.0
 11
-5.25
 21
2.886751
 31
0.0
  0
LINE
  5
3E
100
AcDbEntity
  8
0
390
0
  6
Continuous
 62
     7
100
AcDbLine
 10
-5.25
 20
3.319764
 30
0.0
 11
-5.25
 21
2.886751
 31
0.0
  0
ELLIPSE
  5
3F
100
AcDbEntity
  8
0
390
0
  6
Continuous
 62
     7
100
AcDbEllipse
 10
-2.25
 20
3.319764
 30
0.0
 11
-3.0000000000000027
 21
0.0
 31
0.0
210
0.0
220
0.0
230
1.0
 40
0.866025
 41
4.7123889803846915
 42
6.283185307179588
  0
LINE
  5
40
100
AcDbEntity
  8
0
390
0
  6
Continuous
 62
     7
100
AcDbLine
 10
-5.25
 20
-2.886752
 30
0.0
 11
-2.25
 21
-2.886752
 31
0.0
  0
LINE
  5
41
100
AcDbEntity
  8
0
390
0
  6
Continuous
 62
     7
100
AcDbLine
 10
-5.25
 20
-2.886752
 30
0.0
 11
-5.25
 21
2.886751
 31
0.0
  0
LINE
  5
42
100
AcDbEntity
  8
0
390
0
  6
Continuous
 62
     7
100
AcDbLine
 10
-2.25
 20
-5.917841
 30
0.0
 11
-2.25
 21
-2.886752
 31
0.0
  0
ELLIPSE
  5
43
100
AcDbEntity
  8
0
390
0
  6
Continuous
 62
     7
100
AcDbEllipse
 10
-2.25
 20
-3.319765
 30
0.0
 11
3.0000000000000027
 21
0.0
 31
0.0
210
0.0
220
0.0
230
1.0
 40
0.866025
 41
3.1415926535897931
 42
4.7123889803846897
  0
LINE
  5
44
100
AcDbEntity
  8
0
390
0
  6
Continuous
 62
     7
100
AcDbLine
 10
-5.25
 20
-2.886752
 30
0.0
 11
-5.25
 21
-3.319765
 31
0.0
  0
LINE
  5
45
100
AcDbEntity
  8
0
390
0
  6
Continuous
 62
     7
100
AcDbLine
 10
0.568058
 20
-5.917841
 30
0.0
 11
-2.25
 21
-5.917841
 31
0.0
  0
ARC
  5
46
100
AcDbEntity
  8
0
390
0
  6
Continuous
 62
     7
100
AcDbCircle
 10
4.868752
 20
7.361215
 30
0.0
 40
4.536442
210
0.0
220
0.0
230
0.9999999999999999
100
AcDbArc
 50
161.447497
 51
198.552503
  0
ELLIPSE
  5
47
100
AcDbEntity
  8
0
390
0
  6
Continuous
 62
     7
100
AcDbEllipse
 10
0.568058
 20
10.103629
 30
0.0
 11
-1.4285298997286089
 21
0.4574957109978184
 31
0.0
210
0.0
220
0.0
230
0.9999999999999999
 40
0.855132
 41
1.8381035697186268
 42
2.9078068832481678
  0
ARC
  5
48
100
AcDbEntity
  8
0
390
0
  6
Continuous
 62
     7
100
AcDbCircle
 10
4.868752
 20
-7.361216
 30
0.0
 40
4.536442
210
0.0
220
0.0
230
0.9999999999999999
100
AcDbArc
 50
161.447497
 51
198.552503
  0
ELLIPSE
  5
49
100
AcDbEntity
  8
0
390
0
  6
Continuous
 62
     7
100
AcDbEllipse
 10
0.568058
 20
-10.10363
 30
0.0
 11
1.4285298997286089
 21
0.4574957109978184
 31
0.0
210
0.0
220
0.0
230
0.9999999999999999
 40
0.855132
 41
0.2337857703416236
 42
1.3034890838711657
  0
LINE
  5
4A
100
AcDbEntity
  8
0
390
0
  6
Continuous
 62
     7
100
AcDbLine
 10
-5.25
 20
3.319764
 30
0.0
 11
-5.25
 21
6.206515
 31
0.0
  0
ELLIPSE
  5
4B
100
AcDbEntity
  8
0
390
0
  6
Continuous
 62
     7
100
AcDbEllipse
 10
-2.25
 20
6.206515
 30
0.0
 11
3.0000000000000027
 21
0.0
 31
0.0
210
0.0
220
0.0
230
1.0
 40
0.866025
 41
1.5707963267948966
 42
3.1415926535897931
  0
LINE
  5
4C
100
AcDbEntity
  8
0
390
0
  6
Continuous
 62
     7
100
AcDbLine
 10
-2.25
 20
8.804591
 30
0.0
 11
-2.25
 21
5.91784
 31
0.0
  0
LINE
  5
4D
100
AcDbEntity
  8
0
390
0
  6
Continuous
 62
     7
100
AcDbLine
 10
0.568058
 20
8.804591
 30
0.0
 11
-2.25
 21
8.804591
 31
0.0
  0
ELLIPSE
  5
4E
100
AcDbEntity
  8
0
390
0
  6
Continuous
 62
     7
100
AcDbEllipse
 10
-2.25
 20
-6.206516
 30
0.0
 11
-3.0000000000000027
 21
0.0
 31
0.0
210
0.0
220
0.0
230
1.0
 40
0.866025
 41
0.0000000000000003
 42
1.570796326794897
  0
LINE
  5
4F
100
AcDbEntity
  8
0
390
0
  6
Continuous
 62
     7
100
AcDbLine
 10
-5.25
 20
-6.206516
 30
0.0
 11
-5.25
 21
-3.319765
 31
0.0
  0
LINE
  5
50
100
AcDbEntity
  8
0
390
0
  6
Continuous
 62
     7
100
AcDbLine
 10
-2.25
 20
-5.917841
 30
0.0
 11
-2.25
 21
-8.804592
 31
0.0
  0
LINE
  5
51
100
AcDbEntity
  8
0
390
0
  6
Continuous
 62
     7
100
AcDbLine
 10
-2.25
 20
-8.804592
 30
0.0
 11
0.568058
 21
-8.804592
 31
0.0
  0
LINE
  5
52
100
AcDbEntity
  8
0
390
0
  6
Continuous
 62
     7
100
AcDbLine
 10
0.568058
 20
8.804591
 30
0.0
 11
0.77889
 21
9.273502
 31
0.0
  0
LINE
  5
53
100
AcDbEntity
  8
0
390
0
  6
Continuous
 62
     7
100
AcDbLine
 10
0.77889
 20
-9.273503
 30
0.0
 11
0.568058
 21
-8.804592
 31
0.0
  0
LINE
  5
54
100
AcDbEntity
  8
0
390
0
  6
Continuous
 62
     7
100
AcDbLine
 10
-5.25
 20
6.273502
 30
0.0
 11
-5.25
 21
6.206515
 31
0.0
  0
LINE
  5
55
100
AcDbEntity
  8
0
390
0
  6
Continuous
 62
     7
100
AcDbLine
 10
-2.25
 20
8.804591
 30
0.0
 11
-2.25
 21
9.273502
 31
0.0
  0
LINE
  5
56
100
AcDbEntity
  8
0
390
0
  6
Continuous
 62
     7
100
AcDbLine
 10
-2.25
 20
-9.273503
 30
0.0
 11
-2.25
 21
-8.804592
 31
0.0
  0
LINE
  5
57
100
AcDbEntity
  8
0
390
0
  6
Continuous
 62
     7
100
AcDbLine
 10
-5.25
 20
-6.206516
 30
0.0
 11
-5.25
 21
-6.273503
 31
0.0
  0
ARC
  5
58
100
AcDbEntity
  8
0
390
0
  6
Continuous
 62
     7
100
AcDbCircle
 10
3.45
 20
-9.4
 30
0.0
 40
1.5
210
0.0
220
0.0
230
1.0
100
AcDbArc
 50
210.0
 51
270.0
  0
ARC
  5
59
100
AcDbEntity
  8
0
390
0
  6
Continuous
 62
     7
100
AcDbCircle
 10
3.45
 20
9.4
 30
0.0
 40
1.5
210
0.0
220
0.0
230
1.0
100
AcDbArc
 50
90.0
 51
150.0
  0
LINE
  5
5A
100
AcDbEntity
  8
0
390
0
  6
Continuous
 62
     7
100
AcDbLine
 10
5.25
 20
10.9
 30
0.0
 11
3.45
 21
10.9
 31
0.0
  0
LINE
  5
5B
100
AcDbEntity
  8
0
390
0
  6
Continuous
 62
     7
100
AcDbLine
 10
3.45
 20
-10.9
 30
0.0
 11
5.25
 21
-10.9
 31
0.0
  0
LINE
  5
5C
100
AcDbEntity
  8
0
390
0
  6
Continuous
 62
     7
100
AcDbLine
 10
2.150962
 20
10.15
 30
0.0
 11
2.077928
 21
10.023502
 31
0.0
  0
LINE
  5
5D
100
AcDbEntity
  8
0
390
0
  6
Continuous
 62
     7
100
AcDbLine
 10
2.077928
 20
10.023502
 30
0.0
 11
2.077696
 21
10.0231
 31
0.0
  0
LINE
  5
5E
100
AcDbEntity
  8
0
390
0
  6
Continuous
 62
     7
100
AcDbLine
 10
2.077696
 20
-10.0231
 30
0.0
 11
2.077928
 21
-10.023503
 31
0.0
  0
LINE
  5
5F
100
AcDbEntity
  8
0
390
0
  6
Continuous
 62
     7
100
AcDbLine
 10
2.077928
 20
-10.023503
 30
0.0
 11
2.150962
 21
-10.15
 31
0.0
  0
ARC
  5
60
100
AcDbEntity
  8
0
390
0
  6
Continuous
 62
     7
100
AcDbCircle
 10
0.77889
 20
10.773502
 30
0.0
 40
1.5
210
0.0
220
0.0
230
1.0
100
AcDbArc
 50
270.0
 51
330.0
  0
ARC
  5
61
100
AcDbEntity
  8
0
390
0
  6
Continuous
 62
     7
100
AcDbCircle
 10
0.77889
 20
-10.773503
 30
0.0
 40
1.5
210
0.0
220
0.0
230
1.0
100
AcDbArc
 50
30.0
 51
90.0
  0
ARC
  5
62
100
AcDbEntity
  8
0
390
0
  6
Continuous
 62
     7
100
AcDbCircle
 10
-2.25
 20
6.273502
 30
0.0
 40
3.0
210
0.0
220
0.0
230
1.0
100
AcDbArc
 50
90.0
 51
180.0
  0
LINE
  5
63
100
AcDbEntity
  8
0
390
0
  6
Continuous
 62
     7
100
AcDbLine
 10
0.778845
 20
9.273502
 30
0.0
 11
-2.25
 21
9.273502
 31
0.0
  0
ARC
  5
64
100
AcDbEntity
  8
0
390
0
  6
Continuous
 62
     7
100
AcDbCircle
 10
-2.25
 20
-6.273503
 30
0.0
 40
3.0
210
0.0
220
0.0
230
1.0
100
AcDbArc
 50
180.0
 51
270.0
  0
LINE
  5
65
100
AcDbEntity
  8
0
390
0
  6
Continuous
 62
     7
100
AcDbLine
 10
-2.25
 20
-9.273503
 30
0.0
 11
0.778845
 21
-9.273503
 31
0.0
  0
CIRCLE
  5
66
100
AcDbEntity
  8
0
390
0
  6
Continuous
 62
     7
100
AcDbCircle
 10
86.146073
 20
0.0
 30
0.0
 40
10.9
210
0.0
220
0.0
230
1.0
  0
CIRCLE
  5
67
100
AcDbEntity
  8
0
390
0
  6
Continuous
 62
     7
100
AcDbCircle
 10
86.146073
 20
0.0
 30
0.0
 40
9.494334
210
0.0
220
0.0
230
0.9999999999999999
  0
CIRCLE
  5
68
100
AcDbEntity
  8
0
390
0
  6
Continuous
 62
     7
100
AcDbCircle
 10
86.146073
 20
0.0
 30
0.0
 40
9.4
210
0.0
220
0.0
230
1.0
  0
ARC
  5
69
100
AcDbEntity
  8
0
390
0
  6
Continuous
 62
     7
100
AcDbCircle
 10
136.898306
 20
-87.905447
 30
0.0
 40
93.754065
210
0.0
220
0.0
230
1.0
100
AcDbArc
 50
117.891217
 51
122.108783
  0
ARC
  5
6A
100
AcDbEntity
  8
0
390
0
  6
Continuous
 62
     7
100
AcDbCircle
 10
92.226172
 20
-3.510347
 30
0.0
 40
1.73485
210
0.0
220
0.0
230
1.0
100
AcDbArc
 50
298.001907
 51
1.998093
  0
ARC
  5
6B
100
AcDbEntity
  8
0
390
0
  6
Continuous
 62
     7
100
AcDbCircle
 10
187.650539
 20
0.0
 30
0.0
 40
93.754065
210
0.0
220
0.0
230
1.0
100
AcDbArc
 50
177.891217
 51
182.108783
  0
ARC
  5
6C
100
AcDbEntity
  8
0
390
0
  6
Continuous
 62
     7
100
AcDbCircle
 10
92.226172
 20
3.510346
 30
0.0
 40
1.73485
210
0.0
220
0.0
230
1.0
100
AcDbArc
 50
358.001907
 51
61.998093
  0
ARC
  5
6D
100
AcDbEntity
  8
0
390
0
  6
Continuous
 62
     7
100
AcDbCircle
 10
136.898306
 20
87.905446
 30
0.0
 40
93.754065
210
0.0
220
0.0
230
1.0
100
AcDbArc
 50
237.891217
 51
242.108783
  0
ARC
  5
6E
100
AcDbEntity
  8
0
390
0
  6
Continuous
 62
     7
100
AcDbCircle
 10
86.146073
 20
7.020639
 30
0.0
 40
1.734896
210
0.0
220
0.0
230
1.0
100
AcDbArc
 50
58.002856
 51
121.997144
  0
ARC
  5
6F
100
AcDbEntity
  8
0
390
0
  6
Continuous
 62
     7
100
AcDbCircle
 10
35.39384
 20
87.905446
 30
0.0
 40
93.754065
210
0.0
220
0.0
230
1.0
100
AcDbArc
 50
297.891217
 51
302.108783
  0
ARC
  5
70
100
AcDbEntity
  8
0
390
0
  6
Continuous
 62
     7
100
AcDbCircle
 10
80.065974
 20
3.510346
 30
0.0
 40
1.73485
210
0.0
220
0.0
230
1.0
100
AcDbArc
 50
118.001907
 51
181.998093
  0
ARC
  5
71
100
AcDbEntity
  8
0
390
0
  6
Continuous
 62
     7
100
AcDbCircle
 10
-15.358393
 20
0.0
 30
0.0
 40
93.754065
210
0.0
220
0.0
230
1.0
100
AcDbArc
 50
357.891217
 51
2.108783
  0
ARC
  5
72
100
AcDbEntity
  8
0
390
0
  6
Continuous
 62
     7
100
AcDbCircle
 10
80.065974
 20
-3.510347
 30
0.0
 40
1.73485
210
0.0
220
0.0
230
1.0
100
AcDbArc
 50
178.001907
 51
241.998093
  0
ARC
  5
73
100
AcDbEntity
  8
0
390
0
  6
Continuous
 62
     7
100
AcDbCircle
 10
35.39384
 20
-87.905447
 30
0.0
 40
93.754065
210
0.0
220
0.0
230
1.0
100
AcDbArc
 50
57.891217
 51
62.108783
  0
ARC
  5
74
100
AcDbEntity
  8
0
390
0
  6
Continuous
 62
     7
100
AcDbCircle
 10
86.146073
 20
-7.02064
 30
0.0
 40
1.734896
210
0.0
220
0.0
230
1.0
100
AcDbArc
 50
238.002856
 51
301.997144
  0
ELLIPSE
  5
75
100
AcDbEntity
  8
0
390
0
  6
Continuous
 62
     7
100
AcDbEllipse
 10
85.146073
 20
9.237604
 30
0.0
 11
0.7500000000000007
 21
-1.2990381056766642
 31
0.0
210
0.0
220
0.0
230
1.0
 40
0.227094
 41
5.1874623602475163
 42
6.2831853071795862
  0
LINE
  5
76
100
AcDbEntity
  8
0
390
0
  6
Continuous
 62
     7
100
AcDbLine
 10
79.396073
 20
4.185789
 30
0.0
 11
85.896073
 21
7.938566
 31
0.0
  0
ELLIPSE
  5
77
100
AcDbEntity
  8
0
390
0
  6
Continuous
 62
     7
100
AcDbEllipse
 10
78.646073
 20
5.484827
 30
0.0
 11
-0.7500000000000007
 21
1.2990381056766365
 31
0.0
210
0.0
220
0.0
230
1.0
 40
0.227094
 41
3.1415926535897838
 42
4.2373156005218542
  0
LINE
  5
78
100
AcDbEntity
  8
0
390
0
  6
Continuous
 62
     7
100
AcDbLine
 10
79.146073
 20
-3.752777
 30
0.0
 11
79.146073
 21
3.752776
 31
0.0
  0
ELLIPSE
  5
79
100
AcDbEntity
  8
0
390
0
  6
Continuous
 62
     7
100
AcDbEllipse
 10
77.646073
 20
-3.752777
 30
0.0
 11
-1.5000000000000013
 21
0.0
 31
0.0
210
0.0
220
0.0
230
1.0
 40
0.227094
 41
3.1415926535897931
 42
4.2373156005218453
  0
ELLIPSE
  5
7A
100
AcDbEntity
  8
0
390
0
  6
Continuous
 62
     7
100
AcDbEllipse
 10
77.646073
 20
3.752776
 30
0.0
 11
-1.5000000000000013
 21
0.0
 31
0.0
210
0.0
220
0.0
230
1.0
 40
0.227094
 41
2.0458697066577418
 42
3.1415926535897931
  0
ELLIPSE
  5
7B
100
AcDbEntity
  8
0
390
0
  6
Continuous
 62
     7
100
AcDbEllipse
 10
93.646073
 20
5.484827
 30
0.0
 11
-0.7500000000000007
 21
-1.2990381056766642
 31
0.0
210
0.0
220
0.0
230
1.0
 40
0.227094
 41
5.1874623602475145
 42
6.2831853071795862
  0
LINE
  5
7C
100
AcDbEntity
  8
0
390
0
  6
Continuous
 62
     7
100
AcDbLine
 10
86.396073
 20
7.938566
 30
0.0
 11
92.896073
 21
4.185789
 31
0.0
  0
ELLIPSE
  5
7D
100
AcDbEntity
  8
0
390
0
  6
Continuous
 62
     7
100
AcDbEllipse
 10
87.146073
 20
9.237604
 30
0.0
 11
-0.7500000000000007
 21
-1.2990381056766642
 31
0.0
210
0.0
220
0.0
230
1.0
 40
0.227094
 41
0.000000000000016
 42
1.09572294693207
  0
LINE
  5
7E
100
AcDbEntity
  8
0
390
0
  6
Continuous
 62
     7
100
AcDbLine
 10
85.896073
 20
-7.938567
 30
0.0
 11
79.396073
 21
-4.18579
 31
0.0
  0
ELLIPSE
  5
7F
100
AcDbEntity
  8
0
390
0
  6
Continuous
 62
     7
100
AcDbEllipse
 10
85.146073
 20
-9.237605
 30
0.0
 11
-0.7500000000000007
 21
-1.2990381056766642
 31
0.0
210
0.0
220
0.0
230
1.0
 40
0.227094
 41
3.1415926535897931
 42
4.2373156005218382
  0
ELLIPSE
  5
80
100
AcDbEntity
  8
0
390
0
  6
Continuous
 62
     7
100
AcDbEllipse
 10
78.646073
 20
-5.484828
 30
0.0
 11
-0.7500000000000007
 21
-1.2990381056766642
 31
0.0
210
0.0
220
0.0
230
1.0
 40
0.227094
 41
2.0458697066577072
 42
3.1415926535897776
  0
ELLIPSE
  5
81
100
AcDbEntity
  8
0
390
0
  6
Continuous
 62
     7
100
AcDbEllipse
 10
87.146073
 20
-9.237605
 30
0.0
 11
0.7500000000000007
 21
-1.2990381056766642
 31
0.0
210
0.0
220
0.0
230
1.0
 40
0.227094
 41
2.0458697066577485
 42
3.1415926535897931
  0
LINE
  5
82
100
AcDbEntity
  8
0
390
0
  6
Continuous
 62
     7
100
AcDbLine
 10
92.896073
 20
-4.18579
 30
0.0
 11
86.396073
 21
-7.938567
 31
0.0
  0
ELLIPSE
  5
83
100
AcDbEntity
  8
0
390
0
  6
Continuous
 62
     7
100
AcDbEllipse
 10
93.646073
 20
-5.484828
 30
0.0
 11
-0.7500000000000007
 21
1.2990381056766642
 31
0.0
210
0.0
220
0.0
230
1.0
 40
0.227094
 41
0.0
 42
1.0957229469320717
  0
ELLIPSE
  5
84
100
AcDbEntity
  8
0
390
0
  6
Continuous
 62
     7
100
AcDbEllipse
 10
94.646073
 20
-3.752777
 30
0.0
 11
-1.5000000000000013
 21
0.0
 31
0.0
210
0.0
220
0.0
230
1.0
 40
0.227094
 41
5.187462360247534
 42
6.2831853071795862
  0
LINE
  5
85
100
AcDbEntity
  8
0
390
0
  6
Continuous
 62
     7
100
AcDbLine
 10
93.146073
 20
3.752776
 30
0.0
 11
93.146073
 21
-3.752777
 31
0.0
  0
ELLIPSE
  5
86
100
AcDbEntity
  8
0
390
0
  6
Continuous
 62
     7
100
AcDbEllipse
 10
94.646073
 20
3.752776
 30
0.0
 11
-1.5000000000000013
 21
0.0
 31
0.0
210
0.0
220
0.0
230
1.0
 40
0.227094
 41
6.2831853071795862
 42
7.3789082541116402
  0
POLYLINE
  5
87
100
AcDbEntity
  8
0
390
0
  6
Continuous
 62
     7
100
AcDb2dPolyline
 66
     1
 10
0.0
 20
0.0
 30
0.0
 40
0.1
 41
0.1
  0
VERTEX
  5
88
100
AcDbEntity
  8
0
390
0
 62
     7
100
AcDbVertex
100
AcDb2dVertex
 10
79.146073
 20
3.752776
 30
0.0
  0
VERTEX
  5
89
100
AcDbEntity
  8
0
390
0
 62
     7
100
AcDbVertex
100
AcDb2dVertex
 10
79.146191
 20
3.763637
 30
0.0
  0
VERTEX
  5
8A
100
AcDbEntity
  8
0
390
0
 62
     7
100
AcDbVertex
100
AcDb2dVertex
 10
79.146554
 20
3.774696
 30
0.0
  0
VERTEX
  5
8B
100
AcDbEntity
  8
0
390
0
 62
     7
100
AcDbVertex
100
AcDb2dVertex
 10
79.147177
 20
3.785991
 30
0.0
  0
VERTEX
  5
8C
100
AcDbEntity
  8
0
390
0
 62
     7
100
AcDbVertex
100
AcDb2dVertex
 10
79.148076
 20
3.797489
 30
0.0
  0
VERTEX
  5
8D
100
AcDbEntity
  8
0
390
0
 62
     7
100
AcDbVertex
100
AcDb2dVertex
 10
79.149281
 20
3.809322
 30
0.0
  0
VERTEX
  5
8E
100
AcDbEntity
  8
0
390
0
 62
     7
100
AcDbVertex
100
AcDb2dVertex
 10
79.150799
 20
3.821362
 30
0.0
  0
VERTEX
  5
8F
100
AcDbEntity
  8
0
390
0
 62
     7
100
AcDbVertex
100
AcDb2dVertex
 10
79.152659
 20
3.833667
 30
0.0
  0
VERTEX
  5
90
100
AcDbEntity
  8
0
390
0
 62
     7
100
AcDbVertex
100
AcDb2dVertex
 10
79.154873
 20
3.846171
 30
0.0
  0
VERTEX
  5
91
100
AcDbEntity
  8
0
390
0
 62
     7
100
AcDbVertex
100
AcDb2dVertex
 10
79.157821
 20
3.860526
 30
0.0
  0
VERTEX
  5
92
100
AcDbEntity
  8
0
390
0
 62
     7
100
AcDbVertex
100
AcDb2dVertex
 10
79.161278
 20
3.875144
 30
0.0
  0
VERTEX
  5
93
100
AcDbEntity
  8
0
390
0
 62
     7
100
AcDbVertex
100
AcDb2dVertex
 10
79.163218
 20
3.882589
 30
0.0
  0
VERTEX
  5
94
100
AcDbEntity
  8
0
390
0
 62
     7
100
AcDbVertex
100
AcDb2dVertex
 10
79.165295
 20
3.890083
 30
0.0
  0
VERTEX
  5
95
100
AcDbEntity
  8
0
390
0
 62
     7
100
AcDbVertex
100
AcDb2dVertex
 10
79.167519
 20
3.897644
 30
0.0
  0
VERTEX
  5
96
100
AcDbEntity
  8
0
390
0
 62
     7
100
AcDbVertex
100
AcDb2dVertex
 10
79.169887
 20
3.905246
 30
0.0
  0
VERTEX
  5
97
100
AcDbEntity
  8
0
390
0
 62
     7
100
AcDbVertex
100
AcDb2dVertex
 10
79.173019
 20
3.914702
 30
0.0
  0
VERTEX
  5
98
100
AcDbEntity
  8
0
390
0
 62
     7
100
AcDbVertex
100
AcDb2dVertex
 10
79.176382
 20
3.924214
 30
0.0
  0
VERTEX
  5
99
100
AcDbEntity
  8
0
390
0
 62
     7
100
AcDbVertex
100
AcDb2dVertex
 10
79.179992
 20
3.933798
 30
0.0
  0
VERTEX
  5
9A
100
AcDbEntity
  8
0
390
0
 62
     7
100
AcDbVertex
100
AcDb2dVertex
 10
79.183842
 20
3.943413
 30
0.0
  0
VERTEX
  5
9B
100
AcDbEntity
  8
0
390
0
 62
     7
100
AcDbVertex
100
AcDb2dVertex
 10
79.188003
 20
3.953206
 30
0.0
  0
VERTEX
  5
9C
100
AcDbEntity
  8
0
390
0
 62
     7
100
AcDbVertex
100
AcDb2dVertex
 10
79.192414
 20
3.962998
 30
0.0
  0
VERTEX
  5
9D
100
AcDbEntity
  8
0
390
0
 62
     7
100
AcDbVertex
100
AcDb2dVertex
 10
79.19709
 20
3.97281
 30
0.0
  0
VERTEX
  5
9E
100
AcDbEntity
  8
0
390
0
 62
     7
100
AcDbVertex
100
AcDb2dVertex
 10
79.202014
 20
3.982584
 30
0.0
  0
VERTEX
  5
9F
100
AcDbEntity
  8
0
390
0
 62
     7
100
AcDbVertex
100
AcDb2dVertex
 10
79.206249
 20
3.99059
 30
0.0
  0
VERTEX
  5
A0
100
AcDbEntity
  8
0
390
0
 62
     7
100
AcDbVertex
100
AcDb2dVertex
 10
79.210637
 20
3.998532
 30
0.0
  0
VERTEX
  5
A1
100
AcDbEntity
  8
0
390
0
 62
     7
100
AcDbVertex
100
AcDb2dVertex
 10
79.215197
 20
4.006442
 30
0.0
  0
VERTEX
  5
A2
100
AcDbEntity
  8
0
390
0
 62
     7
100
AcDbVertex
100
AcDb2dVertex
 10
79.219898
 20
4.014263
 30
0.0
  0
VERTEX
  5
A3
100
AcDbEntity
  8
0
390
0
 62
     7
100
AcDbVertex
100
AcDb2dVertex
 10
79.22482
 20
4.02212
 30
0.0
  0
VERTEX
  5
A4
100
AcDbEntity
  8
0
390
0
 62
     7
100
AcDbVertex
100
AcDb2dVertex
 10
79.229873
 20
4.029864
 30
0.0
  0
VERTEX
  5
A5
100
AcDbEntity
  8
0
390
0
 62
     7
100
AcDbVertex
100
AcDb2dVertex
 10
79.235078
 20
4.037527
 30
0.0
  0
VERTEX
  5
A6
100
AcDbEntity
  8
0
390
0
 62
     7
100
AcDbVertex
100
AcDb2dVertex
 10
79.240397
 20
4.045056
 30
0.0
  0
VERTEX
  5
A7
100
AcDbEntity
  8
0
390
0
 62
     7
100
AcDbVertex
100
AcDb2dVertex
 10
79.247258
 20
4.05435
 30
0.0
  0
VERTEX
  5
A8
100
AcDbEntity
  8
0
390
0
 62
     7
100
AcDbVertex
100
AcDb2dVertex
 10
79.254281
 20
4.06342
 30
0.0
  0
VERTEX
  5
A9
100
AcDbEntity
  8
0
390
0
 62
     7
100
AcDbVertex
100
AcDb2dVertex
 10
79.26148
 20
4.072289
 30
0.0
  0
VERTEX
  5
AA
100
AcDbEntity
  8
0
390
0
 62
     7
100
AcDbVertex
100
AcDb2dVertex
 10
79.268808
 20
4.080909
 30
0.0
  0
VERTEX
  5
AB
100
AcDbEntity
  8
0
390
0
 62
     7
100
AcDbVertex
100
AcDb2dVertex
 10
79.276388
 20
4.089427
 30
0.0
  0
VERTEX
  5
AC
100
AcDbEntity
  8
0
390
0
 62
     7
100
AcDbVertex
100
AcDb2dVertex
 10
79.284067
 20
4.09767
 30
0.0
  0
VERTEX
  5
AD
100
AcDbEntity
  8
0
390
0
 62
     7
100
AcDbVertex
100
AcDb2dVertex
 10
79.291851
 20
4.10566
 30
0.0
  0
VERTEX
  5
AE
100
AcDbEntity
  8
0
390
0
 62
     7
100
AcDbVertex
100
AcDb2dVertex
 10
79.299702
 20
4.113369
 30
0.0
  0
VERTEX
  5
AF
100
AcDbEntity
  8
0
390
0
 62
     7
100
AcDbVertex
100
AcDb2dVertex
 10
79.305561
 20
4.118907
 30
0.0
  0
VERTEX
  5
B0
100
AcDbEntity
  8
0
390
0
 62
     7
100
AcDbVertex
100
AcDb2dVertex
 10
79.311437
 20
4.124285
 30
0.0
  0
VERTEX
  5
B1
100
AcDbEntity
  8
0
390
0
 62
     7
100
AcDbVertex
100
AcDb2dVertex
 10
79.323255
 20
4.134599
 30
0.0
  0
VERTEX
  5
B2
100
AcDbEntity
  8
0
390
0
 62
     7
100
AcDbVertex
100
AcDb2dVertex
 10
79.335177
 20
4.144367
 30
0.0
  0
VERTEX
  5
B3
100
AcDbEntity
  8
0
390
0
 62
     7
100
AcDbVertex
100
AcDb2dVertex
 10
79.347115
 20
4.153556
 30
0.0
  0
VERTEX
  5
B4
100
AcDbEntity
  8
0
390
0
 62
     7
100
AcDbVertex
100
AcDb2dVertex
 10
79.359402
 20
4.162435
 30
0.0
  0
VERTEX
  5
B5
100
AcDbEntity
  8
0
390
0
 62
     7
100
AcDbVertex
100
AcDb2dVertex
 10
79.371658
 20
4.170743
 30
0.0
  0
VERTEX
  5
B6
100
AcDbEntity
  8
0
390
0
 62
     7
100
AcDbVertex
100
AcDb2dVertex
 10
79.383898
 20
4.178528
 30
0.0
  0
VERTEX
  5
B7
100
AcDbEntity
  8
0
390
0
 62
     7
100
AcDbVertex
100
AcDb2dVertex
 10
79.396073
 20
4.185789
 30
0.0
  0
SEQEND
  5
B8
100
AcDbEntity
  8
0
390
0
  0
POLYLINE
  5
B9
100
AcDbEntity
  8
0
390
0
  6
Continuous
 62
     7
100
AcDb2dPolyline
 66
     1
 10
0.0
 20
0.0
 30
0.0
 40
0.1
 41
0.1
  0
VERTEX
  5
BA
100
AcDbEntity
  8
0
390
0
 62
     7
100
AcDbVertex
100
AcDb2dVertex
 10
85.896073
 20
7.938566
 30
0.0
  0
VERTEX
  5
BB
100
AcDbEntity
  8
0
390
0
 62
     7
100
AcDbVertex
100
AcDb2dVertex
 10
85.905534
 20
7.943892
 30
0.0
  0
VERTEX
  5
BC
100
AcDbEntity
  8
0
390
0
 62
     7
100
AcDbVertex
100
AcDb2dVertex
 10
85.915297
 20
7.94911
 30
0.0
  0
VERTEX
  5
BD
100
AcDbEntity
  8
0
390
0
 62
     7
100
AcDbVertex
100
AcDb2dVertex
 10
85.925385
 20
7.954214
 30
0.0
  0
VERTEX
  5
BE
100
AcDbEntity
  8
0
390
0
 62
     7
100
AcDbVertex
100
AcDb2dVertex
 10
85.935796
 20
7.959187
 30
0.0
  0
VERTEX
  5
BF
100
AcDbEntity
  8
0
390
0
 62
     7
100
AcDbVertex
100
AcDb2dVertex
 10
85.946641
 20
7.964058
 30
0.0
  0
VERTEX
  5
C0
100
AcDbEntity
  8
0
390
0
 62
     7
100
AcDbVertex
100
AcDb2dVertex
 10
85.957833
 20
7.968766
 30
0.0
  0
VERTEX
  5
C1
100
AcDbEntity
  8
0
390
0
 62
     7
100
AcDbVertex
100
AcDb2dVertex
 10
85.969411
 20
7.973304
 30
0.0
  0
VERTEX
  5
C2
100
AcDbEntity
  8
0
390
0
 62
     7
100
AcDbVertex
100
AcDb2dVertex
 10
85.981355
 20
7.977642
 30
0.0
  0
VERTEX
  5
C3
100
AcDbEntity
  8
0
390
0
 62
     7
100
AcDbVertex
100
AcDb2dVertex
 10
85.995261
 20
7.982267
 30
0.0
  0
VERTEX
  5
C4
100
AcDbEntity
  8
0
390
0
 62
     7
100
AcDbVertex
100
AcDb2dVertex
 10
86.009686
 20
7.986592
 30
0.0
  0
VERTEX
  5
C5
100
AcDbEntity
  8
0
390
0
 62
     7
100
AcDbVertex
100
AcDb2dVertex
 10
86.017085
 20
7.988629
 30
0.0
  0
VERTEX
  5
C6
100
AcDbEntity
  8
0
390
0
 62
     7
100
AcDbVertex
100
AcDb2dVertex
 10
86.024595
 20
7.990572
 30
0.0
  0
VERTEX
  5
C7
100
AcDbEntity
  8
0
390
0
 62
     7
100
AcDbVertex
100
AcDb2dVertex
 10
86.032252
 20
7.992426
 30
0.0
  0
VERTEX
  5
C8
100
AcDbEntity
  8
0
390
0
 62
     7
100
AcDbVertex
100
AcDb2dVertex
 10
86.040022
 20
7.994177
 30
0.0
  0
VERTEX
  5
C9
100
AcDbEntity
  8
0
390
0
 62
     7
100
AcDbVertex
100
AcDb2dVertex
 10
86.049778
 20
7.996193
 30
0.0
  0
VERTEX
  5
CA
100
AcDbEntity
  8
0
390
0
 62
     7
100
AcDbVertex
100
AcDb2dVertex
 10
86.059697
 20
7.998036
 30
0.0
  0
VERTEX
  5
CB
100
AcDbEntity
  8
0
390
0
 62
     7
100
AcDbVertex
100
AcDb2dVertex
 10
86.069878
 20
7.999713
 30
0.0
  0
VERTEX
  5
CC
100
AcDbEntity
  8
0
390
0
 62
     7
100
AcDbVertex
100
AcDb2dVertex
 10
86.080191
 20
8.001194
 30
0.0
  0
VERTEX
  5
CD
100
AcDbEntity
  8
0
390
0
 62
     7
100
AcDbVertex
100
AcDb2dVertex
 10
86.090694
 20
8.002477
 30
0.0
  0
VERTEX
  5
CE
100
AcDbEntity
  8
0
390
0
 62
     7
100
AcDbVertex
100
AcDb2dVertex
 10
86.101301
 20
8.003544
 30
0.0
  0
VERTEX
  5
CF
100
AcDbEntity
  8
0
390
0
 62
     7
100
AcDbVertex
100
AcDb2dVertex
 10
86.112136
 20
8.0044
 30
0.0
  0
VERTEX
  5
D0
100
AcDbEntity
  8
0
390
0
 62
     7
100
AcDbVertex
100
AcDb2dVertex
 10
86.123062
 20
8.005023
 30
0.0
  0
VERTEX
  5
D1
100
AcDbEntity
  8
0
390
0
 62
     7
100
AcDbVertex
100
AcDb2dVertex
 10
86.132107
 20
8.005358
 30
0.0
  0
VERTEX
  5
D2
100
AcDbEntity
  8
0
390
0
 62
     7
100
AcDbVertex
100
AcDb2dVertex
 10
86.141185
 20
8.005529
 30
0.0
  0
VERTEX
  5
D3
100
AcDbEntity
  8
0
390
0
 62
     7
100
AcDbVertex
100
AcDb2dVertex
 10
86.150369
 20
8.005535
 30
0.0
  0
VERTEX
  5
D4
100
AcDbEntity
  8
0
390
0
 62
     7
100
AcDbVertex
100
AcDb2dVertex
 10
86.159547
 20
8.005371
 30
0.0
  0
VERTEX
  5
D5
100
AcDbEntity
  8
0
390
0
 62
     7
100
AcDbVertex
100
AcDb2dVertex
 10
86.168759
 20
8.005038
 30
0.0
  0
VERTEX
  5
D6
100
AcDbEntity
  8
0
390
0
 62
     7
100
AcDbVertex
100
AcDb2dVertex
 10
86.177938
 20
8.004537
 30
0.0
  0
VERTEX
  5
D7
100
AcDbEntity
  8
0
390
0
 62
     7
100
AcDbVertex
100
AcDb2dVertex
 10
86.187171
 20
8.003861
 30
0.0
  0
VERTEX
  5
D8
100
AcDbEntity
  8
0
390
0
 62
     7
100
AcDbVertex
100
AcDb2dVertex
 10
86.196357
 20
8.003018
 30
0.0
  0
VERTEX
  5
D9
100
AcDbEntity
  8
0
390
0
 62
     7
100
AcDbVertex
100
AcDb2dVertex
 10
86.207835
 20
8.001724
 30
0.0
  0
VERTEX
  5
DA
100
AcDbEntity
  8
0
390
0
 62
     7
100
AcDbVertex
100
AcDb2dVertex
 10
86.219202
 20
8.000176
 30
0.0
  0
VERTEX
  5
DB
100
AcDbEntity
  8
0
390
0
 62
     7
100
AcDbVertex
100
AcDb2dVertex
 10
86.230483
 20
7.998376
 30
0.0
  0
VERTEX
  5
DC
100
AcDbEntity
  8
0
390
0
 62
     7
100
AcDbVertex
100
AcDb2dVertex
 10
86.241611
 20
7.996341
 30
0.0
  0
VERTEX
  5
DD
100
AcDbEntity
  8
0
390
0
 62
     7
100
AcDbVertex
100
AcDb2dVertex
 10
86.252778
 20
7.994034
 30
0.0
  0
VERTEX
  5
DE
100
AcDbEntity
  8
0
390
0
 62
     7
100
AcDbVertex
100
AcDb2dVertex
 10
86.263756
 20
7.991506
 30
0.0
  0
VERTEX
  5
DF
100
AcDbEntity
  8
0
390
0
 62
     7
100
AcDbVertex
100
AcDb2dVertex
 10
86.274569
 20
7.98876
 30
0.0
  0
VERTEX
  5
E0
100
AcDbEntity
  8
0
390
0
 62
     7
100
AcDbVertex
100
AcDb2dVertex
 10
86.28517
 20
7.985815
 30
0.0
  0
VERTEX
  5
E1
100
AcDbEntity
  8
0
390
0
 62
     7
100
AcDbVertex
100
AcDb2dVertex
 10
86.292892
 20
7.983511
 30
0.0
  0
VERTEX
  5
E2
100
AcDbEntity
  8
0
390
0
 62
     7
100
AcDbVertex
100
AcDb2dVertex
 10
86.300491
 20
7.981111
 30
0.0
  0
VERTEX
  5
E3
100
AcDbEntity
  8
0
390
0
 62
     7
100
AcDbVertex
100
AcDb2dVertex
 10
86.315367
 20
7.97602
 30
0.0
  0
VERTEX
  5
E4
100
AcDbEntity
  8
0
390
0
 62
     7
100
AcDbVertex
100
AcDb2dVertex
 10
86.329753
 20
7.970593
 30
0.0
  0
VERTEX
  5
E5
100
AcDbEntity
  8
0
390
0
 62
     7
100
AcDbVertex
100
AcDb2dVertex
 10
86.343679
 20
7.964848
 30
0.0
  0
VERTEX
  5
E6
100
AcDbEntity
  8
0
390
0
 62
     7
100
AcDbVertex
100
AcDb2dVertex
 10
86.357512
 20
7.958646
 30
0.0
  0
VERTEX
  5
E7
100
AcDbEntity
  8
0
390
0
 62
     7
100
AcDbVertex
100
AcDb2dVertex
 10
86.370855
 20
7.952177
 30
0.0
  0
VERTEX
  5
E8
100
AcDbEntity
  8
0
390
0
 62
     7
100
AcDbVertex
100
AcDb2dVertex
 10
86.383697
 20
7.945479
 30
0.0
  0
VERTEX
  5
E9
100
AcDbEntity
  8
0
390
0
 62
     7
100
AcDbVertex
100
AcDb2dVertex
 10
86.396073
 20
7.938566
 30
0.0
  0
SEQEND
  5
EA
100
AcDbEntity
  8
0
390
0
  0
POLYLINE
  5
EB
100
AcDbEntity
  8
0
390
0
  6
Continuous
 62
     7
100
AcDb2dPolyline
 66
     1
 10
0.0
 20
0.0
 30
0.0
 40
0.1
 41
0.1
  0
VERTEX
  5
EC
100
AcDbEntity
  8
0
390
0
 62
     7
100
AcDbVertex
100
AcDb2dVertex
 10
79.396073
 20
-4.18579
 30
0.0
  0
VERTEX
  5
ED
100
AcDbEntity
  8
0
390
0
 62
     7
100
AcDbVertex
100
AcDb2dVertex
 10
79.386726
 20
-4.180257
 30
0.0
  0
VERTEX
  5
EE
100
AcDbEntity
  8
0
390
0
 62
     7
100
AcDbVertex
100
AcDb2dVertex
 10
79.37733
 20
-4.174414
 30
0.0
  0
VERTEX
  5
EF
100
AcDbEntity
  8
0
390
0
 62
     7
100
AcDbVertex
100
AcDb2dVertex
 10
79.36786
 20
-4.168226
 30
0.0
  0
VERTEX
  5
F0
100
AcDbEntity
  8
0
390
0
 62
     7
100
AcDbVertex
100
AcDb2dVertex
 10
79.358352
 20
-4.161699
 30
0.0
  0
VERTEX
  5
F1
100
AcDbEntity
  8
0
390
0
 62
     7
100
AcDbVertex
100
AcDb2dVertex
 10
79.348706
 20
-4.154739
 30
0.0
  0
VERTEX
  5
F2
100
AcDbEntity
  8
0
390
0
 62
     7
100
AcDbVertex
100
AcDb2dVertex
 10
79.339039
 20
-4.147404
 30
0.0
  0
VERTEX
  5
F3
100
AcDbEntity
  8
0
390
0
 62
     7
100
AcDbVertex
100
AcDb2dVertex
 10
79.329313
 20
-4.139641
 30
0.0
  0
VERTEX
  5
F4
100
AcDbEntity
  8
0
390
0
 62
     7
100
AcDbVertex
100
AcDb2dVertex
 10
79.319591
 20
-4.131472
 30
0.0
  0
VERTEX
  5
F5
100
AcDbEntity
  8
0
390
0
 62
     7
100
AcDbVertex
100
AcDb2dVertex
 10
79.308633
 20
-4.121741
 30
0.0
  0
VERTEX
  5
F6
100
AcDbEntity
  8
0
390
0
 62
     7
100
AcDbVertex
100
AcDb2dVertex
 10
79.297702
 20
-4.111438
 30
0.0
  0
VERTEX
  5
F7
100
AcDbEntity
  8
0
390
0
 62
     7
100
AcDbVertex
100
AcDb2dVertex
 10
79.292225
 20
-4.106036
 30
0.0
  0
VERTEX
  5
F8
100
AcDbEntity
  8
0
390
0
 62
     7
100
AcDbVertex
100
AcDb2dVertex
 10
79.286773
 20
-4.10049
 30
0.0
  0
VERTEX
  5
F9
100
AcDbEntity
  8
0
390
0
 62
     7
100
AcDbVertex
100
AcDb2dVertex
 10
79.281337
 20
-4.094783
 30
0.0
  0
VERTEX
  5
FA
100
AcDbEntity
  8
0
390
0
 62
     7
100
AcDbVertex
100
AcDb2dVertex
 10
79.275937
 20
-4.088932
 30
0.0
  0
VERTEX
  5
FB
100
AcDbEntity
  8
0
390
0
 62
     7
100
AcDbVertex
100
AcDb2dVertex
 10
79.269314
 20
-4.081491
 30
0.0
  0
VERTEX
  5
FC
100
AcDbEntity
  8
0
390
0
 62
     7
100
AcDbVertex
100
AcDb2dVertex
 10
79.262758
 20
-4.073822
 30
0.0
  0
VERTEX
  5
FD
100
AcDbEntity
  8
0
390
0
 62
     7
100
AcDbVertex
100
AcDb2dVertex
 10
79.256263
 20
-4.065904
 30
0.0
  0
VERTEX
  5
FE
100
AcDbEntity
  8
0
390
0
 62
     7
100
AcDbVertex
100
AcDb2dVertex
 10
79.249861
 20
-4.057763
 30
0.0
  0
VERTEX
  5
FF
100
AcDbEntity
  8
0
390
0
 62
     7
100
AcDbVertex
100
AcDb2dVertex
 10
79.243461
 20
-4.049263
 30
0.0
  0
VERTEX
  5
100
100
AcDbEntity
  8
0
390
0
 62
     7
100
AcDbVertex
100
AcDb2dVertex
 10
79.237186
 20
-4.040547
 30
0.0
  0
VERTEX
  5
101
100
AcDbEntity
  8
0
390
0
 62
     7
100
AcDbVertex
100
AcDb2dVertex
 10
79.231027
 20
-4.031591
 30
0.0
  0
VERTEX
  5
102
100
AcDbEntity
  8
0
390
0
 62
     7
100
AcDbVertex
100
AcDb2dVertex
 10
79.225024
 20
-4.02244
 30
0.0
  0
VERTEX
  5
103
100
AcDbEntity
  8
0
390
0
 62
     7
100
AcDbVertex
100
AcDb2dVertex
 10
79.220208
 20
-4.014769
 30
0.0
  0
VERTEX
  5
104
100
AcDbEntity
  8
0
390
0
 62
     7
100
AcDbVertex
100
AcDb2dVertex
 10
79.215525
 20
-4.006998
 30
0.0
  0
VERTEX
  5
105
100
AcDbEntity
  8
0
390
0
 62
     7
100
AcDbVertex
100
AcDb2dVertex
 10
79.210954
 20
-3.999094
 30
0.0
  0
VERTEX
  5
106
100
AcDbEntity
  8
0
390
0
 62
     7
100
AcDbVertex
100
AcDb2dVertex
 10
79.206531
 20
-3.991112
 30
0.0
  0
VERTEX
  5
107
100
AcDbEntity
  8
0
390
0
 62
     7
100
AcDbVertex
100
AcDb2dVertex
 10
79.202188
 20
-3.982921
 30
0.0
  0
VERTEX
  5
108
100
AcDbEntity
  8
0
390
0
 62
     7
100
AcDbVertex
100
AcDb2dVertex
 10
79.198008
 20
-3.974673
 30
0.0
  0
VERTEX
  5
109
100
AcDbEntity
  8
0
390
0
 62
     7
100
AcDbVertex
100
AcDb2dVertex
 10
79.193974
 20
-3.966334
 30
0.0
  0
VERTEX
  5
10A
100
AcDbEntity
  8
0
390
0
 62
     7
100
AcDbVertex
100
AcDb2dVertex
 10
79.190113
 20
-3.957962
 30
0.0
  0
VERTEX
  5
10B
100
AcDbEntity
  8
0
390
0
 62
     7
100
AcDbVertex
100
AcDb2dVertex
 10
79.185495
 20
-3.947375
 30
0.0
  0
VERTEX
  5
10C
100
AcDbEntity
  8
0
390
0
 62
     7
100
AcDbVertex
100
AcDb2dVertex
 10
79.181152
 20
-3.936757
 30
0.0
  0
VERTEX
  5
10D
100
AcDbEntity
  8
0
390
0
 62
     7
100
AcDbVertex
100
AcDb2dVertex
 10
79.17707
 20
-3.926088
 30
0.0
  0
VERTEX
  5
10E
100
AcDbEntity
  8
0
390
0
 62
     7
100
AcDbVertex
100
AcDb2dVertex
 10
79.173269
 20
-3.915432
 30
0.0
  0
VERTEX
  5
10F
100
AcDbEntity
  8
0
390
0
 62
     7
100
AcDbVertex
100
AcDb2dVertex
 10
79.169683
 20
-3.904608
 30
0.0
  0
VERTEX
  5
110
100
AcDbEntity
  8
0
390
0
 62
     7
100
AcDbVertex
100
AcDb2dVertex
 10
79.166383
 20
-3.893837
 30
0.0
  0
VERTEX
  5
111
100
AcDbEntity
  8
0
390
0
 62
     7
100
AcDbVertex
100
AcDb2dVertex
 10
79.163355
 20
-3.8831
 30
0.0
  0
VERTEX
  5
112
100
AcDbEntity
  8
0
390
0
 62
     7
100
AcDbVertex
100
AcDb2dVertex
 10
79.160605
 20
-3.872447
 30
0.0
  0
VERTEX
  5
113
100
AcDbEntity
  8
0
390
0
 62
     7
100
AcDbVertex
100
AcDb2dVertex
 10
79.158738
 20
-3.864604
 30
0.0
  0
VERTEX
  5
114
100
AcDbEntity
  8
0
390
0
 62
     7
100
AcDbVertex
100
AcDb2dVertex
 10
79.157019
 20
-3.856826
 30
0.0
  0
VERTEX
  5
115
100
AcDbEntity
  8
0
390
0
 62
     7
100
AcDbVertex
100
AcDb2dVertex
 10
79.153996
 20
-3.841434
 30
0.0
  0
VERTEX
  5
116
100
AcDbEntity
  8
0
390
0
 62
     7
100
AcDbVertex
100
AcDb2dVertex
 10
79.151497
 20
-3.826226
 30
0.0
  0
VERTEX
  5
117
100
AcDbEntity
  8
0
390
0
 62
     7
100
AcDbVertex
100
AcDb2dVertex
 10
79.149509
 20
-3.811293
 30
0.0
  0
VERTEX
  5
118
100
AcDbEntity
  8
0
390
0
 62
     7
100
AcDbVertex
100
AcDb2dVertex
 10
79.147963
 20
-3.796212
 30
0.0
  0
VERTEX
  5
119
100
AcDbEntity
  8
0
390
0
 62
     7
100
AcDbVertex
100
AcDb2dVertex
 10
79.146895
 20
-3.781444
 30
0.0
  0
VERTEX
  5
11A
100
AcDbEntity
  8
0
390
0
 62
     7
100
AcDbVertex
100
AcDb2dVertex
 10
79.146274
 20
-3.766951
 30
0.0
  0
VERTEX
  5
11B
100
AcDbEntity
  8
0
390
0
 62
     7
100
AcDbVertex
100
AcDb2dVertex
 10
79.146073
 20
-3.752777
 30
0.0
  0
SEQEND
  5
11C
100
AcDbEntity
  8
0
390
0
  0
POLYLINE
  5
11D
100
AcDbEntity
  8
0
390
0
  6
Continuous
 62
     7
100
AcDb2dPolyline
 66
     1
 10
0.0
 20
0.0
 30
0.0
 40
0.1
 41
0.1
  0
VERTEX
  5
11E
100
AcDbEntity
  8
0
390
0
 62
     7
100
AcDbVertex
100
AcDb2dVertex
 10
92.896073
 20
4.185789
 30
0.0
  0
VERTEX
  5
11F
100
AcDbEntity
  8
0
390
0
 62
     7
100
AcDbVertex
100
AcDb2dVertex
 10
92.90542
 20
4.180256
 30
0.0
  0
VERTEX
  5
120
100
AcDbEntity
  8
0
390
0
 62
     7
100
AcDbVertex
100
AcDb2dVertex
 10
92.914816
 20
4.174413
 30
0.0
  0
VERTEX
  5
121
100
AcDbEntity
  8
0
390
0
 62
     7
100
AcDbVertex
100
AcDb2dVertex
 10
92.924285
 20
4.168225
 30
0.0
  0
VERTEX
  5
122
100
AcDbEntity
  8
0
390
0
 62
     7
100
AcDbVertex
100
AcDb2dVertex
 10
92.933793
 20
4.161698
 30
0.0
  0
VERTEX
  5
123
100
AcDbEntity
  8
0
390
0
 62
     7
100
AcDbVertex
100
AcDb2dVertex
 10
92.943439
 20
4.154738
 30
0.0
  0
VERTEX
  5
124
100
AcDbEntity
  8
0
390
0
 62
     7
100
AcDbVertex
100
AcDb2dVertex
 10
92.953107
 20
4.147403
 30
0.0
  0
VERTEX
  5
125
100
AcDbEntity
  8
0
390
0
 62
     7
100
AcDbVertex
100
AcDb2dVertex
 10
92.962833
 20
4.13964
 30
0.0
  0
VERTEX
  5
126
100
AcDbEntity
  8
0
390
0
 62
     7
100
AcDbVertex
100
AcDb2dVertex
 10
92.972555
 20
4.131471
 30
0.0
  0
VERTEX
  5
127
100
AcDbEntity
  8
0
390
0
 62
     7
100
AcDbVertex
100
AcDb2dVertex
 10
92.983513
 20
4.12174
 30
0.0
  0
VERTEX
  5
128
100
AcDbEntity
  8
0
390
0
 62
     7
100
AcDbVertex
100
AcDb2dVertex
 10
92.994443
 20
4.111437
 30
0.0
  0
VERTEX
  5
129
100
AcDbEntity
  8
0
390
0
 62
     7
100
AcDbVertex
100
AcDb2dVertex
 10
92.999921
 20
4.106035
 30
0.0
  0
VERTEX
  5
12A
100
AcDbEntity
  8
0
390
0
 62
     7
100
AcDbVertex
100
AcDb2dVertex
 10
93.005372
 20
4.100489
 30
0.0
  0
VERTEX
  5
12B
100
AcDbEntity
  8
0
390
0
 62
     7
100
AcDbVertex
100
AcDb2dVertex
 10
93.010809
 20
4.094782
 30
0.0
  0
VERTEX
  5
12C
100
AcDbEntity
  8
0
390
0
 62
     7
100
AcDbVertex
100
AcDb2dVertex
 10
93.016208
 20
4.088931
 30
0.0
  0
VERTEX
  5
12D
100
AcDbEntity
  8
0
390
0
 62
     7
100
AcDbVertex
100
AcDb2dVertex
 10
93.022832
 20
4.08149
 30
0.0
  0
VERTEX
  5
12E
100
AcDbEntity
  8
0
390
0
 62
     7
100
AcDbVertex
100
AcDb2dVertex
 10
93.029388
 20
4.073821
 30
0.0
  0
VERTEX
  5
12F
100
AcDbEntity
  8
0
390
0
 62
     7
100
AcDbVertex
100
AcDb2dVertex
 10
93.035883
 20
4.065903
 30
0.0
  0
VERTEX
  5
130
100
AcDbEntity
  8
0
390
0
 62
     7
100
AcDbVertex
100
AcDb2dVertex
 10
93.042285
 20
4.057762
 30
0.0
  0
VERTEX
  5
131
100
AcDbEntity
  8
0
390
0
 62
     7
100
AcDbVertex
100
AcDb2dVertex
 10
93.048685
 20
4.049262
 30
0.0
  0
VERTEX
  5
132
100
AcDbEntity
  8
0
390
0
 62
     7
100
AcDbVertex
100
AcDb2dVertex
 10
93.05496
 20
4.040546
 30
0.0
  0
VERTEX
  5
133
100
AcDbEntity
  8
0
390
0
 62
     7
100
AcDbVertex
100
AcDb2dVertex
 10
93.061119
 20
4.03159
 30
0.0
  0
VERTEX
  5
134
100
AcDbEntity
  8
0
390
0
 62
     7
100
AcDbVertex
100
AcDb2dVertex
 10
93.067121
 20
4.022439
 30
0.0
  0
VERTEX
  5
135
100
AcDbEntity
  8
0
390
0
 62
     7
100
AcDbVertex
100
AcDb2dVertex
 10
93.071937
 20
4.014768
 30
0.0
  0
VERTEX
  5
136
100
AcDbEntity
  8
0
390
0
 62
     7
100
AcDbVertex
100
AcDb2dVertex
 10
93.076621
 20
4.006997
 30
0.0
  0
VERTEX
  5
137
100
AcDbEntity
  8
0
390
0
 62
     7
100
AcDbVertex
100
AcDb2dVertex
 10
93.081191
 20
3.999093
 30
0.0
  0
VERTEX
  5
138
100
AcDbEntity
  8
0
390
0
 62
     7
100
AcDbVertex
100
AcDb2dVertex
 10
93.085614
 20
3.991111
 30
0.0
  0
VERTEX
  5
139
100
AcDbEntity
  8
0
390
0
 62
     7
100
AcDbVertex
100
AcDb2dVertex
 10
93.089958
 20
3.98292
 30
0.0
  0
VERTEX
  5
13A
100
AcDbEntity
  8
0
390
0
 62
     7
100
AcDbVertex
100
AcDb2dVertex
 10
93.094138
 20
3.974672
 30
0.0
  0
VERTEX
  5
13B
100
AcDbEntity
  8
0
390
0
 62
     7
100
AcDbVertex
100
AcDb2dVertex
 10
93.098172
 20
3.966333
 30
0.0
  0
VERTEX
  5
13C
100
AcDbEntity
  8
0
390
0
 62
     7
100
AcDbVertex
100
AcDb2dVertex
 10
93.102032
 20
3.957961
 30
0.0
  0
VERTEX
  5
13D
100
AcDbEntity
  8
0
390
0
 62
     7
100
AcDbVertex
100
AcDb2dVertex
 10
93.10665
 20
3.947374
 30
0.0
  0
VERTEX
  5
13E
100
AcDbEntity
  8
0
390
0
 62
     7
100
AcDbVertex
100
AcDb2dVertex
 10
93.110994
 20
3.936756
 30
0.0
  0
VERTEX
  5
13F
100
AcDbEntity
  8
0
390
0
 62
     7
100
AcDbVertex
100
AcDb2dVertex
 10
93.115075
 20
3.926087
 30
0.0
  0
VERTEX
  5
140
100
AcDbEntity
  8
0
390
0
 62
     7
100
AcDbVertex
100
AcDb2dVertex
 10
93.118877
 20
3.915431
 30
0.0
  0
VERTEX
  5
141
100
AcDbEntity
  8
0
390
0
 62
     7
100
AcDbVertex
100
AcDb2dVertex
 10
93.122463
 20
3.904607
 30
0.0
  0
VERTEX
  5
142
100
AcDbEntity
  8
0
390
0
 62
     7
100
AcDbVertex
100
AcDb2dVertex
 10
93.125762
 20
3.893836
 30
0.0
  0
VERTEX
  5
143
100
AcDbEntity
  8
0
390
0
 62
     7
100
AcDbVertex
100
AcDb2dVertex
 10
93.12879
 20
3.883099
 30
0.0
  0
VERTEX
  5
144
100
AcDbEntity
  8
0
390
0
 62
     7
100
AcDbVertex
100
AcDb2dVertex
 10
93.131541
 20
3.872446
 30
0.0
  0
VERTEX
  5
145
100
AcDbEntity
  8
0
390
0
 62
     7
100
AcDbVertex
100
AcDb2dVertex
 10
93.133407
 20
3.864603
 30
0.0
  0
VERTEX
  5
146
100
AcDbEntity
  8
0
390
0
 62
     7
100
AcDbVertex
100
AcDb2dVertex
 10
93.135127
 20
3.856825
 30
0.0
  0
VERTEX
  5
147
100
AcDbEntity
  8
0
390
0
 62
     7
100
AcDbVertex
100
AcDb2dVertex
 10
93.13815
 20
3.841433
 30
0.0
  0
VERTEX
  5
148
100
AcDbEntity
  8
0
390
0
 62
     7
100
AcDbVertex
100
AcDb2dVertex
 10
93.140649
 20
3.826225
 30
0.0
  0
VERTEX
  5
149
100
AcDbEntity
  8
0
390
0
 62
     7
100
AcDbVertex
100
AcDb2dVertex
 10
93.142637
 20
3.811292
 30
0.0
  0
VERTEX
  5
14A
100
AcDbEntity
  8
0
390
0
 62
     7
100
AcDbVertex
100
AcDb2dVertex
 10
93.144183
 20
3.796211
 30
0.0
  0
VERTEX
  5
14B
100
AcDbEntity
  8
0
390
0
 62
     7
100
AcDbVertex
100
AcDb2dVertex
 10
93.14525
 20
3.781443
 30
0.0
  0
VERTEX
  5
14C
100
AcDbEntity
  8
0
390
0
 62
     7
100
AcDbVertex
100
AcDb2dVertex
 10
93.145872
 20
3.76695
 30
0.0
  0
VERTEX
  5
14D
100
AcDbEntity
  8
0
390
0
 62
     7
100
AcDbVertex
100
AcDb2dVertex
 10
93.146073
 20
3.752776
 30
0.0
  0
SEQEND
  5
14E
100
AcDbEntity
  8
0
390
0
  0
POLYLINE
  5
14F
100
AcDbEntity
  8
0
390
0
  6
Continuous
 62
     7
100
AcDb2dPolyline
 66
     1
 10
0.0
 20
0.0
 30
0.0
 40
0.1
 41
0.1
  0
VERTEX
  5
150
100
AcDbEntity
  8
0
390
0
 62
     7
100
AcDbVertex
100
AcDb2dVertex
 10
93.146073
 20
-3.752777
 30
0.0
  0
VERTEX
  5
151
100
AcDbEntity
  8
0
390
0
 62
     7
100
AcDbVertex
100
AcDb2dVertex
 10
93.145955
 20
-3.763638
 30
0.0
  0
VERTEX
  5
152
100
AcDbEntity
  8
0
390
0
 62
     7
100
AcDbVertex
100
AcDb2dVertex
 10
93.145592
 20
-3.774697
 30
0.0
  0
VERTEX
  5
153
100
AcDbEntity
  8
0
390
0
 62
     7
100
AcDbVertex
100
AcDb2dVertex
 10
93.144968
 20
-3.785992
 30
0.0
  0
VERTEX
  5
154
100
AcDbEntity
  8
0
390
0
 62
     7
100
AcDbVertex
100
AcDb2dVertex
 10
93.14407
 20
-3.79749
 30
0.0
  0
VERTEX
  5
155
100
AcDbEntity
  8
0
390
0
 62
     7
100
AcDbVertex
100
AcDb2dVertex
 10
93.142865
 20
-3.809323
 30
0.0
  0
VERTEX
  5
156
100
AcDbEntity
  8
0
390
0
 62
     7
100
AcDbVertex
100
AcDb2dVertex
 10
93.141346
 20
-3.821363
 30
0.0
  0
VERTEX
  5
157
100
AcDbEntity
  8
0
390
0
 62
     7
100
AcDbVertex
100
AcDb2dVertex
 10
93.139486
 20
-3.833668
 30
0.0
  0
VERTEX
  5
158
100
AcDbEntity
  8
0
390
0
 62
     7
100
AcDbVertex
100
AcDb2dVertex
 10
93.137273
 20
-3.846172
 30
0.0
  0
VERTEX
  5
159
100
AcDbEntity
  8
0
390
0
 62
     7
100
AcDbVertex
100
AcDb2dVertex
 10
93.134325
 20
-3.860527
 30
0.0
  0
VERTEX
  5
15A
100
AcDbEntity
  8
0
390
0
 62
     7
100
AcDbVertex
100
AcDb2dVertex
 10
93.130868
 20
-3.875144
 30
0.0
  0
VERTEX
  5
15B
100
AcDbEntity
  8
0
390
0
 62
     7
100
AcDbVertex
100
AcDb2dVertex
 10
93.128928
 20
-3.88259
 30
0.0
  0
VERTEX
  5
15C
100
AcDbEntity
  8
0
390
0
 62
     7
100
AcDbVertex
100
AcDb2dVertex
 10
93.12685
 20
-3.890084
 30
0.0
  0
VERTEX
  5
15D
100
AcDbEntity
  8
0
390
0
 62
     7
100
AcDbVertex
100
AcDb2dVertex
 10
93.124626
 20
-3.897645
 30
0.0
  0
VERTEX
  5
15E
100
AcDbEntity
  8
0
390
0
 62
     7
100
AcDbVertex
100
AcDb2dVertex
 10
93.122259
 20
-3.905247
 30
0.0
  0
VERTEX
  5
15F
100
AcDbEntity
  8
0
390
0
 62
     7
100
AcDbVertex
100
AcDb2dVertex
 10
93.119127
 20
-3.914703
 30
0.0
  0
VERTEX
  5
160
100
AcDbEntity
  8
0
390
0
 62
     7
100
AcDbVertex
100
AcDb2dVertex
 10
93.115763
 20
-3.924215
 30
0.0
  0
VERTEX
  5
161
100
AcDbEntity
  8
0
390
0
 62
     7
100
AcDbVertex
100
AcDb2dVertex
 10
93.112153
 20
-3.933799
 30
0.0
  0
VERTEX
  5
162
100
AcDbEntity
  8
0
390
0
 62
     7
100
AcDbVertex
100
AcDb2dVertex
 10
93.108304
 20
-3.943414
 30
0.0
  0
VERTEX
  5
163
100
AcDbEntity
  8
0
390
0
 62
     7
100
AcDbVertex
100
AcDb2dVertex
 10
93.104143
 20
-3.953207
 30
0.0
  0
VERTEX
  5
164
100
AcDbEntity
  8
0
390
0
 62
     7
100
AcDbVertex
100
AcDb2dVertex
 10
93.099732
 20
-3.962999
 30
0.0
  0
VERTEX
  5
165
100
AcDbEntity
  8
0
390
0
 62
     7
100
AcDbVertex
100
AcDb2dVertex
 10
93.095055
 20
-3.972811
 30
0.0
  0
VERTEX
  5
166
100
AcDbEntity
  8
0
390
0
 62
     7
100
AcDbVertex
100
AcDb2dVertex
 10
93.090132
 20
-3.982585
 30
0.0
  0
VERTEX
  5
167
100
AcDbEntity
  8
0
390
0
 62
     7
100
AcDbVertex
100
AcDb2dVertex
 10
93.085896
 20
-3.990591
 30
0.0
  0
VERTEX
  5
168
100
AcDbEntity
  8
0
390
0
 62
     7
100
AcDbVertex
100
AcDb2dVertex
 10
93.081509
 20
-3.998532
 30
0.0
  0
VERTEX
  5
169
100
AcDbEntity
  8
0
390
0
 62
     7
100
AcDbVertex
100
AcDb2dVertex
 10
93.076948
 20
-4.006443
 30
0.0
  0
VERTEX
  5
16A
100
AcDbEntity
  8
0
390
0
 62
     7
100
AcDbVertex
100
AcDb2dVertex
 10
93.072247
 20
-4.014264
 30
0.0
  0
VERTEX
  5
16B
100
AcDbEntity
  8
0
390
0
 62
     7
100
AcDbVertex
100
AcDb2dVertex
 10
93.067325
 20
-4.022121
 30
0.0
  0
VERTEX
  5
16C
100
AcDbEntity
  8
0
390
0
 62
     7
100
AcDbVertex
100
AcDb2dVertex
 10
93.062273
 20
-4.029865
 30
0.0
  0
VERTEX
  5
16D
100
AcDbEntity
  8
0
390
0
 62
     7
100
AcDbVertex
100
AcDb2dVertex
 10
93.057068
 20
-4.037528
 30
0.0
  0
VERTEX
  5
16E
100
AcDbEntity
  8
0
390
0
 62
     7
100
AcDbVertex
100
AcDb2dVertex
 10
93.051748
 20
-4.045057
 30
0.0
  0
VERTEX
  5
16F
100
AcDbEntity
  8
0
390
0
 62
     7
100
AcDbVertex
100
AcDb2dVertex
 10
93.044888
 20
-4.05435
 30
0.0
  0
VERTEX
  5
170
100
AcDbEntity
  8
0
390
0
 62
     7
100
AcDbVertex
100
AcDb2dVertex
 10
93.037864
 20
-4.063421
 30
0.0
  0
VERTEX
  5
171
100
AcDbEntity
  8
0
390
0
 62
     7
100
AcDbVertex
100
AcDb2dVertex
 10
93.030665
 20
-4.07229
 30
0.0
  0
VERTEX
  5
172
100
AcDbEntity
  8
0
390
0
 62
     7
100
AcDbVertex
100
AcDb2dVertex
 10
93.023338
 20
-4.08091
 30
0.0
  0
VERTEX
  5
173
100
AcDbEntity
  8
0
390
0
 62
     7
100
AcDbVertex
100
AcDb2dVertex
 10
93.015757
 20
-4.089428
 30
0.0
  0
VERTEX
  5
174
100
AcDbEntity
  8
0
390
0
 62
     7
100
AcDbVertex
100
AcDb2dVertex
 10
93.008079
 20
-4.097671
 30
0.0
  0
VERTEX
  5
175
100
AcDbEntity
  8
0
390
0
 62
     7
100
AcDbVertex
100
AcDb2dVertex
 10
93.000294
 20
-4.105661
 30
0.0
  0
VERTEX
  5
176
100
AcDbEntity
  8
0
390
0
 62
     7
100
AcDbVertex
100
AcDb2dVertex
 10
92.992444
 20
-4.11337
 30
0.0
  0
VERTEX
  5
177
100
AcDbEntity
  8
0
390
0
 62
     7
100
AcDbVertex
100
AcDb2dVertex
 10
92.986585
 20
-4.118908
 30
0.0
  0
VERTEX
  5
178
100
AcDbEntity
  8
0
390
0
 62
     7
100
AcDbVertex
100
AcDb2dVertex
 10
92.980709
 20
-4.124286
 30
0.0
  0
VERTEX
  5
179
100
AcDbEntity
  8
0
390
0
 62
     7
100
AcDbVertex
100
AcDb2dVertex
 10
92.968891
 20
-4.1346
 30
0.0
  0
VERTEX
  5
17A
100
AcDbEntity
  8
0
390
0
 62
     7
100
AcDbVertex
100
AcDb2dVertex
 10
92.956969
 20
-4.144368
 30
0.0
  0
VERTEX
  5
17B
100
AcDbEntity
  8
0
390
0
 62
     7
100
AcDbVertex
100
AcDb2dVertex
 10
92.945031
 20
-4.153556
 30
0.0
  0
VERTEX
  5
17C
100
AcDbEntity
  8
0
390
0
 62
     7
100
AcDbVertex
100
AcDb2dVertex
 10
92.932743
 20
-4.162436
 30
0.0
  0
VERTEX
  5
17D
100
AcDbEntity
  8
0
390
0
 62
     7
100
AcDbVertex
100
AcDb2dVertex
 10
92.920488
 20
-4.170744
 30
0.0
  0
VERTEX
  5
17E
100
AcDbEntity
  8
0
390
0
 62
     7
100
AcDbVertex
100
AcDb2dVertex
 10
92.908247
 20
-4.178529
 30
0.0
  0
VERTEX
  5
17F
100
AcDbEntity
  8
0
390
0
 62
     7
100
AcDbVertex
100
AcDb2dVertex
 10
92.896073
 20
-4.18579
 30
0.0
  0
SEQEND
  5
180
100
AcDbEntity
  8
0
390
0
  0
POLYLINE
  5
181
100
AcDbEntity
  8
0
390
0
  6
Continuous
 62
     7
100
AcDb2dPolyline
 66
     1
 10
0.0
 20
0.0
 30
0.0
 40
0.1
 41
0.1
  0
VERTEX
  5
182
100
AcDbEntity
  8
0
390
0
 62
     7
100
AcDbVertex
100
AcDb2dVertex
 10
86.396073
 20
-7.938567
 30
0.0
  0
VERTEX
  5
183
100
AcDbEntity
  8
0
390
0
 62
     7
100
AcDbVertex
100
AcDb2dVertex
 10
86.386611
 20
-7.943893
 30
0.0
  0
VERTEX
  5
184
100
AcDbEntity
  8
0
390
0
 62
     7
100
AcDbVertex
100
AcDb2dVertex
 10
86.376849
 20
-7.94911
 30
0.0
  0
VERTEX
  5
185
100
AcDbEntity
  8
0
390
0
 62
     7
100
AcDbVertex
100
AcDb2dVertex
 10
86.36676
 20
-7.954215
 30
0.0
  0
VERTEX
  5
186
100
AcDbEntity
  8
0
390
0
 62
     7
100
AcDbVertex
100
AcDb2dVertex
 10
86.356349
 20
-7.959188
 30
0.0
  0
VERTEX
  5
187
100
AcDbEntity
  8
0
390
0
 62
     7
100
AcDbVertex
100
AcDb2dVertex
 10
86.345505
 20
-7.964059
 30
0.0
  0
VERTEX
  5
188
100
AcDbEntity
  8
0
390
0
 62
     7
100
AcDbVertex
100
AcDb2dVertex
 10
86.334312
 20
-7.968767
 30
0.0
  0
VERTEX
  5
189
100
AcDbEntity
  8
0
390
0
 62
     7
100
AcDbVertex
100
AcDb2dVertex
 10
86.322735
 20
-7.973305
 30
0.0
  0
VERTEX
  5
18A
100
AcDbEntity
  8
0
390
0
 62
     7
100
AcDbVertex
100
AcDb2dVertex
 10
86.310791
 20
-7.977643
 30
0.0
  0
VERTEX
  5
18B
100
AcDbEntity
  8
0
390
0
 62
     7
100
AcDbVertex
100
AcDb2dVertex
 10
86.296885
 20
-7.982267
 30
0.0
  0
VERTEX
  5
18C
100
AcDbEntity
  8
0
390
0
 62
     7
100
AcDbVertex
100
AcDb2dVertex
 10
86.28246
 20
-7.986593
 30
0.0
  0
VERTEX
  5
18D
100
AcDbEntity
  8
0
390
0
 62
     7
100
AcDbVertex
100
AcDb2dVertex
 10
86.275061
 20
-7.98863
 30
0.0
  0
VERTEX
  5
18E
100
AcDbEntity
  8
0
390
0
 62
     7
100
AcDbVertex
100
AcDb2dVertex
 10
86.267551
 20
-7.990573
 30
0.0
  0
VERTEX
  5
18F
100
AcDbEntity
  8
0
390
0
 62
     7
100
AcDbVertex
100
AcDb2dVertex
 10
86.259893
 20
-7.992427
 30
0.0
  0
VERTEX
  5
190
100
AcDbEntity
  8
0
390
0
 62
     7
100
AcDbVertex
100
AcDb2dVertex
 10
86.252123
 20
-7.994178
 30
0.0
  0
VERTEX
  5
191
100
AcDbEntity
  8
0
390
0
 62
     7
100
AcDbVertex
100
AcDb2dVertex
 10
86.242368
 20
-7.996194
 30
0.0
  0
VERTEX
  5
192
100
AcDbEntity
  8
0
390
0
 62
     7
100
AcDbVertex
100
AcDb2dVertex
 10
86.232448
 20
-7.998037
 30
0.0
  0
VERTEX
  5
193
100
AcDbEntity
  8
0
390
0
 62
     7
100
AcDbVertex
100
AcDb2dVertex
 10
86.222267
 20
-7.999714
 30
0.0
  0
VERTEX
  5
194
100
AcDbEntity
  8
0
390
0
 62
     7
100
AcDbVertex
100
AcDb2dVertex
 10
86.211954
 20
-8.001195
 30
0.0
  0
VERTEX
  5
195
100
AcDbEntity
  8
0
390
0
 62
     7
100
AcDbVertex
100
AcDb2dVertex
 10
86.201452
 20
-8.002478
 30
0.0
  0
VERTEX
  5
196
100
AcDbEntity
  8
0
390
0
 62
     7
100
AcDbVertex
100
AcDb2dVertex
 10
86.190845
 20
-8.003545
 30
0.0
  0
VERTEX
  5
197
100
AcDbEntity
  8
0
390
0
 62
     7
100
AcDbVertex
100
AcDb2dVertex
 10
86.180009
 20
-8.004401
 30
0.0
  0
VERTEX
  5
198
100
AcDbEntity
  8
0
390
0
 62
     7
100
AcDbVertex
100
AcDb2dVertex
 10
86.169083
 20
-8.005024
 30
0.0
  0
VERTEX
  5
199
100
AcDbEntity
  8
0
390
0
 62
     7
100
AcDbVertex
100
AcDb2dVertex
 10
86.160038
 20
-8.005359
 30
0.0
  0
VERTEX
  5
19A
100
AcDbEntity
  8
0
390
0
 62
     7
100
AcDbVertex
100
AcDb2dVertex
 10
86.15096
 20
-8.00553
 30
0.0
  0
VERTEX
  5
19B
100
AcDbEntity
  8
0
390
0
 62
     7
100
AcDbVertex
100
AcDb2dVertex
 10
86.141776
 20
-8.005535
 30
0.0
  0
VERTEX
  5
19C
100
AcDbEntity
  8
0
390
0
 62
     7
100
AcDbVertex
100
AcDb2dVertex
 10
86.132598
 20
-8.005372
 30
0.0
  0
VERTEX
  5
19D
100
AcDbEntity
  8
0
390
0
 62
     7
100
AcDbVertex
100
AcDb2dVertex
 10
86.123387
 20
-8.005039
 30
0.0
  0
VERTEX
  5
19E
100
AcDbEntity
  8
0
390
0
 62
     7
100
AcDbVertex
100
AcDb2dVertex
 10
86.114208
 20
-8.004538
 30
0.0
  0
VERTEX
  5
19F
100
AcDbEntity
  8
0
390
0
 62
     7
100
AcDbVertex
100
AcDb2dVertex
 10
86.104975
 20
-8.003862
 30
0.0
  0
VERTEX
  5
1A0
100
AcDbEntity
  8
0
390
0
 62
     7
100
AcDbVertex
100
AcDb2dVertex
 10
86.095789
 20
-8.003019
 30
0.0
  0
VERTEX
  5
1A1
100
AcDbEntity
  8
0
390
0
 62
     7
100
AcDbVertex
100
AcDb2dVertex
 10
86.08431
 20
-8.001725
 30
0.0
  0
VERTEX
  5
1A2
100
AcDbEntity
  8
0
390
0
 62
     7
100
AcDbVertex
100
AcDb2dVertex
 10
86.072943
 20
-8.000177
 30
0.0
  0
VERTEX
  5
1A3
100
AcDbEntity
  8
0
390
0
 62
     7
100
AcDbVertex
100
AcDb2dVertex
 10
86.061663
 20
-7.998377
 30
0.0
  0
VERTEX
  5
1A4
100
AcDbEntity
  8
0
390
0
 62
     7
100
AcDbVertex
100
AcDb2dVertex
 10
86.050534
 20
-7.996341
 30
0.0
  0
VERTEX
  5
1A5
100
AcDbEntity
  8
0
390
0
 62
     7
100
AcDbVertex
100
AcDb2dVertex
 10
86.039367
 20
-7.994035
 30
0.0
  0
VERTEX
  5
1A6
100
AcDbEntity
  8
0
390
0
 62
     7
100
AcDbVertex
100
AcDb2dVertex
 10
86.028389
 20
-7.991507
 30
0.0
  0
VERTEX
  5
1A7
100
AcDbEntity
  8
0
390
0
 62
     7
100
AcDbVertex
100
AcDb2dVertex
 10
86.017577
 20
-7.988761
 30
0.0
  0
VERTEX
  5
1A8
100
AcDbEntity
  8
0
390
0
 62
     7
100
AcDbVertex
100
AcDb2dVertex
 10
86.006976
 20
-7.985816
 30
0.0
  0
VERTEX
  5
1A9
100
AcDbEntity
  8
0
390
0
 62
     7
100
AcDbVertex
100
AcDb2dVertex
 10
85.999253
 20
-7.983512
 30
0.0
  0
VERTEX
  5
1AA
100
AcDbEntity
  8
0
390
0
 62
     7
100
AcDbVertex
100
AcDb2dVertex
 10
85.991654
 20
-7.981112
 30
0.0
  0
VERTEX
  5
1AB
100
AcDbEntity
  8
0
390
0
 62
     7
100
AcDbVertex
100
AcDb2dVertex
 10
85.976778
 20
-7.976021
 30
0.0
  0
VERTEX
  5
1AC
100
AcDbEntity
  8
0
390
0
 62
     7
100
AcDbVertex
100
AcDb2dVertex
 10
85.962393
 20
-7.970593
 30
0.0
  0
VERTEX
  5
1AD
100
AcDbEntity
  8
0
390
0
 62
     7
100
AcDbVertex
100
AcDb2dVertex
 10
85.948467
 20
-7.964849
 30
0.0
  0
VERTEX
  5
1AE
100
AcDbEntity
  8
0
390
0
 62
     7
100
AcDbVertex
100
AcDb2dVertex
 10
85.934633
 20
-7.958647
 30
0.0
  0
VERTEX
  5
1AF
100
AcDbEntity
  8
0
390
0
 62
     7
100
AcDbVertex
100
AcDb2dVertex
 10
85.921291
 20
-7.952178
 30
0.0
  0
VERTEX
  5
1B0
100
AcDbEntity
  8
0
390
0
 62
     7
100
AcDbVertex
100
AcDb2dVertex
 10
85.908448
 20
-7.94548
 30
0.0
  0
VERTEX
  5
1B1
100
AcDbEntity
  8
0
390
0
 62
     7
100
AcDbVertex
100
AcDb2dVertex
 10
85.896073
 20
-7.938567
 30
0.0
  0
SEQEND
  5
1B2
100
AcDbEntity
  8
0
390
0
  0
LINE
  5
1B3
100
AcDbEntity
  8
0
390
0
  6
Continuous
 62
     7
100
AcDbLine
 10
79.410809
 20
4.160266
 30
0.0
 11
79.496073
 21
4.012584
 31
0.0
  0
LINE
  5
1B4
100
AcDbEntity
  8
0
390
0
  6
Continuous
 62
     7
100
AcDbLine
 10
79.401809
 20
4.175854
 30
0.0
 11
79.410809
 21
4.160266
 31
0.0
  0
LINE
  5
1B5
100
AcDbEntity
  8
0
390
0
  6
Continuous
 62
     7
100
AcDbLine
 10
79.396073
 20
4.185789
 30
0.0
 11
79.401809
 21
4.175854
 31
0.0
  0
ARC
  5
1B6
100
AcDbEntity
  8
0
390
0
  6
Continuous
 62
     7
100
AcDbCircle
 10
79.646073
 20
3.752776
 30
0.0
 40
0.3
210
0.0
220
0.0
230
1.0
100
AcDbArc
 50
120.0
 51
180.0
  0
LINE
  5
1B7
100
AcDbEntity
  8
0
390
0
  6
Continuous
 62
     7
100
AcDbLine
 10
79.346073
 20
3.752776
 30
0.0
 11
79.146073
 21
3.752776
 31
0.0
  0
LINE
  5
1B8
100
AcDbEntity
  8
0
390
0
  6
Continuous
 62
     7
100
AcDbLine
 10
86.378485
 20
7.908103
 30
0.0
 11
86.296073
 21
7.765361
 31
0.0
  0
LINE
  5
1B9
100
AcDbEntity
  8
0
390
0
  6
Continuous
 62
     7
100
AcDbLine
 10
86.390337
 20
7.928631
 30
0.0
 11
86.378485
 21
7.908103
 31
0.0
  0
LINE
  5
1BA
100
AcDbEntity
  8
0
390
0
  6
Continuous
 62
     7
100
AcDbLine
 10
86.396073
 20
7.938566
 30
0.0
 11
86.390337
 21
7.928631
 31
0.0
  0
ARC
  5
1BB
100
AcDbEntity
  8
0
390
0
  6
Continuous
 62
     7
100
AcDbCircle
 10
86.146073
 20
7.505553
 30
0.0
 40
0.3
210
0.0
220
0.0
230
1.0
100
AcDbArc
 50
60.0
 51
120.0
  0
LINE
  5
1BC
100
AcDbEntity
  8
0
390
0
  6
Continuous
 62
     7
100
AcDbLine
 10
85.896073
 20
7.938566
 30
0.0
 11
85.996073
 21
7.765361
 31
0.0
  0
LINE
  5
1BD
100
AcDbEntity
  8
0
390
0
  6
Continuous
 62
     7
100
AcDbLine
 10
79.496073
 20
4.012584
 30
0.0
 11
85.996073
 21
7.765361
 31
0.0
  0
LINE
  5
1BE
100
AcDbEntity
  8
0
390
0
  6
Continuous
 62
     7
100
AcDbLine
 10
92.796073
 20
-4.012585
 30
0.0
 11
86.296073
 21
-7.765362
 31
0.0
  0
LINE
  5
1BF
100
AcDbEntity
  8
0
390
0
  6
Continuous
 62
     7
100
AcDbLine
 10
92.796073
 20
-4.012585
 30
0.0
 11
92.896073
 21
-4.18579
 31
0.0
  0
LINE
  5
1C0
100
AcDbEntity
  8
0
390
0
  6
Continuous
 62
     7
100
AcDbLine
 10
86.296073
 20
-7.765362
 30
0.0
 11
86.396073
 21
-7.938567
 31
0.0
  0
ARC
  5
1C1
100
AcDbEntity
  8
0
390
0
  6
Continuous
 62
     7
100
AcDbCircle
 10
86.146073
 20
-7.505554
 30
0.0
 40
0.3
210
0.0
220
0.0
230
1.0
100
AcDbArc
 50
240.0
 51
300.0
  0
LINE
  5
1C2
100
AcDbEntity
  8
0
390
0
  6
Continuous
 62
     7
100
AcDbLine
 10
85.996073
 20
-7.765362
 30
0.0
 11
85.896073
 21
-7.938567
 31
0.0
  0
ARC
  5
1C3
100
AcDbEntity
  8
0
390
0
  6
Continuous
 62
     7
100
AcDbCircle
 10
79.646073
 20
-3.752777
 30
0.0
 40
0.3
210
0.0
220
0.0
230
1.0
100
AcDbArc
 50
180.0
 51
240.0
  0
LINE
  5
1C4
100
AcDbEntity
  8
0
390
0
  6
Continuous
 62
     7
100
AcDbLine
 10
79.496073
 20
-4.012585
 30
0.0
 11
79.396073
 21
-4.18579
 31
0.0
  0
LINE
  5
1C5
100
AcDbEntity
  8
0
390
0
  6
Continuous
 62
     7
100
AcDbLine
 10
79.346073
 20
-3.752777
 30
0.0
 11
79.146073
 21
-3.752777
 31
0.0
  0
LINE
  5
1C6
100
AcDbEntity
  8
0
390
0
  6
Continuous
 62
     7
100
AcDbLine
 10
92.896073
 20
4.185789
 30
0.0
 11
92.796073
 21
4.012584
 31
0.0
  0
LINE
  5
1C7
100
AcDbEntity
  8
0
390
0
  6
Continuous
 62
     7
100
AcDbLine
 10
86.296073
 20
7.765361
 30
0.0
 11
92.796073
 21
4.012584
 31
0.0
  0
LINE
  5
1C8
100
AcDbEntity
  8
0
390
0
  6
Continuous
 62
     7
100
AcDbLine
 10
85.996073
 20
-7.765362
 30
0.0
 11
79.496073
 21
-4.012585
 31
0.0
  0
LINE
  5
1C9
100
AcDbEntity
  8
0
390
0
  6
Continuous
 62
     7
100
AcDbLine
 10
93.146073
 20
3.752776
 30
0.0
 11
92.946073
 21
3.752776
 31
0.0
  0
ARC
  5
1CA
100
AcDbEntity
  8
0
390
0
  6
Continuous
 62
     7
100
AcDbCircle
 10
92.646073
 20
3.752776
 30
0.0
 40
0.3
210
0.0
220
0.0
230
1.0
100
AcDbArc
 50
0.0
 51
60.0
  0
LINE
  5
1CB
100
AcDbEntity
  8
0
390
0
  6
Continuous
 62
     7
100
AcDbLine
 10
79.346073
 20
-3.752777
 30
0.0
 11
79.346073
 21
3.752776
 31
0.0
  0
LINE
  5
1CC
100
AcDbEntity
  8
0
390
0
  6
Continuous
 62
     7
100
AcDbLine
 10
93.146073
 20
-3.752777
 30
0.0
 11
92.946073
 21
-3.752777
 31
0.0
  0
LINE
  5
1CD
100
AcDbEntity
  8
0
390
0
  6
Continuous
 62
     7
100
AcDbLine
 10
92.946073
 20
3.752776
 30
0.0
 11
92.946073
 21
-3.752777
 31
0.0
  0
ARC
  5
1CE
100
AcDbEntity
  8
0
390
0
  6
Continuous
 62
     7
100
AcDbCircle
 10
92.646073
 20
-3.752777
 30
0.0
 40
0.3
210
0.0
220
0.0
230
1.0
100
AcDbArc
 50
300.0
 51
360.0
  0
ARC
  5
1CF
100
AcDbEntity
  8
0
390
0
  6
Continuous
 62
     7
100
AcDbCircle
 10
-91.153047
 20
-2.886752
 30
0.0
 40
0.5
210
0.0
220
0.0
230
1.0
100
AcDbArc
 50
180.0
 51
240.0
  0
LINE
  5
1D0
100
AcDbEntity
  8
0
390
0
  6
Continuous
 62
     7
100
AcDbLine
 10
-91.403047
 20
-3.319765
 30
0.0
 11
-92.903047
 21
-5.917841
 31
0.0
  0
ARC
  5
1D1
100
AcDbEntity
  8
0
390
0
  6
Continuous
 62
     7
100
AcDbCircle
 10
-91.153047
 20
-2.886752
 30
0.0
 40
3.5
210
0.0
220
0.0
230
0.9999999999999999
100
AcDbArc
 50
180.0
 51
240.0
  0
LINE
  5
1D2
100
AcDbEntity
  8
0
390
0
  6
Continuous
 62
     7
100
AcDbLine
 10
-94.653047
 20
-2.886752
 30
0.0
 11
-91.653047
 21
-2.886752
 31
0.0
  0
ARC
  5
1D3
100
AcDbEntity
  8
0
390
0
  6
Continuous
 62
     7
100
AcDbCircle
 10
-86.153047
 20
5.773502
 30
0.0
 40
3.5
210
0.0
220
0.0
230
1.0
100
AcDbArc
 50
60.0
 51
120.0
  0
LINE
  5
1D4
100
AcDbEntity
  8
0
390
0
  6
Continuous
 62
     7
100
AcDbLine
 10
-84.403047
 20
8.804591
 30
0.0
 11
-85.903047
 21
6.206515
 31
0.0
  0
ARC
  5
1D5
100
AcDbEntity
  8
0
390
0
  6
Continuous
 62
     7
100
AcDbCircle
 10
-86.153047
 20
5.773502
 30
0.0
 40
0.5
210
0.0
220
0.0
230
1.0
100
AcDbArc
 50
60.0
 51
120.0
  0
LINE
  5
1D6
100
AcDbEntity
  8
0
390
0
  6
Continuous
 62
     7
100
AcDbLine
 10
-86.403047
 20
6.206515
 30
0.0
 11
-87.903047
 21
8.804591
 31
0.0
  0
LINE
  5
1D7
100
AcDbEntity
  8
0
390
0
  6
Continuous
 62
     7
100
AcDbLine
 10
-91.653047
 20
2.886751
 30
0.0
 11
-91.653047
 21
-2.886752
 31
0.0
  0
ARC
  5
1D8
100
AcDbEntity
  8
0
390
0
  6
Continuous
 62
     7
100
AcDbCircle
 10
-91.153047
 20
2.886751
 30
0.0
 40
0.5
210
0.0
220
0.0
230
1.0
100
AcDbArc
 50
120.0
 51
180.0
  0
LINE
  5
1D9
100
AcDbEntity
  8
0
390
0
  6
Continuous
 62
     7
100
AcDbLine
 10
-86.403047
 20
6.206515
 30
0.0
 11
-91.403047
 21
3.319764
 31
0.0
  0
LINE
  5
1DA
100
AcDbEntity
  8
0
390
0
  6
Continuous
 62
     7
100
AcDbLine
 10
-80.903047
 20
3.319764
 30
0.0
 11
-85.903047
 21
6.206515
 31
0.0
  0
ARC
  5
1DB
100
AcDbEntity
  8
0
390
0
  6
Continuous
 62
     7
100
AcDbCircle
 10
-81.153047
 20
2.886751
 30
0.0
 40
0.5
210
0.0
220
0.0
230
1.0
100
AcDbArc
 50
0.0
 51
60.0
  0
LINE
  5
1DC
100
AcDbEntity
  8
0
390
0
  6
Continuous
 62
     7
100
AcDbLine
 10
-80.653047
 20
-2.886752
 30
0.0
 11
-80.653047
 21
2.886751
 31
0.0
  0
ARC
  5
1DD
100
AcDbEntity
  8
0
390
0
  6
Continuous
 62
     7
100
AcDbCircle
 10
-81.153047
 20
-2.886752
 30
0.0
 40
0.5
210
0.0
220
0.0
230
1.0
100
AcDbArc
 50
300.0
 51
360.0
  0
LINE
  5
1DE
100
AcDbEntity
  8
0
390
0
  6
Continuous
 62
     7
100
AcDbLine
 10
-85.903047
 20
-6.206516
 30
0.0
 11
-80.903047
 21
-3.319765
 31
0.0
  0
ARC
  5
1DF
100
AcDbEntity
  8
0
390
0
  6
Continuous
 62
     7
100
AcDbCircle
 10
-86.153047
 20
-5.773503
 30
0.0
 40
0.5
210
0.0
220
0.0
230
1.0
100
AcDbArc
 50
240.0
 51
300.0
  0
LINE
  5
1E0
100
AcDbEntity
  8
0
390
0
  6
Continuous
 62
     7
100
AcDbLine
 10
-91.403047
 20
-3.319765
 30
0.0
 11
-86.403047
 21
-6.206516
 31
0.0
  0
ARC
  5
1E1
100
AcDbEntity
  8
0
390
0
  6
Continuous
 62
     7
100
AcDbCircle
 10
-81.153047
 20
2.886751
 30
0.0
 40
3.5
210
0.0
220
0.0
230
0.9999999999999999
100
AcDbArc
 50
0.0
 51
60.0
  0
LINE
  5
1E2
100
AcDbEntity
  8
0
390
0
  6
Continuous
 62
     7
100
AcDbLine
 10
-77.653047
 20
2.886751
 30
0.0
 11
-80.653047
 21
2.886751
 31
0.0
  0
LINE
  5
1E3
100
AcDbEntity
  8
0
390
0
  6
Continuous
 62
     7
100
AcDbLine
 10
-80.903047
 20
3.319764
 30
0.0
 11
-79.403047
 21
5.91784
 31
0.0
  0
LINE
  5
1E4
100
AcDbEntity
  8
0
390
0
  6
Continuous
 62
     7
100
AcDbLine
 10
-80.653047
 20
-2.886752
 30
0.0
 11
-77.653047
 21
-2.886752
 31
0.0
  0
LINE
  5
1E5
100
AcDbEntity
  8
0
390
0
  6
Continuous
 62
     7
100
AcDbLine
 10
-77.653047
 20
2.886751
 30
0.0
 11
-77.653047
 21
-2.886752
 31
0.0
  0
ARC
  5
1E6
100
AcDbEntity
  8
0
390
0
  6
Continuous
 62
     7
100
AcDbCircle
 10
-81.153047
 20
-2.886752
 30
0.0
 40
3.5
210
0.0
220
0.0
230
1.0
100
AcDbArc
 50
300.0
 51
360.0
  0
LINE
  5
1E7
100
AcDbEntity
  8
0
390
0
  6
Continuous
 62
     7
100
AcDbLine
 10
-79.403047
 20
-5.917841
 30
0.0
 11
-80.903047
 21
-3.319765
 31
0.0
  0
LINE
  5
1E8
100
AcDbEntity
  8
0
390
0
  6
Continuous
 62
     7
100
AcDbLine
 10
-91.653047
 20
2.886751
 30
0.0
 11
-94.653047
 21
2.886751
 31
0.0
  0
LINE
  5
1E9
100
AcDbEntity
  8
0
390
0
  6
Continuous
 62
     7
100
AcDbLine
 10
-94.653047
 20
-2.886752
 30
0.0
 11
-94.653047
 21
2.886751
 31
0.0
  0
LINE
  5
1EA
100
AcDbEntity
  8
0
390
0
  6
Continuous
 62
     7
100
AcDbLine
 10
-84.403047
 20
8.804591
 30
0.0
 11
-79.403047
 21
5.91784
 31
0.0
  0
LINE
  5
1EB
100
AcDbEntity
  8
0
390
0
  6
Continuous
 62
     7
100
AcDbLine
 10
-87.903047
 20
-8.804592
 30
0.0
 11
-86.403047
 21
-6.206516
 31
0.0
  0
LINE
  5
1EC
100
AcDbEntity
  8
0
390
0
  6
Continuous
 62
     7
100
AcDbLine
 10
-87.903047
 20
-8.804592
 30
0.0
 11
-92.903047
 21
-5.917841
 31
0.0
  0
ARC
  5
1ED
100
AcDbEntity
  8
0
390
0
  6
Continuous
 62
     7
100
AcDbCircle
 10
-91.153047
 20
2.886751
 30
0.0
 40
3.5
210
0.0
220
0.0
230
1.0
100
AcDbArc
 50
120.0
 51
180.0
  0
LINE
  5
1EE
100
AcDbEntity
  8
0
390
0
  6
Continuous
 62
     7
100
AcDbLine
 10
-92.903047
 20
5.91784
 30
0.0
 11
-91.403047
 21
3.319764
 31
0.0
  0
LINE
  5
1EF
100
AcDbEntity
  8
0
390
0
  6
Continuous
 62
     7
100
AcDbLine
 10
-92.903047
 20
5.91784
 30
0.0
 11
-87.903047
 21
8.804591
 31
0.0
  0
LINE
  5
1F0
100
AcDbEntity
  8
0
390
0
  6
Continuous
 62
     7
100
AcDbLine
 10
-85.903047
 20
-6.206516
 30
0.0
 11
-84.403047
 21
-8.804592
 31
0.0
  0
LINE
  5
1F1
100
AcDbEntity
  8
0
390
0
  6
Continuous
 62
     7
100
AcDbLine
 10
-79.403047
 20
-5.917841
 30
0.0
 11
-84.403047
 21
-8.804592
 31
0.0
  0
ARC
  5
1F2
100
AcDbEntity
  8
0
390
0
  6
Continuous
 62
     7
100
AcDbCircle
 10
-86.153047
 20
-5.773503
 30
0.0
 40
3.5
210
0.0
220
0.0
230
1.0
100
AcDbArc
 50
240.0
 51
300.0
  0
ELLIPSE
  5
1F3
100
AcDbEntity
  8
0
390
0
  6
Continuous
 62
     7
100
AcDbEllipse
 10
-76.153047
 20
2.886751
 30
0.0
 11
1.4999999999999736
 21
0.0
 31
0.0
210
0.0
220
0.0
230
1.0
 40
0.158114
 41
3.1415926535897931
 42
4.2112959671193257
  0
LINE
  5
1F4
100
AcDbEntity
  8
0
390
0
  6
Continuous
 62
     7
100
AcDbLine
 10
-76.873624
 20
2.678738
 30
0.0
 11
-76.873624
 21
-2.678739
 31
0.0
  0
ELLIPSE
  5
1F5
100
AcDbEntity
  8
0
390
0
  6
Continuous
 62
     7
100
AcDbEllipse
 10
-76.153047
 20
-2.886752
 30
0.0
 11
1.5000000000000013
 21
0.0
 31
0.0
210
0.0
220
0.0
230
1.0
 40
0.158114
 41
2.0718893400602534
 42
3.1415926535897194
  0
LINE
  5
1F6
100
AcDbEntity
  8
0
390
0
  6
Continuous
 62
     7
100
AcDbLine
 10
-93.112614
 20
6.696846
 30
0.0
 11
-88.472903
 21
9.375585
 31
0.0
  0
ELLIPSE
  5
1F7
100
AcDbEntity
  8
0
390
0
  6
Continuous
 62
     7
100
AcDbEllipse
 10
-88.653047
 20
10.103629
 30
0.0
 11
0.7500000000000007
 21
-1.2990381056766642
 31
0.0
210
0.0
220
0.0
230
1.0
 40
0.158114
 41
5.2134819936500527
 42
6.2831853071795862
  0
ELLIPSE
  5
1F8
100
AcDbEntity
  8
0
390
0
  6
Continuous
 62
     7
100
AcDbEllipse
 10
-93.653047
 20
7.216878
 30
0.0
 11
0.7499999999999868
 21
-1.2990381056766365
 31
0.0
210
0.0
220
0.0
230
1.0
 40
0.158114
 41
0.0000000000000407
 42
1.069703313529548
  0
ELLIPSE
  5
1F9
100
AcDbEntity
  8
0
390
0
  6
Continuous
 62
     7
100
AcDbEllipse
 10
-78.653047
 20
-7.216879
 30
0.0
 11
0.7499999999999868
 21
-1.2990381056766365
 31
0.0
210
0.0
220
0.0
230
1.0
 40
0.158114
 41
3.1415926535897838
 42
4.2112959671192867
  0
LINE
  5
1FA
100
AcDbEntity
  8
0
390
0
  6
Continuous
 62
     7
100
AcDbLine
 10
-79.19348
 20
-6.696847
 30
0.0
 11
-83.833191
 21
-9.375586
 31
0.0
  0
ELLIPSE
  5
1FB
100
AcDbEntity
  8
0
390
0
  6
Continuous
 62
     7
100
AcDbEllipse
 10
-83.653047
 20
-10.10363
 30
0.0
 11
0.7499999999999868
 21
-1.2990381056766365
 31
0.0
210
0.0
220
0.0
230
1.0
 40
0.158114
 41
2.0718893400602507
 42
3.1415926535897838
  0
LINE
  5
1FC
100
AcDbEntity
  8
0
390
0
  6
Continuous
 62
     7
100
AcDbLine
 10
-95.43247
 20
-2.678739
 30
0.0
 11
-95.43247
 21
2.678738
 31
0.0
  0
ELLIPSE
  5
1FD
100
AcDbEntity
  8
0
390
0
  6
Continuous
 62
     7
100
AcDbEllipse
 10
-96.153047
 20
2.886751
 30
0.0
 11
1.5000000000000013
 21
0.0
 31
0.0
210
0.0
220
0.0
230
1.0
 40
0.158114
 41
5.2134819936500385
 42
6.2831853071795862
  0
ELLIPSE
  5
1FE
100
AcDbEntity
  8
0
390
0
  6
Continuous
 62
     7
100
AcDbEllipse
 10
-96.153047
 20
-2.886752
 30
0.0
 11
1.5000000000000013
 21
0.0
 31
0.0
210
0.0
220
0.0
230
1.0
 40
0.158114
 41
0.0
 42
1.069703313529548
  0
ELLIPSE
  5
1FF
100
AcDbEntity
  8
0
390
0
  6
Continuous
 62
     7
100
AcDbEllipse
 10
-88.653047
 20
-10.10363
 30
0.0
 11
-0.7500000000000007
 21
-1.2990381056766365
 31
0.0
210
0.0
220
0.0
230
1.0
 40
0.158114
 41
3.1415926535898184
 42
4.2112959671193346
  0
LINE
  5
200
100
AcDbEntity
  8
0
390
0
  6
Continuous
 62
     7
100
AcDbLine
 10
-88.472903
 20
-9.375586
 30
0.0
 11
-93.112614
 21
-6.696847
 31
0.0
  0
ELLIPSE
  5
201
100
AcDbEntity
  8
0
390
0
  6
Continuous
 62
     7
100
AcDbEllipse
 10
-93.653047
 20
-7.216879
 30
0.0
 11
-0.7500000000000007
 21
-1.2990381056766642
 31
0.0
210
0.0
220
0.0
230
1.0
 40
0.158114
 41
2.0718893400602352
 42
3.1415926535897429
  0
LINE
  5
202
100
AcDbEntity
  8
0
390
0
  6
Continuous
 62
     7
100
AcDbLine
 10
-83.833191
 20
9.375585
 30
0.0
 11
-79.19348
 21
6.696846
 31
0.0
  0
ELLIPSE
  5
203
100
AcDbEntity
  8
0
390
0
  6
Continuous
 62
     7
100
AcDbEllipse
 10
-78.653047
 20
7.216878
 30
0.0
 11
-0.7499999999999868
 21
-1.2990381056766365
 31
0.0
210
0.0
220
0.0
230
1.0
 40
0.158114
 41
5.2134819936500385
 42
6.2831853071795463
  0
ELLIPSE
  5
204
100
AcDbEntity
  8
0
390
0
  6
Continuous
 62
     7
100
AcDbEllipse
 10
-83.653047
 20
10.103629
 30
0.0
 11
-0.7500000000000007
 21
-1.2990381056766642
 31
0.0
210
0.0
220
0.0
230
1.0
 40
0.158114
 41
0.0000000000000159
 42
1.0697033135295331
  0
ARC
  5
205
100
AcDbEntity
  8
0
390
0
  6
Continuous
 62
     7
100
AcDbCircle
 10
-81.349798
 20
2.773157
 30
0.0
 40
4.47717
210
0.0
220
0.0
230
0.9999999999999999
100
AcDbArc
 50
358.79161
 51
61.20839
  0
ARC
  5
206
100
AcDbEntity
  8
0
390
0
  6
Continuous
 62
     7
100
AcDbCircle
 10
-81.349798
 20
-2.773158
 30
0.0
 40
4.47717
210
0.0
220
0.0
230
1.0
100
AcDbArc
 50
298.79161
 51
1.20839
  0
ARC
  5
207
100
AcDbEntity
  8
0
390
0
  6
Continuous
 62
     7
100
AcDbCircle
 10
-90.956296
 20
-2.773158
 30
0.0
 40
4.47717
210
0.0
220
0.0
230
1.0
100
AcDbArc
 50
178.79161
 51
241.20839
  0
ARC
  5
208
100
AcDbEntity
  8
0
390
0
  6
Continuous
 62
     7
100
AcDbCircle
 10
-86.153047
 20
5.546314
 30
0.0
 40
4.47717
210
0.0
220
0.0
230
1.0
100
AcDbArc
 50
58.79161
 51
121.20839
  0
ARC
  5
209
100
AcDbEntity
  8
0
390
0
  6
Continuous
 62
     7
100
AcDbCircle
 10
-86.153047
 20
-5.546315
 30
0.0
 40
4.47717
210
0.0
220
0.0
230
1.0
100
AcDbArc
 50
238.79161
 51
301.20839
  0
ARC
  5
20A
100
AcDbEntity
  8
0
390
0
  6
Continuous
 62
     7
100
AcDbCircle
 10
-90.956296
 20
2.773157
 30
0.0
 40
4.47717
210
0.0
220
0.0
230
1.0
100
AcDbArc
 50
118.79161
 51
181.20839
  0
CIRCLE
  5
20B
100
AcDbEntity
  8
0
390
0
  6
Continuous
 62
     7
100
AcDbCircle
 10
-86.153047
 20
0.0
 30
0.0
 40
10.15
210
0.0
220
0.0
230
0.9999999999999999
  0
ARC
  5
20C
100
AcDbEntity
  8
0
390
0
  6
Continuous
 62
     7
100
AcDbCircle
 10
-86.153047
 20
0.0
 30
0.0
 40
10.9
210
0.0
220
0.0
230
1.0
100
AcDbArc
 50
270.0
 51
360.0
  0
ARC
  5
20D
100
AcDbEntity
  8
0
390
0
  6
Continuous
 62
     7
100
AcDbCircle
 10
-86.153047
 20
0.0
 30
0.0
 40
10.9
210
0.0
220
0.0
230
1.0
100
AcDbArc
 50
0.0
 51
270.0
  0
POINT
  5
20E
100
AcDbEntity
  8
0
390
0
 62
     7
100
AcDbPoint
 10
0.0
 20
0.0
 30
0.0
  0
ENDSEC
  0
SECTION
  2
OBJECTS
  0
DICTIONARY
  5
19
100
AcDbDictionary
280
     0
281
     1
  3
ACAD_GROUP
350
1A
  3
ACAD_MLINESTYLE
350
1B
  3
ACAD_LAYOUT
350
1E
  3
ACAD_PLOTSETTINGS
350
22
  3
ACAD_PLOTSTYLENAME
350
1F
  3
ACAD_WIPEOUT_VARS
350
23
  0
DICTIONARY
  5
1A
102
{ACAD_REACTORS
330
19
102
}
100
AcDbDictionary
280
     0
281
     1
  0
DICTIONARY
  5
1B
102
{ACAD_REACTORS
330
19
102
}
100
AcDbDictionary
280
     0
281
     1
  3
Standard
350
1C
  0
MLINESTYLE
  5
1C
102
{ACAD_REACTORS
330
1B
102
}
100
AcDbMlineStyle
  2
Standard
 70
     0
  3

 62
     0
 51
90.0
 52
90.0
 71
     2
 49
0.5
 62
   256
  6
ByLayer
 49
-0.5
 62
   256
  6
ByLayer
  0
ACDBDICTIONARYWDFLT
  5
1F
102
{ACAD_REACTORS
330
19
102
}
100
AcDbDictionary
281
     1
  3
Normal
350
1D
100
AcDbDictionaryWithDefault
340
1D
  0
ACDBPLACEHOLDER
  5
1D
102
{ACAD_REACTORS
330
1F
102
}
  0
LAYOUT
  5
20
102
{ACAD_REACTORS
330
1E
102
}
100
AcDbPlotSettings
  1

  2

  4

  6

 40
0.0
 41
0.0
 42
0.0
 43
0.0
 44
0.0
 45
0.0
 46
0.0
 47
0.0
 48
0.0
 49
0.0
140
0.0
141
0.0
142
1.0
143
1.0
 70
  1024
 72
     0
 73
     0
 74
     0
  7

 75
     0
147
1.0
148
0.0
149
0.0
100
AcDbLayout
  1
Model
 70
     0
 71
     1
 10
0.0
 20
0.0
 11
0.0
 21
0.0
 12
0.0
 22
0.0
 32
0.0
 14
0.0
 24
0.0
 34
0.0
 15
0.0
 25
0.0
 35
0.0
146
0.0
 13
0.0
 23
0.0
 33
0.0
 16
0.0
 26
0.0
 36
0.0
 17
0.0
 27
0.0
 37
0.0
 76
     0
330
A
331
0
345
0
346
0
  0
LAYOUT
  5
21
102
{ACAD_REACTORS
330
1E
102
}
100
AcDbPlotSettings
  1

  2

  4

  6

 40
0.0
 41
0.0
 42
0.0
 43
0.0
 44
0.0
 45
0.0
 46
0.0
 47
0.0
 48
0.0
 49
0.0
140
0.0
141
0.0
142
1.0
143
1.0
 70
     0
 72
     0
 73
     0
 74
     0
  7

 75
     0
147
1.0
148
0.0
149
0.0
100
AcDbLayout
  1
Layout1
 70
     0
 71
     2
 10
0.0
 20
0.0
 11
0.0
 21
0.0
 12
0.0
 22
0.0
 32
0.0
 14
0.0
 24
0.0
 34
0.0
 15
0.0
 25
0.0
 35
0.0
146
0.0
 13
0.0
 23
0.0
 33
0.0
 16
0.0
 26
0.0
 36
0.0
 17
0.0
 27
0.0
 37
0.0
 76
     0
330
B
331
0
345
0
346
0
  0
DICTIONARY
  5
1E
102
{ACAD_REACTORS
330
19
102
}
100
AcDbDictionary
280
     0
281
     1
  3
Layout1
350
21
  3
Model
350
20
  0
DICTIONARY
  5
22
102
{ACAD_REACTORS
330
19
102
}
100
AcDbDictionary
280
     0
281
     1
  0
WIPEOUTVARIABLES
  5
23
100
AcDbWipeoutVariables
 70
     1
  0
ENDSEC
  0
EOF
