  0
SECTION
  2
HEADER
  9
$ACADVER
  1
AC1015
  9
$ACADMAINTVER
 70
     6
  9
$DWGCODEPAGE
  3
DOS932
  9
$INSBASE
 10
0.0
 20
0.0
 30
0.0
  9
$EXTMIN
 10
-219.488985
 20
-20.434403
 30
0.0
  9
$EXTMAX
 10
518.716513
 20
373.903475
 30
9.906
  9
$LIMMIN
 10
-219.488985
 20
-20.434403
  9
$LIMMAX
 10
518.716513
 20
373.903475
  9
$ORTHOMODE
 70
     0
  9
$REGENMODE
 70
     1
  9
$FILLMODE
 70
     1
  9
$QTEXTMODE
 70
     0
  9
$MIRRTEXT
 70
     1
  9
$LTSCALE
 40
10.0
  9
$ATTMODE
 70
     1
  9
$TEXTSIZE
 40
0.2
  9
$TRACEWID
 40
0.05
  9
$TEXTSTYLE
  7
Standard
  9
$CLAYER
  8
0
  9
$CELTYPE
  6
Continuous
  9
$CECOLOR
 62
   256
  9
$CELTSCALE
 40
1.0
  9
$DISPSILH
 70
     0
  9
$DIMSCALE
 40
1.0
  9
$DIMASZ
 40
1.40208
  9
$DIMEXO
 40
1.40208
  9
$DIMDLI
 40
0.38
  9
$DIMRND
 40
0.0
  9
$DIMDLE
 40
0.0
  9
$DIMEXE
 40
1.05156
  9
$DIMTP
 40
0.0
  9
$DIMTM
 40
0.0
  9
$DIMTXT
 40
3.5052
  9
$DIMCEN
 40
0.09
  9
$DIMTSZ
 40
0.0
  9
$DIMTOL
 70
     0
  9
$DIMLIM
 70
     0
  9
$DIMTIH
 70
     0
  9
$DIMTOH
 70
     0
  9
$DIMSE1
 70
     0
  9
$DIMSE2
 70
     0
  9
$DIMTAD
 70
     1
  9
$DIMZIN
 70
     0
  9
$DIMBLK
  1

  9
$DIMASO
 70
     1
  9
$DIMSHO
 70
     1
  9
$DIMPOST
  1

  9
$DIMAPOST
  1

  9
$DIMALT
 70
     0
  9
$DIMALTD
 70
     2
  9
$DIMALTF
 40
25.4
  9
$DIMLFAC
 40
1.0
  9
$DIMTOFL
 70
     0
  9
$DIMTVP
 40
0.0
  9
$DIMTIX
 70
     0
  9
$DIMSOXD
 70
     0
  9
$DIMSAH
 70
     0
  9
$DIMBLK1
  1

  9
$DIMBLK2
  1

  9
$DIMSTYLE
  2
Standard
  9
$DIMCLRD
 70
     7
  9
$DIMCLRE
 70
     7
  9
$DIMCLRT
 70
     7
  9
$DIMTFAC
 40
0.5
  9
$DIMGAP
 40
1.7526
  9
$DIMJUST
 70
     0
  9
$DIMSD1
 70
     0
  9
$DIMSD2
 70
     0
  9
$DIMTOLJ
 70
     1
  9
$DIMTZIN
 70
     0
  9
$DIMALTZ
 70
     0
  9
$DIMALTTZ
 70
     0
  9
$DIMUPT
 70
     0
  9
$DIMDEC
 70
     2
  9
$DIMTDEC
 70
     4
  9
$DIMALTU
 70
     2
  9
$DIMALTTD
 70
     2
  9
$DIMTXSTY
  7
Standard
  9
$DIMAUNIT
 70
     0
  9
$DIMADEC
 70
     0
  9
$DIMALTRND
 40
0.0
  9
$DIMAZIN
 70
     0
  9
$DIMDSEP
 70
     0
  9
$DIMATFIT
 70
     3
  9
$DIMFRAC
 70
     0
  9
$DIMLDRBLK
  1

  9
$DIMLUNIT
 70
     2
  9
$DIMLWD
 70
     0
  9
$DIMLWE
 70
     0
  9
$DIMTMOVE
 70
     0
  9
$LUNITS
 70
     2
  9
$LUPREC
 70
     4
  9
$SKETCHINC
 40
0.1
  9
$FILLETRAD
 40
0.0
  9
$AUNITS
 70
     0
  9
$AUPREC
 70
     0
  9
$MENU
  1
acad
  9
$ELEVATION
 40
0.0
  9
$PELEVATION
 40
0.0
  9
$THICKNESS
 40
0.0
  9
$LIMCHECK
 70
     0
  9
$CHAMFERA
 40
0.0
  9
$CHAMFERB
 40
0.0
  9
$CHAMFERC
 40
0.0
  9
$CHAMFERD
 40
0.0
  9
$SKPOLY
 70
     0
  9
$TDCREATE
 40
2459782.546817130
  9
$TDUCREATE
 40
0.000000000
  9
$TDUPDATE
 40
2459782.171099537
  9
$TDUUPDATE
 40
0.000000000
  9
$TDINDWG
 40
0.0000000000
  9
$TDUSRTIMER
 40
0.0000000000
  9
$USRTIMER
 70
     1
  9
$ANGBASE
 50
0.0
  9
$ANGDIR
 70
     0
  9
$PDMODE
 70
     0
  9
$PDSIZE
 40
0.0
  9
$PLINEWID
 40
0.0
  9
$SPLFRAME
 70
     0
  9
$SPLINETYPE
 70
     6
  9
$SPLINESEGS
 70
     8
  9
$HANDSEED
  5
110
  9
$SURFTAB1
 70
     6
  9
$SURFTAB2
 70
     6
  9
$SURFTYPE
 70
     6
  9
$SURFU
 70
     6
  9
$SURFV
 70
     6
  9
$UCSBASE
  2

  9
$UCSNAME
  2

  9
$UCSORG
 10
0.0
 20
0.0
 30
0.0
  9
$UCSXDIR
 10
1.0
 20
0.0
 30
0.0
  9
$UCSYDIR
 10
0.0
 20
1.0
 30
0.0
  9
$UCSORTHOREF
  2

  9
$UCSORTHOVIEW
 70
     0
  9
$UCSORGTOP
 10
0.0
 20
0.0
 30
0.0
  9
$UCSORGBOTTOM
 10
0.0
 20
0.0
 30
0.0
  9
$UCSORGLEFT
 10
0.0
 20
0.0
 30
0.0
  9
$UCSORGRIGHT
 10
0.0
 20
0.0
 30
0.0
  9
$UCSORGFRONT
 10
0.0
 20
0.0
 30
0.0
  9
$UCSORGBACK
 10
0.0
 20
0.0
 30
0.0
  9
$PUCSBASE
  2

  9
$PUCSNAME
  2

  9
$PUCSORG
 10
0.0
 20
0.0
 30
0.0
  9
$PUCSXDIR
 10
1.0
 20
0.0
 30
0.0
  9
$PUCSYDIR
 10
0.0
 20
1.0
 30
0.0
  9
$PUCSORTHOREF
  2

  9
$PUCSORTHOVIEW
 70
     0
  9
$PUCSORGTOP
 10
0.0
 20
0.0
 30
0.0
  9
$PUCSORGBOTTOM
 10
0.0
 20
0.0
 30
0.0
  9
$PUCSORGLEFT
 10
0.0
 20
0.0
 30
0.0
  9
$PUCSORGRIGHT
 10
0.0
 20
0.0
 30
0.0
  9
$PUCSORGFRONT
 10
0.0
 20
0.0
 30
0.0
  9
$PUCSORGBACK
 10
0.0
 20
0.0
 30
0.0
  9
$USERI1
 70
     0
  9
$USERI2
 70
     0
  9
$USERI3
 70
     0
  9
$USERI4
 70
     0
  9
$USERI5
 70
     0
  9
$USERR1
 40
0.0
  9
$USERR2
 40
0.0
  9
$USERR3
 40
0.0
  9
$USERR4
 40
0.0
  9
$USERR5
 40
0.0
  9
$WORLDVIEW
 70
     1
  9
$SHADEDGE
 70
     3
  9
$SHADEDIF
 70
    70
  9
$TILEMODE
 70
     1
  9
$MAXACTVP
 70
    16
  9
$PINSBASE
 10
0.0
 20
0.0
 30
0.0
  9
$PLIMCHECK
 70
     0
  9
$PEXTMIN
 10
1.000000E+20
 20
1.000000E+20
 30
1.000000E+20
  9
$PEXTMAX
 10
-1.000000E+20
 20
-1.000000E+20
 30
-1.000000E+20
  9
$PLIMMIN
 10
0.0
 20
0.0
  9
$PLIMMAX
 10
12.0
 20
9.0
  9
$UNITMODE
 70
     0
  9
$VISRETAIN
 70
     0
  9
$PLINEGEN
 70
     1
  9
$PSLTSCALE
 70
     0
  9
$TREEDEPTH
 70
  3020
  9
$CMLSTYLE
  2
Standard
  9
$CMLJUST
 70
     0
  9
$CMLSCALE
 40
1.0
  9
$PROXYGRAPHICS
 70
     0
  9
$MEASUREMENT
 70
     0
  9
$CELWEIGHT
370
     0
  9
$ENDCAPS
280
     0
  9
$JOINSTYLE
280
     0
  9
$LWDISPLAY
290
     0
  9
$INSUNITS
 70
     0
  9
$HYPERLINKBASE
  1

  9
$STYLESHEET
  1

  9
$XEDIT
290
     1
  9
$CEPSNTYPE
380
     0
  9
$PSTYLEMODE
290
     1
  9
$FINGERPRINTGUID
  2

  9
$VERSIONGUID
  2

  9
$EXTNAMES
290
     1
  9
$PSVPSCALE
 40
0.0
  0
ENDSEC
  0
SECTION
  2
CLASSES
  0
CLASS
  1
LWPOLYLINE
  2
AcDbPolyline
  3
AutoCAD 2000
 90
        0
280
     0
281
     1
  0
CLASS
  1
IMAGE
  2
AcDbRasterImage
  3
ISM
 90
      127
280
     0
281
     1
  0
CLASS
  1
OLE2FRAME
  2
AcDbOle2Frame
  3
AutoCAD 2000
 90
        0
280
     0
281
     1
  0
CLASS
  1
HATCH
  2
AcDbHatch
  3
AutoCAD 2000
 90
        0
280
     0
281
     1
  0
CLASS
  1
DICTIONARYVAR
  2
AcDbDictionaryVar
  3
AutoCAD 2000
 90
        0
280
     0
281
     0
  0
CLASS
  1
RASTERVARIABLES
  2
AcDbRasterVariables
  3
ISM
 90
        0
280
     0
281
     0
  0
CLASS
  1
IMAGEDEF
  2
AcDbRasterImageDef
  3
ISM
 90
        0
280
     0
281
     0
  0
CLASS
  1
IMAGEDEF_REACTOR
  2
AcDbRasterImageDefReactor
  3
ISM
 90
        1
280
     0
281
     0
  0
CLASS
  1
IDBUFFER
  2
AcDbIdBuffer
  3
AutoCAD 2000
 90
        0
280
     0
281
     0
  0
CLASS
  1
SPATIAL_FILTER
  2
AcDbSpatialFilter
  3
AutoCAD 2000
 90
        0
280
     0
281
     0
  0
CLASS
  1
XRECORD
  2
AcDbXrecord
  3
AutoCAD 2000
 90
        0
280
     0
281
     0
  0
CLASS
  1
SORTENTSTABLE
  2
AcDbSortentsTable
  3
AutoCAD 2000
 90
        0
280
     0
281
     0
  0
CLASS
  1
LAYER_INDEX
  2
AcDbLayerIndex
  3
AutoCAD 2000
 90
        0
280
     0
281
     0
  0
CLASS
  1
SPATIAL_INDEX
  2
AcDbSpatialIndex
  3
AutoCAD 2000
 90
        0
280
     0
281
     0
  0
CLASS
  1
OBJECT_PTR
  2
CAseDLPNTableRecord
  3
"ASE-LPNTableRecord"
 90
        1
280
     0
281
     0
  0
CLASS
  1
LAYOUT
  2
AcDbLayout
  3
AutoCAD 2000
 90
        0
280
     0
281
     0
  0
CLASS
  1
PLOTSETTINGS
  2
AcDbPlotSettings
  3
AutoCAD 2000
 90
        0
280
     0
281
     0
  0
CLASS
  1
ACDBDICTIONARYWDFLT
  2
AcDbDictionaryWithDefault
  3
AutoCAD 2000
 90
        0
280
     0
281
     0
  0
CLASS
  1
ACDBPLACEHOLDER
  2
AcDbPlaceHolder
  3
AutoCAD 2000
 90
        0
280
     0
281
     0
  0
CLASS
  1
VBA_PROJECT
  2
AcDbVbaProject
  3
acadvba
 90
        0
280
     0
281
     0
  0
CLASS
  1
WIPEOUT
  2
AcDbWipeout
  3
WipeOut|AutoCAD Express Tool|expresstools@autodesk.com
 90
      127
280
     0
281
     1
  0
CLASS
  1
WIPEOUTVARIABLES
  2
AcDbWipeoutVariables
  3
WipeOut|AutoCAD Express Tool|expresstools@autodesk.com
 90
        0
280
     0
281
     0
  0
CLASS
  1
RTEXT
  2
RText
  3
RText|AutoCAD Express Tool|expresstools@autodesk.com
 90
        0
280
     0
281
     1
  0
CLASS
  1
ARCALIGNEDTEXT
  2
AcDbArcAlignedText
  3
ATEXT|AutoCAD Express Tool|expresstools@autodesk.com
 90
        0
280
     0
281
     1
  0
ENDSEC
  0
SECTION
  2
TABLES
  0
TABLE
  2
VPORT
  5
7
100
AcDbSymbolTable
 70
     1
  0
VPORT
  5
15
100
AcDbSymbolTableRecord
100
AcDbViewportTableRecord
  2
*ACTIVE
 70
     0
 10
0.0
 20
0.0
 11
1.0
 21
1.0
 12
6.591288
 22
4.579184
 13
0.0
 23
0.0
 14
1.0
 24
1.0
 15
0.0
 25
0.0
 16
0.0
 26
0.0
 36
1.0
 17
0.0
 27
0.0
 37
0.0
 40
9.158369
 41
0.688564
 42
50.0
 43
0.0
 44
0.0
 50
0.0
 51
0.0
 71
     0
 72
   100
 73
     1
 74
     1
 75
     0
 76
     0
 77
     0
 78
     0
281
     0
 65
     0
110
0.0
120
0.0
130
0.0
111
1.0
121
0.0
131
0.0
112
0.0
122
1.0
132
0.0
345
0
346
0
 79
     0
146
0.0
  0
ENDTAB
  0
TABLE
  2
LTYPE
  5
4
100
AcDbSymbolTable
 70
     3
  0
LTYPE
  5
11
100
AcDbSymbolTableRecord
100
AcDbLinetypeTableRecord
  2
ByBlock
 70
    64
  3

 72
    65
 73
     0
 40
0.0
  0
LTYPE
  5
12
100
AcDbSymbolTableRecord
100
AcDbLinetypeTableRecord
  2
ByLayer
 70
    64
  3

 72
    65
 73
     0
 40
0.0
  0
LTYPE
  5
13
100
AcDbSymbolTableRecord
100
AcDbLinetypeTableRecord
  2
Continuous
 70
    64
  3
Solid line
 72
    65
 73
     0
 40
0.0
  0
ENDTAB
  0
TABLE
  2
LAYER
  5
2
100
AcDbSymbolTable
 70
     1
  0
LAYER
  5
14
100
AcDbSymbolTableRecord
100
AcDbLayerTableRecord
  2
0
 70
     0
 62
     7
  6
Continuous
290
     1
370
    -3
390
1D
  0
ENDTAB
  0
TABLE
  2
STYLE
  5
3
100
AcDbSymbolTable
 70
     1
  0
STYLE
  5
17
100
AcDbSymbolTableRecord
100
AcDbTextStyleTableRecord
  2
Standard
 70
     0
 40
0.0
 41
1.0
 50
0.0
 71
     0
 42
0.0
  3
FG教科書体NT-M
  4

1001
ACAD
1000
FG教科書体NT-M
1071
        0
  0
ENDTAB
  0
TABLE
  2
VIEW
  5
5
100
AcDbSymbolTable
 70
     0
  0
ENDTAB
  0
TABLE
  2
UCS
  5
6
100
AcDbSymbolTable
 70
     0
  0
ENDTAB
  0
TABLE
  2
APPID
  5
8
100
AcDbSymbolTable
 70
     2
  0
APPID
  5
16
100
AcDbSymbolTableRecord
100
AcDbRegAppTableRecord
  2
ACAD
 70
     0
  0
APPID
  5
26
100
AcDbSymbolTableRecord
100
AcDbRegAppTableRecord
  2
TOPsolid_Design
 70
     0
  0
ENDTAB
  0
TABLE
  2
DIMSTYLE
  5
9
100
AcDbSymbolTable
 70
     1
100
AcDbDimStyleTable
 71
     0
  0
DIMSTYLE
105
18
100
AcDbSymbolTableRecord
100
AcDbDimStyleTableRecord
  2
Standard
 70
     0
  3

  4

 40
1.0
 41
1.40208
 42
1.40208
 43
0.38
 44
1.05156
 45
0.0
 46
0.0
 47
0.0
 48
0.0
 71
     0
 72
     0
 73
     0
 74
     0
 75
     0
 76
     0
 77
     1
 78
     0
 79
     0
140
3.5052
141
0.09
142
0.0
143
25.4
144
1.0
145
0.0
146
0.5
147
1.7526
148
0.0
170
     0
171
     2
172
     0
173
     0
174
     0
175
     0
176
     7
177
     7
178
     7
179
     0
271
     2
272
     4
273
     2
274
     2
275
     0
276
     0
277
     2
278
    46
279
     0
280
     0
281
     0
282
     0
283
     1
284
     0
285
     0
286
     0
288
     0
289
     3
340
17
341
0
342
0
343
0
344
0
371
    -2
372
    -2
  0
ENDTAB
  0
TABLE
  2
BLOCK_RECORD
  5
1
100
AcDbSymbolTable
 70
     0
  0
BLOCK_RECORD
  5
A
100
AcDbSymbolTableRecord
100
AcDbBlockTableRecord
  2
*MODEL_SPACE
340
20
  0
BLOCK_RECORD
  5
B
100
AcDbSymbolTableRecord
100
AcDbBlockTableRecord
  2
*PAPER_SPACE
340
21
  0
ENDTAB
  0
ENDSEC
  0
SECTION
  2
BLOCKS
  0
BLOCK
  5
D
100
AcDbEntity
  8
0
390
0
100
AcDbBlockBegin
  2
*MODEL_SPACE
 70
     0
 10
0.0
 20
0.0
 30
0.0
  3
*MODEL_SPACE
  1

  0
ENDBLK
  5
E
100
AcDbEntity
  8
0
390
0
100
AcDbBlockEnd
  0
BLOCK
  5
F
100
AcDbEntity
 67
     1
  8
0
390
0
100
AcDbBlockBegin
  2
*PAPER_SPACE
 70
     0
 10
0.0
 20
0.0
 30
0.0
  3
*PAPER_SPACE
  1

  0
ENDBLK
  5
10
100
AcDbEntity
 67
     1
  8
0
390
0
100
AcDbBlockEnd
  0
ENDSEC
  0
SECTION
  2
ENTITIES
  0
LINE
  5
27
100
AcDbEntity
  8
0
390
0
  6
Continuous
 62
     7
100
AcDbLine
 10
-105.499814
 20
2.0
 30
0.0
 11
-105.499814
 21
1.995383
 31
0.0
  0
LINE
  5
28
100
AcDbEntity
  8
0
390
0
  6
Continuous
 62
     7
100
AcDbLine
 10
-105.499814
 20
1.995383
 30
0.0
 11
-105.499814
 21
-2.0
 31
0.0
  0
LINE
  5
29
100
AcDbEntity
  8
0
390
0
  6
Continuous
 62
     7
100
AcDbLine
 10
87.500186
 20
-4.524939
 30
0.0
 11
87.500186
 21
4.524938
 31
0.0
  0
LINE
  5
2A
100
AcDbEntity
  8
0
390
0
  6
Continuous
 62
     7
100
AcDbLine
 10
88.976876
 20
6.027628
 30
0.0
 11
88.976876
 21
-6.027629
 31
0.0
  0
LINE
  5
2B
100
AcDbEntity
  8
0
390
0
  6
Continuous
 62
     7
100
AcDbLine
 10
99.55618
 20
-6.212291
 30
0.0
 11
99.55618
 21
6.212291
 31
0.0
  0
LINE
  5
2C
100
AcDbEntity
  8
0
390
0
  6
Continuous
 62
     7
100
AcDbLine
 10
102.300334
 20
10.4994
 30
0.0
 11
102.300334
 21
11.8338
 31
0.0
  0
LINE
  5
2D
100
AcDbEntity
  8
0
390
0
  6
Continuous
 62
     7
100
AcDbLine
 10
102.300334
 20
11.8338
 30
0.0
 11
102.300334
 21
14.499671
 31
0.0
  0
LINE
  5
2E
100
AcDbEntity
  8
0
390
0
  6
Continuous
 62
     7
100
AcDbLine
 10
102.499907
 20
-16.779204
 30
0.0
 11
102.499907
 21
16.779203
 31
0.0
  0
LINE
  5
2F
100
AcDbEntity
  8
0
390
0
  6
Continuous
 62
     7
100
AcDbLine
 10
102.939754
 20
11.441563
 30
0.0
 11
102.939754
 21
-11.441564
 31
0.0
  0
LINE
  5
30
100
AcDbEntity
  8
0
390
0
  6
Continuous
 62
     7
100
AcDbLine
 10
102.939754
 20
-14.330554
 30
0.0
 11
102.939754
 21
-17.84158
 31
0.0
  0
LINE
  5
31
100
AcDbEntity
  8
0
390
0
  6
Continuous
 62
     7
100
AcDbLine
 10
102.939754
 20
17.841579
 30
0.0
 11
102.939754
 21
14.330554
 31
0.0
  0
LINE
  5
32
100
AcDbEntity
  8
0
390
0
  6
Continuous
 62
     7
100
AcDbLine
 10
102.700296
 20
-14.206627
 30
0.0
 11
102.700296
 21
-11.057622
 31
0.0
  0
LINE
  5
33
100
AcDbEntity
  8
0
390
0
  6
Continuous
 62
     7
100
AcDbLine
 10
102.700296
 20
-14.330554
 30
0.0
 11
102.700296
 21
-14.206627
 31
0.0
  0
LINE
  5
34
100
AcDbEntity
  8
0
390
0
  6
Continuous
 62
     7
100
AcDbLine
 10
102.700296
 20
14.206626
 30
0.0
 11
102.700296
 21
11.057621
 31
0.0
  0
LINE
  5
35
100
AcDbEntity
  8
0
390
0
  6
Continuous
 62
     7
100
AcDbLine
 10
102.700296
 20
14.330554
 30
0.0
 11
102.700296
 21
14.206626
 31
0.0
  0
LINE
  5
36
100
AcDbEntity
  8
0
390
0
  6
Continuous
 62
     7
100
AcDbLine
 10
105.066492
 20
-13.967098
 30
0.0
 11
105.066492
 21
13.967097
 31
0.0
  0
LINE
  5
37
100
AcDbEntity
  8
0
390
0
  6
Continuous
 62
     7
100
AcDbLine
 10
105.066492
 20
-19.969713
 30
0.0
 11
105.066492
 21
-14.330554
 31
0.0
  0
LINE
  5
38
100
AcDbEntity
  8
0
390
0
  6
Continuous
 62
     7
100
AcDbLine
 10
105.066492
 20
14.330554
 30
0.0
 11
105.066492
 21
19.969712
 31
0.0
  0
LINE
  5
39
100
AcDbEntity
  8
0
390
0
  6
Continuous
 62
     7
100
AcDbLine
 10
106.103335
 20
20.410026
 30
0.0
 11
106.103335
 21
-20.410027
 31
0.0
  0
LINE
  5
3A
100
AcDbEntity
  8
0
390
0
  6
Continuous
 62
     7
100
AcDbLine
 10
107.499814
 20
20.434402
 30
0.0
 11
107.499814
 21
-20.434403
 31
0.0
  0
LINE
  5
3B
100
AcDbEntity
  8
0
390
0
  6
Continuous
 62
     7
100
AcDbLine
 10
-70.999814
 20
4.0
 30
0.0
 11
-70.999814
 21
3.990766
 31
0.0
  0
LINE
  5
3C
100
AcDbEntity
  8
0
390
0
  6
Continuous
 62
     7
100
AcDbLine
 10
-67.499814
 20
4.0
 30
0.0
 11
-67.499814
 21
3.990766
 31
0.0
  0
LINE
  5
3D
100
AcDbEntity
  8
0
390
0
  6
Continuous
 62
     7
100
AcDbLine
 10
-70.999814
 20
3.990766
 30
0.0
 11
-70.999814
 21
-4.0
 31
0.0
  0
LINE
  5
3E
100
AcDbEntity
  8
0
390
0
  6
Continuous
 62
     7
100
AcDbLine
 10
-67.499814
 20
3.990766
 30
0.0
 11
-67.499814
 21
-4.0
 31
0.0
  0
LINE
  5
3F
100
AcDbEntity
  8
0
390
0
  6
Continuous
 62
     7
100
AcDbLine
 10
-72.499814
 20
2.576017
 30
0.0
 11
-72.499814
 21
2.57007
 31
0.0
  0
LINE
  5
40
100
AcDbEntity
  8
0
390
0
  6
Continuous
 62
     7
100
AcDbLine
 10
-72.499814
 20
2.57007
 30
0.0
 11
-72.499814
 21
-2.576017
 31
0.0
  0
LINE
  5
41
100
AcDbEntity
  8
0
390
0
  6
Continuous
 62
     7
100
AcDbLine
 10
-67.499814
 20
-4.0
 30
0.0
 11
-67.499814
 21
3.990766
 31
0.0
  0
LINE
  5
42
100
AcDbEntity
  8
0
390
0
  6
Continuous
 62
     7
100
AcDbLine
 10
-67.499814
 20
3.990766
 30
0.0
 11
-67.499814
 21
4.0
 31
0.0
  0
LINE
  5
43
100
AcDbEntity
  8
0
390
0
  6
Continuous
 62
     7
100
AcDbLine
 10
105.066492
 20
-13.967098
 30
0.0
 11
105.325666
 21
-14.206627
 31
0.0
  0
LINE
  5
44
100
AcDbEntity
  8
0
390
0
  6
Continuous
 62
     7
100
AcDbLine
 10
105.066492
 20
13.967097
 30
0.0
 11
105.325666
 21
14.206626
 31
0.0
  0
LINE
  5
45
100
AcDbEntity
  8
0
390
0
  6
Continuous
 62
     7
100
AcDbLine
 10
105.325666
 20
14.206626
 30
0.0
 11
105.392141
 21
14.322836
 31
0.0
  0
LINE
  5
46
100
AcDbEntity
  8
0
390
0
  6
Continuous
 62
     7
100
AcDbLine
 10
105.325666
 20
-14.206627
 30
0.0
 11
105.392141
 21
-14.322837
 31
0.0
  0
LINE
  5
47
100
AcDbEntity
  8
0
390
0
  6
Continuous
 62
     7
100
AcDbLine
 10
105.066492
 20
-13.967098
 30
0.0
 11
102.939754
 21
-11.441564
 31
0.0
  0
LINE
  5
48
100
AcDbEntity
  8
0
390
0
  6
Continuous
 62
     7
100
AcDbLine
 10
105.066492
 20
13.967097
 30
0.0
 11
102.939754
 21
11.441563
 31
0.0
  0
LINE
  5
49
100
AcDbEntity
  8
0
390
0
  6
Continuous
 62
     7
100
AcDbLine
 10
102.700296
 20
11.057621
 30
0.0
 11
102.939754
 21
11.441563
 31
0.0
  0
LINE
  5
4A
100
AcDbEntity
  8
0
390
0
  6
Continuous
 62
     7
100
AcDbLine
 10
102.939754
 20
-11.441564
 30
0.0
 11
102.700296
 21
-11.057622
 31
0.0
  0
LINE
  5
4B
100
AcDbEntity
  8
0
390
0
  6
Continuous
 62
     7
100
AcDbLine
 10
102.700296
 20
-14.206627
 30
0.0
 11
105.325666
 21
-14.206627
 31
0.0
  0
LINE
  5
4C
100
AcDbEntity
  8
0
390
0
  6
Continuous
 62
     7
100
AcDbLine
 10
102.700296
 20
14.206626
 30
0.0
 11
105.325666
 21
14.206626
 31
0.0
  0
LINE
  5
4D
100
AcDbEntity
  8
0
390
0
  6
Continuous
 62
     7
100
AcDbLine
 10
102.300334
 20
11.8338
 30
0.0
 11
102.499907
 21
11.8338
 31
0.0
  0
LINE
  5
4E
100
AcDbEntity
  8
0
390
0
  6
Continuous
 62
     7
100
AcDbLine
 10
102.300334
 20
10.4994
 30
0.0
 11
102.499907
 21
10.4994
 31
0.0
  0
LINE
  5
4F
100
AcDbEntity
  8
0
390
0
  6
Continuous
 62
     7
100
AcDbLine
 10
102.300334
 20
14.499671
 30
0.0
 11
102.499907
 21
14.499671
 31
0.0
  0
LINE
  5
50
100
AcDbEntity
  8
0
390
0
  6
Continuous
 62
     7
100
AcDbLine
 10
-67.499814
 20
4.0
 30
0.0
 11
-70.999814
 21
4.0
 31
0.0
  0
LINE
  5
51
100
AcDbEntity
  8
0
390
0
  6
Continuous
 62
     7
100
AcDbLine
 10
-70.999814
 20
-4.0
 30
0.0
 11
-67.499814
 21
-4.0
 31
0.0
  0
LINE
  5
52
100
AcDbEntity
  8
0
390
0
  6
Continuous
 62
     7
100
AcDbLine
 10
-70.999814
 20
4.0
 30
0.0
 11
-72.499814
 21
2.576017
 31
0.0
  0
LINE
  5
53
100
AcDbEntity
  8
0
390
0
  6
Continuous
 62
     7
100
AcDbLine
 10
-72.499814
 20
-2.576017
 30
0.0
 11
-70.999814
 21
-4.0
 31
0.0
  0
LINE
  5
54
100
AcDbEntity
  8
0
390
0
  6
Continuous
 62
     7
100
AcDbLine
 10
-72.499814
 20
2.576017
 30
0.0
 11
-105.499814
 21
2.0
 31
0.0
  0
LINE
  5
55
100
AcDbEntity
  8
0
390
0
  6
Continuous
 62
     7
100
AcDbLine
 10
-105.499814
 20
-2.0
 30
0.0
 11
-72.499814
 21
-2.576017
 31
0.0
  0
ARC
  5
56
100
AcDbEntity
  8
0
390
0
  6
Continuous
 62
     7
100
AcDbCircle
 10
-105.499814
 20
0.0
 30
0.0
 40
2.0
210
0.0
220
0.0
230
1.0
100
AcDbArc
 50
90.0
 51
270.0
  0
LINE
  5
57
100
AcDbEntity
  8
0
390
0
  6
Continuous
 62
     7
100
AcDbLine
 10
87.500186
 20
4.0
 30
0.0
 11
-67.499814
 21
4.0
 31
0.0
  0
LINE
  5
58
100
AcDbEntity
  8
0
390
0
  6
Continuous
 62
     7
100
AcDbLine
 10
-67.499814
 20
-4.0
 30
0.0
 11
87.500186
 21
-4.0
 31
0.0
  0
LINE
  5
59
100
AcDbEntity
  8
0
390
0
  6
Continuous
 62
     7
100
AcDbLine
 10
107.499814
 20
20.434402
 30
0.0
 11
106.103335
 21
20.410026
 31
0.0
  0
LINE
  5
5A
100
AcDbEntity
  8
0
390
0
  6
Continuous
 62
     7
100
AcDbLine
 10
106.103335
 20
-20.410027
 30
0.0
 11
107.499814
 21
-20.434403
 31
0.0
  0
ARC
  5
5B
100
AcDbEntity
  8
0
390
0
  6
Continuous
 62
     7
100
AcDbCircle
 10
106.129565
 20
-18.907337
 30
0.0
 40
1.502919
210
0.0
220
0.0
230
1.0
100
AcDbArc
 50
224.981221
 51
269.0
  0
ARC
  5
5C
100
AcDbEntity
  8
0
390
0
  6
Continuous
 62
     7
100
AcDbCircle
 10
106.129565
 20
18.907336
 30
0.0
 40
1.502919
210
0.0
220
0.0
230
1.0
100
AcDbArc
 50
91.0
 51
135.018779
  0
ARC
  5
5D
100
AcDbEntity
  8
0
390
0
  6
Continuous
 62
     7
100
AcDbCircle
 10
104.002826
 20
16.779203
 30
0.0
 40
1.502919
210
0.0
220
0.0
230
1.0
100
AcDbArc
 50
135.018779
 51
180.0
  0
ARC
  5
5E
100
AcDbEntity
  8
0
390
0
  6
Continuous
 62
     7
100
AcDbCircle
 10
104.002826
 20
-16.779204
 30
0.0
 40
1.502919
210
0.0
220
0.0
230
1.0
100
AcDbArc
 50
180.0
 51
224.981221
  0
LINE
  5
5F
100
AcDbEntity
  8
0
390
0
  6
Continuous
 62
     7
100
AcDbLine
 10
102.700296
 20
-14.330554
 30
0.0
 11
105.35456
 21
-14.330554
 31
0.0
  0
LINE
  5
60
100
AcDbEntity
  8
0
390
0
  6
Continuous
 62
     7
100
AcDbLine
 10
105.35456
 20
14.330554
 30
0.0
 11
102.700296
 21
14.330554
 31
0.0
  0
LINE
  5
61
100
AcDbEntity
  8
0
390
0
  6
Continuous
 62
     7
100
AcDbLine
 10
102.939754
 20
-17.84158
 30
0.0
 11
105.066492
 21
-19.969713
 31
0.0
  0
LINE
  5
62
100
AcDbEntity
  8
0
390
0
  6
Continuous
 62
     7
100
AcDbLine
 10
105.066492
 20
19.969712
 30
0.0
 11
102.939754
 21
17.841579
 31
0.0
  0
ARC
  5
63
100
AcDbEntity
  8
0
390
0
  6
Continuous
 62
     7
100
AcDbCircle
 10
99.503892
 20
9.20785
 30
0.0
 40
2.996015
210
0.0
220
0.0
230
1.0
100
AcDbArc
 50
271.0
 51
360.0
  0
ARC
  5
64
100
AcDbEntity
  8
0
390
0
  6
Continuous
 62
     7
100
AcDbCircle
 10
99.503892
 20
-9.20785
 30
0.0
 40
2.996015
210
0.0
220
0.0
230
1.0
100
AcDbArc
 50
0.0
 51
89.0
  0
LINE
  5
65
100
AcDbEntity
  8
0
390
0
  6
Continuous
 62
     7
100
AcDbLine
 10
99.55618
 20
6.212291
 30
0.0
 11
88.976876
 21
6.027628
 31
0.0
  0
LINE
  5
66
100
AcDbEntity
  8
0
390
0
  6
Continuous
 62
     7
100
AcDbLine
 10
88.976876
 20
-6.027629
 30
0.0
 11
99.55618
 21
-6.212291
 31
0.0
  0
ARC
  5
67
100
AcDbEntity
  8
0
390
0
  6
Continuous
 62
     7
100
AcDbCircle
 10
89.003105
 20
4.524938
 30
0.0
 40
1.502919
210
0.0
220
0.0
230
1.0
100
AcDbArc
 50
91.0
 51
180.0
  0
ARC
  5
68
100
AcDbEntity
  8
0
390
0
  6
Continuous
 62
     7
100
AcDbCircle
 10
89.003105
 20
-4.524939
 30
0.0
 40
1.502919
210
0.0
220
0.0
230
1.0
100
AcDbArc
 50
180.0
 51
269.0
  0
CIRCLE
  5
69
100
AcDbEntity
  8
0
390
0
  6
Continuous
 62
     7
100
AcDbCircle
 10
201.159611
 20
0.0
 30
0.0
 40
1.45
210
0.0
220
0.0
230
1.0
  0
LINE
  5
6A
100
AcDbEntity
  8
0
390
0
  6
Continuous
 62
     7
100
AcDbLine
 10
189.338647
 20
-3.911006
 30
0.0
 11
185.045983
 21
-5.473408
 31
0.0
  0
ARC
  5
6B
100
AcDbEntity
  8
0
390
0
  6
Continuous
 62
     7
100
AcDbCircle
 10
201.159611
 20
0.0
 30
0.0
 40
17.017849
210
0.0
220
0.0
230
1.0
100
AcDbArc
 50
198.761376
 51
251.238624
  0
LINE
  5
6C
100
AcDbEntity
  8
0
390
0
  6
Continuous
 62
     7
100
AcDbLine
 10
195.686203
 20
-16.113628
 30
0.0
 11
197.248605
 21
-11.820964
 31
0.0
  0
ARC
  5
6D
100
AcDbEntity
  8
0
390
0
  6
Continuous
 62
     7
100
AcDbCircle
 10
201.159611
 20
0.0
 30
0.0
 40
12.451151
210
0.0
220
0.0
230
0.9999999999999999
100
AcDbArc
 50
198.306972
 51
251.693028
  0
ARC
  5
6E
100
AcDbEntity
  8
0
390
0
  6
Continuous
 62
     7
100
AcDbCircle
 10
201.159611
 20
0.0
 30
0.0
 40
10.141749
210
0.0
220
0.0
230
1.0
100
AcDbArc
 50
197.921295
 51
252.078705
  0
LINE
  5
6F
100
AcDbEntity
  8
0
390
0
  6
Continuous
 62
     7
100
AcDbLine
 10
199.602666
 20
-5.353234
 30
0.0
 11
198.03889
 21
-9.649673
 31
0.0
  0
ARC
  5
70
100
AcDbEntity
  8
0
390
0
  6
Continuous
 62
     7
100
AcDbCircle
 10
201.159611
 20
0.0
 30
0.0
 40
5.575051
210
0.0
220
0.0
230
1.0
100
AcDbArc
 50
196.216644
 51
253.783356
  0
LINE
  5
71
100
AcDbEntity
  8
0
390
0
  6
Continuous
 62
     7
100
AcDbLine
 10
191.509938
 20
-3.120721
 30
0.0
 11
195.806377
 21
-1.556945
 31
0.0
  0
LINE
  5
72
100
AcDbEntity
  8
0
390
0
  6
Continuous
 62
     7
100
AcDbLine
 10
202.716556
 20
-5.353234
 30
0.0
 11
204.280331
 21
-9.649673
 31
0.0
  0
ARC
  5
73
100
AcDbEntity
  8
0
390
0
  6
Continuous
 62
     7
100
AcDbCircle
 10
201.159611
 20
0.0
 30
0.0
 40
10.141749
210
0.0
220
0.0
230
1.0
100
AcDbArc
 50
287.921295
 51
342.078705
  0
LINE
  5
74
100
AcDbEntity
  8
0
390
0
  6
Continuous
 62
     7
100
AcDbLine
 10
210.809284
 20
-3.120721
 30
0.0
 11
206.512845
 21
-1.556945
 31
0.0
  0
ARC
  5
75
100
AcDbEntity
  8
0
390
0
  6
Continuous
 62
     7
100
AcDbCircle
 10
201.159611
 20
0.0
 30
0.0
 40
5.575051
210
0.0
220
0.0
230
1.0
100
AcDbArc
 50
286.216644
 51
343.783356
  0
ARC
  5
76
100
AcDbEntity
  8
0
390
0
  6
Continuous
 62
     7
100
AcDbCircle
 10
201.159611
 20
0.0
 30
0.0
 40
17.017849
210
0.0
220
0.0
230
1.0
100
AcDbArc
 50
18.761376
 51
71.238624
  0
LINE
  5
77
100
AcDbEntity
  8
0
390
0
  6
Continuous
 62
     7
100
AcDbLine
 10
206.633019
 20
16.113628
 30
0.0
 11
205.070617
 21
11.820963
 31
0.0
  0
ARC
  5
78
100
AcDbEntity
  8
0
390
0
  6
Continuous
 62
     7
100
AcDbCircle
 10
201.159611
 20
0.0
 30
0.0
 40
12.451151
210
0.0
220
0.0
230
1.0
100
AcDbArc
 50
18.306972
 51
71.693028
  0
LINE
  5
79
100
AcDbEntity
  8
0
390
0
  6
Continuous
 62
     7
100
AcDbLine
 10
212.980575
 20
3.911006
 30
0.0
 11
217.273239
 21
5.473407
 31
0.0
  0
CIRCLE
  5
7A
100
AcDbEntity
  8
0
390
0
  6
Continuous
 62
     7
100
AcDbCircle
 10
201.159611
 20
0.0
 30
0.0
 40
20.434402
210
0.0
220
0.0
230
1.0
  0
LINE
  5
7B
100
AcDbEntity
  8
0
390
0
  6
Continuous
 62
     7
100
AcDbLine
 10
195.806377
 20
1.556944
 30
0.0
 11
191.509938
 21
3.12072
 31
0.0
  0
ARC
  5
7C
100
AcDbEntity
  8
0
390
0
  6
Continuous
 62
     7
100
AcDbCircle
 10
201.159611
 20
0.0
 30
0.0
 40
5.575051
210
0.0
220
0.0
230
1.0
100
AcDbArc
 50
106.216644
 51
163.783356
  0
LINE
  5
7D
100
AcDbEntity
  8
0
390
0
  6
Continuous
 62
     7
100
AcDbLine
 10
198.03889
 20
9.649672
 30
0.0
 11
199.602666
 21
5.353234
 31
0.0
  0
ARC
  5
7E
100
AcDbEntity
  8
0
390
0
  6
Continuous
 62
     7
100
AcDbCircle
 10
201.159611
 20
0.0
 30
0.0
 40
10.141749
210
0.0
220
0.0
230
1.0
100
AcDbArc
 50
107.921295
 51
162.078705
  0
ARC
  5
7F
100
AcDbEntity
  8
0
390
0
  6
Continuous
 62
     7
100
AcDbCircle
 10
201.159611
 20
0.0
 30
0.0
 40
17.017849
210
0.0
220
0.0
230
1.0
100
AcDbArc
 50
108.761376
 51
161.238624
  0
LINE
  5
80
100
AcDbEntity
  8
0
390
0
  6
Continuous
 62
     7
100
AcDbLine
 10
185.045983
 20
5.473407
 30
0.0
 11
189.338647
 21
3.911006
 31
0.0
  0
ARC
  5
81
100
AcDbEntity
  8
0
390
0
  6
Continuous
 62
     7
100
AcDbCircle
 10
201.159611
 20
0.0
 30
0.0
 40
12.451151
210
0.0
220
0.0
230
1.0
100
AcDbArc
 50
108.306972
 51
161.693028
  0
LINE
  5
82
100
AcDbEntity
  8
0
390
0
  6
Continuous
 62
     7
100
AcDbLine
 10
197.248605
 20
11.820963
 30
0.0
 11
195.686203
 21
16.113628
 31
0.0
  0
ARC
  5
83
100
AcDbEntity
  8
0
390
0
  6
Continuous
 62
     7
100
AcDbCircle
 10
201.159611
 20
0.0
 30
0.0
 40
10.141749
210
0.0
220
0.0
230
1.0
100
AcDbArc
 50
17.921295
 51
72.078705
  0
LINE
  5
84
100
AcDbEntity
  8
0
390
0
  6
Continuous
 62
     7
100
AcDbLine
 10
204.280331
 20
9.649672
 30
0.0
 11
202.716556
 21
5.353234
 31
0.0
  0
ARC
  5
85
100
AcDbEntity
  8
0
390
0
  6
Continuous
 62
     7
100
AcDbCircle
 10
201.159611
 20
0.0
 30
0.0
 40
5.575051
210
0.0
220
0.0
230
1.0
100
AcDbArc
 50
16.216644
 51
73.783356
  0
LINE
  5
86
100
AcDbEntity
  8
0
390
0
  6
Continuous
 62
     7
100
AcDbLine
 10
206.512845
 20
1.556944
 30
0.0
 11
210.809284
 21
3.12072
 31
0.0
  0
LINE
  5
87
100
AcDbEntity
  8
0
390
0
  6
Continuous
 62
     7
100
AcDbLine
 10
217.273239
 20
-5.473408
 30
0.0
 11
212.980575
 21
-3.911006
 31
0.0
  0
ARC
  5
88
100
AcDbEntity
  8
0
390
0
  6
Continuous
 62
     7
100
AcDbCircle
 10
201.159611
 20
0.0
 30
0.0
 40
12.451151
210
0.0
220
0.0
230
1.0
100
AcDbArc
 50
288.306972
 51
341.693028
  0
LINE
  5
89
100
AcDbEntity
  8
0
390
0
  6
Continuous
 62
     7
100
AcDbLine
 10
205.070617
 20
-11.820964
 30
0.0
 11
206.633019
 21
-16.113628
 31
0.0
  0
ARC
  5
8A
100
AcDbEntity
  8
0
390
0
  6
Continuous
 62
     7
100
AcDbCircle
 10
201.159611
 20
0.0
 30
0.0
 40
17.017849
210
0.0
220
0.0
230
1.0
100
AcDbArc
 50
288.761376
 51
341.238624
  0
CIRCLE
  5
8B
100
AcDbEntity
  8
0
390
0
  6
Continuous
 62
     7
100
AcDbCircle
 10
215.159611
 20
0.0
 30
0.0
 40
2.25
210
0.0
220
0.0
230
1.0
  0
CIRCLE
  5
8C
100
AcDbEntity
  8
0
390
0
  6
Continuous
 62
     7
100
AcDbCircle
 10
187.159611
 20
0.0
 30
0.0
 40
2.25
210
0.0
220
0.0
230
1.0
  0
CIRCLE
  5
8D
100
AcDbEntity
  8
0
390
0
  6
Continuous
 62
     7
100
AcDbCircle
 10
201.159611
 20
0.0
 30
0.0
 40
2.0
210
0.0
220
0.0
230
1.0
  0
LINE
  5
8E
100
AcDbEntity
  8
0
390
0
  6
Continuous
 62
     7
100
AcDbLine
 10
185.045983
 20
5.473407
 30
0.0
 11
185.513743
 21
5.69463
 31
0.0
  0
LINE
  5
8F
100
AcDbEntity
  8
0
390
0
  6
Continuous
 62
     7
100
AcDbLine
 10
195.686203
 20
16.113628
 30
0.0
 11
195.464981
 21
15.645868
 31
0.0
  0
ARC
  5
90
100
AcDbEntity
  8
0
390
0
  6
Continuous
 62
     7
100
AcDbCircle
 10
201.159611
 20
0.0
 30
0.0
 40
16.649985
210
0.0
220
0.0
230
1.0
100
AcDbArc
 50
110.0
 51
160.0
  0
LINE
  5
91
100
AcDbEntity
  8
0
390
0
  6
Continuous
 62
     7
100
AcDbLine
 10
197.248605
 20
11.820963
 30
0.0
 11
196.77525
 21
12.045933
 31
0.0
  0
LINE
  5
92
100
AcDbEntity
  8
0
390
0
  6
Continuous
 62
     7
100
AcDbLine
 10
196.77525
 20
12.045933
 30
0.0
 11
195.464981
 21
15.645868
 31
0.0
  0
LINE
  5
93
100
AcDbEntity
  8
0
390
0
  6
Continuous
 62
     7
100
AcDbLine
 10
189.338647
 20
3.911006
 30
0.0
 11
189.113677
 21
4.384361
 31
0.0
  0
ARC
  5
94
100
AcDbEntity
  8
0
390
0
  6
Continuous
 62
     7
100
AcDbCircle
 10
201.159611
 20
0.0
 30
0.0
 40
12.819015
210
0.0
220
0.0
230
1.0
100
AcDbArc
 50
110.0
 51
160.0
  0
LINE
  5
95
100
AcDbEntity
  8
0
390
0
  6
Continuous
 62
     7
100
AcDbLine
 10
185.513743
 20
5.69463
 30
0.0
 11
189.113677
 21
4.384361
 31
0.0
  0
LINE
  5
96
100
AcDbEntity
  8
0
390
0
  6
Continuous
 62
     7
100
AcDbLine
 10
191.509938
 20
3.12072
 30
0.0
 11
191.975163
 21
3.342865
 31
0.0
  0
LINE
  5
97
100
AcDbEntity
  8
0
390
0
  6
Continuous
 62
     7
100
AcDbLine
 10
198.03889
 20
9.649672
 30
0.0
 11
197.816745
 21
9.184447
 31
0.0
  0
ARC
  5
98
100
AcDbEntity
  8
0
390
0
  6
Continuous
 62
     7
100
AcDbCircle
 10
201.159611
 20
0.0
 30
0.0
 40
9.773885
210
0.0
220
0.0
230
1.0
100
AcDbArc
 50
110.0
 51
160.0
  0
LINE
  5
99
100
AcDbEntity
  8
0
390
0
  6
Continuous
 62
     7
100
AcDbLine
 10
205.070617
 20
11.820963
 30
0.0
 11
205.543972
 21
12.045933
 31
0.0
  0
LINE
  5
9A
100
AcDbEntity
  8
0
390
0
  6
Continuous
 62
     7
100
AcDbLine
 10
206.633019
 20
16.113628
 30
0.0
 11
206.854241
 21
15.645868
 31
0.0
  0
LINE
  5
9B
100
AcDbEntity
  8
0
390
0
  6
Continuous
 62
     7
100
AcDbLine
 10
206.854241
 20
15.645868
 30
0.0
 11
205.543972
 21
12.045933
 31
0.0
  0
LINE
  5
9C
100
AcDbEntity
  8
0
390
0
  6
Continuous
 62
     7
100
AcDbLine
 10
217.273239
 20
5.473407
 30
0.0
 11
216.805479
 21
5.69463
 31
0.0
  0
ARC
  5
9D
100
AcDbEntity
  8
0
390
0
  6
Continuous
 62
     7
100
AcDbCircle
 10
201.159611
 20
0.0
 30
0.0
 40
16.649985
210
0.0
220
0.0
230
0.9999999999999999
100
AcDbArc
 50
20.0
 51
70.0
  0
LINE
  5
9E
100
AcDbEntity
  8
0
390
0
  6
Continuous
 62
     7
100
AcDbLine
 10
199.602666
 20
5.353234
 30
0.0
 11
199.127014
 21
5.584513
 31
0.0
  0
LINE
  5
9F
100
AcDbEntity
  8
0
390
0
  6
Continuous
 62
     7
100
AcDbLine
 10
197.816745
 20
9.184447
 30
0.0
 11
199.127014
 21
5.584513
 31
0.0
  0
LINE
  5
A0
100
AcDbEntity
  8
0
390
0
  6
Continuous
 62
     7
100
AcDbLine
 10
195.806377
 20
1.556944
 30
0.0
 11
195.575098
 21
2.032596
 31
0.0
  0
LINE
  5
A1
100
AcDbEntity
  8
0
390
0
  6
Continuous
 62
     7
100
AcDbLine
 10
195.575098
 20
2.032596
 30
0.0
 11
191.975163
 21
3.342865
 31
0.0
  0
LINE
  5
A2
100
AcDbEntity
  8
0
390
0
  6
Continuous
 62
     7
100
AcDbLine
 10
212.980575
 20
3.911006
 30
0.0
 11
213.205545
 21
4.384361
 31
0.0
  0
ARC
  5
A3
100
AcDbEntity
  8
0
390
0
  6
Continuous
 62
     7
100
AcDbCircle
 10
201.159611
 20
0.0
 30
0.0
 40
12.819015
210
0.0
220
0.0
230
1.0
100
AcDbArc
 50
20.0
 51
70.0
  0
ARC
  5
A4
100
AcDbEntity
  8
0
390
0
  6
Continuous
 62
     7
100
AcDbCircle
 10
201.159611
 20
0.0
 30
0.0
 40
5.942915
210
0.0
220
0.0
230
1.0
100
AcDbArc
 50
110.0
 51
160.0
  0
LINE
  5
A5
100
AcDbEntity
  8
0
390
0
  6
Continuous
 62
     7
100
AcDbLine
 10
202.716556
 20
5.353234
 30
0.0
 11
203.192208
 21
5.584513
 31
0.0
  0
LINE
  5
A6
100
AcDbEntity
  8
0
390
0
  6
Continuous
 62
     7
100
AcDbLine
 10
204.280331
 20
9.649672
 30
0.0
 11
204.502476
 21
9.184447
 31
0.0
  0
LINE
  5
A7
100
AcDbEntity
  8
0
390
0
  6
Continuous
 62
     7
100
AcDbLine
 10
204.502476
 20
9.184447
 30
0.0
 11
203.192208
 21
5.584513
 31
0.0
  0
LINE
  5
A8
100
AcDbEntity
  8
0
390
0
  6
Continuous
 62
     7
100
AcDbLine
 10
210.809284
 20
3.12072
 30
0.0
 11
210.344059
 21
3.342865
 31
0.0
  0
ARC
  5
A9
100
AcDbEntity
  8
0
390
0
  6
Continuous
 62
     7
100
AcDbCircle
 10
201.159611
 20
0.0
 30
0.0
 40
9.773885
210
0.0
220
0.0
230
1.0
100
AcDbArc
 50
20.0
 51
70.0
  0
LINE
  5
AA
100
AcDbEntity
  8
0
390
0
  6
Continuous
 62
     7
100
AcDbLine
 10
185.045983
 20
-5.473408
 30
0.0
 11
185.513743
 21
-5.694631
 31
0.0
  0
LINE
  5
AB
100
AcDbEntity
  8
0
390
0
  6
Continuous
 62
     7
100
AcDbLine
 10
189.338647
 20
-3.911006
 30
0.0
 11
189.113677
 21
-4.384362
 31
0.0
  0
LINE
  5
AC
100
AcDbEntity
  8
0
390
0
  6
Continuous
 62
     7
100
AcDbLine
 10
189.113677
 20
-4.384362
 30
0.0
 11
185.513743
 21
-5.694631
 31
0.0
  0
LINE
  5
AD
100
AcDbEntity
  8
0
390
0
  6
Continuous
 62
     7
100
AcDbLine
 10
195.686203
 20
-16.113628
 30
0.0
 11
195.464981
 21
-15.645868
 31
0.0
  0
ARC
  5
AE
100
AcDbEntity
  8
0
390
0
  6
Continuous
 62
     7
100
AcDbCircle
 10
201.159611
 20
0.0
 30
0.0
 40
16.649985
210
0.0
220
0.0
230
1.0
100
AcDbArc
 50
200.0
 51
250.0
  0
LINE
  5
AF
100
AcDbEntity
  8
0
390
0
  6
Continuous
 62
     7
100
AcDbLine
 10
191.509938
 20
-3.120721
 30
0.0
 11
191.975163
 21
-3.342866
 31
0.0
  0
LINE
  5
B0
100
AcDbEntity
  8
0
390
0
  6
Continuous
 62
     7
100
AcDbLine
 10
195.806377
 20
-1.556945
 30
0.0
 11
195.575098
 21
-2.032597
 31
0.0
  0
LINE
  5
B1
100
AcDbEntity
  8
0
390
0
  6
Continuous
 62
     7
100
AcDbLine
 10
191.975163
 20
-3.342866
 30
0.0
 11
195.575098
 21
-2.032597
 31
0.0
  0
LINE
  5
B2
100
AcDbEntity
  8
0
390
0
  6
Continuous
 62
     7
100
AcDbLine
 10
206.512845
 20
1.556944
 30
0.0
 11
206.744124
 21
2.032596
 31
0.0
  0
ARC
  5
B3
100
AcDbEntity
  8
0
390
0
  6
Continuous
 62
     7
100
AcDbCircle
 10
201.159611
 20
0.0
 30
0.0
 40
5.942915
210
0.0
220
0.0
230
1.0
100
AcDbArc
 50
20.0
 51
70.0
  0
LINE
  5
B4
100
AcDbEntity
  8
0
390
0
  6
Continuous
 62
     7
100
AcDbLine
 10
197.248605
 20
-11.820964
 30
0.0
 11
196.77525
 21
-12.045934
 31
0.0
  0
ARC
  5
B5
100
AcDbEntity
  8
0
390
0
  6
Continuous
 62
     7
100
AcDbCircle
 10
201.159611
 20
0.0
 30
0.0
 40
12.819015
210
0.0
220
0.0
230
1.0
100
AcDbArc
 50
200.0
 51
250.0
  0
LINE
  5
B6
100
AcDbEntity
  8
0
390
0
  6
Continuous
 62
     7
100
AcDbLine
 10
198.03889
 20
-9.649673
 30
0.0
 11
197.816745
 21
-9.184448
 31
0.0
  0
ARC
  5
B7
100
AcDbEntity
  8
0
390
0
  6
Continuous
 62
     7
100
AcDbCircle
 10
201.159611
 20
0.0
 30
0.0
 40
9.773885
210
0.0
220
0.0
230
0.9999999999999999
100
AcDbArc
 50
200.0
 51
250.0
  0
LINE
  5
B8
100
AcDbEntity
  8
0
390
0
  6
Continuous
 62
     7
100
AcDbLine
 10
199.602666
 20
-5.353234
 30
0.0
 11
199.127014
 21
-5.584514
 31
0.0
  0
ARC
  5
B9
100
AcDbEntity
  8
0
390
0
  6
Continuous
 62
     7
100
AcDbCircle
 10
201.159611
 20
0.0
 30
0.0
 40
5.942915
210
0.0
220
0.0
230
1.0
100
AcDbArc
 50
200.0
 51
250.0
  0
LINE
  5
BA
100
AcDbEntity
  8
0
390
0
  6
Continuous
 62
     7
100
AcDbLine
 10
206.744124
 20
2.032596
 30
0.0
 11
210.344059
 21
3.342865
 31
0.0
  0
LINE
  5
BB
100
AcDbEntity
  8
0
390
0
  6
Continuous
 62
     7
100
AcDbLine
 10
213.205545
 20
4.384361
 30
0.0
 11
216.805479
 21
5.69463
 31
0.0
  0
LINE
  5
BC
100
AcDbEntity
  8
0
390
0
  6
Continuous
 62
     7
100
AcDbLine
 10
202.716556
 20
-5.353234
 30
0.0
 11
203.192208
 21
-5.584514
 31
0.0
  0
LINE
  5
BD
100
AcDbEntity
  8
0
390
0
  6
Continuous
 62
     7
100
AcDbLine
 10
206.512845
 20
-1.556945
 30
0.0
 11
206.744124
 21
-2.032597
 31
0.0
  0
ARC
  5
BE
100
AcDbEntity
  8
0
390
0
  6
Continuous
 62
     7
100
AcDbCircle
 10
201.159611
 20
0.0
 30
0.0
 40
5.942915
210
0.0
220
0.0
230
1.0
100
AcDbArc
 50
290.0
 51
340.0
  0
LINE
  5
BF
100
AcDbEntity
  8
0
390
0
  6
Continuous
 62
     7
100
AcDbLine
 10
199.127014
 20
-5.584514
 30
0.0
 11
197.816745
 21
-9.184448
 31
0.0
  0
LINE
  5
C0
100
AcDbEntity
  8
0
390
0
  6
Continuous
 62
     7
100
AcDbLine
 10
210.809284
 20
-3.120721
 30
0.0
 11
210.344059
 21
-3.342866
 31
0.0
  0
LINE
  5
C1
100
AcDbEntity
  8
0
390
0
  6
Continuous
 62
     7
100
AcDbLine
 10
210.344059
 20
-3.342866
 30
0.0
 11
206.744124
 21
-2.032597
 31
0.0
  0
LINE
  5
C2
100
AcDbEntity
  8
0
390
0
  6
Continuous
 62
     7
100
AcDbLine
 10
204.280331
 20
-9.649673
 30
0.0
 11
204.502476
 21
-9.184448
 31
0.0
  0
ARC
  5
C3
100
AcDbEntity
  8
0
390
0
  6
Continuous
 62
     7
100
AcDbCircle
 10
201.159611
 20
0.0
 30
0.0
 40
9.773885
210
0.0
220
0.0
230
1.0
100
AcDbArc
 50
290.0
 51
340.0
  0
LINE
  5
C4
100
AcDbEntity
  8
0
390
0
  6
Continuous
 62
     7
100
AcDbLine
 10
203.192208
 20
-5.584514
 30
0.0
 11
204.502476
 21
-9.184448
 31
0.0
  0
LINE
  5
C5
100
AcDbEntity
  8
0
390
0
  6
Continuous
 62
     7
100
AcDbLine
 10
205.070617
 20
-11.820964
 30
0.0
 11
205.543972
 21
-12.045934
 31
0.0
  0
LINE
  5
C6
100
AcDbEntity
  8
0
390
0
  6
Continuous
 62
     7
100
AcDbLine
 10
212.980575
 20
-3.911006
 30
0.0
 11
213.205545
 21
-4.384362
 31
0.0
  0
ARC
  5
C7
100
AcDbEntity
  8
0
390
0
  6
Continuous
 62
     7
100
AcDbCircle
 10
201.159611
 20
0.0
 30
0.0
 40
12.819015
210
0.0
220
0.0
230
1.0
100
AcDbArc
 50
290.0
 51
340.0
  0
LINE
  5
C8
100
AcDbEntity
  8
0
390
0
  6
Continuous
 62
     7
100
AcDbLine
 10
195.464981
 20
-15.645868
 30
0.0
 11
196.77525
 21
-12.045934
 31
0.0
  0
LINE
  5
C9
100
AcDbEntity
  8
0
390
0
  6
Continuous
 62
     7
100
AcDbLine
 10
217.273239
 20
-5.473408
 30
0.0
 11
216.805479
 21
-5.694631
 31
0.0
  0
LINE
  5
CA
100
AcDbEntity
  8
0
390
0
  6
Continuous
 62
     7
100
AcDbLine
 10
206.633019
 20
-16.113628
 30
0.0
 11
206.854241
 21
-15.645868
 31
0.0
  0
ARC
  5
CB
100
AcDbEntity
  8
0
390
0
  6
Continuous
 62
     7
100
AcDbCircle
 10
201.159611
 20
0.0
 30
0.0
 40
16.649985
210
0.0
220
0.0
230
1.0
100
AcDbArc
 50
290.0
 51
340.0
  0
LINE
  5
CC
100
AcDbEntity
  8
0
390
0
  6
Continuous
 62
     7
100
AcDbLine
 10
216.805479
 20
-5.694631
 30
0.0
 11
213.205545
 21
-4.384362
 31
0.0
  0
LINE
  5
CD
100
AcDbEntity
  8
0
390
0
  6
Continuous
 62
     7
100
AcDbLine
 10
205.543972
 20
-12.045934
 30
0.0
 11
206.854241
 21
-15.645868
 31
0.0
  0
ARC
  5
CE
100
AcDbEntity
  8
0
390
0
  6
Continuous
 62
     7
100
AcDbCircle
 10
-199.054583
 20
0.0
 30
0.0
 40
2.0
210
0.0
220
0.0
230
1.0
100
AcDbArc
 50
86.106168
 51
356.106168
  0
ARC
  5
CF
100
AcDbEntity
  8
0
390
0
  6
Continuous
 62
     7
100
AcDbCircle
 10
-199.054583
 20
0.0
 30
0.0
 40
2.0
210
0.0
220
0.0
230
1.0
100
AcDbArc
 50
356.106168
 51
86.106168
  0
CIRCLE
  5
D0
100
AcDbEntity
  8
0
390
0
  6
Continuous
 62
     7
100
AcDbCircle
 10
-199.054583
 20
0.0
 30
0.0
 40
2.576017
210
0.0
220
0.0
230
1.0
  0
CIRCLE
  5
D1
100
AcDbEntity
  8
0
390
0
  6
Continuous
 62
     7
100
AcDbCircle
 10
-199.054583
 20
0.0
 30
0.0
 40
4.0
210
0.0
220
0.0
230
1.0
  0
CIRCLE
  5
D2
100
AcDbEntity
  8
0
390
0
  6
Continuous
 62
     7
100
AcDbCircle
 10
-199.054583
 20
0.0
 30
0.0
 40
4.524939
210
0.0
220
0.0
230
1.0
  0
CIRCLE
  5
D3
100
AcDbEntity
  8
0
390
0
  6
Continuous
 62
     7
100
AcDbCircle
 10
-199.054583
 20
0.0
 30
0.0
 40
6.027629
210
0.0
220
0.0
230
1.0
  0
CIRCLE
  5
D4
100
AcDbEntity
  8
0
390
0
  6
Continuous
 62
     7
100
AcDbCircle
 10
-199.054583
 20
0.0
 30
0.0
 40
6.212291
210
0.0
220
0.0
230
1.0
  0
CIRCLE
  5
D5
100
AcDbEntity
  8
0
390
0
  6
Continuous
 62
     7
100
AcDbCircle
 10
-199.054583
 20
0.0
 30
0.0
 40
9.20785
210
0.0
220
0.0
230
1.0
  0
LINE
  5
D6
100
AcDbEntity
  8
0
390
0
  6
Continuous
 62
     7
100
AcDbLine
 10
-198.007914
 20
10.4994
 30
0.0
 11
-196.915186
 21
10.4994
 31
0.0
  0
LINE
  5
D7
100
AcDbEntity
  8
0
390
0
  6
Continuous
 62
     7
100
AcDbLine
 10
-198.831474
 20
12.537425
 30
0.0
 11
-198.007914
 21
10.4994
 31
0.0
  0
LINE
  5
D8
100
AcDbEntity
  8
0
390
0
  6
Continuous
 62
     7
100
AcDbLine
 10
-198.314619
 20
13.816911
 30
0.0
 11
-198.831474
 21
12.537425
 31
0.0
  0
LINE
  5
D9
100
AcDbEntity
  8
0
390
0
  6
Continuous
 62
     7
100
AcDbLine
 10
-197.461664
 20
11.705872
 30
0.0
 11
-198.314619
 21
13.816911
 31
0.0
  0
LINE
  5
DA
100
AcDbEntity
  8
0
390
0
  6
Continuous
 62
     7
100
AcDbLine
 10
-196.332763
 20
14.499671
 30
0.0
 11
-197.461664
 21
11.705872
 31
0.0
  0
LINE
  5
DB
100
AcDbEntity
  8
0
390
0
  6
Continuous
 62
     7
100
AcDbLine
 10
-195.299053
 20
14.499671
 30
0.0
 11
-196.332763
 21
14.499671
 31
0.0
  0
LINE
  5
DC
100
AcDbEntity
  8
0
390
0
  6
Continuous
 62
     7
100
AcDbLine
 10
-196.915186
 20
10.4994
 30
0.0
 11
-195.299053
 21
14.499671
 31
0.0
  0
LINE
  5
DD
100
AcDbEntity
  8
0
390
0
  6
Continuous
 62
     7
100
AcDbLine
 10
-200.368084
 20
14.499671
 30
0.0
 11
-201.401781
 21
14.499671
 31
0.0
  0
LINE
  5
DE
100
AcDbEntity
  8
0
390
0
  6
Continuous
 62
     7
100
AcDbLine
 10
-198.751697
 20
10.4994
 30
0.0
 11
-200.368084
 21
14.499671
 31
0.0
  0
LINE
  5
DF
100
AcDbEntity
  8
0
390
0
  6
Continuous
 62
     7
100
AcDbLine
 10
-199.785394
 20
10.4994
 30
0.0
 11
-198.751697
 21
10.4994
 31
0.0
  0
LINE
  5
E0
100
AcDbEntity
  8
0
390
0
  6
Continuous
 62
     7
100
AcDbLine
 10
-201.401781
 20
14.499671
 30
0.0
 11
-199.785394
 21
10.4994
 31
0.0
  0
LINE
  5
E1
100
AcDbEntity
  8
0
390
0
  6
Continuous
 62
     7
100
AcDbLine
 10
-203.178987
 20
14.499671
 30
0.0
 11
-201.562826
 21
10.4994
 31
0.0
  0
LINE
  5
E2
100
AcDbEntity
  8
0
390
0
  6
Continuous
 62
     7
100
AcDbLine
 10
-202.14559
 20
14.499671
 30
0.0
 11
-203.178987
 21
14.499671
 31
0.0
  0
LINE
  5
E3
100
AcDbEntity
  8
0
390
0
  6
Continuous
 62
     7
100
AcDbLine
 10
-201.562826
 20
10.4994
 30
0.0
 11
-200.529203
 21
10.4994
 31
0.0
  0
LINE
  5
E4
100
AcDbEntity
  8
0
390
0
  6
Continuous
 62
     7
100
AcDbLine
 10
-200.529203
 20
10.4994
 30
0.0
 11
-202.14559
 21
14.499671
 31
0.0
  0
ARC
  5
E5
100
AcDbEntity
  8
0
390
0
  6
Continuous
 62
     7
100
AcDbCircle
 10
-194.767534
 20
11.8338
 30
0.0
 40
1.3344
210
0.0
220
0.0
230
1.0
100
AcDbArc
 50
270.0
 51
360.0
  0
ARC
  5
E6
100
AcDbEntity
  8
0
390
0
  6
Continuous
 62
     7
100
AcDbCircle
 10
-195.368168
 20
11.970715
 30
0.0
 40
0.8896
210
0.0
220
0.0
230
1.0
100
AcDbArc
 50
270.0
 51
360.0
  0
LINE
  5
E7
100
AcDbEntity
  8
0
390
0
  6
Continuous
 62
     7
100
AcDbLine
 10
-194.478568
 20
14.499671
 30
0.0
 11
-194.478568
 21
11.970715
 31
0.0
  0
LINE
  5
E8
100
AcDbEntity
  8
0
390
0
  6
Continuous
 62
     7
100
AcDbLine
 10
-193.433134
 20
11.8338
 30
0.0
 11
-193.433134
 21
14.499671
 31
0.0
  0
LINE
  5
E9
100
AcDbEntity
  8
0
390
0
  6
Continuous
 62
     7
100
AcDbLine
 10
-196.171404
 20
10.4994
 30
0.0
 11
-194.767534
 21
10.4994
 31
0.0
  0
LINE
  5
EA
100
AcDbEntity
  8
0
390
0
  6
Continuous
 62
     7
100
AcDbLine
 10
-195.936376
 20
11.081115
 30
0.0
 11
-196.171404
 21
10.4994
 31
0.0
  0
LINE
  5
EB
100
AcDbEntity
  8
0
390
0
  6
Continuous
 62
     7
100
AcDbLine
 10
-195.368168
 20
11.081115
 30
0.0
 11
-195.936376
 21
11.081115
 31
0.0
  0
LINE
  5
EC
100
AcDbEntity
  8
0
390
0
  6
Continuous
 62
     7
100
AcDbLine
 10
-193.433134
 20
14.499671
 30
0.0
 11
-194.478568
 21
14.499671
 31
0.0
  0
LINE
  5
ED
100
AcDbEntity
  8
0
390
0
  6
Continuous
 62
     7
100
AcDbLine
 10
-203.495142
 20
13.498697
 30
0.0
 11
-204.706781
 21
10.4994
 31
0.0
  0
LINE
  5
EE
100
AcDbEntity
  8
0
390
0
  6
Continuous
 62
     7
100
AcDbLine
 10
-203.299829
 20
11.423309
 30
0.0
 11
-202.657018
 21
11.423309
 31
0.0
  0
LINE
  5
EF
100
AcDbEntity
  8
0
390
0
  6
Continuous
 62
     7
100
AcDbLine
 10
-203.673384
 20
10.4994
 30
0.0
 11
-203.299829
 21
11.423309
 31
0.0
  0
LINE
  5
F0
100
AcDbEntity
  8
0
390
0
  6
Continuous
 62
     7
100
AcDbLine
 10
-204.706781
 20
10.4994
 30
0.0
 11
-203.673384
 21
10.4994
 31
0.0
  0
LINE
  5
F1
100
AcDbEntity
  8
0
390
0
  6
Continuous
 62
     7
100
AcDbLine
 10
-202.657018
 20
11.423309
 30
0.0
 11
-203.495142
 21
13.498697
 31
0.0
  0
CIRCLE
  5
F2
100
AcDbEntity
  8
0
390
0
  6
Continuous
 62
     7
100
AcDbCircle
 10
-213.054583
 20
0.0
 30
0.0
 40
2.25
210
0.0
220
0.0
230
1.0
  0
CIRCLE
  5
F3
100
AcDbEntity
  8
0
390
0
  6
Continuous
 62
     7
100
AcDbCircle
 10
-199.054583
 20
0.0
 30
0.0
 40
16.779204
210
0.0
220
0.0
230
1.0
  0
CIRCLE
  5
F4
100
AcDbEntity
  8
0
390
0
  6
Continuous
 62
     7
100
AcDbCircle
 10
-185.054583
 20
0.0
 30
0.0
 40
2.25
210
0.0
220
0.0
230
1.0
  0
ARC
  5
F5
100
AcDbEntity
  8
0
390
0
  6
Continuous
 62
     7
100
AcDbCircle
 10
-199.054583
 20
0.0
 30
0.0
 40
17.528991
210
0.0
220
0.0
230
1.0
100
AcDbArc
 50
39.110577
 51
50.889423
  0
ARC
  5
F6
100
AcDbEntity
  8
0
390
0
  6
Continuous
 62
     7
100
AcDbCircle
 10
-199.054583
 20
0.0
 30
0.0
 40
17.841579
210
0.0
220
0.0
230
1.0
100
AcDbArc
 50
320.112185
 51
39.887815
  0
ARC
  5
F7
100
AcDbEntity
  8
0
390
0
  6
Continuous
 62
     7
100
AcDbCircle
 10
-199.054583
 20
0.0
 30
0.0
 40
17.528991
210
0.0
220
0.0
230
1.0
100
AcDbArc
 50
309.110577
 51
320.889423
  0
ARC
  5
F8
100
AcDbEntity
  8
0
390
0
  6
Continuous
 62
     7
100
AcDbCircle
 10
-199.054583
 20
0.0
 30
0.0
 40
17.841579
210
0.0
220
0.0
230
1.0
100
AcDbArc
 50
230.112185
 51
309.887815
  0
ARC
  5
F9
100
AcDbEntity
  8
0
390
0
  6
Continuous
 62
     7
100
AcDbCircle
 10
-199.054583
 20
0.0
 30
0.0
 40
17.528991
210
0.0
220
0.0
230
1.0
100
AcDbArc
 50
219.110577
 51
230.889423
  0
ARC
  5
FA
100
AcDbEntity
  8
0
390
0
  6
Continuous
 62
     7
100
AcDbCircle
 10
-199.054583
 20
0.0
 30
0.0
 40
17.841579
210
0.0
220
0.0
230
1.0
100
AcDbArc
 50
140.112185
 51
219.887815
  0
ARC
  5
FB
100
AcDbEntity
  8
0
390
0
  6
Continuous
 62
     7
100
AcDbCircle
 10
-199.054583
 20
0.0
 30
0.0
 40
17.528991
210
0.0
220
0.0
230
1.0
100
AcDbArc
 50
129.110577
 51
140.889423
  0
ARC
  5
FC
100
AcDbEntity
  8
0
390
0
  6
Continuous
 62
     7
100
AcDbCircle
 10
-199.054583
 20
0.0
 30
0.0
 40
17.841579
210
0.0
220
0.0
230
1.0
100
AcDbArc
 50
50.112185
 51
129.887815
  0
LINE
  5
FD
100
AcDbEntity
  8
0
390
0
  6
Continuous
 62
     7
100
AcDbLine
 10
-213.382547
 20
-14.206627
 30
0.0
 11
-212.655852
 21
-11.057622
 31
0.0
  0
LINE
  5
FE
100
AcDbEntity
  8
0
390
0
  6
Continuous
 62
     7
100
AcDbLine
 10
-210.112204
 20
-13.60127
 30
0.0
 11
-213.26121
 21
-14.327963
 31
0.0
  0
ARC
  5
FF
100
AcDbEntity
  8
0
390
0
  6
Continuous
 62
     7
100
AcDbCircle
 10
-213.283961
 20
-14.229377
 30
0.0
 40
0.101177
210
0.0
220
0.0
230
1.0
100
AcDbArc
 50
167.005369
 51
282.99461
  0
LINE
  5
100
100
AcDbEntity
  8
0
390
0
  6
Continuous
 62
     7
100
AcDbLine
 10
-187.996961
 20
-13.60127
 30
0.0
 11
-184.847956
 21
-14.327963
 31
0.0
  0
LINE
  5
101
100
AcDbEntity
  8
0
390
0
  6
Continuous
 62
     7
100
AcDbLine
 10
-184.72662
 20
-14.206627
 30
0.0
 11
-185.453313
 21
-11.057622
 31
0.0
  0
ARC
  5
102
100
AcDbEntity
  8
0
390
0
  6
Continuous
 62
     7
100
AcDbCircle
 10
-184.825206
 20
-14.229377
 30
0.0
 40
0.101177
210
0.0
220
0.0
230
1.0
100
AcDbArc
 50
257.00539
 51
12.994612
  0
ARC
  5
103
100
AcDbEntity
  8
0
390
0
  6
Continuous
 62
     7
100
AcDbCircle
 10
-213.283961
 20
14.229378
 30
0.0
 40
0.101177
210
0.0
220
0.0
230
1.0
100
AcDbArc
 50
77.005369
 51
192.994626
  0
LINE
  5
104
100
AcDbEntity
  8
0
390
0
  6
Continuous
 62
     7
100
AcDbLine
 10
-212.655852
 20
11.057621
 30
0.0
 11
-213.382547
 21
14.206627
 31
0.0
  0
LINE
  5
105
100
AcDbEntity
  8
0
390
0
  6
Continuous
 62
     7
100
AcDbLine
 10
-213.26121
 20
14.327964
 30
0.0
 11
-210.112204
 21
13.601269
 31
0.0
  0
LINE
  5
106
100
AcDbEntity
  8
0
390
0
  6
Continuous
 62
     7
100
AcDbLine
 10
-184.72662
 20
14.206626
 30
0.0
 11
-185.453313
 21
11.057621
 31
0.0
  0
LINE
  5
107
100
AcDbEntity
  8
0
390
0
  6
Continuous
 62
     7
100
AcDbLine
 10
-187.996961
 20
13.601269
 30
0.0
 11
-184.847957
 21
14.327963
 31
0.0
  0
ARC
  5
108
100
AcDbEntity
  8
0
390
0
  6
Continuous
 62
     7
100
AcDbCircle
 10
-184.825206
 20
14.229377
 30
0.0
 40
0.101177
210
0.0
220
0.0
230
1.0
100
AcDbArc
 50
347.005395
 51
102.994615
  0
ARC
  5
109
100
AcDbEntity
  8
0
390
0
  6
Continuous
 62
     7
100
AcDbCircle
 10
-199.054583
 20
0.0
 30
0.0
 40
19.969712
210
0.0
220
0.0
230
1.0
100
AcDbArc
 50
135.619989
 51
224.38001
  0
ARC
  5
10A
100
AcDbEntity
  8
0
390
0
  6
Continuous
 62
     7
100
AcDbCircle
 10
-199.054583
 20
0.0
 30
0.0
 40
19.969712
210
0.0
220
0.0
230
1.0
100
AcDbArc
 50
315.619987
 51
44.380014
  0
ARC
  5
10B
100
AcDbEntity
  8
0
390
0
  6
Continuous
 62
     7
100
AcDbCircle
 10
-199.054583
 20
0.0
 30
0.0
 40
19.969712
210
0.0
220
0.0
230
1.0
100
AcDbArc
 50
225.619987
 51
314.380013
  0
ARC
  5
10C
100
AcDbEntity
  8
0
390
0
  6
Continuous
 62
     7
100
AcDbCircle
 10
-199.054583
 20
0.0
 30
0.0
 40
19.969712
210
0.0
220
0.0
230
1.0
100
AcDbArc
 50
45.619987
 51
134.38001
  0
CIRCLE
  5
10D
100
AcDbEntity
  8
0
390
0
  6
Continuous
 62
     7
100
AcDbCircle
 10
-199.054583
 20
0.0
 30
0.0
 40
20.410027
210
0.0
220
0.0
230
1.0
  0
CIRCLE
  5
10E
100
AcDbEntity
  8
0
390
0
  6
Continuous
 62
     7
100
AcDbCircle
 10
-199.054583
 20
0.0
 30
0.0
 40
20.434402
210
0.0
220
0.0
230
1.0
  0
POINT
  5
10F
100
AcDbEntity
  8
0
390
0
 62
     7
100
AcDbPoint
 10
0.0
 20
0.0
 30
0.0
  0
ENDSEC
  0
SECTION
  2
OBJECTS
  0
DICTIONARY
  5
19
100
AcDbDictionary
280
     0
281
     1
  3
ACAD_GROUP
350
1A
  3
ACAD_MLINESTYLE
350
1B
  3
ACAD_LAYOUT
350
1E
  3
ACAD_PLOTSETTINGS
350
22
  3
ACAD_PLOTSTYLENAME
350
1F
  3
ACAD_WIPEOUT_VARS
350
23
  0
DICTIONARY
  5
1A
102
{ACAD_REACTORS
330
19
102
}
100
AcDbDictionary
280
     0
281
     1
  0
DICTIONARY
  5
1B
102
{ACAD_REACTORS
330
19
102
}
100
AcDbDictionary
280
     0
281
     1
  3
Standard
350
1C
  0
MLINESTYLE
  5
1C
102
{ACAD_REACTORS
330
1B
102
}
100
AcDbMlineStyle
  2
Standard
 70
     0
  3

 62
     0
 51
90.0
 52
90.0
 71
     2
 49
0.5
 62
   256
  6
ByLayer
 49
-0.5
 62
   256
  6
ByLayer
  0
ACDBDICTIONARYWDFLT
  5
1F
102
{ACAD_REACTORS
330
19
102
}
100
AcDbDictionary
281
     1
  3
Normal
350
1D
100
AcDbDictionaryWithDefault
340
1D
  0
ACDBPLACEHOLDER
  5
1D
102
{ACAD_REACTORS
330
1F
102
}
  0
LAYOUT
  5
20
102
{ACAD_REACTORS
330
1E
102
}
100
AcDbPlotSettings
  1

  2

  4

  6

 40
0.0
 41
0.0
 42
0.0
 43
0.0
 44
0.0
 45
0.0
 46
0.0
 47
0.0
 48
0.0
 49
0.0
140
0.0
141
0.0
142
1.0
143
1.0
 70
  1024
 72
     0
 73
     0
 74
     0
  7

 75
     0
147
1.0
148
0.0
149
0.0
100
AcDbLayout
  1
Model
 70
     0
 71
     1
 10
0.0
 20
0.0
 11
0.0
 21
0.0
 12
0.0
 22
0.0
 32
0.0
 14
0.0
 24
0.0
 34
0.0
 15
0.0
 25
0.0
 35
0.0
146
0.0
 13
0.0
 23
0.0
 33
0.0
 16
0.0
 26
0.0
 36
0.0
 17
0.0
 27
0.0
 37
0.0
 76
     0
330
A
331
0
345
0
346
0
  0
LAYOUT
  5
21
102
{ACAD_REACTORS
330
1E
102
}
100
AcDbPlotSettings
  1

  2

  4

  6

 40
0.0
 41
0.0
 42
0.0
 43
0.0
 44
0.0
 45
0.0
 46
0.0
 47
0.0
 48
0.0
 49
0.0
140
0.0
141
0.0
142
1.0
143
1.0
 70
     0
 72
     0
 73
     0
 74
     0
  7

 75
     0
147
1.0
148
0.0
149
0.0
100
AcDbLayout
  1
Layout1
 70
     0
 71
     2
 10
0.0
 20
0.0
 11
0.0
 21
0.0
 12
0.0
 22
0.0
 32
0.0
 14
0.0
 24
0.0
 34
0.0
 15
0.0
 25
0.0
 35
0.0
146
0.0
 13
0.0
 23
0.0
 33
0.0
 16
0.0
 26
0.0
 36
0.0
 17
0.0
 27
0.0
 37
0.0
 76
     0
330
B
331
0
345
0
346
0
  0
DICTIONARY
  5
1E
102
{ACAD_REACTORS
330
19
102
}
100
AcDbDictionary
280
     0
281
     1
  3
Layout1
350
21
  3
Model
350
20
  0
DICTIONARY
  5
22
102
{ACAD_REACTORS
330
19
102
}
100
AcDbDictionary
280
     0
281
     1
  0
WIPEOUTVARIABLES
  5
23
100
AcDbWipeoutVariables
 70
     1
  0
ENDSEC
  0
EOF
