  0
SECTION
  2
HEADER
  9
$ACADVER
  1
AC1015
  9
$ACADMAINTVER
 70
     6
  9
$DWGCODEPAGE
  3
DOS932
  9
$INSBASE
 10
0.0
 20
0.0
 30
0.0
  9
$EXTMIN
 10
-53.0
 20
-103.801374
 30
0.0
  9
$EXTMAX
 10
189.552082
 20
35.727208
 30
9.906
  9
$LIMMIN
 10
-53.0
 20
-103.801374
  9
$LIMMAX
 10
189.552082
 20
35.727208
  9
$ORTHOMODE
 70
     0
  9
$REGENMODE
 70
     1
  9
$FILLMODE
 70
     1
  9
$QTEXTMODE
 70
     0
  9
$MIRRTEXT
 70
     1
  9
$LTSCALE
 40
10.0
  9
$ATTMODE
 70
     1
  9
$TEXTSIZE
 40
0.2
  9
$TRACEWID
 40
0.05
  9
$TEXTSTYLE
  7
Standard
  9
$CLAYER
  8
0
  9
$CELTYPE
  6
Continuous
  9
$CECOLOR
 62
   256
  9
$CELTSCALE
 40
1.0
  9
$DISPSILH
 70
     0
  9
$DIMSCALE
 40
1.0
  9
$DIMASZ
 40
1.40208
  9
$DIMEXO
 40
1.40208
  9
$DIMDLI
 40
0.38
  9
$DIMRND
 40
0.0
  9
$DIMDLE
 40
0.0
  9
$DIMEXE
 40
1.05156
  9
$DIMTP
 40
0.0
  9
$DIMTM
 40
0.0
  9
$DIMTXT
 40
3.5052
  9
$DIMCEN
 40
0.09
  9
$DIMTSZ
 40
0.0
  9
$DIMTOL
 70
     0
  9
$DIMLIM
 70
     0
  9
$DIMTIH
 70
     0
  9
$DIMTOH
 70
     0
  9
$DIMSE1
 70
     0
  9
$DIMSE2
 70
     0
  9
$DIMTAD
 70
     1
  9
$DIMZIN
 70
     0
  9
$DIMBLK
  1

  9
$DIMASO
 70
     1
  9
$DIMSHO
 70
     1
  9
$DIMPOST
  1

  9
$DIMAPOST
  1

  9
$DIMALT
 70
     0
  9
$DIMALTD
 70
     2
  9
$DIMALTF
 40
25.4
  9
$DIMLFAC
 40
1.0
  9
$DIMTOFL
 70
     0
  9
$DIMTVP
 40
0.0
  9
$DIMTIX
 70
     0
  9
$DIMSOXD
 70
     0
  9
$DIMSAH
 70
     0
  9
$DIMBLK1
  1

  9
$DIMBLK2
  1

  9
$DIMSTYLE
  2
Standard
  9
$DIMCLRD
 70
     7
  9
$DIMCLRE
 70
     7
  9
$DIMCLRT
 70
     7
  9
$DIMTFAC
 40
0.5
  9
$DIMGAP
 40
1.7526
  9
$DIMJUST
 70
     0
  9
$DIMSD1
 70
     0
  9
$DIMSD2
 70
     0
  9
$DIMTOLJ
 70
     1
  9
$DIMTZIN
 70
     0
  9
$DIMALTZ
 70
     0
  9
$DIMALTTZ
 70
     0
  9
$DIMUPT
 70
     0
  9
$DIMDEC
 70
     2
  9
$DIMTDEC
 70
     4
  9
$DIMALTU
 70
     2
  9
$DIMALTTD
 70
     2
  9
$DIMTXSTY
  7
Standard
  9
$DIMAUNIT
 70
     0
  9
$DIMADEC
 70
     0
  9
$DIMALTRND
 40
0.0
  9
$DIMAZIN
 70
     0
  9
$DIMDSEP
 70
     0
  9
$DIMATFIT
 70
     3
  9
$DIMFRAC
 70
     0
  9
$DIMLDRBLK
  1

  9
$DIMLUNIT
 70
     2
  9
$DIMLWD
 70
     0
  9
$DIMLWE
 70
     0
  9
$DIMTMOVE
 70
     0
  9
$LUNITS
 70
     2
  9
$LUPREC
 70
     4
  9
$SKETCHINC
 40
0.1
  9
$FILLETRAD
 40
0.0
  9
$AUNITS
 70
     0
  9
$AUPREC
 70
     0
  9
$MENU
  1
acad
  9
$ELEVATION
 40
0.0
  9
$PELEVATION
 40
0.0
  9
$THICKNESS
 40
0.0
  9
$LIMCHECK
 70
     0
  9
$CHAMFERA
 40
0.0
  9
$CHAMFERB
 40
0.0
  9
$CHAMFERC
 40
0.0
  9
$CHAMFERD
 40
0.0
  9
$SKPOLY
 70
     0
  9
$TDCREATE
 40
2459786.407534722
  9
$TDUCREATE
 40
0.000000000
  9
$TDUPDATE
 40
2459786.032245371
  9
$TDUUPDATE
 40
0.000000000
  9
$TDINDWG
 40
0.0000000000
  9
$TDUSRTIMER
 40
0.0000000000
  9
$USRTIMER
 70
     1
  9
$ANGBASE
 50
0.0
  9
$ANGDIR
 70
     0
  9
$PDMODE
 70
     0
  9
$PDSIZE
 40
0.0
  9
$PLINEWID
 40
0.0
  9
$SPLFRAME
 70
     0
  9
$SPLINETYPE
 70
     6
  9
$SPLINESEGS
 70
     8
  9
$HANDSEED
  5
666
  9
$SURFTAB1
 70
     6
  9
$SURFTAB2
 70
     6
  9
$SURFTYPE
 70
     6
  9
$SURFU
 70
     6
  9
$SURFV
 70
     6
  9
$UCSBASE
  2

  9
$UCSNAME
  2

  9
$UCSORG
 10
0.0
 20
0.0
 30
0.0
  9
$UCSXDIR
 10
1.0
 20
0.0
 30
0.0
  9
$UCSYDIR
 10
0.0
 20
1.0
 30
0.0
  9
$UCSORTHOREF
  2

  9
$UCSORTHOVIEW
 70
     0
  9
$UCSORGTOP
 10
0.0
 20
0.0
 30
0.0
  9
$UCSORGBOTTOM
 10
0.0
 20
0.0
 30
0.0
  9
$UCSORGLEFT
 10
0.0
 20
0.0
 30
0.0
  9
$UCSORGRIGHT
 10
0.0
 20
0.0
 30
0.0
  9
$UCSORGFRONT
 10
0.0
 20
0.0
 30
0.0
  9
$UCSORGBACK
 10
0.0
 20
0.0
 30
0.0
  9
$PUCSBASE
  2

  9
$PUCSNAME
  2

  9
$PUCSORG
 10
0.0
 20
0.0
 30
0.0
  9
$PUCSXDIR
 10
1.0
 20
0.0
 30
0.0
  9
$PUCSYDIR
 10
0.0
 20
1.0
 30
0.0
  9
$PUCSORTHOREF
  2

  9
$PUCSORTHOVIEW
 70
     0
  9
$PUCSORGTOP
 10
0.0
 20
0.0
 30
0.0
  9
$PUCSORGBOTTOM
 10
0.0
 20
0.0
 30
0.0
  9
$PUCSORGLEFT
 10
0.0
 20
0.0
 30
0.0
  9
$PUCSORGRIGHT
 10
0.0
 20
0.0
 30
0.0
  9
$PUCSORGFRONT
 10
0.0
 20
0.0
 30
0.0
  9
$PUCSORGBACK
 10
0.0
 20
0.0
 30
0.0
  9
$USERI1
 70
     0
  9
$USERI2
 70
     0
  9
$USERI3
 70
     0
  9
$USERI4
 70
     0
  9
$USERI5
 70
     0
  9
$USERR1
 40
0.0
  9
$USERR2
 40
0.0
  9
$USERR3
 40
0.0
  9
$USERR4
 40
0.0
  9
$USERR5
 40
0.0
  9
$WORLDVIEW
 70
     1
  9
$SHADEDGE
 70
     3
  9
$SHADEDIF
 70
    70
  9
$TILEMODE
 70
     1
  9
$MAXACTVP
 70
    16
  9
$PINSBASE
 10
0.0
 20
0.0
 30
0.0
  9
$PLIMCHECK
 70
     0
  9
$PEXTMIN
 10
1.000000E+20
 20
1.000000E+20
 30
1.000000E+20
  9
$PEXTMAX
 10
-1.000000E+20
 20
-1.000000E+20
 30
-1.000000E+20
  9
$PLIMMIN
 10
0.0
 20
0.0
  9
$PLIMMAX
 10
12.0
 20
9.0
  9
$UNITMODE
 70
     0
  9
$VISRETAIN
 70
     0
  9
$PLINEGEN
 70
     1
  9
$PSLTSCALE
 70
     0
  9
$TREEDEPTH
 70
  3020
  9
$CMLSTYLE
  2
Standard
  9
$CMLJUST
 70
     0
  9
$CMLSCALE
 40
1.0
  9
$PROXYGRAPHICS
 70
     0
  9
$MEASUREMENT
 70
     0
  9
$CELWEIGHT
370
     0
  9
$ENDCAPS
280
     0
  9
$JOINSTYLE
280
     0
  9
$LWDISPLAY
290
     0
  9
$INSUNITS
 70
     0
  9
$HYPERLINKBASE
  1

  9
$STYLESHEET
  1

  9
$XEDIT
290
     1
  9
$CEPSNTYPE
380
     0
  9
$PSTYLEMODE
290
     1
  9
$FINGERPRINTGUID
  2

  9
$VERSIONGUID
  2

  9
$EXTNAMES
290
     1
  9
$PSVPSCALE
 40
0.0
  0
ENDSEC
  0
SECTION
  2
CLASSES
  0
CLASS
  1
LWPOLYLINE
  2
AcDbPolyline
  3
AutoCAD 2000
 90
        0
280
     0
281
     1
  0
CLASS
  1
IMAGE
  2
AcDbRasterImage
  3
ISM
 90
      127
280
     0
281
     1
  0
CLASS
  1
OLE2FRAME
  2
AcDbOle2Frame
  3
AutoCAD 2000
 90
        0
280
     0
281
     1
  0
CLASS
  1
HATCH
  2
AcDbHatch
  3
AutoCAD 2000
 90
        0
280
     0
281
     1
  0
CLASS
  1
DICTIONARYVAR
  2
AcDbDictionaryVar
  3
AutoCAD 2000
 90
        0
280
     0
281
     0
  0
CLASS
  1
RASTERVARIABLES
  2
AcDbRasterVariables
  3
ISM
 90
        0
280
     0
281
     0
  0
CLASS
  1
IMAGEDEF
  2
AcDbRasterImageDef
  3
ISM
 90
        0
280
     0
281
     0
  0
CLASS
  1
IMAGEDEF_REACTOR
  2
AcDbRasterImageDefReactor
  3
ISM
 90
        1
280
     0
281
     0
  0
CLASS
  1
IDBUFFER
  2
AcDbIdBuffer
  3
AutoCAD 2000
 90
        0
280
     0
281
     0
  0
CLASS
  1
SPATIAL_FILTER
  2
AcDbSpatialFilter
  3
AutoCAD 2000
 90
        0
280
     0
281
     0
  0
CLASS
  1
XRECORD
  2
AcDbXrecord
  3
AutoCAD 2000
 90
        0
280
     0
281
     0
  0
CLASS
  1
SORTENTSTABLE
  2
AcDbSortentsTable
  3
AutoCAD 2000
 90
        0
280
     0
281
     0
  0
CLASS
  1
LAYER_INDEX
  2
AcDbLayerIndex
  3
AutoCAD 2000
 90
        0
280
     0
281
     0
  0
CLASS
  1
SPATIAL_INDEX
  2
AcDbSpatialIndex
  3
AutoCAD 2000
 90
        0
280
     0
281
     0
  0
CLASS
  1
OBJECT_PTR
  2
CAseDLPNTableRecord
  3
"ASE-LPNTableRecord"
 90
        1
280
     0
281
     0
  0
CLASS
  1
LAYOUT
  2
AcDbLayout
  3
AutoCAD 2000
 90
        0
280
     0
281
     0
  0
CLASS
  1
PLOTSETTINGS
  2
AcDbPlotSettings
  3
AutoCAD 2000
 90
        0
280
     0
281
     0
  0
CLASS
  1
ACDBDICTIONARYWDFLT
  2
AcDbDictionaryWithDefault
  3
AutoCAD 2000
 90
        0
280
     0
281
     0
  0
CLASS
  1
ACDBPLACEHOLDER
  2
AcDbPlaceHolder
  3
AutoCAD 2000
 90
        0
280
     0
281
     0
  0
CLASS
  1
VBA_PROJECT
  2
AcDbVbaProject
  3
acadvba
 90
        0
280
     0
281
     0
  0
CLASS
  1
WIPEOUT
  2
AcDbWipeout
  3
WipeOut|AutoCAD Express Tool|expresstools@autodesk.com
 90
      127
280
     0
281
     1
  0
CLASS
  1
WIPEOUTVARIABLES
  2
AcDbWipeoutVariables
  3
WipeOut|AutoCAD Express Tool|expresstools@autodesk.com
 90
        0
280
     0
281
     0
  0
CLASS
  1
RTEXT
  2
RText
  3
RText|AutoCAD Express Tool|expresstools@autodesk.com
 90
        0
280
     0
281
     1
  0
CLASS
  1
ARCALIGNEDTEXT
  2
AcDbArcAlignedText
  3
ATEXT|AutoCAD Express Tool|expresstools@autodesk.com
 90
        0
280
     0
281
     1
  0
ENDSEC
  0
SECTION
  2
TABLES
  0
TABLE
  2
VPORT
  5
7
100
AcDbSymbolTable
 70
     1
  0
VPORT
  5
15
100
AcDbSymbolTableRecord
100
AcDbViewportTableRecord
  2
*ACTIVE
 70
     0
 10
0.0
 20
0.0
 11
1.0
 21
1.0
 12
6.591288
 22
4.579184
 13
0.0
 23
0.0
 14
1.0
 24
1.0
 15
0.0
 25
0.0
 16
0.0
 26
0.0
 36
1.0
 17
0.0
 27
0.0
 37
0.0
 40
9.158369
 41
0.688564
 42
50.0
 43
0.0
 44
0.0
 50
0.0
 51
0.0
 71
     0
 72
   100
 73
     1
 74
     1
 75
     0
 76
     0
 77
     0
 78
     0
281
     0
 65
     0
110
0.0
120
0.0
130
0.0
111
1.0
121
0.0
131
0.0
112
0.0
122
1.0
132
0.0
345
0
346
0
 79
     0
146
0.0
  0
ENDTAB
  0
TABLE
  2
LTYPE
  5
4
100
AcDbSymbolTable
 70
     3
  0
LTYPE
  5
11
100
AcDbSymbolTableRecord
100
AcDbLinetypeTableRecord
  2
ByBlock
 70
    64
  3

 72
    65
 73
     0
 40
0.0
  0
LTYPE
  5
12
100
AcDbSymbolTableRecord
100
AcDbLinetypeTableRecord
  2
ByLayer
 70
    64
  3

 72
    65
 73
     0
 40
0.0
  0
LTYPE
  5
13
100
AcDbSymbolTableRecord
100
AcDbLinetypeTableRecord
  2
Continuous
 70
    64
  3
Solid line
 72
    65
 73
     0
 40
0.0
  0
ENDTAB
  0
TABLE
  2
LAYER
  5
2
100
AcDbSymbolTable
 70
     1
  0
LAYER
  5
14
100
AcDbSymbolTableRecord
100
AcDbLayerTableRecord
  2
0
 70
     0
 62
     7
  6
Continuous
290
     1
370
    -3
390
1D
  0
ENDTAB
  0
TABLE
  2
STYLE
  5
3
100
AcDbSymbolTable
 70
     1
  0
STYLE
  5
17
100
AcDbSymbolTableRecord
100
AcDbTextStyleTableRecord
  2
Standard
 70
     0
 40
0.0
 41
1.0
 50
0.0
 71
     0
 42
0.0
  3
FG教科書体NT-M
  4

1001
ACAD
1000
FG教科書体NT-M
1071
        0
  0
ENDTAB
  0
TABLE
  2
VIEW
  5
5
100
AcDbSymbolTable
 70
     0
  0
ENDTAB
  0
TABLE
  2
UCS
  5
6
100
AcDbSymbolTable
 70
     0
  0
ENDTAB
  0
TABLE
  2
APPID
  5
8
100
AcDbSymbolTable
 70
     2
  0
APPID
  5
16
100
AcDbSymbolTableRecord
100
AcDbRegAppTableRecord
  2
ACAD
 70
     0
  0
APPID
  5
26
100
AcDbSymbolTableRecord
100
AcDbRegAppTableRecord
  2
TOPsolid_Design
 70
     0
  0
ENDTAB
  0
TABLE
  2
DIMSTYLE
  5
9
100
AcDbSymbolTable
 70
     1
100
AcDbDimStyleTable
 71
     0
  0
DIMSTYLE
105
18
100
AcDbSymbolTableRecord
100
AcDbDimStyleTableRecord
  2
Standard
 70
     0
  3

  4

 40
1.0
 41
1.40208
 42
1.40208
 43
0.38
 44
1.05156
 45
0.0
 46
0.0
 47
0.0
 48
0.0
 71
     0
 72
     0
 73
     0
 74
     0
 75
     0
 76
     0
 77
     1
 78
     0
 79
     0
140
3.5052
141
0.09
142
0.0
143
25.4
144
1.0
145
0.0
146
0.5
147
1.7526
148
0.0
170
     0
171
     2
172
     0
173
     0
174
     0
175
     0
176
     7
177
     7
178
     7
179
     0
271
     2
272
     4
273
     2
274
     2
275
     0
276
     0
277
     2
278
    46
279
     0
280
     0
281
     0
282
     0
283
     1
284
     0
285
     0
286
     0
288
     0
289
     3
340
17
341
0
342
0
343
0
344
0
371
    -2
372
    -2
  0
ENDTAB
  0
TABLE
  2
BLOCK_RECORD
  5
1
100
AcDbSymbolTable
 70
     0
  0
BLOCK_RECORD
  5
A
100
AcDbSymbolTableRecord
100
AcDbBlockTableRecord
  2
*MODEL_SPACE
340
20
  0
BLOCK_RECORD
  5
B
100
AcDbSymbolTableRecord
100
AcDbBlockTableRecord
  2
*PAPER_SPACE
340
21
  0
ENDTAB
  0
ENDSEC
  0
SECTION
  2
BLOCKS
  0
BLOCK
  5
D
100
AcDbEntity
  8
0
390
0
100
AcDbBlockBegin
  2
*MODEL_SPACE
 70
     0
 10
0.0
 20
0.0
 30
0.0
  3
*MODEL_SPACE
  1

  0
ENDBLK
  5
E
100
AcDbEntity
  8
0
390
0
100
AcDbBlockEnd
  0
BLOCK
  5
F
100
AcDbEntity
 67
     1
  8
0
390
0
100
AcDbBlockBegin
  2
*PAPER_SPACE
 70
     0
 10
0.0
 20
0.0
 30
0.0
  3
*PAPER_SPACE
  1

  0
ENDBLK
  5
10
100
AcDbEntity
 67
     1
  8
0
390
0
100
AcDbBlockEnd
  0
ENDSEC
  0
SECTION
  2
ENTITIES
  0
LINE
  5
27
100
AcDbEntity
  8
0
390
0
  6
Continuous
 62
     7
100
AcDbLine
 10
-43.901036
 20
24.768057
 30
0.0
 11
-43.901036
 21
35.727208
 31
0.0
  0
LINE
  5
28
100
AcDbEntity
  8
0
390
0
  6
Continuous
 62
     7
100
AcDbLine
 10
-43.901036
 20
24.768057
 30
0.0
 11
-43.906036
 21
24.76808
 31
0.0
  0
POLYLINE
  5
29
100
AcDbEntity
  8
0
390
0
  6
Continuous
 62
     7
100
AcDb2dPolyline
 66
     1
 10
0.0
 20
0.0
 30
0.0
 40
0.1
 41
0.1
  0
VERTEX
  5
2A
100
AcDbEntity
  8
0
390
0
 62
     7
100
AcDbVertex
100
AcDb2dVertex
 10
-43.906036
 20
24.76808
 30
0.0
 42
-0.092672
  0
VERTEX
  5
2B
100
AcDbEntity
  8
0
390
0
 62
     7
100
AcDbVertex
100
AcDb2dVertex
 10
-44.706647
 20
24.905926
 30
0.0
  0
VERTEX
  5
2C
100
AcDbEntity
  8
0
390
0
 62
     7
100
AcDbVertex
100
AcDb2dVertex
 10
-44.811119
 20
24.968833
 30
0.0
  0
VERTEX
  5
2D
100
AcDbEntity
  8
0
390
0
 62
     7
100
AcDbVertex
100
AcDb2dVertex
 10
-44.879196
 20
25.051856
 30
0.0
  0
VERTEX
  5
2E
100
AcDbEntity
  8
0
390
0
 62
     7
100
AcDbVertex
100
AcDb2dVertex
 10
-44.899665
 20
25.154705
 30
0.0
  0
SEQEND
  5
2F
100
AcDbEntity
  8
0
390
0
  0
LINE
  5
30
100
AcDbEntity
  8
0
390
0
  6
Continuous
 62
     7
100
AcDbLine
 10
-44.899665
 20
25.154705
 30
0.0
 11
-44.899665
 21
34.779544
 31
0.0
  0
LINE
  5
31
100
AcDbEntity
  8
0
390
0
  6
Continuous
 62
     7
100
AcDbLine
 10
-33.641036
 20
24.768057
 30
0.0
 11
-33.641036
 21
35.727208
 31
0.0
  0
LINE
  5
32
100
AcDbEntity
  8
0
390
0
  6
Continuous
 62
     7
100
AcDbLine
 10
-33.641036
 20
24.768057
 30
0.0
 11
-33.646036
 21
24.76808
 31
0.0
  0
POLYLINE
  5
33
100
AcDbEntity
  8
0
390
0
  6
Continuous
 62
     7
100
AcDb2dPolyline
 66
     1
 10
0.0
 20
0.0
 30
0.0
 40
0.1
 41
0.1
  0
VERTEX
  5
34
100
AcDbEntity
  8
0
390
0
 62
     7
100
AcDbVertex
100
AcDb2dVertex
 10
-33.646036
 20
24.76808
 30
0.0
 42
-0.092672
  0
VERTEX
  5
35
100
AcDbEntity
  8
0
390
0
 62
     7
100
AcDbVertex
100
AcDb2dVertex
 10
-34.446647
 20
24.905926
 30
0.0
  0
VERTEX
  5
36
100
AcDbEntity
  8
0
390
0
 62
     7
100
AcDbVertex
100
AcDb2dVertex
 10
-34.551119
 20
24.968833
 30
0.0
  0
VERTEX
  5
37
100
AcDbEntity
  8
0
390
0
 62
     7
100
AcDbVertex
100
AcDb2dVertex
 10
-34.619196
 20
25.051856
 30
0.0
  0
VERTEX
  5
38
100
AcDbEntity
  8
0
390
0
 62
     7
100
AcDbVertex
100
AcDb2dVertex
 10
-34.639665
 20
25.154705
 30
0.0
  0
SEQEND
  5
39
100
AcDbEntity
  8
0
390
0
  0
LINE
  5
3A
100
AcDbEntity
  8
0
390
0
  6
Continuous
 62
     7
100
AcDbLine
 10
-34.639665
 20
25.154705
 30
0.0
 11
-34.639665
 21
34.779544
 31
0.0
  0
LINE
  5
3B
100
AcDbEntity
  8
0
390
0
  6
Continuous
 62
     7
100
AcDbLine
 10
-33.038965
 20
24.768039
 30
0.0
 11
-33.038965
 21
35.727208
 31
0.0
  0
LINE
  5
3C
100
AcDbEntity
  8
0
390
0
  6
Continuous
 62
     7
100
AcDbLine
 10
-33.038965
 20
24.768039
 30
0.0
 11
-33.043965
 21
24.768057
 31
0.0
  0
LINE
  5
3D
100
AcDbEntity
  8
0
390
0
  6
Continuous
 62
     7
100
AcDbLine
 10
-33.043965
 20
24.768057
 30
0.0
 11
-33.641036
 21
24.768057
 31
0.0
  0
LINE
  5
3E
100
AcDbEntity
  8
0
390
0
  6
Continuous
 62
     7
100
AcDbLine
 10
-49.031036
 20
24.768057
 30
0.0
 11
-49.031036
 21
35.727208
 31
0.0
  0
LINE
  5
3F
100
AcDbEntity
  8
0
390
0
  6
Continuous
 62
     7
100
AcDbLine
 10
-49.031036
 20
24.768057
 30
0.0
 11
-49.036036
 21
24.76808
 31
0.0
  0
POLYLINE
  5
40
100
AcDbEntity
  8
0
390
0
  6
Continuous
 62
     7
100
AcDb2dPolyline
 66
     1
 10
0.0
 20
0.0
 30
0.0
 40
0.1
 41
0.1
  0
VERTEX
  5
41
100
AcDbEntity
  8
0
390
0
 62
     7
100
AcDbVertex
100
AcDb2dVertex
 10
-49.036036
 20
24.76808
 30
0.0
 42
-0.092672
  0
VERTEX
  5
42
100
AcDbEntity
  8
0
390
0
 62
     7
100
AcDbVertex
100
AcDb2dVertex
 10
-49.836647
 20
24.905926
 30
0.0
  0
VERTEX
  5
43
100
AcDbEntity
  8
0
390
0
 62
     7
100
AcDbVertex
100
AcDb2dVertex
 10
-49.941119
 20
24.968833
 30
0.0
  0
VERTEX
  5
44
100
AcDbEntity
  8
0
390
0
 62
     7
100
AcDbVertex
100
AcDb2dVertex
 10
-50.009196
 20
25.051856
 30
0.0
  0
VERTEX
  5
45
100
AcDbEntity
  8
0
390
0
 62
     7
100
AcDbVertex
100
AcDb2dVertex
 10
-50.029665
 20
25.154705
 30
0.0
  0
SEQEND
  5
46
100
AcDbEntity
  8
0
390
0
  0
LINE
  5
47
100
AcDbEntity
  8
0
390
0
  6
Continuous
 62
     7
100
AcDbLine
 10
-50.029665
 20
25.154705
 30
0.0
 11
-50.029665
 21
34.779544
 31
0.0
  0
LINE
  5
48
100
AcDbEntity
  8
0
390
0
  6
Continuous
 62
     7
100
AcDbLine
 10
-48.428965
 20
24.768039
 30
0.0
 11
-48.428965
 21
35.727208
 31
0.0
  0
LINE
  5
49
100
AcDbEntity
  8
0
390
0
  6
Continuous
 62
     7
100
AcDbLine
 10
-48.428965
 20
24.768039
 30
0.0
 11
-48.433965
 21
24.768057
 31
0.0
  0
LINE
  5
4A
100
AcDbEntity
  8
0
390
0
  6
Continuous
 62
     7
100
AcDbLine
 10
-48.433965
 20
24.768057
 30
0.0
 11
-49.031036
 21
24.768057
 31
0.0
  0
LINE
  5
4B
100
AcDbEntity
  8
0
390
0
  6
Continuous
 62
     7
100
AcDbLine
 10
-47.430335
 20
24.9509
 30
0.0
 11
-47.430335
 21
34.779544
 31
0.0
  0
LINE
  5
4C
100
AcDbEntity
  8
0
390
0
  6
Continuous
 62
     7
100
AcDbLine
 10
-47.430335
 20
24.9509
 30
0.0
 11
-47.435335
 21
24.97445
 31
0.0
  0
POLYLINE
  5
4D
100
AcDbEntity
  8
0
390
0
  6
Continuous
 62
     7
100
AcDb2dPolyline
 66
     1
 10
0.0
 20
0.0
 30
0.0
 40
0.1
 41
0.1
  0
VERTEX
  5
4E
100
AcDbEntity
  8
0
390
0
 62
     7
100
AcDbVertex
100
AcDb2dVertex
 10
-47.435335
 20
24.97445
 30
0.0
  0
VERTEX
  5
4F
100
AcDbEntity
  8
0
390
0
 62
     7
100
AcDbVertex
100
AcDb2dVertex
 10
-47.54294
 20
24.924612
 30
0.0
  0
VERTEX
  5
50
100
AcDbEntity
  8
0
390
0
 62
     7
100
AcDbVertex
100
AcDb2dVertex
 10
-47.645179
 20
24.878399
 30
0.0
 42
-0.086546
  0
VERTEX
  5
51
100
AcDbEntity
  8
0
390
0
 62
     7
100
AcDbVertex
100
AcDb2dVertex
 10
-48.428965
 20
24.768039
 30
0.0
  0
SEQEND
  5
52
100
AcDbEntity
  8
0
390
0
  0
LINE
  5
53
100
AcDbEntity
  8
0
390
0
  6
Continuous
 62
     7
100
AcDbLine
 10
-28.511036
 20
24.768057
 30
0.0
 11
-28.511036
 21
35.727208
 31
0.0
  0
LINE
  5
54
100
AcDbEntity
  8
0
390
0
  6
Continuous
 62
     7
100
AcDbLine
 10
-28.511036
 20
24.768057
 30
0.0
 11
-28.516036
 21
24.76808
 31
0.0
  0
POLYLINE
  5
55
100
AcDbEntity
  8
0
390
0
  6
Continuous
 62
     7
100
AcDb2dPolyline
 66
     1
 10
0.0
 20
0.0
 30
0.0
 40
0.1
 41
0.1
  0
VERTEX
  5
56
100
AcDbEntity
  8
0
390
0
 62
     7
100
AcDbVertex
100
AcDb2dVertex
 10
-28.516036
 20
24.76808
 30
0.0
 42
-0.092672
  0
VERTEX
  5
57
100
AcDbEntity
  8
0
390
0
 62
     7
100
AcDbVertex
100
AcDb2dVertex
 10
-29.316647
 20
24.905926
 30
0.0
  0
VERTEX
  5
58
100
AcDbEntity
  8
0
390
0
 62
     7
100
AcDbVertex
100
AcDb2dVertex
 10
-29.421119
 20
24.968833
 30
0.0
  0
VERTEX
  5
59
100
AcDbEntity
  8
0
390
0
 62
     7
100
AcDbVertex
100
AcDb2dVertex
 10
-29.489196
 20
25.051856
 30
0.0
  0
VERTEX
  5
5A
100
AcDbEntity
  8
0
390
0
 62
     7
100
AcDbVertex
100
AcDb2dVertex
 10
-29.509665
 20
25.154705
 30
0.0
  0
SEQEND
  5
5B
100
AcDbEntity
  8
0
390
0
  0
LINE
  5
5C
100
AcDbEntity
  8
0
390
0
  6
Continuous
 62
     7
100
AcDbLine
 10
-29.509665
 20
25.154705
 30
0.0
 11
-29.509665
 21
34.779544
 31
0.0
  0
LINE
  5
5D
100
AcDbEntity
  8
0
390
0
  6
Continuous
 62
     7
100
AcDbLine
 10
-27.908965
 20
24.768039
 30
0.0
 11
-27.908965
 21
35.727208
 31
0.0
  0
LINE
  5
5E
100
AcDbEntity
  8
0
390
0
  6
Continuous
 62
     7
100
AcDbLine
 10
-27.908965
 20
24.768039
 30
0.0
 11
-27.913965
 21
24.768057
 31
0.0
  0
LINE
  5
5F
100
AcDbEntity
  8
0
390
0
  6
Continuous
 62
     7
100
AcDbLine
 10
-27.913965
 20
24.768057
 30
0.0
 11
-28.511036
 21
24.768057
 31
0.0
  0
LINE
  5
60
100
AcDbEntity
  8
0
390
0
  6
Continuous
 62
     7
100
AcDbLine
 10
-32.040335
 20
24.9509
 30
0.0
 11
-32.040335
 21
34.779544
 31
0.0
  0
LINE
  5
61
100
AcDbEntity
  8
0
390
0
  6
Continuous
 62
     7
100
AcDbLine
 10
-32.040335
 20
24.9509
 30
0.0
 11
-32.045335
 21
24.97445
 31
0.0
  0
POLYLINE
  5
62
100
AcDbEntity
  8
0
390
0
  6
Continuous
 62
     7
100
AcDb2dPolyline
 66
     1
 10
0.0
 20
0.0
 30
0.0
 40
0.1
 41
0.1
  0
VERTEX
  5
63
100
AcDbEntity
  8
0
390
0
 62
     7
100
AcDbVertex
100
AcDb2dVertex
 10
-32.045335
 20
24.97445
 30
0.0
  0
VERTEX
  5
64
100
AcDbEntity
  8
0
390
0
 62
     7
100
AcDbVertex
100
AcDb2dVertex
 10
-32.15294
 20
24.924612
 30
0.0
  0
VERTEX
  5
65
100
AcDbEntity
  8
0
390
0
 62
     7
100
AcDbVertex
100
AcDb2dVertex
 10
-32.255179
 20
24.878399
 30
0.0
 42
-0.086546
  0
VERTEX
  5
66
100
AcDbEntity
  8
0
390
0
 62
     7
100
AcDbVertex
100
AcDb2dVertex
 10
-33.038965
 20
24.768039
 30
0.0
  0
SEQEND
  5
67
100
AcDbEntity
  8
0
390
0
  0
LINE
  5
68
100
AcDbEntity
  8
0
390
0
  6
Continuous
 62
     7
100
AcDbLine
 10
-43.298965
 20
24.768039
 30
0.0
 11
-43.298965
 21
35.727208
 31
0.0
  0
LINE
  5
69
100
AcDbEntity
  8
0
390
0
  6
Continuous
 62
     7
100
AcDbLine
 10
-43.298965
 20
24.768039
 30
0.0
 11
-43.303965
 21
24.768057
 31
0.0
  0
LINE
  5
6A
100
AcDbEntity
  8
0
390
0
  6
Continuous
 62
     7
100
AcDbLine
 10
-43.303965
 20
24.768057
 30
0.0
 11
-43.901036
 21
24.768057
 31
0.0
  0
LINE
  5
6B
100
AcDbEntity
  8
0
390
0
  6
Continuous
 62
     7
100
AcDbLine
 10
-42.300335
 20
24.9509
 30
0.0
 11
-42.300335
 21
34.779544
 31
0.0
  0
LINE
  5
6C
100
AcDbEntity
  8
0
390
0
  6
Continuous
 62
     7
100
AcDbLine
 10
-42.300335
 20
24.9509
 30
0.0
 11
-42.305335
 21
24.97445
 31
0.0
  0
POLYLINE
  5
6D
100
AcDbEntity
  8
0
390
0
  6
Continuous
 62
     7
100
AcDb2dPolyline
 66
     1
 10
0.0
 20
0.0
 30
0.0
 40
0.1
 41
0.1
  0
VERTEX
  5
6E
100
AcDbEntity
  8
0
390
0
 62
     7
100
AcDbVertex
100
AcDb2dVertex
 10
-42.305335
 20
24.97445
 30
0.0
  0
VERTEX
  5
6F
100
AcDbEntity
  8
0
390
0
 62
     7
100
AcDbVertex
100
AcDb2dVertex
 10
-42.41294
 20
24.924612
 30
0.0
  0
VERTEX
  5
70
100
AcDbEntity
  8
0
390
0
 62
     7
100
AcDbVertex
100
AcDb2dVertex
 10
-42.515179
 20
24.878399
 30
0.0
 42
-0.086546
  0
VERTEX
  5
71
100
AcDbEntity
  8
0
390
0
 62
     7
100
AcDbVertex
100
AcDb2dVertex
 10
-43.298965
 20
24.768039
 30
0.0
  0
SEQEND
  5
72
100
AcDbEntity
  8
0
390
0
  0
LINE
  5
73
100
AcDbEntity
  8
0
390
0
  6
Continuous
 62
     7
100
AcDbLine
 10
-37.170335
 20
24.9509
 30
0.0
 11
-37.170335
 21
34.779544
 31
0.0
  0
LINE
  5
74
100
AcDbEntity
  8
0
390
0
  6
Continuous
 62
     7
100
AcDbLine
 10
-37.170335
 20
24.9509
 30
0.0
 11
-37.175335
 21
24.97445
 31
0.0
  0
POLYLINE
  5
75
100
AcDbEntity
  8
0
390
0
  6
Continuous
 62
     7
100
AcDb2dPolyline
 66
     1
 10
0.0
 20
0.0
 30
0.0
 40
0.1
 41
0.1
  0
VERTEX
  5
76
100
AcDbEntity
  8
0
390
0
 62
     7
100
AcDbVertex
100
AcDb2dVertex
 10
-37.175335
 20
24.97445
 30
0.0
  0
VERTEX
  5
77
100
AcDbEntity
  8
0
390
0
 62
     7
100
AcDbVertex
100
AcDb2dVertex
 10
-37.28294
 20
24.924612
 30
0.0
  0
VERTEX
  5
78
100
AcDbEntity
  8
0
390
0
 62
     7
100
AcDbVertex
100
AcDb2dVertex
 10
-37.385179
 20
24.878399
 30
0.0
 42
-0.086546
  0
VERTEX
  5
79
100
AcDbEntity
  8
0
390
0
 62
     7
100
AcDbVertex
100
AcDb2dVertex
 10
-38.168965
 20
24.768039
 30
0.0
  0
SEQEND
  5
7A
100
AcDbEntity
  8
0
390
0
  0
LINE
  5
7B
100
AcDbEntity
  8
0
390
0
  6
Continuous
 62
     7
100
AcDbLine
 10
-38.168965
 20
24.768039
 30
0.0
 11
-38.168965
 21
35.727208
 31
0.0
  0
LINE
  5
7C
100
AcDbEntity
  8
0
390
0
  6
Continuous
 62
     7
100
AcDbLine
 10
-38.168965
 20
24.768039
 30
0.0
 11
-38.173965
 21
24.768057
 31
0.0
  0
LINE
  5
7D
100
AcDbEntity
  8
0
390
0
  6
Continuous
 62
     7
100
AcDbLine
 10
-38.173965
 20
24.768057
 30
0.0
 11
-38.771036
 21
24.768057
 31
0.0
  0
LINE
  5
7E
100
AcDbEntity
  8
0
390
0
  6
Continuous
 62
     7
100
AcDbLine
 10
-38.771036
 20
24.768057
 30
0.0
 11
-38.771036
 21
35.727208
 31
0.0
  0
LINE
  5
7F
100
AcDbEntity
  8
0
390
0
  6
Continuous
 62
     7
100
AcDbLine
 10
-38.771036
 20
24.768057
 30
0.0
 11
-38.776036
 21
24.76808
 31
0.0
  0
POLYLINE
  5
80
100
AcDbEntity
  8
0
390
0
  6
Continuous
 62
     7
100
AcDb2dPolyline
 66
     1
 10
0.0
 20
0.0
 30
0.0
 40
0.1
 41
0.1
  0
VERTEX
  5
81
100
AcDbEntity
  8
0
390
0
 62
     7
100
AcDbVertex
100
AcDb2dVertex
 10
-38.776036
 20
24.76808
 30
0.0
 42
-0.092672
  0
VERTEX
  5
82
100
AcDbEntity
  8
0
390
0
 62
     7
100
AcDbVertex
100
AcDb2dVertex
 10
-39.576647
 20
24.905926
 30
0.0
  0
VERTEX
  5
83
100
AcDbEntity
  8
0
390
0
 62
     7
100
AcDbVertex
100
AcDb2dVertex
 10
-39.681119
 20
24.968833
 30
0.0
  0
VERTEX
  5
84
100
AcDbEntity
  8
0
390
0
 62
     7
100
AcDbVertex
100
AcDb2dVertex
 10
-39.749196
 20
25.051856
 30
0.0
  0
VERTEX
  5
85
100
AcDbEntity
  8
0
390
0
 62
     7
100
AcDbVertex
100
AcDb2dVertex
 10
-39.769665
 20
25.154705
 30
0.0
  0
SEQEND
  5
86
100
AcDbEntity
  8
0
390
0
  0
LINE
  5
87
100
AcDbEntity
  8
0
390
0
  6
Continuous
 62
     7
100
AcDbLine
 10
-39.769665
 20
25.154705
 30
0.0
 11
-39.769665
 21
34.779544
 31
0.0
  0
LINE
  5
88
100
AcDbEntity
  8
0
390
0
  6
Continuous
 62
     7
100
AcDbLine
 10
22.788964
 20
24.768057
 30
0.0
 11
22.788964
 21
35.727208
 31
0.0
  0
LINE
  5
89
100
AcDbEntity
  8
0
390
0
  6
Continuous
 62
     7
100
AcDbLine
 10
22.788964
 20
24.768057
 30
0.0
 11
22.783964
 21
24.76808
 31
0.0
  0
POLYLINE
  5
8A
100
AcDbEntity
  8
0
390
0
  6
Continuous
 62
     7
100
AcDb2dPolyline
 66
     1
 10
0.0
 20
0.0
 30
0.0
 40
0.1
 41
0.1
  0
VERTEX
  5
8B
100
AcDbEntity
  8
0
390
0
 62
     7
100
AcDbVertex
100
AcDb2dVertex
 10
22.783964
 20
24.76808
 30
0.0
 42
-0.092672
  0
VERTEX
  5
8C
100
AcDbEntity
  8
0
390
0
 62
     7
100
AcDbVertex
100
AcDb2dVertex
 10
21.983353
 20
24.905926
 30
0.0
  0
VERTEX
  5
8D
100
AcDbEntity
  8
0
390
0
 62
     7
100
AcDbVertex
100
AcDb2dVertex
 10
21.878881
 20
24.968833
 30
0.0
  0
VERTEX
  5
8E
100
AcDbEntity
  8
0
390
0
 62
     7
100
AcDbVertex
100
AcDb2dVertex
 10
21.810804
 20
25.051856
 30
0.0
  0
VERTEX
  5
8F
100
AcDbEntity
  8
0
390
0
 62
     7
100
AcDbVertex
100
AcDb2dVertex
 10
21.790335
 20
25.154705
 30
0.0
  0
SEQEND
  5
90
100
AcDbEntity
  8
0
390
0
  0
LINE
  5
91
100
AcDbEntity
  8
0
390
0
  6
Continuous
 62
     7
100
AcDbLine
 10
21.790335
 20
25.154705
 30
0.0
 11
21.790335
 21
34.779544
 31
0.0
  0
LINE
  5
92
100
AcDbEntity
  8
0
390
0
  6
Continuous
 62
     7
100
AcDbLine
 10
-23.381036
 20
24.768057
 30
0.0
 11
-23.381036
 21
35.727208
 31
0.0
  0
LINE
  5
93
100
AcDbEntity
  8
0
390
0
  6
Continuous
 62
     7
100
AcDbLine
 10
-23.381036
 20
24.768057
 30
0.0
 11
-23.386036
 21
24.76808
 31
0.0
  0
POLYLINE
  5
94
100
AcDbEntity
  8
0
390
0
  6
Continuous
 62
     7
100
AcDb2dPolyline
 66
     1
 10
0.0
 20
0.0
 30
0.0
 40
0.1
 41
0.1
  0
VERTEX
  5
95
100
AcDbEntity
  8
0
390
0
 62
     7
100
AcDbVertex
100
AcDb2dVertex
 10
-23.386036
 20
24.76808
 30
0.0
 42
-0.092672
  0
VERTEX
  5
96
100
AcDbEntity
  8
0
390
0
 62
     7
100
AcDbVertex
100
AcDb2dVertex
 10
-24.186647
 20
24.905926
 30
0.0
  0
VERTEX
  5
97
100
AcDbEntity
  8
0
390
0
 62
     7
100
AcDbVertex
100
AcDb2dVertex
 10
-24.291119
 20
24.968833
 30
0.0
  0
VERTEX
  5
98
100
AcDbEntity
  8
0
390
0
 62
     7
100
AcDbVertex
100
AcDb2dVertex
 10
-24.359196
 20
25.051856
 30
0.0
  0
VERTEX
  5
99
100
AcDbEntity
  8
0
390
0
 62
     7
100
AcDbVertex
100
AcDb2dVertex
 10
-24.379665
 20
25.154705
 30
0.0
  0
SEQEND
  5
9A
100
AcDbEntity
  8
0
390
0
  0
LINE
  5
9B
100
AcDbEntity
  8
0
390
0
  6
Continuous
 62
     7
100
AcDbLine
 10
-24.379665
 20
25.154705
 30
0.0
 11
-24.379665
 21
34.779544
 31
0.0
  0
LINE
  5
9C
100
AcDbEntity
  8
0
390
0
  6
Continuous
 62
     7
100
AcDbLine
 10
-18.251036
 20
23.182548
 30
0.0
 11
-18.251036
 21
35.727208
 31
0.0
  0
POLYLINE
  5
9D
100
AcDbEntity
  8
0
390
0
  6
Continuous
 62
     7
100
AcDb2dPolyline
 66
     1
 10
0.0
 20
0.0
 30
0.0
 40
0.1
 41
0.1
  0
VERTEX
  5
9E
100
AcDbEntity
  8
0
390
0
 62
     7
100
AcDbVertex
100
AcDb2dVertex
 10
-18.251036
 20
23.182548
 30
0.0
  0
VERTEX
  5
9F
100
AcDbEntity
  8
0
390
0
 62
     7
100
AcDbVertex
100
AcDb2dVertex
 10
-18.368565
 20
23.191301
 30
0.0
  0
VERTEX
  5
A0
100
AcDbEntity
  8
0
390
0
 62
     7
100
AcDbVertex
100
AcDb2dVertex
 10
-18.475812
 20
23.21489
 30
0.0
  0
VERTEX
  5
A1
100
AcDbEntity
  8
0
390
0
 62
     7
100
AcDbVertex
100
AcDb2dVertex
 10
-18.581263
 20
23.253542
 30
0.0
  0
VERTEX
  5
A2
100
AcDbEntity
  8
0
390
0
 62
     7
100
AcDbVertex
100
AcDb2dVertex
 10
-18.680978
 20
23.305707
 30
0.0
  0
VERTEX
  5
A3
100
AcDbEntity
  8
0
390
0
 62
     7
100
AcDbVertex
100
AcDb2dVertex
 10
-18.771523
 20
23.368218
 30
0.0
  0
VERTEX
  5
A4
100
AcDbEntity
  8
0
390
0
 62
     7
100
AcDbVertex
100
AcDb2dVertex
 10
-18.856138
 20
23.442241
 30
0.0
  0
VERTEX
  5
A5
100
AcDbEntity
  8
0
390
0
 62
     7
100
AcDbVertex
100
AcDb2dVertex
 10
-18.947281
 20
23.543373
 30
0.0
 42
-0.157574
  0
VERTEX
  5
A6
100
AcDbEntity
  8
0
390
0
 62
     7
100
AcDbVertex
100
AcDb2dVertex
 10
-19.249665
 20
24.440715
 30
0.0
  0
SEQEND
  5
A7
100
AcDbEntity
  8
0
390
0
  0
LINE
  5
A8
100
AcDbEntity
  8
0
390
0
  6
Continuous
 62
     7
100
AcDbLine
 10
-19.249665
 20
24.440715
 30
0.0
 11
-19.249665
 21
34.779544
 31
0.0
  0
LINE
  5
A9
100
AcDbEntity
  8
0
390
0
  6
Continuous
 62
     7
100
AcDbLine
 10
-17.648965
 20
23.182548
 30
0.0
 11
-17.648965
 21
35.727208
 31
0.0
  0
LINE
  5
AA
100
AcDbEntity
  8
0
390
0
  6
Continuous
 62
     7
100
AcDbLine
 10
-17.648965
 20
23.182548
 30
0.0
 11
-18.251036
 21
23.182548
 31
0.0
  0
LINE
  5
AB
100
AcDbEntity
  8
0
390
0
  6
Continuous
 62
     7
100
AcDbLine
 10
23.391035
 20
24.768039
 30
0.0
 11
23.391035
 21
35.727208
 31
0.0
  0
LINE
  5
AC
100
AcDbEntity
  8
0
390
0
  6
Continuous
 62
     7
100
AcDbLine
 10
23.391035
 20
24.768039
 30
0.0
 11
23.386035
 21
24.768057
 31
0.0
  0
LINE
  5
AD
100
AcDbEntity
  8
0
390
0
  6
Continuous
 62
     7
100
AcDbLine
 10
23.386035
 20
24.768057
 30
0.0
 11
22.788964
 21
24.768057
 31
0.0
  0
LINE
  5
AE
100
AcDbEntity
  8
0
390
0
  6
Continuous
 62
     7
100
AcDbLine
 10
24.389665
 20
24.9509
 30
0.0
 11
24.389665
 21
34.779544
 31
0.0
  0
LINE
  5
AF
100
AcDbEntity
  8
0
390
0
  6
Continuous
 62
     7
100
AcDbLine
 10
24.389665
 20
24.9509
 30
0.0
 11
24.384665
 21
24.97445
 31
0.0
  0
POLYLINE
  5
B0
100
AcDbEntity
  8
0
390
0
  6
Continuous
 62
     7
100
AcDb2dPolyline
 66
     1
 10
0.0
 20
0.0
 30
0.0
 40
0.1
 41
0.1
  0
VERTEX
  5
B1
100
AcDbEntity
  8
0
390
0
 62
     7
100
AcDbVertex
100
AcDb2dVertex
 10
24.384665
 20
24.97445
 30
0.0
  0
VERTEX
  5
B2
100
AcDbEntity
  8
0
390
0
 62
     7
100
AcDbVertex
100
AcDb2dVertex
 10
24.27706
 20
24.924612
 30
0.0
  0
VERTEX
  5
B3
100
AcDbEntity
  8
0
390
0
 62
     7
100
AcDbVertex
100
AcDb2dVertex
 10
24.174821
 20
24.878399
 30
0.0
 42
-0.086546
  0
VERTEX
  5
B4
100
AcDbEntity
  8
0
390
0
 62
     7
100
AcDbVertex
100
AcDb2dVertex
 10
23.391035
 20
24.768039
 30
0.0
  0
SEQEND
  5
B5
100
AcDbEntity
  8
0
390
0
  0
LINE
  5
B6
100
AcDbEntity
  8
0
390
0
  6
Continuous
 62
     7
100
AcDbLine
 10
17.658964
 20
23.182548
 30
0.0
 11
17.658964
 21
35.727208
 31
0.0
  0
POLYLINE
  5
B7
100
AcDbEntity
  8
0
390
0
  6
Continuous
 62
     7
100
AcDb2dPolyline
 66
     1
 10
0.0
 20
0.0
 30
0.0
 40
0.1
 41
0.1
  0
VERTEX
  5
B8
100
AcDbEntity
  8
0
390
0
 62
     7
100
AcDbVertex
100
AcDb2dVertex
 10
17.658964
 20
23.182548
 30
0.0
  0
VERTEX
  5
B9
100
AcDbEntity
  8
0
390
0
 62
     7
100
AcDbVertex
100
AcDb2dVertex
 10
17.541435
 20
23.191301
 30
0.0
  0
VERTEX
  5
BA
100
AcDbEntity
  8
0
390
0
 62
     7
100
AcDbVertex
100
AcDb2dVertex
 10
17.434188
 20
23.21489
 30
0.0
  0
VERTEX
  5
BB
100
AcDbEntity
  8
0
390
0
 62
     7
100
AcDbVertex
100
AcDb2dVertex
 10
17.328737
 20
23.253542
 30
0.0
  0
VERTEX
  5
BC
100
AcDbEntity
  8
0
390
0
 62
     7
100
AcDbVertex
100
AcDb2dVertex
 10
17.229022
 20
23.305707
 30
0.0
  0
VERTEX
  5
BD
100
AcDbEntity
  8
0
390
0
 62
     7
100
AcDbVertex
100
AcDb2dVertex
 10
17.138477
 20
23.368218
 30
0.0
  0
VERTEX
  5
BE
100
AcDbEntity
  8
0
390
0
 62
     7
100
AcDbVertex
100
AcDb2dVertex
 10
17.053862
 20
23.442241
 30
0.0
  0
VERTEX
  5
BF
100
AcDbEntity
  8
0
390
0
 62
     7
100
AcDbVertex
100
AcDb2dVertex
 10
16.962719
 20
23.543373
 30
0.0
 42
-0.157574
  0
VERTEX
  5
C0
100
AcDbEntity
  8
0
390
0
 62
     7
100
AcDbVertex
100
AcDb2dVertex
 10
16.660335
 20
24.440715
 30
0.0
  0
SEQEND
  5
C1
100
AcDbEntity
  8
0
390
0
  0
LINE
  5
C2
100
AcDbEntity
  8
0
390
0
  6
Continuous
 62
     7
100
AcDbLine
 10
16.660335
 20
24.440715
 30
0.0
 11
16.660335
 21
34.779544
 31
0.0
  0
LINE
  5
C3
100
AcDbEntity
  8
0
390
0
  6
Continuous
 62
     7
100
AcDbLine
 10
-22.778965
 20
24.768039
 30
0.0
 11
-22.778965
 21
35.727208
 31
0.0
  0
LINE
  5
C4
100
AcDbEntity
  8
0
390
0
  6
Continuous
 62
     7
100
AcDbLine
 10
-22.778965
 20
24.768039
 30
0.0
 11
-22.783965
 21
24.768057
 31
0.0
  0
LINE
  5
C5
100
AcDbEntity
  8
0
390
0
  6
Continuous
 62
     7
100
AcDbLine
 10
-22.783965
 20
24.768057
 30
0.0
 11
-23.381036
 21
24.768057
 31
0.0
  0
LINE
  5
C6
100
AcDbEntity
  8
0
390
0
  6
Continuous
 62
     7
100
AcDbLine
 10
27.918964
 20
24.768057
 30
0.0
 11
27.918964
 21
35.727208
 31
0.0
  0
LINE
  5
C7
100
AcDbEntity
  8
0
390
0
  6
Continuous
 62
     7
100
AcDbLine
 10
27.918964
 20
24.768057
 30
0.0
 11
27.913964
 21
24.76808
 31
0.0
  0
POLYLINE
  5
C8
100
AcDbEntity
  8
0
390
0
  6
Continuous
 62
     7
100
AcDb2dPolyline
 66
     1
 10
0.0
 20
0.0
 30
0.0
 40
0.1
 41
0.1
  0
VERTEX
  5
C9
100
AcDbEntity
  8
0
390
0
 62
     7
100
AcDbVertex
100
AcDb2dVertex
 10
27.913964
 20
24.76808
 30
0.0
 42
-0.092672
  0
VERTEX
  5
CA
100
AcDbEntity
  8
0
390
0
 62
     7
100
AcDbVertex
100
AcDb2dVertex
 10
27.113353
 20
24.905926
 30
0.0
  0
VERTEX
  5
CB
100
AcDbEntity
  8
0
390
0
 62
     7
100
AcDbVertex
100
AcDb2dVertex
 10
27.008881
 20
24.968833
 30
0.0
  0
VERTEX
  5
CC
100
AcDbEntity
  8
0
390
0
 62
     7
100
AcDbVertex
100
AcDb2dVertex
 10
26.940804
 20
25.051856
 30
0.0
  0
VERTEX
  5
CD
100
AcDbEntity
  8
0
390
0
 62
     7
100
AcDbVertex
100
AcDb2dVertex
 10
26.920335
 20
25.154705
 30
0.0
  0
SEQEND
  5
CE
100
AcDbEntity
  8
0
390
0
  0
LINE
  5
CF
100
AcDbEntity
  8
0
390
0
  6
Continuous
 62
     7
100
AcDbLine
 10
26.920335
 20
25.154705
 30
0.0
 11
26.920335
 21
34.779544
 31
0.0
  0
LINE
  5
D0
100
AcDbEntity
  8
0
390
0
  6
Continuous
 62
     7
100
AcDbLine
 10
28.521035
 20
24.768039
 30
0.0
 11
28.521035
 21
35.727208
 31
0.0
  0
LINE
  5
D1
100
AcDbEntity
  8
0
390
0
  6
Continuous
 62
     7
100
AcDbLine
 10
28.521035
 20
24.768039
 30
0.0
 11
28.516035
 21
24.768057
 31
0.0
  0
LINE
  5
D2
100
AcDbEntity
  8
0
390
0
  6
Continuous
 62
     7
100
AcDbLine
 10
28.516035
 20
24.768057
 30
0.0
 11
27.918964
 21
24.768057
 31
0.0
  0
LINE
  5
D3
100
AcDbEntity
  8
0
390
0
  6
Continuous
 62
     7
100
AcDbLine
 10
18.261035
 20
23.182548
 30
0.0
 11
18.261035
 21
35.727208
 31
0.0
  0
LINE
  5
D4
100
AcDbEntity
  8
0
390
0
  6
Continuous
 62
     7
100
AcDbLine
 10
18.261035
 20
23.182548
 30
0.0
 11
17.658964
 21
23.182548
 31
0.0
  0
LINE
  5
D5
100
AcDbEntity
  8
0
390
0
  6
Continuous
 62
     7
100
AcDbLine
 10
-26.910335
 20
24.9509
 30
0.0
 11
-26.910335
 21
34.779544
 31
0.0
  0
LINE
  5
D6
100
AcDbEntity
  8
0
390
0
  6
Continuous
 62
     7
100
AcDbLine
 10
-26.910335
 20
24.9509
 30
0.0
 11
-26.915335
 21
24.97445
 31
0.0
  0
POLYLINE
  5
D7
100
AcDbEntity
  8
0
390
0
  6
Continuous
 62
     7
100
AcDb2dPolyline
 66
     1
 10
0.0
 20
0.0
 30
0.0
 40
0.1
 41
0.1
  0
VERTEX
  5
D8
100
AcDbEntity
  8
0
390
0
 62
     7
100
AcDbVertex
100
AcDb2dVertex
 10
-26.915335
 20
24.97445
 30
0.0
  0
VERTEX
  5
D9
100
AcDbEntity
  8
0
390
0
 62
     7
100
AcDbVertex
100
AcDb2dVertex
 10
-27.02294
 20
24.924612
 30
0.0
  0
VERTEX
  5
DA
100
AcDbEntity
  8
0
390
0
 62
     7
100
AcDbVertex
100
AcDb2dVertex
 10
-27.125179
 20
24.878399
 30
0.0
 42
-0.086546
  0
VERTEX
  5
DB
100
AcDbEntity
  8
0
390
0
 62
     7
100
AcDbVertex
100
AcDb2dVertex
 10
-27.908965
 20
24.768039
 30
0.0
  0
SEQEND
  5
DC
100
AcDbEntity
  8
0
390
0
  0
LINE
  5
DD
100
AcDbEntity
  8
0
390
0
  6
Continuous
 62
     7
100
AcDbLine
 10
-16.650335
 20
24.440715
 30
0.0
 11
-16.650335
 21
34.779544
 31
0.0
  0
POLYLINE
  5
DE
100
AcDbEntity
  8
0
390
0
  6
Continuous
 62
     7
100
AcDb2dPolyline
 66
     1
 10
0.0
 20
0.0
 30
0.0
 40
0.1
 41
0.1
  0
VERTEX
  5
DF
100
AcDbEntity
  8
0
390
0
 62
     7
100
AcDbVertex
100
AcDb2dVertex
 10
-16.650335
 20
24.440715
 30
0.0
 42
-0.129076
  0
VERTEX
  5
E0
100
AcDbEntity
  8
0
390
0
 62
     7
100
AcDbVertex
100
AcDb2dVertex
 10
-16.868489
 20
23.663974
 30
0.0
  0
VERTEX
  5
E1
100
AcDbEntity
  8
0
390
0
 62
     7
100
AcDbVertex
100
AcDb2dVertex
 10
-16.944663
 20
23.55362
 30
0.0
  0
VERTEX
  5
E2
100
AcDbEntity
  8
0
390
0
 62
     7
100
AcDbVertex
100
AcDb2dVertex
 10
-17.034772
 20
23.451235
 30
0.0
  0
VERTEX
  5
E3
100
AcDbEntity
  8
0
390
0
 62
     7
100
AcDbVertex
100
AcDb2dVertex
 10
-17.131651
 20
23.365754
 30
0.0
  0
VERTEX
  5
E4
100
AcDbEntity
  8
0
390
0
 62
     7
100
AcDbVertex
100
AcDb2dVertex
 10
-17.22386
 20
23.302794
 30
0.0
  0
VERTEX
  5
E5
100
AcDbEntity
  8
0
390
0
 62
     7
100
AcDbVertex
100
AcDb2dVertex
 10
-17.325612
 20
23.250527
 30
0.0
  0
VERTEX
  5
E6
100
AcDbEntity
  8
0
390
0
 62
     7
100
AcDbVertex
100
AcDb2dVertex
 10
-17.422438
 20
23.215403
 30
0.0
  0
VERTEX
  5
E7
100
AcDbEntity
  8
0
390
0
 62
     7
100
AcDbVertex
100
AcDb2dVertex
 10
-17.528588
 20
23.191732
 30
0.0
  0
VERTEX
  5
E8
100
AcDbEntity
  8
0
390
0
 62
     7
100
AcDbVertex
100
AcDb2dVertex
 10
-17.648965
 20
23.182548
 30
0.0
  0
SEQEND
  5
E9
100
AcDbEntity
  8
0
390
0
  0
LINE
  5
EA
100
AcDbEntity
  8
0
390
0
  6
Continuous
 62
     7
100
AcDbLine
 10
19.259665
 20
24.440715
 30
0.0
 11
19.259665
 21
34.779544
 31
0.0
  0
POLYLINE
  5
EB
100
AcDbEntity
  8
0
390
0
  6
Continuous
 62
     7
100
AcDb2dPolyline
 66
     1
 10
0.0
 20
0.0
 30
0.0
 40
0.1
 41
0.1
  0
VERTEX
  5
EC
100
AcDbEntity
  8
0
390
0
 62
     7
100
AcDbVertex
100
AcDb2dVertex
 10
19.259665
 20
24.440715
 30
0.0
 42
-0.129076
  0
VERTEX
  5
ED
100
AcDbEntity
  8
0
390
0
 62
     7
100
AcDbVertex
100
AcDb2dVertex
 10
19.041511
 20
23.663974
 30
0.0
  0
VERTEX
  5
EE
100
AcDbEntity
  8
0
390
0
 62
     7
100
AcDbVertex
100
AcDb2dVertex
 10
18.965337
 20
23.55362
 30
0.0
  0
VERTEX
  5
EF
100
AcDbEntity
  8
0
390
0
 62
     7
100
AcDbVertex
100
AcDb2dVertex
 10
18.875228
 20
23.451235
 30
0.0
  0
VERTEX
  5
F0
100
AcDbEntity
  8
0
390
0
 62
     7
100
AcDbVertex
100
AcDb2dVertex
 10
18.778349
 20
23.365754
 30
0.0
  0
VERTEX
  5
F1
100
AcDbEntity
  8
0
390
0
 62
     7
100
AcDbVertex
100
AcDb2dVertex
 10
18.68614
 20
23.302794
 30
0.0
  0
VERTEX
  5
F2
100
AcDbEntity
  8
0
390
0
 62
     7
100
AcDbVertex
100
AcDb2dVertex
 10
18.584388
 20
23.250527
 30
0.0
  0
VERTEX
  5
F3
100
AcDbEntity
  8
0
390
0
 62
     7
100
AcDbVertex
100
AcDb2dVertex
 10
18.487562
 20
23.215403
 30
0.0
  0
VERTEX
  5
F4
100
AcDbEntity
  8
0
390
0
 62
     7
100
AcDbVertex
100
AcDb2dVertex
 10
18.381412
 20
23.191732
 30
0.0
  0
VERTEX
  5
F5
100
AcDbEntity
  8
0
390
0
 62
     7
100
AcDbVertex
100
AcDb2dVertex
 10
18.261035
 20
23.182548
 30
0.0
  0
SEQEND
  5
F6
100
AcDbEntity
  8
0
390
0
  0
LINE
  5
F7
100
AcDbEntity
  8
0
390
0
  6
Continuous
 62
     7
100
AcDbLine
 10
-21.780335
 20
24.9509
 30
0.0
 11
-21.780335
 21
34.779544
 31
0.0
  0
LINE
  5
F8
100
AcDbEntity
  8
0
390
0
  6
Continuous
 62
     7
100
AcDbLine
 10
-21.780335
 20
24.9509
 30
0.0
 11
-21.785335
 21
24.97445
 31
0.0
  0
POLYLINE
  5
F9
100
AcDbEntity
  8
0
390
0
  6
Continuous
 62
     7
100
AcDb2dPolyline
 66
     1
 10
0.0
 20
0.0
 30
0.0
 40
0.1
 41
0.1
  0
VERTEX
  5
FA
100
AcDbEntity
  8
0
390
0
 62
     7
100
AcDbVertex
100
AcDb2dVertex
 10
-21.785335
 20
24.97445
 30
0.0
  0
VERTEX
  5
FB
100
AcDbEntity
  8
0
390
0
 62
     7
100
AcDbVertex
100
AcDb2dVertex
 10
-21.89294
 20
24.924612
 30
0.0
  0
VERTEX
  5
FC
100
AcDbEntity
  8
0
390
0
 62
     7
100
AcDbVertex
100
AcDb2dVertex
 10
-21.995179
 20
24.878399
 30
0.0
 42
-0.086546
  0
VERTEX
  5
FD
100
AcDbEntity
  8
0
390
0
 62
     7
100
AcDbVertex
100
AcDb2dVertex
 10
-22.778965
 20
24.768039
 30
0.0
  0
SEQEND
  5
FE
100
AcDbEntity
  8
0
390
0
  0
LINE
  5
FF
100
AcDbEntity
  8
0
390
0
  6
Continuous
 62
     7
100
AcDbLine
 10
29.519665
 20
24.9509
 30
0.0
 11
29.519665
 21
34.779544
 31
0.0
  0
LINE
  5
100
100
AcDbEntity
  8
0
390
0
  6
Continuous
 62
     7
100
AcDbLine
 10
29.519665
 20
24.9509
 30
0.0
 11
29.514665
 21
24.97445
 31
0.0
  0
POLYLINE
  5
101
100
AcDbEntity
  8
0
390
0
  6
Continuous
 62
     7
100
AcDb2dPolyline
 66
     1
 10
0.0
 20
0.0
 30
0.0
 40
0.1
 41
0.1
  0
VERTEX
  5
102
100
AcDbEntity
  8
0
390
0
 62
     7
100
AcDbVertex
100
AcDb2dVertex
 10
29.514665
 20
24.97445
 30
0.0
  0
VERTEX
  5
103
100
AcDbEntity
  8
0
390
0
 62
     7
100
AcDbVertex
100
AcDb2dVertex
 10
29.40706
 20
24.924612
 30
0.0
  0
VERTEX
  5
104
100
AcDbEntity
  8
0
390
0
 62
     7
100
AcDbVertex
100
AcDb2dVertex
 10
29.304821
 20
24.878399
 30
0.0
 42
-0.086546
  0
VERTEX
  5
105
100
AcDbEntity
  8
0
390
0
 62
     7
100
AcDbVertex
100
AcDb2dVertex
 10
28.521035
 20
24.768039
 30
0.0
  0
SEQEND
  5
106
100
AcDbEntity
  8
0
390
0
  0
LINE
  5
107
100
AcDbEntity
  8
0
390
0
  6
Continuous
 62
     7
100
AcDbLine
 10
33.651035
 20
24.768039
 30
0.0
 11
33.651035
 21
35.727208
 31
0.0
  0
LINE
  5
108
100
AcDbEntity
  8
0
390
0
  6
Continuous
 62
     7
100
AcDbLine
 10
33.651035
 20
24.768039
 30
0.0
 11
33.646035
 21
24.768057
 31
0.0
  0
LINE
  5
109
100
AcDbEntity
  8
0
390
0
  6
Continuous
 62
     7
100
AcDbLine
 10
33.646035
 20
24.768057
 30
0.0
 11
33.048964
 21
24.768057
 31
0.0
  0
LINE
  5
10A
100
AcDbEntity
  8
0
390
0
  6
Continuous
 62
     7
100
AcDbLine
 10
33.048964
 20
24.768057
 30
0.0
 11
33.048964
 21
35.727208
 31
0.0
  0
LINE
  5
10B
100
AcDbEntity
  8
0
390
0
  6
Continuous
 62
     7
100
AcDbLine
 10
49.041035
 20
24.768039
 30
0.0
 11
49.041035
 21
35.727208
 31
0.0
  0
LINE
  5
10C
100
AcDbEntity
  8
0
390
0
  6
Continuous
 62
     7
100
AcDbLine
 10
49.041035
 20
24.768039
 30
0.0
 11
49.036035
 21
24.768057
 31
0.0
  0
LINE
  5
10D
100
AcDbEntity
  8
0
390
0
  6
Continuous
 62
     7
100
AcDbLine
 10
49.036035
 20
24.768057
 30
0.0
 11
48.438964
 21
24.768057
 31
0.0
  0
LINE
  5
10E
100
AcDbEntity
  8
0
390
0
  6
Continuous
 62
     7
100
AcDbLine
 10
48.438964
 20
24.768057
 30
0.0
 11
48.438964
 21
35.727208
 31
0.0
  0
LINE
  5
10F
100
AcDbEntity
  8
0
390
0
  6
Continuous
 62
     7
100
AcDbLine
 10
38.178964
 20
24.768057
 30
0.0
 11
38.178964
 21
35.727208
 31
0.0
  0
LINE
  5
110
100
AcDbEntity
  8
0
390
0
  6
Continuous
 62
     7
100
AcDbLine
 10
38.178964
 20
24.768057
 30
0.0
 11
38.173964
 21
24.76808
 31
0.0
  0
POLYLINE
  5
111
100
AcDbEntity
  8
0
390
0
  6
Continuous
 62
     7
100
AcDb2dPolyline
 66
     1
 10
0.0
 20
0.0
 30
0.0
 40
0.1
 41
0.1
  0
VERTEX
  5
112
100
AcDbEntity
  8
0
390
0
 62
     7
100
AcDbVertex
100
AcDb2dVertex
 10
38.173964
 20
24.76808
 30
0.0
 42
-0.092672
  0
VERTEX
  5
113
100
AcDbEntity
  8
0
390
0
 62
     7
100
AcDbVertex
100
AcDb2dVertex
 10
37.373353
 20
24.905926
 30
0.0
  0
VERTEX
  5
114
100
AcDbEntity
  8
0
390
0
 62
     7
100
AcDbVertex
100
AcDb2dVertex
 10
37.268881
 20
24.968833
 30
0.0
  0
VERTEX
  5
115
100
AcDbEntity
  8
0
390
0
 62
     7
100
AcDbVertex
100
AcDb2dVertex
 10
37.200804
 20
25.051856
 30
0.0
  0
VERTEX
  5
116
100
AcDbEntity
  8
0
390
0
 62
     7
100
AcDbVertex
100
AcDb2dVertex
 10
37.180335
 20
25.154705
 30
0.0
  0
SEQEND
  5
117
100
AcDbEntity
  8
0
390
0
  0
LINE
  5
118
100
AcDbEntity
  8
0
390
0
  6
Continuous
 62
     7
100
AcDbLine
 10
37.180335
 20
25.154705
 30
0.0
 11
37.180335
 21
34.779544
 31
0.0
  0
LINE
  5
119
100
AcDbEntity
  8
0
390
0
  6
Continuous
 62
     7
100
AcDbLine
 10
43.911035
 20
24.768039
 30
0.0
 11
43.911035
 21
35.727208
 31
0.0
  0
LINE
  5
11A
100
AcDbEntity
  8
0
390
0
  6
Continuous
 62
     7
100
AcDbLine
 10
43.911035
 20
24.768039
 30
0.0
 11
43.906035
 21
24.768057
 31
0.0
  0
LINE
  5
11B
100
AcDbEntity
  8
0
390
0
  6
Continuous
 62
     7
100
AcDbLine
 10
43.906035
 20
24.768057
 30
0.0
 11
43.308964
 21
24.768057
 31
0.0
  0
LINE
  5
11C
100
AcDbEntity
  8
0
390
0
  6
Continuous
 62
     7
100
AcDbLine
 10
43.308964
 20
24.768057
 30
0.0
 11
43.308964
 21
35.727208
 31
0.0
  0
LINE
  5
11D
100
AcDbEntity
  8
0
390
0
  6
Continuous
 62
     7
100
AcDbLine
 10
39.779665
 20
24.9509
 30
0.0
 11
39.779665
 21
34.779544
 31
0.0
  0
LINE
  5
11E
100
AcDbEntity
  8
0
390
0
  6
Continuous
 62
     7
100
AcDbLine
 10
39.779665
 20
24.9509
 30
0.0
 11
39.774665
 21
24.97445
 31
0.0
  0
POLYLINE
  5
11F
100
AcDbEntity
  8
0
390
0
  6
Continuous
 62
     7
100
AcDb2dPolyline
 66
     1
 10
0.0
 20
0.0
 30
0.0
 40
0.1
 41
0.1
  0
VERTEX
  5
120
100
AcDbEntity
  8
0
390
0
 62
     7
100
AcDbVertex
100
AcDb2dVertex
 10
39.774665
 20
24.97445
 30
0.0
  0
VERTEX
  5
121
100
AcDbEntity
  8
0
390
0
 62
     7
100
AcDbVertex
100
AcDb2dVertex
 10
39.66706
 20
24.924612
 30
0.0
  0
VERTEX
  5
122
100
AcDbEntity
  8
0
390
0
 62
     7
100
AcDbVertex
100
AcDb2dVertex
 10
39.564821
 20
24.878399
 30
0.0
 42
-0.086546
  0
VERTEX
  5
123
100
AcDbEntity
  8
0
390
0
 62
     7
100
AcDbVertex
100
AcDb2dVertex
 10
38.781035
 20
24.768039
 30
0.0
  0
SEQEND
  5
124
100
AcDbEntity
  8
0
390
0
  0
LINE
  5
125
100
AcDbEntity
  8
0
390
0
  6
Continuous
 62
     7
100
AcDbLine
 10
38.781035
 20
24.768039
 30
0.0
 11
38.781035
 21
35.727208
 31
0.0
  0
LINE
  5
126
100
AcDbEntity
  8
0
390
0
  6
Continuous
 62
     7
100
AcDbLine
 10
38.781035
 20
24.768039
 30
0.0
 11
38.776035
 21
24.768057
 31
0.0
  0
LINE
  5
127
100
AcDbEntity
  8
0
390
0
  6
Continuous
 62
     7
100
AcDbLine
 10
38.776035
 20
24.768057
 30
0.0
 11
38.178964
 21
24.768057
 31
0.0
  0
LINE
  5
128
100
AcDbEntity
  8
0
390
0
  6
Continuous
 62
     7
100
AcDbLine
 10
33.048964
 20
24.768057
 30
0.0
 11
33.043964
 21
24.76808
 31
0.0
  0
POLYLINE
  5
129
100
AcDbEntity
  8
0
390
0
  6
Continuous
 62
     7
100
AcDb2dPolyline
 66
     1
 10
0.0
 20
0.0
 30
0.0
 40
0.1
 41
0.1
  0
VERTEX
  5
12A
100
AcDbEntity
  8
0
390
0
 62
     7
100
AcDbVertex
100
AcDb2dVertex
 10
33.043964
 20
24.76808
 30
0.0
 42
-0.092672
  0
VERTEX
  5
12B
100
AcDbEntity
  8
0
390
0
 62
     7
100
AcDbVertex
100
AcDb2dVertex
 10
32.243353
 20
24.905926
 30
0.0
  0
VERTEX
  5
12C
100
AcDbEntity
  8
0
390
0
 62
     7
100
AcDbVertex
100
AcDb2dVertex
 10
32.138881
 20
24.968833
 30
0.0
  0
VERTEX
  5
12D
100
AcDbEntity
  8
0
390
0
 62
     7
100
AcDbVertex
100
AcDb2dVertex
 10
32.070804
 20
25.051856
 30
0.0
  0
VERTEX
  5
12E
100
AcDbEntity
  8
0
390
0
 62
     7
100
AcDbVertex
100
AcDb2dVertex
 10
32.050335
 20
25.154705
 30
0.0
  0
SEQEND
  5
12F
100
AcDbEntity
  8
0
390
0
  0
LINE
  5
130
100
AcDbEntity
  8
0
390
0
  6
Continuous
 62
     7
100
AcDbLine
 10
32.050335
 20
25.154705
 30
0.0
 11
32.050335
 21
34.779544
 31
0.0
  0
LINE
  5
131
100
AcDbEntity
  8
0
390
0
  6
Continuous
 62
     7
100
AcDbLine
 10
43.308964
 20
24.768057
 30
0.0
 11
43.303964
 21
24.76808
 31
0.0
  0
POLYLINE
  5
132
100
AcDbEntity
  8
0
390
0
  6
Continuous
 62
     7
100
AcDb2dPolyline
 66
     1
 10
0.0
 20
0.0
 30
0.0
 40
0.1
 41
0.1
  0
VERTEX
  5
133
100
AcDbEntity
  8
0
390
0
 62
     7
100
AcDbVertex
100
AcDb2dVertex
 10
43.303964
 20
24.76808
 30
0.0
 42
-0.092672
  0
VERTEX
  5
134
100
AcDbEntity
  8
0
390
0
 62
     7
100
AcDbVertex
100
AcDb2dVertex
 10
42.503353
 20
24.905926
 30
0.0
  0
VERTEX
  5
135
100
AcDbEntity
  8
0
390
0
 62
     7
100
AcDbVertex
100
AcDb2dVertex
 10
42.398881
 20
24.968833
 30
0.0
  0
VERTEX
  5
136
100
AcDbEntity
  8
0
390
0
 62
     7
100
AcDbVertex
100
AcDb2dVertex
 10
42.330804
 20
25.051856
 30
0.0
  0
VERTEX
  5
137
100
AcDbEntity
  8
0
390
0
 62
     7
100
AcDbVertex
100
AcDb2dVertex
 10
42.310335
 20
25.154705
 30
0.0
  0
SEQEND
  5
138
100
AcDbEntity
  8
0
390
0
  0
LINE
  5
139
100
AcDbEntity
  8
0
390
0
  6
Continuous
 62
     7
100
AcDbLine
 10
42.310335
 20
25.154705
 30
0.0
 11
42.310335
 21
34.779544
 31
0.0
  0
LINE
  5
13A
100
AcDbEntity
  8
0
390
0
  6
Continuous
 62
     7
100
AcDbLine
 10
34.649665
 20
24.9509
 30
0.0
 11
34.649665
 21
34.779544
 31
0.0
  0
LINE
  5
13B
100
AcDbEntity
  8
0
390
0
  6
Continuous
 62
     7
100
AcDbLine
 10
34.649665
 20
24.9509
 30
0.0
 11
34.644665
 21
24.97445
 31
0.0
  0
POLYLINE
  5
13C
100
AcDbEntity
  8
0
390
0
  6
Continuous
 62
     7
100
AcDb2dPolyline
 66
     1
 10
0.0
 20
0.0
 30
0.0
 40
0.1
 41
0.1
  0
VERTEX
  5
13D
100
AcDbEntity
  8
0
390
0
 62
     7
100
AcDbVertex
100
AcDb2dVertex
 10
34.644665
 20
24.97445
 30
0.0
  0
VERTEX
  5
13E
100
AcDbEntity
  8
0
390
0
 62
     7
100
AcDbVertex
100
AcDb2dVertex
 10
34.53706
 20
24.924612
 30
0.0
  0
VERTEX
  5
13F
100
AcDbEntity
  8
0
390
0
 62
     7
100
AcDbVertex
100
AcDb2dVertex
 10
34.434821
 20
24.878399
 30
0.0
 42
-0.086546
  0
VERTEX
  5
140
100
AcDbEntity
  8
0
390
0
 62
     7
100
AcDbVertex
100
AcDb2dVertex
 10
33.651035
 20
24.768039
 30
0.0
  0
SEQEND
  5
141
100
AcDbEntity
  8
0
390
0
  0
LINE
  5
142
100
AcDbEntity
  8
0
390
0
  6
Continuous
 62
     7
100
AcDbLine
 10
50.039665
 20
24.9509
 30
0.0
 11
50.039665
 21
34.779544
 31
0.0
  0
LINE
  5
143
100
AcDbEntity
  8
0
390
0
  6
Continuous
 62
     7
100
AcDbLine
 10
50.039665
 20
24.9509
 30
0.0
 11
50.034665
 21
24.97445
 31
0.0
  0
POLYLINE
  5
144
100
AcDbEntity
  8
0
390
0
  6
Continuous
 62
     7
100
AcDb2dPolyline
 66
     1
 10
0.0
 20
0.0
 30
0.0
 40
0.1
 41
0.1
  0
VERTEX
  5
145
100
AcDbEntity
  8
0
390
0
 62
     7
100
AcDbVertex
100
AcDb2dVertex
 10
50.034665
 20
24.97445
 30
0.0
  0
VERTEX
  5
146
100
AcDbEntity
  8
0
390
0
 62
     7
100
AcDbVertex
100
AcDb2dVertex
 10
49.92706
 20
24.924612
 30
0.0
  0
VERTEX
  5
147
100
AcDbEntity
  8
0
390
0
 62
     7
100
AcDbVertex
100
AcDb2dVertex
 10
49.824821
 20
24.878399
 30
0.0
 42
-0.086546
  0
VERTEX
  5
148
100
AcDbEntity
  8
0
390
0
 62
     7
100
AcDbVertex
100
AcDb2dVertex
 10
49.041035
 20
24.768039
 30
0.0
  0
SEQEND
  5
149
100
AcDbEntity
  8
0
390
0
  0
LINE
  5
14A
100
AcDbEntity
  8
0
390
0
  6
Continuous
 62
     7
100
AcDbLine
 10
48.438964
 20
24.768057
 30
0.0
 11
48.433964
 21
24.76808
 31
0.0
  0
POLYLINE
  5
14B
100
AcDbEntity
  8
0
390
0
  6
Continuous
 62
     7
100
AcDb2dPolyline
 66
     1
 10
0.0
 20
0.0
 30
0.0
 40
0.1
 41
0.1
  0
VERTEX
  5
14C
100
AcDbEntity
  8
0
390
0
 62
     7
100
AcDbVertex
100
AcDb2dVertex
 10
48.433964
 20
24.76808
 30
0.0
 42
-0.092672
  0
VERTEX
  5
14D
100
AcDbEntity
  8
0
390
0
 62
     7
100
AcDbVertex
100
AcDb2dVertex
 10
47.633353
 20
24.905926
 30
0.0
  0
VERTEX
  5
14E
100
AcDbEntity
  8
0
390
0
 62
     7
100
AcDbVertex
100
AcDb2dVertex
 10
47.528881
 20
24.968833
 30
0.0
  0
VERTEX
  5
14F
100
AcDbEntity
  8
0
390
0
 62
     7
100
AcDbVertex
100
AcDb2dVertex
 10
47.460804
 20
25.051856
 30
0.0
  0
VERTEX
  5
150
100
AcDbEntity
  8
0
390
0
 62
     7
100
AcDbVertex
100
AcDb2dVertex
 10
47.440335
 20
25.154705
 30
0.0
  0
SEQEND
  5
151
100
AcDbEntity
  8
0
390
0
  0
LINE
  5
152
100
AcDbEntity
  8
0
390
0
  6
Continuous
 62
     7
100
AcDbLine
 10
47.440335
 20
25.154705
 30
0.0
 11
47.440335
 21
34.779544
 31
0.0
  0
LINE
  5
153
100
AcDbEntity
  8
0
390
0
  6
Continuous
 62
     7
100
AcDbLine
 10
44.909665
 20
24.9509
 30
0.0
 11
44.909665
 21
34.779544
 31
0.0
  0
LINE
  5
154
100
AcDbEntity
  8
0
390
0
  6
Continuous
 62
     7
100
AcDbLine
 10
44.909665
 20
24.9509
 30
0.0
 11
44.904665
 21
24.97445
 31
0.0
  0
POLYLINE
  5
155
100
AcDbEntity
  8
0
390
0
  6
Continuous
 62
     7
100
AcDb2dPolyline
 66
     1
 10
0.0
 20
0.0
 30
0.0
 40
0.1
 41
0.1
  0
VERTEX
  5
156
100
AcDbEntity
  8
0
390
0
 62
     7
100
AcDbVertex
100
AcDb2dVertex
 10
44.904665
 20
24.97445
 30
0.0
  0
VERTEX
  5
157
100
AcDbEntity
  8
0
390
0
 62
     7
100
AcDbVertex
100
AcDb2dVertex
 10
44.79706
 20
24.924612
 30
0.0
  0
VERTEX
  5
158
100
AcDbEntity
  8
0
390
0
 62
     7
100
AcDbVertex
100
AcDb2dVertex
 10
44.694821
 20
24.878399
 30
0.0
 42
-0.086546
  0
VERTEX
  5
159
100
AcDbEntity
  8
0
390
0
 62
     7
100
AcDbVertex
100
AcDb2dVertex
 10
43.911035
 20
24.768039
 30
0.0
  0
SEQEND
  5
15A
100
AcDbEntity
  8
0
390
0
  0
LINE
  5
15B
100
AcDbEntity
  8
0
390
0
  6
Continuous
 62
     7
100
AcDbLine
 10
-34.639665
 20
25.154705
 30
0.0
 11
-34.644665
 21
25.233906
 31
0.0
  0
LINE
  5
15C
100
AcDbEntity
  8
0
390
0
  6
Continuous
 62
     7
100
AcDbLine
 10
-34.644665
 20
25.233906
 30
0.0
 11
-34.668612
 21
25.385225
 31
0.0
  0
LINE
  5
15D
100
AcDbEntity
  8
0
390
0
  6
Continuous
 62
     7
100
AcDbLine
 10
-34.668612
 20
25.385225
 30
0.0
 11
-34.668612
 21
34.227208
 31
0.0
  0
LINE
  5
15E
100
AcDbEntity
  8
0
390
0
  6
Continuous
 62
     7
100
AcDbLine
 10
-50.029665
 20
25.154705
 30
0.0
 11
-50.034665
 21
25.233906
 31
0.0
  0
LINE
  5
15F
100
AcDbEntity
  8
0
390
0
  6
Continuous
 62
     7
100
AcDbLine
 10
-50.034665
 20
25.233906
 30
0.0
 11
-50.058612
 21
25.385225
 31
0.0
  0
LINE
  5
160
100
AcDbEntity
  8
0
390
0
  6
Continuous
 62
     7
100
AcDbLine
 10
-50.058612
 20
25.385225
 30
0.0
 11
-50.058612
 21
34.227208
 31
0.0
  0
LINE
  5
161
100
AcDbEntity
  8
0
390
0
  6
Continuous
 62
     7
100
AcDbLine
 10
-29.509665
 20
25.154705
 30
0.0
 11
-29.514665
 21
25.233906
 31
0.0
  0
LINE
  5
162
100
AcDbEntity
  8
0
390
0
  6
Continuous
 62
     7
100
AcDbLine
 10
-29.514665
 20
25.233906
 30
0.0
 11
-29.538612
 21
25.385225
 31
0.0
  0
LINE
  5
163
100
AcDbEntity
  8
0
390
0
  6
Continuous
 62
     7
100
AcDbLine
 10
-29.538612
 20
25.385225
 30
0.0
 11
-29.538612
 21
34.227208
 31
0.0
  0
LINE
  5
164
100
AcDbEntity
  8
0
390
0
  6
Continuous
 62
     7
100
AcDbLine
 10
-39.769665
 20
25.154705
 30
0.0
 11
-39.774665
 21
25.233906
 31
0.0
  0
LINE
  5
165
100
AcDbEntity
  8
0
390
0
  6
Continuous
 62
     7
100
AcDbLine
 10
-39.774665
 20
25.233906
 30
0.0
 11
-39.798612
 21
25.385225
 31
0.0
  0
LINE
  5
166
100
AcDbEntity
  8
0
390
0
  6
Continuous
 62
     7
100
AcDbLine
 10
-39.798612
 20
25.385225
 30
0.0
 11
-39.798612
 21
34.227208
 31
0.0
  0
LINE
  5
167
100
AcDbEntity
  8
0
390
0
  6
Continuous
 62
     7
100
AcDbLine
 10
-44.899665
 20
25.154705
 30
0.0
 11
-44.904665
 21
25.233906
 31
0.0
  0
LINE
  5
168
100
AcDbEntity
  8
0
390
0
  6
Continuous
 62
     7
100
AcDbLine
 10
-44.904665
 20
25.233906
 30
0.0
 11
-44.928612
 21
25.385225
 31
0.0
  0
LINE
  5
169
100
AcDbEntity
  8
0
390
0
  6
Continuous
 62
     7
100
AcDbLine
 10
-44.928612
 20
25.385225
 30
0.0
 11
-44.928612
 21
34.227208
 31
0.0
  0
LINE
  5
16A
100
AcDbEntity
  8
0
390
0
  6
Continuous
 62
     7
100
AcDbLine
 10
-47.401389
 20
25.264081
 30
0.0
 11
-47.401389
 21
34.227208
 31
0.0
  0
LINE
  5
16B
100
AcDbEntity
  8
0
390
0
  6
Continuous
 62
     7
100
AcDbLine
 10
-47.401389
 20
25.264081
 30
0.0
 11
-47.406389
 21
25.114479
 31
0.0
  0
LINE
  5
16C
100
AcDbEntity
  8
0
390
0
  6
Continuous
 62
     7
100
AcDbLine
 10
-47.406389
 20
25.114479
 30
0.0
 11
-47.430335
 21
24.9509
 31
0.0
  0
LINE
  5
16D
100
AcDbEntity
  8
0
390
0
  6
Continuous
 62
     7
100
AcDbLine
 10
-32.011389
 20
25.264081
 30
0.0
 11
-32.011389
 21
34.227208
 31
0.0
  0
LINE
  5
16E
100
AcDbEntity
  8
0
390
0
  6
Continuous
 62
     7
100
AcDbLine
 10
-32.011389
 20
25.264081
 30
0.0
 11
-32.016389
 21
25.114479
 31
0.0
  0
LINE
  5
16F
100
AcDbEntity
  8
0
390
0
  6
Continuous
 62
     7
100
AcDbLine
 10
-32.016389
 20
25.114479
 30
0.0
 11
-32.040335
 21
24.9509
 31
0.0
  0
LINE
  5
170
100
AcDbEntity
  8
0
390
0
  6
Continuous
 62
     7
100
AcDbLine
 10
16.660335
 20
24.440715
 30
0.0
 11
16.631388
 21
25.264081
 31
0.0
  0
LINE
  5
171
100
AcDbEntity
  8
0
390
0
  6
Continuous
 62
     7
100
AcDbLine
 10
16.631388
 20
25.264081
 30
0.0
 11
16.631388
 21
34.227208
 31
0.0
  0
LINE
  5
172
100
AcDbEntity
  8
0
390
0
  6
Continuous
 62
     7
100
AcDbLine
 10
-19.249665
 20
24.440715
 30
0.0
 11
-19.278612
 21
25.264081
 31
0.0
  0
LINE
  5
173
100
AcDbEntity
  8
0
390
0
  6
Continuous
 62
     7
100
AcDbLine
 10
-19.278612
 20
25.264081
 30
0.0
 11
-19.278612
 21
34.227208
 31
0.0
  0
LINE
  5
174
100
AcDbEntity
  8
0
390
0
  6
Continuous
 62
     7
100
AcDbLine
 10
-24.379665
 20
25.154705
 30
0.0
 11
-24.384665
 21
25.233906
 31
0.0
  0
LINE
  5
175
100
AcDbEntity
  8
0
390
0
  6
Continuous
 62
     7
100
AcDbLine
 10
-24.384665
 20
25.233906
 30
0.0
 11
-24.408612
 21
25.385225
 31
0.0
  0
LINE
  5
176
100
AcDbEntity
  8
0
390
0
  6
Continuous
 62
     7
100
AcDbLine
 10
-24.408612
 20
25.385225
 30
0.0
 11
-24.408612
 21
34.227208
 31
0.0
  0
LINE
  5
177
100
AcDbEntity
  8
0
390
0
  6
Continuous
 62
     7
100
AcDbLine
 10
-42.271389
 20
25.264081
 30
0.0
 11
-42.271389
 21
34.227208
 31
0.0
  0
LINE
  5
178
100
AcDbEntity
  8
0
390
0
  6
Continuous
 62
     7
100
AcDbLine
 10
-42.271389
 20
25.264081
 30
0.0
 11
-42.276389
 21
25.114479
 31
0.0
  0
LINE
  5
179
100
AcDbEntity
  8
0
390
0
  6
Continuous
 62
     7
100
AcDbLine
 10
-42.276389
 20
25.114479
 30
0.0
 11
-42.300335
 21
24.9509
 31
0.0
  0
LINE
  5
17A
100
AcDbEntity
  8
0
390
0
  6
Continuous
 62
     7
100
AcDbLine
 10
26.920335
 20
25.154705
 30
0.0
 11
26.915335
 21
25.233906
 31
0.0
  0
LINE
  5
17B
100
AcDbEntity
  8
0
390
0
  6
Continuous
 62
     7
100
AcDbLine
 10
26.915335
 20
25.233906
 30
0.0
 11
26.891388
 21
25.385225
 31
0.0
  0
LINE
  5
17C
100
AcDbEntity
  8
0
390
0
  6
Continuous
 62
     7
100
AcDbLine
 10
26.891388
 20
25.385225
 30
0.0
 11
26.891388
 21
34.227208
 31
0.0
  0
LINE
  5
17D
100
AcDbEntity
  8
0
390
0
  6
Continuous
 62
     7
100
AcDbLine
 10
-37.141389
 20
25.264081
 30
0.0
 11
-37.141389
 21
34.227208
 31
0.0
  0
LINE
  5
17E
100
AcDbEntity
  8
0
390
0
  6
Continuous
 62
     7
100
AcDbLine
 10
-37.141389
 20
25.264081
 30
0.0
 11
-37.146389
 21
25.114479
 31
0.0
  0
LINE
  5
17F
100
AcDbEntity
  8
0
390
0
  6
Continuous
 62
     7
100
AcDbLine
 10
-37.146389
 20
25.114479
 30
0.0
 11
-37.170335
 21
24.9509
 31
0.0
  0
LINE
  5
180
100
AcDbEntity
  8
0
390
0
  6
Continuous
 62
     7
100
AcDbLine
 10
21.790335
 20
25.154705
 30
0.0
 11
21.785335
 21
25.233906
 31
0.0
  0
LINE
  5
181
100
AcDbEntity
  8
0
390
0
  6
Continuous
 62
     7
100
AcDbLine
 10
21.785335
 20
25.233906
 30
0.0
 11
21.761388
 21
25.385225
 31
0.0
  0
LINE
  5
182
100
AcDbEntity
  8
0
390
0
  6
Continuous
 62
     7
100
AcDbLine
 10
21.761388
 20
25.385225
 30
0.0
 11
21.761388
 21
34.227208
 31
0.0
  0
LINE
  5
183
100
AcDbEntity
  8
0
390
0
  6
Continuous
 62
     7
100
AcDbLine
 10
-16.621389
 20
25.264081
 30
0.0
 11
-16.621389
 21
34.227208
 31
0.0
  0
LINE
  5
184
100
AcDbEntity
  8
0
390
0
  6
Continuous
 62
     7
100
AcDbLine
 10
-16.621389
 20
25.264081
 30
0.0
 11
-16.650335
 21
24.440715
 31
0.0
  0
LINE
  5
185
100
AcDbEntity
  8
0
390
0
  6
Continuous
 62
     7
100
AcDbLine
 10
-26.881389
 20
25.264081
 30
0.0
 11
-26.881389
 21
34.227208
 31
0.0
  0
LINE
  5
186
100
AcDbEntity
  8
0
390
0
  6
Continuous
 62
     7
100
AcDbLine
 10
-26.881389
 20
25.264081
 30
0.0
 11
-26.886389
 21
25.114479
 31
0.0
  0
LINE
  5
187
100
AcDbEntity
  8
0
390
0
  6
Continuous
 62
     7
100
AcDbLine
 10
-26.886389
 20
25.114479
 30
0.0
 11
-26.910335
 21
24.9509
 31
0.0
  0
LINE
  5
188
100
AcDbEntity
  8
0
390
0
  6
Continuous
 62
     7
100
AcDbLine
 10
-21.751389
 20
25.264081
 30
0.0
 11
-21.751389
 21
34.227208
 31
0.0
  0
LINE
  5
189
100
AcDbEntity
  8
0
390
0
  6
Continuous
 62
     7
100
AcDbLine
 10
-21.751389
 20
25.264081
 30
0.0
 11
-21.756389
 21
25.114479
 31
0.0
  0
LINE
  5
18A
100
AcDbEntity
  8
0
390
0
  6
Continuous
 62
     7
100
AcDbLine
 10
-21.756389
 20
25.114479
 30
0.0
 11
-21.780335
 21
24.9509
 31
0.0
  0
LINE
  5
18B
100
AcDbEntity
  8
0
390
0
  6
Continuous
 62
     7
100
AcDbLine
 10
42.310335
 20
25.154705
 30
0.0
 11
42.305335
 21
25.233906
 31
0.0
  0
LINE
  5
18C
100
AcDbEntity
  8
0
390
0
  6
Continuous
 62
     7
100
AcDbLine
 10
42.305335
 20
25.233906
 30
0.0
 11
42.281388
 21
25.385225
 31
0.0
  0
LINE
  5
18D
100
AcDbEntity
  8
0
390
0
  6
Continuous
 62
     7
100
AcDbLine
 10
42.281388
 20
25.385225
 30
0.0
 11
42.281388
 21
34.227208
 31
0.0
  0
LINE
  5
18E
100
AcDbEntity
  8
0
390
0
  6
Continuous
 62
     7
100
AcDbLine
 10
47.440335
 20
25.154705
 30
0.0
 11
47.435335
 21
25.233906
 31
0.0
  0
LINE
  5
18F
100
AcDbEntity
  8
0
390
0
  6
Continuous
 62
     7
100
AcDbLine
 10
47.435335
 20
25.233906
 30
0.0
 11
47.411388
 21
25.385225
 31
0.0
  0
LINE
  5
190
100
AcDbEntity
  8
0
390
0
  6
Continuous
 62
     7
100
AcDbLine
 10
47.411388
 20
25.385225
 30
0.0
 11
47.411388
 21
34.227208
 31
0.0
  0
LINE
  5
191
100
AcDbEntity
  8
0
390
0
  6
Continuous
 62
     7
100
AcDbLine
 10
32.050335
 20
25.154705
 30
0.0
 11
32.045335
 21
25.233906
 31
0.0
  0
LINE
  5
192
100
AcDbEntity
  8
0
390
0
  6
Continuous
 62
     7
100
AcDbLine
 10
32.045335
 20
25.233906
 30
0.0
 11
32.021388
 21
25.385225
 31
0.0
  0
LINE
  5
193
100
AcDbEntity
  8
0
390
0
  6
Continuous
 62
     7
100
AcDbLine
 10
32.021388
 20
25.385225
 30
0.0
 11
32.021388
 21
34.227208
 31
0.0
  0
LINE
  5
194
100
AcDbEntity
  8
0
390
0
  6
Continuous
 62
     7
100
AcDbLine
 10
19.288611
 20
25.264081
 30
0.0
 11
19.288611
 21
34.227208
 31
0.0
  0
LINE
  5
195
100
AcDbEntity
  8
0
390
0
  6
Continuous
 62
     7
100
AcDbLine
 10
19.288611
 20
25.264081
 30
0.0
 11
19.259665
 21
24.440715
 31
0.0
  0
LINE
  5
196
100
AcDbEntity
  8
0
390
0
  6
Continuous
 62
     7
100
AcDbLine
 10
37.180335
 20
25.154705
 30
0.0
 11
37.175335
 21
25.233906
 31
0.0
  0
LINE
  5
197
100
AcDbEntity
  8
0
390
0
  6
Continuous
 62
     7
100
AcDbLine
 10
37.175335
 20
25.233906
 30
0.0
 11
37.151388
 21
25.385225
 31
0.0
  0
LINE
  5
198
100
AcDbEntity
  8
0
390
0
  6
Continuous
 62
     7
100
AcDbLine
 10
37.151388
 20
25.385225
 30
0.0
 11
37.151388
 21
34.227208
 31
0.0
  0
LINE
  5
199
100
AcDbEntity
  8
0
390
0
  6
Continuous
 62
     7
100
AcDbLine
 10
24.418611
 20
25.264081
 30
0.0
 11
24.418611
 21
34.227208
 31
0.0
  0
LINE
  5
19A
100
AcDbEntity
  8
0
390
0
  6
Continuous
 62
     7
100
AcDbLine
 10
24.418611
 20
25.264081
 30
0.0
 11
24.413611
 21
25.114479
 31
0.0
  0
LINE
  5
19B
100
AcDbEntity
  8
0
390
0
  6
Continuous
 62
     7
100
AcDbLine
 10
24.413611
 20
25.114479
 30
0.0
 11
24.389665
 21
24.9509
 31
0.0
  0
LINE
  5
19C
100
AcDbEntity
  8
0
390
0
  6
Continuous
 62
     7
100
AcDbLine
 10
39.808611
 20
25.264081
 30
0.0
 11
39.808611
 21
34.227208
 31
0.0
  0
LINE
  5
19D
100
AcDbEntity
  8
0
390
0
  6
Continuous
 62
     7
100
AcDbLine
 10
39.808611
 20
25.264081
 30
0.0
 11
39.803611
 21
25.114479
 31
0.0
  0
LINE
  5
19E
100
AcDbEntity
  8
0
390
0
  6
Continuous
 62
     7
100
AcDbLine
 10
39.803611
 20
25.114479
 30
0.0
 11
39.779665
 21
24.9509
 31
0.0
  0
LINE
  5
19F
100
AcDbEntity
  8
0
390
0
  6
Continuous
 62
     7
100
AcDbLine
 10
50.068611
 20
25.264081
 30
0.0
 11
50.068611
 21
34.227208
 31
0.0
  0
LINE
  5
1A0
100
AcDbEntity
  8
0
390
0
  6
Continuous
 62
     7
100
AcDbLine
 10
50.068611
 20
25.264081
 30
0.0
 11
50.063611
 21
25.114479
 31
0.0
  0
LINE
  5
1A1
100
AcDbEntity
  8
0
390
0
  6
Continuous
 62
     7
100
AcDbLine
 10
50.063611
 20
25.114479
 30
0.0
 11
50.039665
 21
24.9509
 31
0.0
  0
LINE
  5
1A2
100
AcDbEntity
  8
0
390
0
  6
Continuous
 62
     7
100
AcDbLine
 10
44.938611
 20
25.264081
 30
0.0
 11
44.938611
 21
34.227208
 31
0.0
  0
LINE
  5
1A3
100
AcDbEntity
  8
0
390
0
  6
Continuous
 62
     7
100
AcDbLine
 10
44.938611
 20
25.264081
 30
0.0
 11
44.933611
 21
25.114479
 31
0.0
  0
LINE
  5
1A4
100
AcDbEntity
  8
0
390
0
  6
Continuous
 62
     7
100
AcDbLine
 10
44.933611
 20
25.114479
 30
0.0
 11
44.909665
 21
24.9509
 31
0.0
  0
LINE
  5
1A5
100
AcDbEntity
  8
0
390
0
  6
Continuous
 62
     7
100
AcDbLine
 10
34.678611
 20
25.264081
 30
0.0
 11
34.678611
 21
34.227208
 31
0.0
  0
LINE
  5
1A6
100
AcDbEntity
  8
0
390
0
  6
Continuous
 62
     7
100
AcDbLine
 10
34.678611
 20
25.264081
 30
0.0
 11
34.673611
 21
25.114479
 31
0.0
  0
LINE
  5
1A7
100
AcDbEntity
  8
0
390
0
  6
Continuous
 62
     7
100
AcDbLine
 10
34.673611
 20
25.114479
 30
0.0
 11
34.649665
 21
24.9509
 31
0.0
  0
LINE
  5
1A8
100
AcDbEntity
  8
0
390
0
  6
Continuous
 62
     7
100
AcDbLine
 10
29.548611
 20
25.264081
 30
0.0
 11
29.548611
 21
34.227208
 31
0.0
  0
LINE
  5
1A9
100
AcDbEntity
  8
0
390
0
  6
Continuous
 62
     7
100
AcDbLine
 10
29.548611
 20
25.264081
 30
0.0
 11
29.543611
 21
25.114479
 31
0.0
  0
LINE
  5
1AA
100
AcDbEntity
  8
0
390
0
  6
Continuous
 62
     7
100
AcDbLine
 10
29.543611
 20
25.114479
 30
0.0
 11
29.519665
 21
24.9509
 31
0.0
  0
LINE
  5
1AB
100
AcDbEntity
  8
0
390
0
  6
Continuous
 62
     7
100
AcDbLine
 10
-27.913965
 20
24.768057
 30
0.0
 11
-27.913965
 21
0.0
 31
0.0
  0
LINE
  5
1AC
100
AcDbEntity
  8
0
390
0
  6
Continuous
 62
     7
100
AcDbLine
 10
-27.913965
 20
0.0
 30
0.0
 11
-28.516036
 21
0.0
 31
0.0
  0
LINE
  5
1AD
100
AcDbEntity
  8
0
390
0
  6
Continuous
 62
     7
100
AcDbLine
 10
-28.516036
 20
24.76808
 30
0.0
 11
-28.516036
 21
0.0
 31
0.0
  0
LINE
  5
1AE
100
AcDbEntity
  8
0
390
0
  6
Continuous
 62
     7
100
AcDbLine
 10
-39.774665
 20
25.233906
 30
0.0
 11
-39.774665
 21
0.0
 31
0.0
  0
LINE
  5
1AF
100
AcDbEntity
  8
0
390
0
  6
Continuous
 62
     7
100
AcDbLine
 10
-38.776036
 20
24.76808
 30
0.0
 11
-38.776036
 21
0.0
 31
0.0
  0
LINE
  5
1B0
100
AcDbEntity
  8
0
390
0
  6
Continuous
 62
     7
100
AcDbLine
 10
-38.776036
 20
0.0
 30
0.0
 11
-39.774665
 21
0.0
 31
0.0
  0
LINE
  5
1B1
100
AcDbEntity
  8
0
390
0
  6
Continuous
 62
     7
100
AcDbLine
 10
-42.305335
 20
24.97445
 30
0.0
 11
-42.305335
 21
0.0
 31
0.0
  0
LINE
  5
1B2
100
AcDbEntity
  8
0
390
0
  6
Continuous
 62
     7
100
AcDbLine
 10
-43.303965
 20
24.768057
 30
0.0
 11
-43.303965
 21
0.0
 31
0.0
  0
LINE
  5
1B3
100
AcDbEntity
  8
0
390
0
  6
Continuous
 62
     7
100
AcDbLine
 10
-42.305335
 20
0.0
 30
0.0
 11
-43.303965
 21
0.0
 31
0.0
  0
LINE
  5
1B4
100
AcDbEntity
  8
0
390
0
  6
Continuous
 62
     7
100
AcDbLine
 10
-43.906036
 20
24.76808
 30
0.0
 11
-43.906036
 21
0.0
 31
0.0
  0
LINE
  5
1B5
100
AcDbEntity
  8
0
390
0
  6
Continuous
 62
     7
100
AcDbLine
 10
-43.303965
 20
0.0
 30
0.0
 11
-43.906036
 21
0.0
 31
0.0
  0
LINE
  5
1B6
100
AcDbEntity
  8
0
390
0
  6
Continuous
 62
     7
100
AcDbLine
 10
-44.904665
 20
25.233906
 30
0.0
 11
-44.904665
 21
0.0
 31
0.0
  0
LINE
  5
1B7
100
AcDbEntity
  8
0
390
0
  6
Continuous
 62
     7
100
AcDbLine
 10
-43.906036
 20
0.0
 30
0.0
 11
-44.904665
 21
0.0
 31
0.0
  0
LINE
  5
1B8
100
AcDbEntity
  8
0
390
0
  6
Continuous
 62
     7
100
AcDbLine
 10
-32.045335
 20
24.97445
 30
0.0
 11
-32.045335
 21
0.0
 31
0.0
  0
LINE
  5
1B9
100
AcDbEntity
  8
0
390
0
  6
Continuous
 62
     7
100
AcDbLine
 10
-33.043965
 20
24.768057
 30
0.0
 11
-33.043965
 21
0.0
 31
0.0
  0
LINE
  5
1BA
100
AcDbEntity
  8
0
390
0
  6
Continuous
 62
     7
100
AcDbLine
 10
-32.045335
 20
0.0
 30
0.0
 11
-33.043965
 21
0.0
 31
0.0
  0
LINE
  5
1BB
100
AcDbEntity
  8
0
390
0
  6
Continuous
 62
     7
100
AcDbLine
 10
-33.646036
 20
24.76808
 30
0.0
 11
-33.646036
 21
0.0
 31
0.0
  0
LINE
  5
1BC
100
AcDbEntity
  8
0
390
0
  6
Continuous
 62
     7
100
AcDbLine
 10
-33.043965
 20
0.0
 30
0.0
 11
-33.646036
 21
0.0
 31
0.0
  0
LINE
  5
1BD
100
AcDbEntity
  8
0
390
0
  6
Continuous
 62
     7
100
AcDbLine
 10
-34.644665
 20
25.233906
 30
0.0
 11
-34.644665
 21
0.0
 31
0.0
  0
LINE
  5
1BE
100
AcDbEntity
  8
0
390
0
  6
Continuous
 62
     7
100
AcDbLine
 10
-33.646036
 20
0.0
 30
0.0
 11
-34.644665
 21
0.0
 31
0.0
  0
LINE
  5
1BF
100
AcDbEntity
  8
0
390
0
  6
Continuous
 62
     7
100
AcDbLine
 10
-37.175335
 20
24.97445
 30
0.0
 11
-37.175335
 21
0.0
 31
0.0
  0
LINE
  5
1C0
100
AcDbEntity
  8
0
390
0
  6
Continuous
 62
     7
100
AcDbLine
 10
-38.173965
 20
24.768057
 30
0.0
 11
-38.173965
 21
0.0
 31
0.0
  0
LINE
  5
1C1
100
AcDbEntity
  8
0
390
0
  6
Continuous
 62
     7
100
AcDbLine
 10
-37.175335
 20
0.0
 30
0.0
 11
-38.173965
 21
0.0
 31
0.0
  0
LINE
  5
1C2
100
AcDbEntity
  8
0
390
0
  6
Continuous
 62
     7
100
AcDbLine
 10
-29.514665
 20
25.233906
 30
0.0
 11
-29.514665
 21
0.0
 31
0.0
  0
LINE
  5
1C3
100
AcDbEntity
  8
0
390
0
  6
Continuous
 62
     7
100
AcDbLine
 10
-28.516036
 20
0.0
 30
0.0
 11
-29.514665
 21
0.0
 31
0.0
  0
LINE
  5
1C4
100
AcDbEntity
  8
0
390
0
  6
Continuous
 62
     7
100
AcDbLine
 10
-48.433965
 20
24.768057
 30
0.0
 11
-48.433965
 21
0.0
 31
0.0
  0
LINE
  5
1C5
100
AcDbEntity
  8
0
390
0
  6
Continuous
 62
     7
100
AcDbLine
 10
-49.036036
 20
24.76808
 30
0.0
 11
-49.036036
 21
0.0
 31
0.0
  0
LINE
  5
1C6
100
AcDbEntity
  8
0
390
0
  6
Continuous
 62
     7
100
AcDbLine
 10
-48.433965
 20
0.0
 30
0.0
 11
-49.036036
 21
0.0
 31
0.0
  0
LINE
  5
1C7
100
AcDbEntity
  8
0
390
0
  6
Continuous
 62
     7
100
AcDbLine
 10
-50.034665
 20
25.233906
 30
0.0
 11
-50.034665
 21
0.0
 31
0.0
  0
LINE
  5
1C8
100
AcDbEntity
  8
0
390
0
  6
Continuous
 62
     7
100
AcDbLine
 10
-49.036036
 20
0.0
 30
0.0
 11
-50.034665
 21
0.0
 31
0.0
  0
LINE
  5
1C9
100
AcDbEntity
  8
0
390
0
  6
Continuous
 62
     7
100
AcDbLine
 10
-47.435335
 20
24.97445
 30
0.0
 11
-47.435335
 21
0.0
 31
0.0
  0
LINE
  5
1CA
100
AcDbEntity
  8
0
390
0
  6
Continuous
 62
     7
100
AcDbLine
 10
-47.435335
 20
0.0
 30
0.0
 11
-48.433965
 21
0.0
 31
0.0
  0
LINE
  5
1CB
100
AcDbEntity
  8
0
390
0
  6
Continuous
 62
     7
100
AcDbLine
 10
-38.173965
 20
0.0
 30
0.0
 11
-38.776036
 21
0.0
 31
0.0
  0
LINE
  5
1CC
100
AcDbEntity
  8
0
390
0
  6
Continuous
 62
     7
100
AcDbLine
 10
-21.785335
 20
24.97445
 30
0.0
 11
-21.785335
 21
0.0
 31
0.0
  0
LINE
  5
1CD
100
AcDbEntity
  8
0
390
0
  6
Continuous
 62
     7
100
AcDbLine
 10
-22.783965
 20
24.768057
 30
0.0
 11
-22.783965
 21
0.0
 31
0.0
  0
LINE
  5
1CE
100
AcDbEntity
  8
0
390
0
  6
Continuous
 62
     7
100
AcDbLine
 10
-21.785335
 20
0.0
 30
0.0
 11
-22.783965
 21
0.0
 31
0.0
  0
LINE
  5
1CF
100
AcDbEntity
  8
0
390
0
  6
Continuous
 62
     7
100
AcDbLine
 10
-26.915335
 20
24.97445
 30
0.0
 11
-26.915335
 21
0.0
 31
0.0
  0
LINE
  5
1D0
100
AcDbEntity
  8
0
390
0
  6
Continuous
 62
     7
100
AcDbLine
 10
-26.915335
 20
0.0
 30
0.0
 11
-27.913965
 21
0.0
 31
0.0
  0
LINE
  5
1D1
100
AcDbEntity
  8
0
390
0
  6
Continuous
 62
     7
100
AcDbLine
 10
-24.384665
 20
25.233906
 30
0.0
 11
-24.384665
 21
0.0
 31
0.0
  0
LINE
  5
1D2
100
AcDbEntity
  8
0
390
0
  6
Continuous
 62
     7
100
AcDbLine
 10
-23.386036
 20
24.76808
 30
0.0
 11
-23.386036
 21
0.0
 31
0.0
  0
LINE
  5
1D3
100
AcDbEntity
  8
0
390
0
  6
Continuous
 62
     7
100
AcDbLine
 10
-23.386036
 20
0.0
 30
0.0
 11
-24.384665
 21
0.0
 31
0.0
  0
LINE
  5
1D4
100
AcDbEntity
  8
0
390
0
  6
Continuous
 62
     7
100
AcDbLine
 10
-22.783965
 20
0.0
 30
0.0
 11
-23.386036
 21
0.0
 31
0.0
  0
LINE
  5
1D5
100
AcDbEntity
  8
0
390
0
  6
Continuous
 62
     7
100
AcDbLine
 10
28.516035
 20
24.768057
 30
0.0
 11
28.516035
 21
0.0
 31
0.0
  0
LINE
  5
1D6
100
AcDbEntity
  8
0
390
0
  6
Continuous
 62
     7
100
AcDbLine
 10
27.913964
 20
24.76808
 30
0.0
 11
27.913964
 21
0.0
 31
0.0
  0
LINE
  5
1D7
100
AcDbEntity
  8
0
390
0
  6
Continuous
 62
     7
100
AcDbLine
 10
28.516035
 20
0.0
 30
0.0
 11
27.913964
 21
0.0
 31
0.0
  0
LINE
  5
1D8
100
AcDbEntity
  8
0
390
0
  6
Continuous
 62
     7
100
AcDbLine
 10
24.384665
 20
24.97445
 30
0.0
 11
24.384665
 21
0.0
 31
0.0
  0
LINE
  5
1D9
100
AcDbEntity
  8
0
390
0
  6
Continuous
 62
     7
100
AcDbLine
 10
23.386035
 20
24.768057
 30
0.0
 11
23.386035
 21
0.0
 31
0.0
  0
LINE
  5
1DA
100
AcDbEntity
  8
0
390
0
  6
Continuous
 62
     7
100
AcDbLine
 10
24.384665
 20
0.0
 30
0.0
 11
23.386035
 21
0.0
 31
0.0
  0
LINE
  5
1DB
100
AcDbEntity
  8
0
390
0
  6
Continuous
 62
     7
100
AcDbLine
 10
22.783964
 20
24.76808
 30
0.0
 11
22.783964
 21
0.0
 31
0.0
  0
LINE
  5
1DC
100
AcDbEntity
  8
0
390
0
  6
Continuous
 62
     7
100
AcDbLine
 10
23.386035
 20
0.0
 30
0.0
 11
22.783964
 21
0.0
 31
0.0
  0
LINE
  5
1DD
100
AcDbEntity
  8
0
390
0
  6
Continuous
 62
     7
100
AcDbLine
 10
26.915335
 20
25.233906
 30
0.0
 11
26.915335
 21
0.0
 31
0.0
  0
LINE
  5
1DE
100
AcDbEntity
  8
0
390
0
  6
Continuous
 62
     7
100
AcDbLine
 10
27.913964
 20
0.0
 30
0.0
 11
26.915335
 21
0.0
 31
0.0
  0
LINE
  5
1DF
100
AcDbEntity
  8
0
390
0
  6
Continuous
 62
     7
100
AcDbLine
 10
21.785335
 20
25.233906
 30
0.0
 11
21.785335
 21
0.0
 31
0.0
  0
LINE
  5
1E0
100
AcDbEntity
  8
0
390
0
  6
Continuous
 62
     7
100
AcDbLine
 10
22.783964
 20
0.0
 30
0.0
 11
21.785335
 21
0.0
 31
0.0
  0
LINE
  5
1E1
100
AcDbEntity
  8
0
390
0
  6
Continuous
 62
     7
100
AcDbLine
 10
50.034665
 20
24.97445
 30
0.0
 11
50.034665
 21
0.0
 31
0.0
  0
LINE
  5
1E2
100
AcDbEntity
  8
0
390
0
  6
Continuous
 62
     7
100
AcDbLine
 10
49.036035
 20
24.768057
 30
0.0
 11
49.036035
 21
0.0
 31
0.0
  0
LINE
  5
1E3
100
AcDbEntity
  8
0
390
0
  6
Continuous
 62
     7
100
AcDbLine
 10
50.034665
 20
0.0
 30
0.0
 11
49.036035
 21
0.0
 31
0.0
  0
LINE
  5
1E4
100
AcDbEntity
  8
0
390
0
  6
Continuous
 62
     7
100
AcDbLine
 10
38.776035
 20
24.768057
 30
0.0
 11
38.776035
 21
0.0
 31
0.0
  0
LINE
  5
1E5
100
AcDbEntity
  8
0
390
0
  6
Continuous
 62
     7
100
AcDbLine
 10
38.173964
 20
24.76808
 30
0.0
 11
38.173964
 21
0.0
 31
0.0
  0
LINE
  5
1E6
100
AcDbEntity
  8
0
390
0
  6
Continuous
 62
     7
100
AcDbLine
 10
38.776035
 20
0.0
 30
0.0
 11
38.173964
 21
0.0
 31
0.0
  0
LINE
  5
1E7
100
AcDbEntity
  8
0
390
0
  6
Continuous
 62
     7
100
AcDbLine
 10
43.906035
 20
24.768057
 30
0.0
 11
43.906035
 21
0.0
 31
0.0
  0
LINE
  5
1E8
100
AcDbEntity
  8
0
390
0
  6
Continuous
 62
     7
100
AcDbLine
 10
43.303964
 20
24.76808
 30
0.0
 11
43.303964
 21
0.0
 31
0.0
  0
LINE
  5
1E9
100
AcDbEntity
  8
0
390
0
  6
Continuous
 62
     7
100
AcDbLine
 10
43.906035
 20
0.0
 30
0.0
 11
43.303964
 21
0.0
 31
0.0
  0
LINE
  5
1EA
100
AcDbEntity
  8
0
390
0
  6
Continuous
 62
     7
100
AcDbLine
 10
32.045335
 20
25.233906
 30
0.0
 11
32.045335
 21
0.0
 31
0.0
  0
LINE
  5
1EB
100
AcDbEntity
  8
0
390
0
  6
Continuous
 62
     7
100
AcDbLine
 10
33.043964
 20
24.76808
 30
0.0
 11
33.043964
 21
0.0
 31
0.0
  0
LINE
  5
1EC
100
AcDbEntity
  8
0
390
0
  6
Continuous
 62
     7
100
AcDbLine
 10
33.043964
 20
0.0
 30
0.0
 11
32.045335
 21
0.0
 31
0.0
  0
LINE
  5
1ED
100
AcDbEntity
  8
0
390
0
  6
Continuous
 62
     7
100
AcDbLine
 10
42.305335
 20
25.233906
 30
0.0
 11
42.305335
 21
0.0
 31
0.0
  0
LINE
  5
1EE
100
AcDbEntity
  8
0
390
0
  6
Continuous
 62
     7
100
AcDbLine
 10
43.303964
 20
0.0
 30
0.0
 11
42.305335
 21
0.0
 31
0.0
  0
LINE
  5
1EF
100
AcDbEntity
  8
0
390
0
  6
Continuous
 62
     7
100
AcDbLine
 10
34.644665
 20
24.97445
 30
0.0
 11
34.644665
 21
0.0
 31
0.0
  0
LINE
  5
1F0
100
AcDbEntity
  8
0
390
0
  6
Continuous
 62
     7
100
AcDbLine
 10
33.646035
 20
24.768057
 30
0.0
 11
33.646035
 21
0.0
 31
0.0
  0
LINE
  5
1F1
100
AcDbEntity
  8
0
390
0
  6
Continuous
 62
     7
100
AcDbLine
 10
34.644665
 20
0.0
 30
0.0
 11
33.646035
 21
0.0
 31
0.0
  0
LINE
  5
1F2
100
AcDbEntity
  8
0
390
0
  6
Continuous
 62
     7
100
AcDbLine
 10
33.646035
 20
0.0
 30
0.0
 11
33.043964
 21
0.0
 31
0.0
  0
LINE
  5
1F3
100
AcDbEntity
  8
0
390
0
  6
Continuous
 62
     7
100
AcDbLine
 10
39.774665
 20
24.97445
 30
0.0
 11
39.774665
 21
0.0
 31
0.0
  0
LINE
  5
1F4
100
AcDbEntity
  8
0
390
0
  6
Continuous
 62
     7
100
AcDbLine
 10
39.774665
 20
0.0
 30
0.0
 11
38.776035
 21
0.0
 31
0.0
  0
LINE
  5
1F5
100
AcDbEntity
  8
0
390
0
  6
Continuous
 62
     7
100
AcDbLine
 10
44.904665
 20
24.97445
 30
0.0
 11
44.904665
 21
0.0
 31
0.0
  0
LINE
  5
1F6
100
AcDbEntity
  8
0
390
0
  6
Continuous
 62
     7
100
AcDbLine
 10
44.904665
 20
0.0
 30
0.0
 11
43.906035
 21
0.0
 31
0.0
  0
LINE
  5
1F7
100
AcDbEntity
  8
0
390
0
  6
Continuous
 62
     7
100
AcDbLine
 10
37.175335
 20
25.233906
 30
0.0
 11
37.175335
 21
0.0
 31
0.0
  0
LINE
  5
1F8
100
AcDbEntity
  8
0
390
0
  6
Continuous
 62
     7
100
AcDbLine
 10
38.173964
 20
0.0
 30
0.0
 11
37.175335
 21
0.0
 31
0.0
  0
LINE
  5
1F9
100
AcDbEntity
  8
0
390
0
  6
Continuous
 62
     7
100
AcDbLine
 10
48.433964
 20
24.76808
 30
0.0
 11
48.433964
 21
0.0
 31
0.0
  0
LINE
  5
1FA
100
AcDbEntity
  8
0
390
0
  6
Continuous
 62
     7
100
AcDbLine
 10
49.036035
 20
0.0
 30
0.0
 11
48.433964
 21
0.0
 31
0.0
  0
LINE
  5
1FB
100
AcDbEntity
  8
0
390
0
  6
Continuous
 62
     7
100
AcDbLine
 10
47.435335
 20
25.233906
 30
0.0
 11
47.435335
 21
0.0
 31
0.0
  0
LINE
  5
1FC
100
AcDbEntity
  8
0
390
0
  6
Continuous
 62
     7
100
AcDbLine
 10
48.433964
 20
0.0
 30
0.0
 11
47.435335
 21
0.0
 31
0.0
  0
LINE
  5
1FD
100
AcDbEntity
  8
0
390
0
  6
Continuous
 62
     7
100
AcDbLine
 10
29.514665
 20
24.97445
 30
0.0
 11
29.514665
 21
0.0
 31
0.0
  0
LINE
  5
1FE
100
AcDbEntity
  8
0
390
0
  6
Continuous
 62
     7
100
AcDbLine
 10
29.514665
 20
0.0
 30
0.0
 11
28.516035
 21
0.0
 31
0.0
  0
LINE
  5
1FF
100
AcDbEntity
  8
0
390
0
  6
Continuous
 62
     7
100
AcDbLine
 10
-51.5
 20
34.227208
 30
0.0
 11
-51.5
 21
25.264081
 31
0.0
  0
POLYLINE
  5
200
100
AcDbEntity
  8
0
390
0
  6
Continuous
 62
     7
100
AcDb2dPolyline
 66
     1
 10
0.0
 20
0.0
 30
0.0
 40
0.1
 41
0.1
  0
VERTEX
  5
201
100
AcDbEntity
  8
0
390
0
 62
     7
100
AcDbVertex
100
AcDb2dVertex
 10
-51.5
 20
25.264081
 30
0.0
 42
-0.1153
  0
VERTEX
  5
202
100
AcDbEntity
  8
0
390
0
 62
     7
100
AcDbVertex
100
AcDb2dVertex
 10
-52.760764
 20
25.516862
 30
0.0
  0
VERTEX
  5
203
100
AcDbEntity
  8
0
390
0
 62
     7
100
AcDbVertex
100
AcDb2dVertex
 10
-52.850268
 20
25.57839
 30
0.0
  0
VERTEX
  5
204
100
AcDbEntity
  8
0
390
0
 62
     7
100
AcDbVertex
100
AcDb2dVertex
 10
-52.939185
 20
25.669543
 30
0.0
  0
VERTEX
  5
205
100
AcDbEntity
  8
0
390
0
 62
     7
100
AcDbVertex
100
AcDb2dVertex
 10
-52.990764
 20
25.77432
 30
0.0
  0
VERTEX
  5
206
100
AcDbEntity
  8
0
390
0
 62
     7
100
AcDbVertex
100
AcDb2dVertex
 10
-53.0
 20
25.844219
 30
0.0
  0
SEQEND
  5
207
100
AcDbEntity
  8
0
390
0
  0
LINE
  5
208
100
AcDbEntity
  8
0
390
0
  6
Continuous
 62
     7
100
AcDbLine
 10
-53.0
 20
25.844219
 30
0.0
 11
-53.0
 21
32.727208
 31
0.0
  0
LINE
  5
209
100
AcDbEntity
  8
0
390
0
  6
Continuous
 62
     7
100
AcDbLine
 10
-39.803612
 20
25.264081
 30
0.0
 11
-42.271389
 21
25.264081
 31
0.0
  0
ELLIPSE
  5
20A
100
AcDbEntity
  8
0
390
0
  6
Continuous
 62
     7
100
AcDbEllipse
 10
-40.02754
 20
28.727208
 30
0.0
 11
0.0
 21
-5.5000000000000053
 31
0.0
210
0.0
220
0.0
230
1.0
 40
0.052408
 41
0.8896816108864694
 42
0.9177192014178041
  0
LINE
  5
20B
100
AcDbEntity
  8
0
390
0
  6
Continuous
 62
     7
100
AcDbLine
 10
-34.673612
 20
25.264081
 30
0.0
 11
-37.141389
 21
25.264081
 31
0.0
  0
ELLIPSE
  5
20C
100
AcDbEntity
  8
0
390
0
  6
Continuous
 62
     7
100
AcDbEllipse
 10
-34.89754
 20
28.727208
 30
0.0
 11
0.0
 21
-5.5000000000000053
 31
0.0
210
0.0
220
0.0
230
1.0
 40
0.052408
 41
0.8896816108864694
 42
0.9177192014178447
  0
LINE
  5
20D
100
AcDbEntity
  8
0
390
0
  6
Continuous
 62
     7
100
AcDbLine
 10
-29.543612
 20
25.264081
 30
0.0
 11
-32.011389
 21
25.264081
 31
0.0
  0
ELLIPSE
  5
20E
100
AcDbEntity
  8
0
390
0
  6
Continuous
 62
     7
100
AcDbEllipse
 10
-29.76754
 20
28.727208
 30
0.0
 11
0.0
 21
-5.5000000000000053
 31
0.0
210
0.0
220
0.0
230
1.0
 40
0.052408
 41
0.8896816108864694
 42
0.9177192014178447
  0
LINE
  5
20F
100
AcDbEntity
  8
0
390
0
  6
Continuous
 62
     7
100
AcDbLine
 10
-50.063612
 20
25.264081
 30
0.0
 11
-51.5
 21
25.264081
 31
0.0
  0
ELLIPSE
  5
210
100
AcDbEntity
  8
0
390
0
  6
Continuous
 62
     7
100
AcDbEllipse
 10
-50.28754
 20
28.727208
 30
0.0
 11
0.0
 21
-5.5000000000000053
 31
0.0
210
0.0
220
0.0
230
1.0
 40
0.052408
 41
0.8896816108864694
 42
0.9177192014178447
  0
LINE
  5
211
100
AcDbEntity
  8
0
390
0
  6
Continuous
 62
     7
100
AcDbLine
 10
13.0
 20
34.220438
 30
0.0
 11
13.0
 21
25.264081
 31
0.0
  0
LINE
  5
212
100
AcDbEntity
  8
0
390
0
  6
Continuous
 62
     7
100
AcDbLine
 10
13.0
 20
34.220438
 30
0.0
 11
13.243565
 21
34.220438
 31
0.0
  0
LINE
  5
213
100
AcDbEntity
  8
0
390
0
  6
Continuous
 62
     7
100
AcDbLine
 10
16.631388
 20
25.264081
 30
0.0
 11
13.0
 21
25.264081
 31
0.0
  0
POLYLINE
  5
214
100
AcDbEntity
  8
0
390
0
  6
Continuous
 62
     7
100
AcDb2dPolyline
 66
     1
 10
0.0
 20
0.0
 30
0.0
 40
0.1
 41
0.1
  0
VERTEX
  5
215
100
AcDbEntity
  8
0
390
0
 62
     7
100
AcDbVertex
100
AcDb2dVertex
 10
12.82184
 20
34.209807
 30
0.0
  0
VERTEX
  5
216
100
AcDbEntity
  8
0
390
0
 62
     7
100
AcDbVertex
100
AcDb2dVertex
 10
12.678044
 20
34.176326
 30
0.0
  0
VERTEX
  5
217
100
AcDbEntity
  8
0
390
0
 62
     7
100
AcDbVertex
100
AcDb2dVertex
 10
12.535479
 20
34.124839
 30
0.0
  0
VERTEX
  5
218
100
AcDbEntity
  8
0
390
0
 62
     7
100
AcDbVertex
100
AcDb2dVertex
 10
12.395525
 20
34.055482
 30
0.0
 42
0.180478
  0
VERTEX
  5
219
100
AcDbEntity
  8
0
390
0
 62
     7
100
AcDbVertex
100
AcDb2dVertex
 10
11.580172
 20
33.026591
 30
0.0
  0
SEQEND
  5
21A
100
AcDbEntity
  8
0
390
0
  0
LINE
  5
21B
100
AcDbEntity
  8
0
390
0
  6
Continuous
 62
     7
100
AcDbLine
 10
13.0
 20
34.220438
 30
0.0
 11
12.82184
 21
34.209807
 31
0.0
  0
POLYLINE
  5
21C
100
AcDbEntity
  8
0
390
0
  6
Continuous
 62
     7
100
AcDb2dPolyline
 66
     1
 10
0.0
 20
0.0
 30
0.0
 40
0.1
 41
0.1
  0
VERTEX
  5
21D
100
AcDbEntity
  8
0
390
0
 62
     7
100
AcDbVertex
100
AcDb2dVertex
 10
13.0
 20
25.264081
 30
0.0
 42
-0.1153
  0
VERTEX
  5
21E
100
AcDbEntity
  8
0
390
0
 62
     7
100
AcDbVertex
100
AcDb2dVertex
 10
11.739236
 20
25.516862
 30
0.0
  0
VERTEX
  5
21F
100
AcDbEntity
  8
0
390
0
 62
     7
100
AcDbVertex
100
AcDb2dVertex
 10
11.649732
 20
25.57839
 30
0.0
  0
VERTEX
  5
220
100
AcDbEntity
  8
0
390
0
 62
     7
100
AcDbVertex
100
AcDb2dVertex
 10
11.560815
 20
25.669543
 30
0.0
  0
VERTEX
  5
221
100
AcDbEntity
  8
0
390
0
 62
     7
100
AcDbVertex
100
AcDb2dVertex
 10
11.509236
 20
25.77432
 30
0.0
  0
VERTEX
  5
222
100
AcDbEntity
  8
0
390
0
 62
     7
100
AcDbVertex
100
AcDb2dVertex
 10
11.5
 20
25.844219
 30
0.0
  0
SEQEND
  5
223
100
AcDbEntity
  8
0
390
0
  0
LINE
  5
224
100
AcDbEntity
  8
0
390
0
  6
Continuous
 62
     7
100
AcDbLine
 10
11.5
 20
25.844219
 30
0.0
 11
11.5
 21
32.519305
 31
0.0
  0
LINE
  5
225
100
AcDbEntity
  8
0
390
0
  6
Continuous
 62
     7
100
AcDbLine
 10
11.5
 20
32.519305
 30
0.0
 11
11.580172
 21
33.026591
 31
0.0
  0
LINE
  5
226
100
AcDbEntity
  8
0
390
0
  6
Continuous
 62
     7
100
AcDbLine
 10
-44.933612
 20
25.264081
 30
0.0
 11
-47.401389
 21
25.264081
 31
0.0
  0
ELLIPSE
  5
227
100
AcDbEntity
  8
0
390
0
  6
Continuous
 62
     7
100
AcDbEllipse
 10
-45.15754
 20
28.727208
 30
0.0
 11
0.0
 21
-5.5000000000000053
 31
0.0
210
0.0
220
0.0
230
1.0
 40
0.052408
 41
0.8896816108864694
 42
0.9177192014178833
  0
LINE
  5
228
100
AcDbEntity
  8
0
390
0
  6
Continuous
 62
     7
100
AcDbLine
 10
-19.278612
 20
25.264081
 30
0.0
 11
-21.751389
 21
25.264081
 31
0.0
  0
LINE
  5
229
100
AcDbEntity
  8
0
390
0
  6
Continuous
 62
     7
100
AcDbLine
 10
53.0
 20
32.727208
 30
0.0
 11
53.0
 21
25.844219
 31
0.0
  0
POLYLINE
  5
22A
100
AcDbEntity
  8
0
390
0
  6
Continuous
 62
     7
100
AcDb2dPolyline
 66
     1
 10
0.0
 20
0.0
 30
0.0
 40
0.1
 41
0.1
  0
VERTEX
  5
22B
100
AcDbEntity
  8
0
390
0
 62
     7
100
AcDbVertex
100
AcDb2dVertex
 10
53.0
 20
25.844219
 30
0.0
  0
VERTEX
  5
22C
100
AcDbEntity
  8
0
390
0
 62
     7
100
AcDbVertex
100
AcDb2dVertex
 10
52.975931
 20
25.732463
 30
0.0
  0
VERTEX
  5
22D
100
AcDbEntity
  8
0
390
0
 62
     7
100
AcDbVertex
100
AcDb2dVertex
 10
52.921181
 20
25.64673
 30
0.0
  0
VERTEX
  5
22E
100
AcDbEntity
  8
0
390
0
 62
     7
100
AcDbVertex
100
AcDb2dVertex
 10
52.825028
 20
25.559048
 30
0.0
  0
VERTEX
  5
22F
100
AcDbEntity
  8
0
390
0
 62
     7
100
AcDbVertex
100
AcDb2dVertex
 10
52.726668
 20
25.497576
 30
0.0
 42
-0.111317
  0
VERTEX
  5
230
100
AcDbEntity
  8
0
390
0
 62
     7
100
AcDbVertex
100
AcDb2dVertex
 10
51.5
 20
25.264081
 30
0.0
  0
SEQEND
  5
231
100
AcDbEntity
  8
0
390
0
  0
LINE
  5
232
100
AcDbEntity
  8
0
390
0
  6
Continuous
 62
     7
100
AcDbLine
 10
51.5
 20
25.264081
 30
0.0
 11
51.5
 21
34.227208
 31
0.0
  0
LINE
  5
233
100
AcDbEntity
  8
0
390
0
  6
Continuous
 62
     7
100
AcDbLine
 10
51.5
 20
25.264081
 30
0.0
 11
50.068611
 21
25.264081
 31
0.0
  0
LINE
  5
234
100
AcDbEntity
  8
0
390
0
  6
Continuous
 62
     7
100
AcDbLine
 10
21.756388
 20
25.264081
 30
0.0
 11
19.288611
 21
25.264081
 31
0.0
  0
ELLIPSE
  5
235
100
AcDbEntity
  8
0
390
0
  6
Continuous
 62
     7
100
AcDbEllipse
 10
21.53246
 20
28.727208
 30
0.0
 11
0.0
 21
-5.5000000000000053
 31
0.0
210
0.0
220
0.0
230
1.0
 40
0.052408
 41
0.8896816108864654
 42
0.9177192014177822
  0
LINE
  5
236
100
AcDbEntity
  8
0
390
0
  6
Continuous
 62
     7
100
AcDbLine
 10
-13.243566
 20
34.220438
 30
0.0
 11
-13.0
 21
34.220438
 31
0.0
  0
LINE
  5
237
100
AcDbEntity
  8
0
390
0
  6
Continuous
 62
     7
100
AcDbLine
 10
-13.0
 20
25.264081
 30
0.0
 11
-13.0
 21
34.220438
 31
0.0
  0
LINE
  5
238
100
AcDbEntity
  8
0
390
0
  6
Continuous
 62
     7
100
AcDbLine
 10
-13.0
 20
25.264081
 30
0.0
 11
-16.621389
 21
25.264081
 31
0.0
  0
LINE
  5
239
100
AcDbEntity
  8
0
390
0
  6
Continuous
 62
     7
100
AcDbLine
 10
-11.5
 20
32.519305
 30
0.0
 11
-11.5
 21
25.844219
 31
0.0
  0
POLYLINE
  5
23A
100
AcDbEntity
  8
0
390
0
  6
Continuous
 62
     7
100
AcDb2dPolyline
 66
     1
 10
0.0
 20
0.0
 30
0.0
 40
0.1
 41
0.1
  0
VERTEX
  5
23B
100
AcDbEntity
  8
0
390
0
 62
     7
100
AcDbVertex
100
AcDb2dVertex
 10
-11.5
 20
25.844219
 30
0.0
  0
VERTEX
  5
23C
100
AcDbEntity
  8
0
390
0
 62
     7
100
AcDbVertex
100
AcDb2dVertex
 10
-11.524069
 20
25.732463
 30
0.0
  0
VERTEX
  5
23D
100
AcDbEntity
  8
0
390
0
 62
     7
100
AcDbVertex
100
AcDb2dVertex
 10
-11.578819
 20
25.64673
 30
0.0
  0
VERTEX
  5
23E
100
AcDbEntity
  8
0
390
0
 62
     7
100
AcDbVertex
100
AcDb2dVertex
 10
-11.674972
 20
25.559048
 30
0.0
  0
VERTEX
  5
23F
100
AcDbEntity
  8
0
390
0
 62
     7
100
AcDbVertex
100
AcDb2dVertex
 10
-11.773332
 20
25.497576
 30
0.0
 42
-0.111317
  0
VERTEX
  5
240
100
AcDbEntity
  8
0
390
0
 62
     7
100
AcDbVertex
100
AcDb2dVertex
 10
-13.0
 20
25.264081
 30
0.0
  0
SEQEND
  5
241
100
AcDbEntity
  8
0
390
0
  0
LINE
  5
242
100
AcDbEntity
  8
0
390
0
  6
Continuous
 62
     7
100
AcDbLine
 10
-13.0
 20
34.220438
 30
0.0
 11
-12.821841
 21
34.209807
 31
0.0
  0
POLYLINE
  5
243
100
AcDbEntity
  8
0
390
0
  6
Continuous
 62
     7
100
AcDb2dPolyline
 66
     1
 10
0.0
 20
0.0
 30
0.0
 40
0.1
 41
0.1
  0
VERTEX
  5
244
100
AcDbEntity
  8
0
390
0
 62
     7
100
AcDbVertex
100
AcDb2dVertex
 10
-11.580172
 20
33.026591
 30
0.0
 42
0.179804
  0
VERTEX
  5
245
100
AcDbEntity
  8
0
390
0
 62
     7
100
AcDbVertex
100
AcDb2dVertex
 10
-12.395525
 20
34.055482
 30
0.0
  0
VERTEX
  5
246
100
AcDbEntity
  8
0
390
0
 62
     7
100
AcDbVertex
100
AcDb2dVertex
 10
-12.53548
 20
34.124839
 30
0.0
  0
VERTEX
  5
247
100
AcDbEntity
  8
0
390
0
 62
     7
100
AcDbVertex
100
AcDb2dVertex
 10
-12.678044
 20
34.176326
 30
0.0
  0
VERTEX
  5
248
100
AcDbEntity
  8
0
390
0
 62
     7
100
AcDbVertex
100
AcDb2dVertex
 10
-12.821841
 20
34.209807
 30
0.0
  0
SEQEND
  5
249
100
AcDbEntity
  8
0
390
0
  0
LINE
  5
24A
100
AcDbEntity
  8
0
390
0
  6
Continuous
 62
     7
100
AcDbLine
 10
-11.580172
 20
33.026591
 30
0.0
 11
-11.5
 21
32.519305
 31
0.0
  0
LINE
  5
24B
100
AcDbEntity
  8
0
390
0
  6
Continuous
 62
     7
100
AcDbLine
 10
-24.413612
 20
25.264081
 30
0.0
 11
-26.881389
 21
25.264081
 31
0.0
  0
ELLIPSE
  5
24C
100
AcDbEntity
  8
0
390
0
  6
Continuous
 62
     7
100
AcDbEllipse
 10
-24.63754
 20
28.727208
 30
0.0
 11
0.0
 21
-5.5000000000000053
 31
0.0
210
0.0
220
0.0
230
1.0
 40
0.052408
 41
0.8896816108864694
 42
0.9177192014178447
  0
LINE
  5
24D
100
AcDbEntity
  8
0
390
0
  6
Continuous
 62
     7
100
AcDbLine
 10
26.886388
 20
25.264081
 30
0.0
 11
24.418611
 21
25.264081
 31
0.0
  0
ELLIPSE
  5
24E
100
AcDbEntity
  8
0
390
0
  6
Continuous
 62
     7
100
AcDbEllipse
 10
26.66246
 20
28.727208
 30
0.0
 11
0.0
 21
-5.5000000000000053
 31
0.0
210
0.0
220
0.0
230
1.0
 40
0.052408
 41
0.8896816108864654
 42
0.9177192014178417
  0
LINE
  5
24F
100
AcDbEntity
  8
0
390
0
  6
Continuous
 62
     7
100
AcDbLine
 10
47.406388
 20
25.264081
 30
0.0
 11
44.938611
 21
25.264081
 31
0.0
  0
ELLIPSE
  5
250
100
AcDbEntity
  8
0
390
0
  6
Continuous
 62
     7
100
AcDbEllipse
 10
47.18246
 20
28.727208
 30
0.0
 11
0.0
 21
-5.5000000000000053
 31
0.0
210
0.0
220
0.0
230
1.0
 40
0.052408
 41
0.8896816108864654
 42
0.9177192014178021
  0
LINE
  5
251
100
AcDbEntity
  8
0
390
0
  6
Continuous
 62
     7
100
AcDbLine
 10
42.276388
 20
25.264081
 30
0.0
 11
39.808611
 21
25.264081
 31
0.0
  0
ELLIPSE
  5
252
100
AcDbEntity
  8
0
390
0
  6
Continuous
 62
     7
100
AcDbEllipse
 10
42.05246
 20
28.727208
 30
0.0
 11
0.0
 21
-5.5000000000000053
 31
0.0
210
0.0
220
0.0
230
1.0
 40
0.052408
 41
0.8896816108864654
 42
0.9177192014178417
  0
LINE
  5
253
100
AcDbEntity
  8
0
390
0
  6
Continuous
 62
     7
100
AcDbLine
 10
37.146388
 20
25.264081
 30
0.0
 11
34.678611
 21
25.264081
 31
0.0
  0
ELLIPSE
  5
254
100
AcDbEntity
  8
0
390
0
  6
Continuous
 62
     7
100
AcDbEllipse
 10
36.92246
 20
28.727208
 30
0.0
 11
0.0
 21
-5.5000000000000053
 31
0.0
210
0.0
220
0.0
230
1.0
 40
0.052408
 41
0.8896816108864654
 42
0.9177192014177614
  0
LINE
  5
255
100
AcDbEntity
  8
0
390
0
  6
Continuous
 62
     7
100
AcDbLine
 10
32.016388
 20
25.264081
 30
0.0
 11
29.548611
 21
25.264081
 31
0.0
  0
ELLIPSE
  5
256
100
AcDbEntity
  8
0
390
0
  6
Continuous
 62
     7
100
AcDbEllipse
 10
31.79246
 20
28.727208
 30
0.0
 11
0.0
 21
-5.5000000000000053
 31
0.0
210
0.0
220
0.0
230
1.0
 40
0.052408
 41
0.8896816108864654
 42
0.9177192014178021
  0
LINE
  5
257
100
AcDbEntity
  8
0
390
0
  6
Continuous
 62
     7
100
AcDbLine
 10
-50.063612
 20
25.264081
 30
0.0
 11
-50.063612
 21
0.0
 31
0.0
  0
LINE
  5
258
100
AcDbEntity
  8
0
390
0
  6
Continuous
 62
     7
100
AcDbLine
 10
-50.034665
 20
0.0
 30
0.0
 11
-50.063612
 21
0.0
 31
0.0
  0
LINE
  5
259
100
AcDbEntity
  8
0
390
0
  6
Continuous
 62
     7
100
AcDbLine
 10
-44.933612
 20
25.264081
 30
0.0
 11
-44.933612
 21
0.0
 31
0.0
  0
LINE
  5
25A
100
AcDbEntity
  8
0
390
0
  6
Continuous
 62
     7
100
AcDbLine
 10
-44.904665
 20
0.0
 30
0.0
 11
-44.933612
 21
0.0
 31
0.0
  0
LINE
  5
25B
100
AcDbEntity
  8
0
390
0
  6
Continuous
 62
     7
100
AcDbLine
 10
-29.543612
 20
25.264081
 30
0.0
 11
-29.543612
 21
0.0
 31
0.0
  0
LINE
  5
25C
100
AcDbEntity
  8
0
390
0
  6
Continuous
 62
     7
100
AcDbLine
 10
-29.514665
 20
0.0
 30
0.0
 11
-29.543612
 21
0.0
 31
0.0
  0
LINE
  5
25D
100
AcDbEntity
  8
0
390
0
  6
Continuous
 62
     7
100
AcDbLine
 10
-37.146389
 20
25.114479
 30
0.0
 11
-37.146389
 21
0.0
 31
0.0
  0
LINE
  5
25E
100
AcDbEntity
  8
0
390
0
  6
Continuous
 62
     7
100
AcDbLine
 10
-37.146389
 20
0.0
 30
0.0
 11
-37.175335
 21
0.0
 31
0.0
  0
LINE
  5
25F
100
AcDbEntity
  8
0
390
0
  6
Continuous
 62
     7
100
AcDbLine
 10
-39.803612
 20
25.264081
 30
0.0
 11
-39.803612
 21
0.0
 31
0.0
  0
LINE
  5
260
100
AcDbEntity
  8
0
390
0
  6
Continuous
 62
     7
100
AcDbLine
 10
-39.774665
 20
0.0
 30
0.0
 11
-39.803612
 21
0.0
 31
0.0
  0
LINE
  5
261
100
AcDbEntity
  8
0
390
0
  6
Continuous
 62
     7
100
AcDbLine
 10
-32.016389
 20
25.114479
 30
0.0
 11
-32.016389
 21
0.0
 31
0.0
  0
LINE
  5
262
100
AcDbEntity
  8
0
390
0
  6
Continuous
 62
     7
100
AcDbLine
 10
-32.016389
 20
0.0
 30
0.0
 11
-32.045335
 21
0.0
 31
0.0
  0
LINE
  5
263
100
AcDbEntity
  8
0
390
0
  6
Continuous
 62
     7
100
AcDbLine
 10
-47.406389
 20
25.114479
 30
0.0
 11
-47.406389
 21
0.0
 31
0.0
  0
LINE
  5
264
100
AcDbEntity
  8
0
390
0
  6
Continuous
 62
     7
100
AcDbLine
 10
-47.406389
 20
0.0
 30
0.0
 11
-47.435335
 21
0.0
 31
0.0
  0
LINE
  5
265
100
AcDbEntity
  8
0
390
0
  6
Continuous
 62
     7
100
AcDbLine
 10
-42.276389
 20
25.114479
 30
0.0
 11
-42.276389
 21
0.0
 31
0.0
  0
LINE
  5
266
100
AcDbEntity
  8
0
390
0
  6
Continuous
 62
     7
100
AcDbLine
 10
-42.276389
 20
0.0
 30
0.0
 11
-42.305335
 21
0.0
 31
0.0
  0
LINE
  5
267
100
AcDbEntity
  8
0
390
0
  6
Continuous
 62
     7
100
AcDbLine
 10
-34.673612
 20
25.264081
 30
0.0
 11
-34.673612
 21
0.0
 31
0.0
  0
LINE
  5
268
100
AcDbEntity
  8
0
390
0
  6
Continuous
 62
     7
100
AcDbLine
 10
-34.644665
 20
0.0
 30
0.0
 11
-34.673612
 21
0.0
 31
0.0
  0
LINE
  5
269
100
AcDbEntity
  8
0
390
0
  6
Continuous
 62
     7
100
AcDbLine
 10
-21.756389
 20
25.114479
 30
0.0
 11
-21.756389
 21
0.0
 31
0.0
  0
LINE
  5
26A
100
AcDbEntity
  8
0
390
0
  6
Continuous
 62
     7
100
AcDbLine
 10
-21.756389
 20
0.0
 30
0.0
 11
-21.785335
 21
0.0
 31
0.0
  0
LINE
  5
26B
100
AcDbEntity
  8
0
390
0
  6
Continuous
 62
     7
100
AcDbLine
 10
-26.886389
 20
25.114479
 30
0.0
 11
-26.886389
 21
0.0
 31
0.0
  0
LINE
  5
26C
100
AcDbEntity
  8
0
390
0
  6
Continuous
 62
     7
100
AcDbLine
 10
-26.886389
 20
0.0
 30
0.0
 11
-26.915335
 21
0.0
 31
0.0
  0
LINE
  5
26D
100
AcDbEntity
  8
0
390
0
  6
Continuous
 62
     7
100
AcDbLine
 10
-24.413612
 20
25.264081
 30
0.0
 11
-24.413612
 21
0.0
 31
0.0
  0
LINE
  5
26E
100
AcDbEntity
  8
0
390
0
  6
Continuous
 62
     7
100
AcDbLine
 10
-24.384665
 20
0.0
 30
0.0
 11
-24.413612
 21
0.0
 31
0.0
  0
LINE
  5
26F
100
AcDbEntity
  8
0
390
0
  6
Continuous
 62
     7
100
AcDbLine
 10
24.413611
 20
25.114479
 30
0.0
 11
24.413611
 21
0.0
 31
0.0
  0
LINE
  5
270
100
AcDbEntity
  8
0
390
0
  6
Continuous
 62
     7
100
AcDbLine
 10
24.413611
 20
0.0
 30
0.0
 11
24.384665
 21
0.0
 31
0.0
  0
LINE
  5
271
100
AcDbEntity
  8
0
390
0
  6
Continuous
 62
     7
100
AcDbLine
 10
21.756388
 20
25.264081
 30
0.0
 11
21.756388
 21
0.0
 31
0.0
  0
LINE
  5
272
100
AcDbEntity
  8
0
390
0
  6
Continuous
 62
     7
100
AcDbLine
 10
21.785335
 20
0.0
 30
0.0
 11
21.756388
 21
0.0
 31
0.0
  0
LINE
  5
273
100
AcDbEntity
  8
0
390
0
  6
Continuous
 62
     7
100
AcDbLine
 10
29.543611
 20
25.114479
 30
0.0
 11
29.543611
 21
0.0
 31
0.0
  0
LINE
  5
274
100
AcDbEntity
  8
0
390
0
  6
Continuous
 62
     7
100
AcDbLine
 10
29.543611
 20
0.0
 30
0.0
 11
29.514665
 21
0.0
 31
0.0
  0
LINE
  5
275
100
AcDbEntity
  8
0
390
0
  6
Continuous
 62
     7
100
AcDbLine
 10
34.673611
 20
25.114479
 30
0.0
 11
34.673611
 21
0.0
 31
0.0
  0
LINE
  5
276
100
AcDbEntity
  8
0
390
0
  6
Continuous
 62
     7
100
AcDbLine
 10
34.673611
 20
0.0
 30
0.0
 11
34.644665
 21
0.0
 31
0.0
  0
LINE
  5
277
100
AcDbEntity
  8
0
390
0
  6
Continuous
 62
     7
100
AcDbLine
 10
42.276388
 20
25.264081
 30
0.0
 11
42.276388
 21
0.0
 31
0.0
  0
LINE
  5
278
100
AcDbEntity
  8
0
390
0
  6
Continuous
 62
     7
100
AcDbLine
 10
42.305335
 20
0.0
 30
0.0
 11
42.276388
 21
0.0
 31
0.0
  0
LINE
  5
279
100
AcDbEntity
  8
0
390
0
  6
Continuous
 62
     7
100
AcDbLine
 10
47.406388
 20
25.264081
 30
0.0
 11
47.406388
 21
0.0
 31
0.0
  0
LINE
  5
27A
100
AcDbEntity
  8
0
390
0
  6
Continuous
 62
     7
100
AcDbLine
 10
47.435335
 20
0.0
 30
0.0
 11
47.406388
 21
0.0
 31
0.0
  0
LINE
  5
27B
100
AcDbEntity
  8
0
390
0
  6
Continuous
 62
     7
100
AcDbLine
 10
39.803611
 20
25.114479
 30
0.0
 11
39.803611
 21
0.0
 31
0.0
  0
LINE
  5
27C
100
AcDbEntity
  8
0
390
0
  6
Continuous
 62
     7
100
AcDbLine
 10
39.803611
 20
0.0
 30
0.0
 11
39.774665
 21
0.0
 31
0.0
  0
LINE
  5
27D
100
AcDbEntity
  8
0
390
0
  6
Continuous
 62
     7
100
AcDbLine
 10
50.063611
 20
25.114479
 30
0.0
 11
50.063611
 21
0.0
 31
0.0
  0
LINE
  5
27E
100
AcDbEntity
  8
0
390
0
  6
Continuous
 62
     7
100
AcDbLine
 10
50.063611
 20
0.0
 30
0.0
 11
50.034665
 21
0.0
 31
0.0
  0
LINE
  5
27F
100
AcDbEntity
  8
0
390
0
  6
Continuous
 62
     7
100
AcDbLine
 10
26.886388
 20
25.264081
 30
0.0
 11
26.886388
 21
0.0
 31
0.0
  0
LINE
  5
280
100
AcDbEntity
  8
0
390
0
  6
Continuous
 62
     7
100
AcDbLine
 10
26.915335
 20
0.0
 30
0.0
 11
26.886388
 21
0.0
 31
0.0
  0
LINE
  5
281
100
AcDbEntity
  8
0
390
0
  6
Continuous
 62
     7
100
AcDbLine
 10
44.933611
 20
25.114479
 30
0.0
 11
44.933611
 21
0.0
 31
0.0
  0
LINE
  5
282
100
AcDbEntity
  8
0
390
0
  6
Continuous
 62
     7
100
AcDbLine
 10
44.933611
 20
0.0
 30
0.0
 11
44.904665
 21
0.0
 31
0.0
  0
LINE
  5
283
100
AcDbEntity
  8
0
390
0
  6
Continuous
 62
     7
100
AcDbLine
 10
37.146388
 20
25.264081
 30
0.0
 11
37.146388
 21
0.0
 31
0.0
  0
LINE
  5
284
100
AcDbEntity
  8
0
390
0
  6
Continuous
 62
     7
100
AcDbLine
 10
37.175335
 20
0.0
 30
0.0
 11
37.146388
 21
0.0
 31
0.0
  0
LINE
  5
285
100
AcDbEntity
  8
0
390
0
  6
Continuous
 62
     7
100
AcDbLine
 10
32.016388
 20
25.264081
 30
0.0
 11
32.016388
 21
0.0
 31
0.0
  0
LINE
  5
286
100
AcDbEntity
  8
0
390
0
  6
Continuous
 62
     7
100
AcDbLine
 10
32.045335
 20
0.0
 30
0.0
 11
32.016388
 21
0.0
 31
0.0
  0
ARC
  5
287
100
AcDbEntity
  8
0
390
0
  6
Continuous
 62
     7
100
AcDbCircle
 10
-15.040683
 20
17.106136
 30
0.0
 40
0.98281
210
0.0
220
0.0
230
1.0
100
AcDbArc
 50
168.5965
 51
255.414267
  0
LINE
  5
288
100
AcDbEntity
  8
0
390
0
  6
Continuous
 62
     7
100
AcDbLine
 10
-15.288182
 20
16.155
 30
0.0
 11
-15.288182
 21
15.459545
 31
0.0
  0
LINE
  5
289
100
AcDbEntity
  8
0
390
0
  6
Continuous
 62
     7
100
AcDbLine
 10
-15.288182
 20
15.459545
 30
0.0
 11
-19.501819
 21
15.459545
 31
0.0
  0
LINE
  5
28A
100
AcDbEntity
  8
0
390
0
  6
Continuous
 62
     7
100
AcDbLine
 10
-19.501819
 20
15.459545
 30
0.0
 11
-19.501819
 21
16.277727
 31
0.0
  0
LINE
  5
28B
100
AcDbEntity
  8
0
390
0
  6
Continuous
 62
     7
100
AcDbLine
 10
-19.501819
 20
16.277727
 30
0.0
 11
-16.515455
 21
16.277727
 31
0.0
  0
LINE
  5
28C
100
AcDbEntity
  8
0
390
0
  6
Continuous
 62
     7
100
AcDbLine
 10
-16.515455
 20
16.277727
 30
0.0
 11
-16.515455
 21
17.300454
 31
0.0
  0
LINE
  5
28D
100
AcDbEntity
  8
0
390
0
  6
Continuous
 62
     7
100
AcDbLine
 10
-16.515455
 20
17.300454
 30
0.0
 11
-16.004091
 21
17.300454
 31
0.0
  0
SPLINE
  5
28E
100
AcDbEntity
  8
0
390
0
  6
Continuous
 62
     7
100
AcDbSpline
210
0.0
220
0.0
230
1.0
 70
     0
 71
     2
 72
    20
 73
    17
 74
     0
 42
0.000001
 43
0.000001
 40
-1.0
 40
0.0
 40
0.0
 40
1.0
 40
1.0
 40
2.0
 40
2.0
 40
3.0
 40
3.0
 40
4.0
 40
4.0
 40
5.0
 40
5.0
 40
6.0
 40
6.0
 40
7.0
 40
7.0
 40
8.0
 40
8.0
 40
9.0
 10
-18.335909433457921
 20
13.008693003259243
 30
0.0
 10
-18.826818524367017
 20
12.783693003259323
 30
0.0
 10
-18.885443824016662
 20
12.353774139161944
 30
0.0
 10
-18.949545797094292
 20
11.883693003259255
 30
0.0
 10
-18.543601741150244
 20
11.613063632629872
 30
0.0
 10
-18.213182160730646
 20
11.392783912350158
 30
0.0
 10
-17.640235947190359
 20
11.355213668839347
 30
0.0
 10
-16.965454888003386
 20
11.310965730531974
 30
0.0
 10
-16.475130013965472
 20
11.516902177627909
 30
0.0
 10
-15.942727615276098
 20
11.740511185077462
 30
0.0
 10
-15.895247747225284
 20
12.148838050314637
 30
0.0
 10
-15.84045488800337
 20
12.6200566396229
 30
0.0
 10
-16.186800096848586
 20
12.867446074512346
 30
0.0
 10
-16.55636397891244
 20
13.131420275986516
 30
0.0
 10
-17.149059271851868
 20
13.178459584949954
 30
0.0
 10
-17.845000342548822
 20
13.233693003259273
 30
0.0
 10
-18.335909433457921
 20
13.008693003259243
 30
0.0
  0
SPLINE
  5
28F
100
AcDbEntity
  8
0
390
0
  6
Continuous
 62
     7
100
AcDbSpline
210
0.0
220
0.0
230
1.0
 70
     0
 71
     2
 72
    20
 73
    17
 74
     0
 42
0.000001
 43
0.000001
 40
-1.0
 40
0.0
 40
0.0
 40
1.0
 40
1.0
 40
2.0
 40
2.0
 40
3.0
 40
3.0
 40
4.0
 40
4.0
 40
5.0
 40
5.0
 40
6.0
 40
6.0
 40
7.0
 40
7.0
 40
8.0
 40
8.0
 40
9.0
 10
-19.031564353308163
 20
13.458901556201718
 30
0.0
 10
-18.499545797094285
 20
13.970056639622918
 30
0.0
 10
-17.599419101535673
 20
14.007956711014845
 30
0.0
 10
-16.55636397891244
 20
14.051874821441102
 30
0.0
 10
-15.884323580905219
 20
13.516342629279032
 30
0.0
 10
-15.247273069821571
 20
13.008693003259243
 30
0.0
 10
-15.247273069821571
 20
12.251874821441078
 30
0.0
 10
-15.247273069821571
 20
11.515511185077433
 30
0.0
 10
-15.774030600723716
 20
11.059663321796698
 30
0.0
 10
-16.310909433457923
 20
10.595056639622957
 30
0.0
 10
-17.210570407842656
 20
10.54770606202371
 30
0.0
 10
-18.254091251639736
 20
10.492783912350145
 30
0.0
 10
-18.914740788616381
 20
10.996135940522844
 30
0.0
 10
-19.542727615276089
 20
11.47460209416834
 30
0.0
 10
-19.542727615276089
 20
12.251874821441078
 30
0.0
 10
-19.542727615276089
 20
12.96778391235015
 30
0.0
 10
-19.031564353308163
 20
13.458901556201718
 30
0.0
  0
LINE
  5
290
100
AcDbEntity
  8
0
390
0
  6
Continuous
 62
     7
100
AcDbLine
 10
-16.965455
 20
21.149318
 30
0.0
 11
-16.965455
 21
19.410682
 31
0.0
  0
LINE
  5
291
100
AcDbEntity
  8
0
390
0
  6
Continuous
 62
     7
100
AcDbLine
 10
-15.288182
 20
21.149318
 30
0.0
 11
-16.965455
 21
21.149318
 31
0.0
  0
LINE
  5
292
100
AcDbEntity
  8
0
390
0
  6
Continuous
 62
     7
100
AcDbLine
 10
-15.288182
 20
19.410682
 30
0.0
 11
-15.288182
 21
18.5925
 31
0.0
  0
LINE
  5
293
100
AcDbEntity
  8
0
390
0
  6
Continuous
 62
     7
100
AcDbLine
 10
-15.288182
 20
18.5925
 30
0.0
 11
-19.501819
 21
18.5925
 31
0.0
  0
LINE
  5
294
100
AcDbEntity
  8
0
390
0
  6
Continuous
 62
     7
100
AcDbLine
 10
-19.501819
 20
21.9675
 30
0.0
 11
-15.288182
 21
21.9675
 31
0.0
  0
LINE
  5
295
100
AcDbEntity
  8
0
390
0
  6
Continuous
 62
     7
100
AcDbLine
 10
-19.501819
 20
21.149318
 30
0.0
 11
-19.501819
 21
21.9675
 31
0.0
  0
LINE
  5
296
100
AcDbEntity
  8
0
390
0
  6
Continuous
 62
     7
100
AcDbLine
 10
-15.288182
 20
21.9675
 30
0.0
 11
-15.288182
 21
21.149318
 31
0.0
  0
LINE
  5
297
100
AcDbEntity
  8
0
390
0
  6
Continuous
 62
     7
100
AcDbLine
 10
-17.681364
 20
19.410682
 30
0.0
 11
-17.681364
 21
21.149318
 31
0.0
  0
LINE
  5
298
100
AcDbEntity
  8
0
390
0
  6
Continuous
 62
     7
100
AcDbLine
 10
-19.501819
 20
19.410682
 30
0.0
 11
-17.681364
 21
19.410682
 31
0.0
  0
LINE
  5
299
100
AcDbEntity
  8
0
390
0
  6
Continuous
 62
     7
100
AcDbLine
 10
-16.965455
 20
19.410682
 30
0.0
 11
-15.288182
 21
19.410682
 31
0.0
  0
LINE
  5
29A
100
AcDbEntity
  8
0
390
0
  6
Continuous
 62
     7
100
AcDbLine
 10
-19.501819
 20
18.5925
 30
0.0
 11
-19.501819
 21
19.410682
 31
0.0
  0
LINE
  5
29B
100
AcDbEntity
  8
0
390
0
  6
Continuous
 62
     7
100
AcDbLine
 10
-17.681364
 20
21.149318
 30
0.0
 11
-19.501819
 21
21.149318
 31
0.0
  0
SPLINE
  5
29C
100
AcDbEntity
  8
0
390
0
  6
Continuous
 62
     7
100
AcDbSpline
210
0.0
220
0.0
230
1.0
 70
     0
 71
     2
 72
    20
 73
    17
 74
     0
 42
0.000001
 43
0.000001
 40
-1.0
 40
0.0
 40
0.0
 40
1.0
 40
1.0
 40
2.0
 40
2.0
 40
3.0
 40
3.0
 40
4.0
 40
4.0
 40
5.0
 40
5.0
 40
6.0
 40
6.0
 40
7.0
 40
7.0
 40
8.0
 40
8.0
 40
9.0
 10
-19.031564353308163
 20
8.9589015562017149
 30
0.0
 10
-18.499545797094285
 20
9.4700566396228592
 30
0.0
 10
-17.599419101535673
 20
9.5079567110148417
 30
0.0
 10
-16.55636397891244
 20
9.5518748214410429
 30
0.0
 10
-15.884323580905219
 20
9.0163426292790287
 30
0.0
 10
-15.247273069821571
 20
8.5086930032592374
 30
0.0
 10
-15.247273069821571
 20
7.7518748214410742
 30
0.0
 10
-15.247273069821571
 20
7.0155111850774272
 30
0.0
 10
-15.774030600723716
 20
6.5596633217966938
 30
0.0
 10
-16.310909433457923
 20
6.0950566396228982
 30
0.0
 10
-17.210570407842656
 20
6.0477060620237051
 30
0.0
 10
-18.254091251639736
 20
5.9927839123501414
 30
0.0
 10
-18.914740788616381
 20
6.4961359405228958
 30
0.0
 10
-19.542727615276089
 20
6.9746020941683362
 30
0.0
 10
-19.542727615276089
 20
7.7518748214410742
 30
0.0
 10
-19.542727615276089
 20
8.4677839123501464
 30
0.0
 10
-19.031564353308163
 20
8.9589015562017149
 30
0.0
  0
SPLINE
  5
29D
100
AcDbEntity
  8
0
390
0
  6
Continuous
 62
     7
100
AcDbSpline
210
0.0
220
0.0
230
1.0
 70
     0
 71
     2
 72
    20
 73
    17
 74
     0
 42
0.000001
 43
0.000001
 40
-1.0
 40
0.0
 40
0.0
 40
1.0
 40
1.0
 40
2.0
 40
2.0
 40
3.0
 40
3.0
 40
4.0
 40
4.0
 40
5.0
 40
5.0
 40
6.0
 40
6.0
 40
7.0
 40
7.0
 40
8.0
 40
8.0
 40
9.0
 10
-18.335909433457921
 20
8.5086930032592374
 30
0.0
 10
-18.826818524367017
 20
8.2836930032593177
 30
0.0
 10
-18.885443824016662
 20
7.8537741391618843
 30
0.0
 10
-18.949545797094292
 20
7.3836930032592507
 30
0.0
 10
-18.543601741150244
 20
7.1130636326299239
 30
0.0
 10
-18.213182160730646
 20
6.8927839123501533
 30
0.0
 10
-17.640235947190359
 20
6.8552136688393439
 30
0.0
 10
-16.965454888003386
 20
6.8109657305320255
 30
0.0
 10
-16.475130013965472
 20
7.0169021776279035
 30
0.0
 10
-15.942727615276098
 20
7.2405111850774588
 30
0.0
 10
-15.895247747225284
 20
7.648838050314632
 30
0.0
 10
-15.84045488800337
 20
8.1200566396228968
 30
0.0
 10
-16.186800096848586
 20
8.3674460745123405
 30
0.0
 10
-16.55636397891244
 20
8.6314202759865122
 30
0.0
 10
-17.149059271851868
 20
8.6784595849499482
 30
0.0
 10
-17.845000342548822
 20
8.733693003259269
 30
0.0
 10
-18.335909433457921
 20
8.5086930032592374
 30
0.0
  0
LINE
  5
29E
100
AcDbEntity
  8
0
390
0
  6
Continuous
 62
     7
100
AcDbLine
 10
14.881978
 20
20.476726
 30
0.0
 11
18.216265
 21
20.476726
 31
0.0
  0
ARC
  5
29F
100
AcDbEntity
  8
0
390
0
  6
Continuous
 62
     7
100
AcDbCircle
 10
18.216265
 20
18.807751
 30
0.0
 40
1.668975
210
0.0
220
0.0
230
1.0
100
AcDbArc
 50
0.0
 51
90.0
  0
LINE
  5
2A0
100
AcDbEntity
  8
0
390
0
  6
Continuous
 62
     7
100
AcDbLine
 10
19.88524
 20
18.807751
 30
0.0
 11
19.88524
 21
17.051888
 31
0.0
  0
LINE
  5
2A1
100
AcDbEntity
  8
0
390
0
  6
Continuous
 62
     7
100
AcDbLine
 10
19.88524
 20
17.051888
 30
0.0
 11
19.157671
 21
17.345845
 31
0.0
  0
LINE
  5
2A2
100
AcDbEntity
  8
0
390
0
  6
Continuous
 62
     7
100
AcDbLine
 10
19.157671
 20
17.345845
 30
0.0
 11
19.157671
 21
18.05652
 31
0.0
  0
LINE
  5
2A3
100
AcDbEntity
  8
0
390
0
  6
Continuous
 62
     7
100
AcDbLine
 10
18.045021
 20
19.16917
 30
0.0
 11
14.881978
 21
19.16917
 31
0.0
  0
LINE
  5
2A4
100
AcDbEntity
  8
0
390
0
  6
Continuous
 62
     7
100
AcDbLine
 10
14.881978
 20
19.16917
 30
0.0
 11
14.881978
 21
20.476726
 31
0.0
  0
ARC
  5
2A5
100
AcDbEntity
  8
0
390
0
  6
Continuous
 62
     7
100
AcDbCircle
 10
18.045021
 20
18.05652
 30
0.0
 40
1.11265
210
0.0
220
0.0
230
1.0
100
AcDbArc
 50
0.0
 51
90.0
  0
LINE
  5
2A6
100
AcDbEntity
  8
0
390
0
  6
Continuous
 62
     7
100
AcDbLine
 10
14.881978
 20
18.142964
 30
0.0
 11
19.88524
 21
16.121617
 31
0.0
  0
LINE
  5
2A7
100
AcDbEntity
  8
0
390
0
  6
Continuous
 62
     7
100
AcDbLine
 10
19.88524
 20
16.121617
 30
0.0
 11
19.88524
 21
14.754908
 31
0.0
  0
LINE
  5
2A8
100
AcDbEntity
  8
0
390
0
  6
Continuous
 62
     7
100
AcDbLine
 10
18.376268
 20
15.43812
 30
0.0
 11
14.881978
 21
16.850071
 31
0.0
  0
LINE
  5
2A9
100
AcDbEntity
  8
0
390
0
  6
Continuous
 62
     7
100
AcDbLine
 10
15.735926
 20
14.371303
 30
0.0
 11
18.376268
 21
15.43812
 31
0.0
  0
LINE
  5
2AA
100
AcDbEntity
  8
0
390
0
  6
Continuous
 62
     7
100
AcDbLine
 10
17.336218
 20
13.724857
 30
0.0
 11
15.735926
 21
14.371303
 31
0.0
  0
LINE
  5
2AB
100
AcDbEntity
  8
0
390
0
  6
Continuous
 62
     7
100
AcDbLine
 10
19.88524
 20
14.754908
 30
0.0
 11
17.336218
 21
13.724857
 31
0.0
  0
LINE
  5
2AC
100
AcDbEntity
  8
0
390
0
  6
Continuous
 62
     7
100
AcDbLine
 10
14.881978
 20
16.850071
 30
0.0
 11
14.881978
 21
18.142964
 31
0.0
  0
LINE
  5
2AD
100
AcDbEntity
  8
0
390
0
  6
Continuous
 62
     7
100
AcDbLine
 10
14.881978
 20
10.510095
 30
0.0
 11
14.881978
 21
11.802971
 31
0.0
  0
LINE
  5
2AE
100
AcDbEntity
  8
0
390
0
  6
Continuous
 62
     7
100
AcDbLine
 10
19.88524
 20
13.824637
 30
0.0
 11
19.88524
 21
12.53176
 31
0.0
  0
LINE
  5
2AF
100
AcDbEntity
  8
0
390
0
  6
Continuous
 62
     7
100
AcDbLine
 10
19.88524
 20
12.53176
 30
0.0
 11
14.881978
 21
10.510095
 31
0.0
  0
LINE
  5
2B0
100
AcDbEntity
  8
0
390
0
  6
Continuous
 62
     7
100
AcDbLine
 10
14.881978
 20
11.802971
 30
0.0
 11
19.88524
 21
13.824637
 31
0.0
  0
LINE
  5
2B1
100
AcDbEntity
  8
0
390
0
  6
Continuous
 62
     7
100
AcDbLine
 10
18.729678
 20
8.940131
 30
0.0
 11
18.729678
 21
8.136148
 31
0.0
  0
LINE
  5
2B2
100
AcDbEntity
  8
0
390
0
  6
Continuous
 62
     7
100
AcDbLine
 10
18.729678
 20
8.136148
 30
0.0
 11
19.88524
 21
7.668931
 31
0.0
  0
LINE
  5
2B3
100
AcDbEntity
  8
0
390
0
  6
Continuous
 62
     7
100
AcDbLine
 10
19.88524
 20
7.668931
 30
0.0
 11
19.88524
 21
6.37643
 31
0.0
  0
LINE
  5
2B4
100
AcDbEntity
  8
0
390
0
  6
Continuous
 62
     7
100
AcDbLine
 10
16.133926
 20
7.891864
 30
0.0
 11
18.729678
 21
8.940131
 31
0.0
  0
LINE
  5
2B5
100
AcDbEntity
  8
0
390
0
  6
Continuous
 62
     7
100
AcDbLine
 10
19.88524
 20
6.37643
 30
0.0
 11
16.133926
 21
7.891864
 31
0.0
  0
LINE
  5
2B6
100
AcDbEntity
  8
0
390
0
  6
Continuous
 62
     7
100
AcDbLine
 10
19.88524
 20
10.30867
 30
0.0
 11
14.881978
 21
8.287289
 31
0.0
  0
LINE
  5
2B7
100
AcDbEntity
  8
0
390
0
  6
Continuous
 62
     7
100
AcDbLine
 10
14.881978
 20
9.57979
 30
0.0
 11
19.88524
 21
11.601455
 31
0.0
  0
LINE
  5
2B8
100
AcDbEntity
  8
0
390
0
  6
Continuous
 62
     7
100
AcDbLine
 10
19.88524
 20
11.601455
 30
0.0
 11
19.88524
 21
10.30867
 31
0.0
  0
LINE
  5
2B9
100
AcDbEntity
  8
0
390
0
  6
Continuous
 62
     7
100
AcDbLine
 10
14.881978
 20
8.287289
 30
0.0
 11
14.881978
 21
9.57979
 31
0.0
  0
LINE
  5
2BA
100
AcDbEntity
  8
0
390
0
  6
Continuous
 62
     7
100
AcDbLine
 10
-47.406389
 20
0.0
 30
0.0
 11
-44.933612
 21
0.0
 31
0.0
  0
LINE
  5
2BB
100
AcDbEntity
  8
0
390
0
  6
Continuous
 62
     7
100
AcDbLine
 10
-32.016389
 20
0.0
 30
0.0
 11
-29.543612
 21
0.0
 31
0.0
  0
LINE
  5
2BC
100
AcDbEntity
  8
0
390
0
  6
Continuous
 62
     7
100
AcDbLine
 10
-53.0
 20
0.0
 30
0.0
 11
-53.0
 21
25.844219
 31
0.0
  0
LINE
  5
2BD
100
AcDbEntity
  8
0
390
0
  6
Continuous
 62
     7
100
AcDbLine
 10
-51.5
 20
25.264081
 30
0.0
 11
-51.5
 21
0.0
 31
0.0
  0
LINE
  5
2BE
100
AcDbEntity
  8
0
390
0
  6
Continuous
 62
     7
100
AcDbLine
 10
-51.5
 20
0.0
 30
0.0
 11
-53.0
 21
0.0
 31
0.0
  0
LINE
  5
2BF
100
AcDbEntity
  8
0
390
0
  6
Continuous
 62
     7
100
AcDbLine
 10
19.0
 20
2.257359
 30
0.0
 11
19.0
 21
0.0
 31
0.0
  0
ARC
  5
2C0
100
AcDbEntity
  8
0
390
0
  6
Continuous
 62
     7
100
AcDbCircle
 10
17.5
 20
6.5
 30
0.0
 40
4.5
210
0.0
220
0.0
230
1.0
100
AcDbArc
 50
180.0
 51
289.471221
  0
LINE
  5
2C1
100
AcDbEntity
  8
0
390
0
  6
Continuous
 62
     7
100
AcDbLine
 10
13.0
 20
25.264081
 30
0.0
 11
13.0
 21
6.5
 31
0.0
  0
LINE
  5
2C2
100
AcDbEntity
  8
0
390
0
  6
Continuous
 62
     7
100
AcDbLine
 10
19.0
 20
0.0
 30
0.0
 11
21.756388
 21
0.0
 31
0.0
  0
LINE
  5
2C3
100
AcDbEntity
  8
0
390
0
  6
Continuous
 62
     7
100
AcDbLine
 10
13.0
 20
6.5
 30
0.0
 11
11.5
 21
6.5
 31
0.0
  0
LINE
  5
2C4
100
AcDbEntity
  8
0
390
0
  6
Continuous
 62
     7
100
AcDbLine
 10
11.5
 20
6.5
 30
0.0
 11
11.5
 21
25.844219
 31
0.0
  0
LINE
  5
2C5
100
AcDbEntity
  8
0
390
0
  6
Continuous
 62
     7
100
AcDbLine
 10
-37.146389
 20
0.0
 30
0.0
 11
-34.673612
 21
0.0
 31
0.0
  0
LINE
  5
2C6
100
AcDbEntity
  8
0
390
0
  6
Continuous
 62
     7
100
AcDbLine
 10
-51.5
 20
0.0
 30
0.0
 11
-50.063612
 21
0.0
 31
0.0
  0
LINE
  5
2C7
100
AcDbEntity
  8
0
390
0
  6
Continuous
 62
     7
100
AcDbLine
 10
-42.276389
 20
0.0
 30
0.0
 11
-39.803612
 21
0.0
 31
0.0
  0
LINE
  5
2C8
100
AcDbEntity
  8
0
390
0
  6
Continuous
 62
     7
100
AcDbLine
 10
-19.0
 20
0.0
 30
0.0
 11
-19.0
 21
2.257359
 31
0.0
  0
LINE
  5
2C9
100
AcDbEntity
  8
0
390
0
  6
Continuous
 62
     7
100
AcDbLine
 10
-19.0
 20
2.257359
 30
0.0
 11
-17.5
 21
0.5
 31
0.0
  0
LINE
  5
2CA
100
AcDbEntity
  8
0
390
0
  6
Continuous
 62
     7
100
AcDbLine
 10
-17.5
 20
0.5
 30
0.0
 11
-17.5
 21
0.0
 31
0.0
  0
LINE
  5
2CB
100
AcDbEntity
  8
0
390
0
  6
Continuous
 62
     7
100
AcDbLine
 10
-17.5
 20
0.0
 30
0.0
 11
-19.0
 21
0.0
 31
0.0
  0
LINE
  5
2CC
100
AcDbEntity
  8
0
390
0
  6
Continuous
 62
     7
100
AcDbLine
 10
-11.5
 20
25.844219
 30
0.0
 11
-11.5
 21
6.5
 31
0.0
  0
LINE
  5
2CD
100
AcDbEntity
  8
0
390
0
  6
Continuous
 62
     7
100
AcDbLine
 10
-11.5
 20
6.5
 30
0.0
 11
-13.0
 21
6.5
 31
0.0
  0
LINE
  5
2CE
100
AcDbEntity
  8
0
390
0
  6
Continuous
 62
     7
100
AcDbLine
 10
-13.0
 20
6.5
 30
0.0
 11
-13.0
 21
25.264081
 31
0.0
  0
ARC
  5
2CF
100
AcDbEntity
  8
0
390
0
  6
Continuous
 62
     7
100
AcDbCircle
 10
-17.5
 20
6.5
 30
0.0
 40
6.0
210
0.0
220
0.0
230
1.0
100
AcDbArc
 50
270.0
 51
360.0
  0
ARC
  5
2D0
100
AcDbEntity
  8
0
390
0
  6
Continuous
 62
     7
100
AcDbCircle
 10
-17.5
 20
6.5
 30
0.0
 40
4.5
210
0.0
220
0.0
230
0.9999999999999999
100
AcDbArc
 50
250.528779
 51
360.0
  0
LINE
  5
2D1
100
AcDbEntity
  8
0
390
0
  6
Continuous
 62
     7
100
AcDbLine
 10
17.5
 20
0.0
 30
0.0
 11
17.5
 21
0.5
 31
0.0
  0
LINE
  5
2D2
100
AcDbEntity
  8
0
390
0
  6
Continuous
 62
     7
100
AcDbLine
 10
19.0
 20
2.257359
 30
0.0
 11
17.5
 21
0.5
 31
0.0
  0
LINE
  5
2D3
100
AcDbEntity
  8
0
390
0
  6
Continuous
 62
     7
100
AcDbLine
 10
19.0
 20
0.0
 30
0.0
 11
17.5
 21
0.0
 31
0.0
  0
LINE
  5
2D4
100
AcDbEntity
  8
0
390
0
  6
Continuous
 62
     7
100
AcDbLine
 10
-21.756389
 20
0.0
 30
0.0
 11
-19.0
 21
0.0
 31
0.0
  0
ARC
  5
2D5
100
AcDbEntity
  8
0
390
0
  6
Continuous
 62
     7
100
AcDbCircle
 10
17.5
 20
6.5
 30
0.0
 40
6.0
210
0.0
220
0.0
230
1.0
100
AcDbArc
 50
180.0
 51
270.0
  0
LINE
  5
2D6
100
AcDbEntity
  8
0
390
0
  6
Continuous
 62
     7
100
AcDbLine
 10
24.413611
 20
0.0
 30
0.0
 11
26.886388
 21
0.0
 31
0.0
  0
LINE
  5
2D7
100
AcDbEntity
  8
0
390
0
  6
Continuous
 62
     7
100
AcDbLine
 10
-26.886389
 20
0.0
 30
0.0
 11
-24.413612
 21
0.0
 31
0.0
  0
LINE
  5
2D8
100
AcDbEntity
  8
0
390
0
  6
Continuous
 62
     7
100
AcDbLine
 10
51.5
 20
0.0
 30
0.0
 11
51.5
 21
25.264081
 31
0.0
  0
LINE
  5
2D9
100
AcDbEntity
  8
0
390
0
  6
Continuous
 62
     7
100
AcDbLine
 10
50.063611
 20
0.0
 30
0.0
 11
51.5
 21
0.0
 31
0.0
  0
LINE
  5
2DA
100
AcDbEntity
  8
0
390
0
  6
Continuous
 62
     7
100
AcDbLine
 10
53.0
 20
25.844219
 30
0.0
 11
53.0
 21
0.0
 31
0.0
  0
LINE
  5
2DB
100
AcDbEntity
  8
0
390
0
  6
Continuous
 62
     7
100
AcDbLine
 10
53.0
 20
0.0
 30
0.0
 11
51.5
 21
0.0
 31
0.0
  0
LINE
  5
2DC
100
AcDbEntity
  8
0
390
0
  6
Continuous
 62
     7
100
AcDbLine
 10
34.673611
 20
0.0
 30
0.0
 11
37.146388
 21
0.0
 31
0.0
  0
LINE
  5
2DD
100
AcDbEntity
  8
0
390
0
  6
Continuous
 62
     7
100
AcDbLine
 10
44.933611
 20
0.0
 30
0.0
 11
47.406388
 21
0.0
 31
0.0
  0
LINE
  5
2DE
100
AcDbEntity
  8
0
390
0
  6
Continuous
 62
     7
100
AcDbLine
 10
39.803611
 20
0.0
 30
0.0
 11
42.276388
 21
0.0
 31
0.0
  0
LINE
  5
2DF
100
AcDbEntity
  8
0
390
0
  6
Continuous
 62
     7
100
AcDbLine
 10
29.543611
 20
0.0
 30
0.0
 11
32.016388
 21
0.0
 31
0.0
  0
LINE
  5
2E0
100
AcDbEntity
  8
0
390
0
  6
Continuous
 62
     7
100
AcDbLine
 10
-11.5
 20
30.878951
 30
0.0
 11
11.5
 21
30.878951
 31
0.0
  0
LINE
  5
2E1
100
AcDbEntity
  8
0
390
0
  6
Continuous
 62
     7
100
AcDbLine
 10
-12.821841
 20
34.209807
 30
0.0
 11
-12.336857
 21
34.209807
 31
0.0
  0
LINE
  5
2E2
100
AcDbEntity
  8
0
390
0
  6
Continuous
 62
     7
100
AcDbLine
 10
-12.482898
 20
34.226419
 30
0.0
 11
-8.037102
 21
34.226419
 31
0.0
  0
LINE
  5
2E3
100
AcDbEntity
  8
0
390
0
  6
Continuous
 62
     7
100
AcDbLine
 10
-8.183144
 20
34.209807
 30
0.0
 11
-7.206857
 21
34.209807
 31
0.0
  0
LINE
  5
2E4
100
AcDbEntity
  8
0
390
0
  6
Continuous
 62
     7
100
AcDbLine
 10
-7.352898
 20
34.226419
 30
0.0
 11
-2.907102
 21
34.226419
 31
0.0
  0
LINE
  5
2E5
100
AcDbEntity
  8
0
390
0
  6
Continuous
 62
     7
100
AcDbLine
 10
-3.053144
 20
34.209807
 30
0.0
 11
-2.076857
 21
34.209807
 31
0.0
  0
LINE
  5
2E6
100
AcDbEntity
  8
0
390
0
  6
Continuous
 62
     7
100
AcDbLine
 10
-2.222898
 20
34.226419
 30
0.0
 11
2.222898
 21
34.226419
 31
0.0
  0
LINE
  5
2E7
100
AcDbEntity
  8
0
390
0
  6
Continuous
 62
     7
100
AcDbLine
 10
2.076856
 20
34.209807
 30
0.0
 11
3.053143
 21
34.209807
 31
0.0
  0
LINE
  5
2E8
100
AcDbEntity
  8
0
390
0
  6
Continuous
 62
     7
100
AcDbLine
 10
2.907102
 20
34.226419
 30
0.0
 11
7.352898
 21
34.226419
 31
0.0
  0
LINE
  5
2E9
100
AcDbEntity
  8
0
390
0
  6
Continuous
 62
     7
100
AcDbLine
 10
7.206856
 20
34.209807
 30
0.0
 11
8.183143
 21
34.209807
 31
0.0
  0
LINE
  5
2EA
100
AcDbEntity
  8
0
390
0
  6
Continuous
 62
     7
100
AcDbLine
 10
8.037102
 20
34.226419
 30
0.0
 11
12.482898
 21
34.226419
 31
0.0
  0
LINE
  5
2EB
100
AcDbEntity
  8
0
390
0
  6
Continuous
 62
     7
100
AcDbLine
 10
12.336856
 20
34.209807
 30
0.0
 11
12.82184
 21
34.209807
 31
0.0
  0
LINE
  5
2EC
100
AcDbEntity
  8
0
390
0
  6
Continuous
 62
     7
100
AcDbLine
 10
11.580172
 20
33.026591
 30
0.0
 11
-11.580172
 21
33.026591
 31
0.0
  0
LINE
  5
2ED
100
AcDbEntity
  8
0
390
0
  6
Continuous
 62
     7
100
AcDbLine
 10
13.127407
 20
34.227208
 30
0.0
 11
12.522592
 21
34.227208
 31
0.0
  0
ARC
  5
2EE
100
AcDbEntity
  8
0
390
0
  6
Continuous
 62
     7
100
AcDbCircle
 10
13.127407
 20
33.227208
 30
0.0
 40
1.0
210
0.0
220
0.0
230
0.9999999999999999
100
AcDbArc
 50
83.329595
 51
90.0
  0
ARC
  5
2EF
100
AcDbEntity
  8
0
390
0
  6
Continuous
 62
     7
100
AcDbCircle
 10
12.522592
 20
33.227208
 30
0.0
 40
1.0
210
0.0
220
0.0
230
1.0
100
AcDbArc
 50
90.0
 51
100.704015
  0
LINE
  5
2F0
100
AcDbEntity
  8
0
390
0
  6
Continuous
 62
     7
100
AcDbLine
 10
7.997407
 20
34.227208
 30
0.0
 11
7.392592
 21
34.227208
 31
0.0
  0
ARC
  5
2F1
100
AcDbEntity
  8
0
390
0
  6
Continuous
 62
     7
100
AcDbCircle
 10
7.997407
 20
33.227208
 30
0.0
 40
1.0
210
0.0
220
0.0
230
1.0
100
AcDbArc
 50
79.295985
 51
90.0
  0
ARC
  5
2F2
100
AcDbEntity
  8
0
390
0
  6
Continuous
 62
     7
100
AcDbCircle
 10
7.392592
 20
33.227208
 30
0.0
 40
1.0
210
0.0
220
0.0
230
1.0
100
AcDbArc
 50
90.0
 51
100.704015
  0
LINE
  5
2F3
100
AcDbEntity
  8
0
390
0
  6
Continuous
 62
     7
100
AcDbLine
 10
-7.392593
 20
34.227208
 30
0.0
 11
-7.997408
 21
34.227208
 31
0.0
  0
ARC
  5
2F4
100
AcDbEntity
  8
0
390
0
  6
Continuous
 62
     7
100
AcDbCircle
 10
-7.392593
 20
33.227208
 30
0.0
 40
1.0
210
0.0
220
0.0
230
0.9999999999999999
100
AcDbArc
 50
79.295985
 51
90.0
  0
ARC
  5
2F5
100
AcDbEntity
  8
0
390
0
  6
Continuous
 62
     7
100
AcDbCircle
 10
-7.997408
 20
33.227208
 30
0.0
 40
1.0
210
0.0
220
0.0
230
1.0
100
AcDbArc
 50
90.0
 51
100.704015
  0
ARC
  5
2F6
100
AcDbEntity
  8
0
390
0
  6
Continuous
 62
     7
100
AcDbCircle
 10
-12.522593
 20
33.227208
 30
0.0
 40
1.0
210
0.0
220
0.0
230
1.0
100
AcDbArc
 50
79.295985
 51
90.0
  0
LINE
  5
2F7
100
AcDbEntity
  8
0
390
0
  6
Continuous
 62
     7
100
AcDbLine
 10
-12.522593
 20
34.227208
 30
0.0
 11
-13.127408
 21
34.227208
 31
0.0
  0
ARC
  5
2F8
100
AcDbEntity
  8
0
390
0
  6
Continuous
 62
     7
100
AcDbCircle
 10
-13.127408
 20
33.227208
 30
0.0
 40
1.0
210
0.0
220
0.0
230
1.0
100
AcDbArc
 50
90.0
 51
96.670405
  0
LINE
  5
2F9
100
AcDbEntity
  8
0
390
0
  6
Continuous
 62
     7
100
AcDbLine
 10
2.867407
 20
34.227208
 30
0.0
 11
2.262592
 21
34.227208
 31
0.0
  0
ARC
  5
2FA
100
AcDbEntity
  8
0
390
0
  6
Continuous
 62
     7
100
AcDbCircle
 10
2.867407
 20
33.227208
 30
0.0
 40
1.0
210
0.0
220
0.0
230
1.0
100
AcDbArc
 50
79.295985
 51
90.0
  0
ARC
  5
2FB
100
AcDbEntity
  8
0
390
0
  6
Continuous
 62
     7
100
AcDbCircle
 10
2.262592
 20
33.227208
 30
0.0
 40
1.0
210
0.0
220
0.0
230
1.0
100
AcDbArc
 50
90.0
 51
100.704015
  0
LINE
  5
2FC
100
AcDbEntity
  8
0
390
0
  6
Continuous
 62
     7
100
AcDbLine
 10
-2.262593
 20
34.227208
 30
0.0
 11
-2.867408
 21
34.227208
 31
0.0
  0
ARC
  5
2FD
100
AcDbEntity
  8
0
390
0
  6
Continuous
 62
     7
100
AcDbCircle
 10
-2.262593
 20
33.227208
 30
0.0
 40
1.0
210
0.0
220
0.0
230
1.0
100
AcDbArc
 50
79.295985
 51
90.0
  0
ARC
  5
2FE
100
AcDbEntity
  8
0
390
0
  6
Continuous
 62
     7
100
AcDbCircle
 10
-2.867408
 20
33.227208
 30
0.0
 40
1.0
210
0.0
220
0.0
230
1.0
100
AcDbArc
 50
90.0
 51
100.704015
  0
LINE
  5
2FF
100
AcDbEntity
  8
0
390
0
  6
Continuous
 62
     7
100
AcDbLine
 10
-11.5
 20
26.611565
 30
0.0
 11
11.5
 21
26.611565
 31
0.0
  0
LINE
  5
300
100
AcDbEntity
  8
0
390
0
  6
Continuous
 62
     7
100
AcDbLine
 10
13.531373
 20
2.0
 30
0.0
 11
-13.531373
 21
2.0
 31
0.0
  0
LINE
  5
301
100
AcDbEntity
  8
0
390
0
  6
Continuous
 62
     7
100
AcDbLine
 10
-17.5
 20
0.0
 30
0.0
 11
17.5
 21
0.0
 31
0.0
  0
ARC
  5
302
100
AcDbEntity
  8
0
390
0
  6
Continuous
 62
     7
100
AcDbCircle
 10
-43.901036
 20
34.727208
 30
0.0
 40
1.0
210
0.0
220
0.0
230
1.0
100
AcDbArc
 50
90.0
 51
177.0
  0
ARC
  5
303
100
AcDbEntity
  8
0
390
0
  6
Continuous
 62
     7
100
AcDbCircle
 10
-33.641036
 20
34.727208
 30
0.0
 40
1.0
210
0.0
220
0.0
230
1.0
100
AcDbArc
 50
90.0
 51
177.0
  0
LINE
  5
304
100
AcDbEntity
  8
0
390
0
  6
Continuous
 62
     7
100
AcDbLine
 10
-33.038965
 20
35.727208
 30
0.0
 11
-33.641036
 21
35.727208
 31
0.0
  0
ARC
  5
305
100
AcDbEntity
  8
0
390
0
  6
Continuous
 62
     7
100
AcDbCircle
 10
-49.031036
 20
34.727208
 30
0.0
 40
1.0
210
0.0
220
0.0
230
1.0
100
AcDbArc
 50
90.0
 51
177.0
  0
LINE
  5
306
100
AcDbEntity
  8
0
390
0
  6
Continuous
 62
     7
100
AcDbLine
 10
-48.428965
 20
35.727208
 30
0.0
 11
-49.031036
 21
35.727208
 31
0.0
  0
ARC
  5
307
100
AcDbEntity
  8
0
390
0
  6
Continuous
 62
     7
100
AcDbCircle
 10
-48.428965
 20
34.727208
 30
0.0
 40
1.0
210
0.0
220
0.0
230
1.0
100
AcDbArc
 50
3.0
 51
90.0
  0
ARC
  5
308
100
AcDbEntity
  8
0
390
0
  6
Continuous
 62
     7
100
AcDbCircle
 10
-28.511036
 20
34.727208
 30
0.0
 40
1.0
210
0.0
220
0.0
230
1.0
100
AcDbArc
 50
90.0
 51
177.0
  0
LINE
  5
309
100
AcDbEntity
  8
0
390
0
  6
Continuous
 62
     7
100
AcDbLine
 10
-27.908965
 20
35.727208
 30
0.0
 11
-28.511036
 21
35.727208
 31
0.0
  0
ARC
  5
30A
100
AcDbEntity
  8
0
390
0
  6
Continuous
 62
     7
100
AcDbCircle
 10
-33.038965
 20
34.727208
 30
0.0
 40
1.0
210
0.0
220
0.0
230
1.0
100
AcDbArc
 50
3.0
 51
90.0
  0
LINE
  5
30B
100
AcDbEntity
  8
0
390
0
  6
Continuous
 62
     7
100
AcDbLine
 10
-43.298965
 20
35.727208
 30
0.0
 11
-43.901036
 21
35.727208
 31
0.0
  0
ARC
  5
30C
100
AcDbEntity
  8
0
390
0
  6
Continuous
 62
     7
100
AcDbCircle
 10
-43.298965
 20
34.727208
 30
0.0
 40
1.0
210
0.0
220
0.0
230
1.0
100
AcDbArc
 50
3.0
 51
90.0
  0
ARC
  5
30D
100
AcDbEntity
  8
0
390
0
  6
Continuous
 62
     7
100
AcDbCircle
 10
-38.168965
 20
34.727208
 30
0.0
 40
1.0
210
0.0
220
0.0
230
1.0
100
AcDbArc
 50
3.0
 51
90.0
  0
LINE
  5
30E
100
AcDbEntity
  8
0
390
0
  6
Continuous
 62
     7
100
AcDbLine
 10
-38.168965
 20
35.727208
 30
0.0
 11
-38.771036
 21
35.727208
 31
0.0
  0
ARC
  5
30F
100
AcDbEntity
  8
0
390
0
  6
Continuous
 62
     7
100
AcDbCircle
 10
-38.771036
 20
34.727208
 30
0.0
 40
1.0
210
0.0
220
0.0
230
1.0
100
AcDbArc
 50
90.0
 51
177.0
  0
ARC
  5
310
100
AcDbEntity
  8
0
390
0
  6
Continuous
 62
     7
100
AcDbCircle
 10
22.788964
 20
34.727208
 30
0.0
 40
1.0
210
0.0
220
0.0
230
1.0
100
AcDbArc
 50
90.0
 51
177.0
  0
ARC
  5
311
100
AcDbEntity
  8
0
390
0
  6
Continuous
 62
     7
100
AcDbCircle
 10
-23.381036
 20
34.727208
 30
0.0
 40
1.0
210
0.0
220
0.0
230
1.0
100
AcDbArc
 50
90.0
 51
177.0
  0
ARC
  5
312
100
AcDbEntity
  8
0
390
0
  6
Continuous
 62
     7
100
AcDbCircle
 10
-18.251036
 20
34.727208
 30
0.0
 40
1.0
210
0.0
220
0.0
230
1.0
100
AcDbArc
 50
90.0
 51
177.0
  0
LINE
  5
313
100
AcDbEntity
  8
0
390
0
  6
Continuous
 62
     7
100
AcDbLine
 10
-17.648965
 20
35.727208
 30
0.0
 11
-18.251036
 21
35.727208
 31
0.0
  0
LINE
  5
314
100
AcDbEntity
  8
0
390
0
  6
Continuous
 62
     7
100
AcDbLine
 10
23.391035
 20
35.727208
 30
0.0
 11
22.788964
 21
35.727208
 31
0.0
  0
ARC
  5
315
100
AcDbEntity
  8
0
390
0
  6
Continuous
 62
     7
100
AcDbCircle
 10
23.391035
 20
34.727208
 30
0.0
 40
1.0
210
0.0
220
0.0
230
1.0
100
AcDbArc
 50
3.0
 51
90.0
  0
ARC
  5
316
100
AcDbEntity
  8
0
390
0
  6
Continuous
 62
     7
100
AcDbCircle
 10
17.658964
 20
34.727208
 30
0.0
 40
1.0
210
0.0
220
0.0
230
1.0
100
AcDbArc
 50
90.0
 51
177.0
  0
LINE
  5
317
100
AcDbEntity
  8
0
390
0
  6
Continuous
 62
     7
100
AcDbLine
 10
-22.778965
 20
35.727208
 30
0.0
 11
-23.381036
 21
35.727208
 31
0.0
  0
ARC
  5
318
100
AcDbEntity
  8
0
390
0
  6
Continuous
 62
     7
100
AcDbCircle
 10
27.918964
 20
34.727208
 30
0.0
 40
1.0
210
0.0
220
0.0
230
1.0
100
AcDbArc
 50
90.0
 51
177.0
  0
LINE
  5
319
100
AcDbEntity
  8
0
390
0
  6
Continuous
 62
     7
100
AcDbLine
 10
28.521035
 20
35.727208
 30
0.0
 11
27.918964
 21
35.727208
 31
0.0
  0
LINE
  5
31A
100
AcDbEntity
  8
0
390
0
  6
Continuous
 62
     7
100
AcDbLine
 10
18.261035
 20
35.727208
 30
0.0
 11
17.658964
 21
35.727208
 31
0.0
  0
ARC
  5
31B
100
AcDbEntity
  8
0
390
0
  6
Continuous
 62
     7
100
AcDbCircle
 10
-27.908965
 20
34.727208
 30
0.0
 40
1.0
210
0.0
220
0.0
230
1.0
100
AcDbArc
 50
3.0
 51
90.0
  0
ARC
  5
31C
100
AcDbEntity
  8
0
390
0
  6
Continuous
 62
     7
100
AcDbCircle
 10
-17.648965
 20
34.727208
 30
0.0
 40
1.0
210
0.0
220
0.0
230
1.0
100
AcDbArc
 50
3.0
 51
90.0
  0
ARC
  5
31D
100
AcDbEntity
  8
0
390
0
  6
Continuous
 62
     7
100
AcDbCircle
 10
18.261035
 20
34.727208
 30
0.0
 40
1.0
210
0.0
220
0.0
230
1.0
100
AcDbArc
 50
3.0
 51
90.0
  0
ARC
  5
31E
100
AcDbEntity
  8
0
390
0
  6
Continuous
 62
     7
100
AcDbCircle
 10
-22.778965
 20
34.727208
 30
0.0
 40
1.0
210
0.0
220
0.0
230
1.0
100
AcDbArc
 50
3.0
 51
90.0
  0
ARC
  5
31F
100
AcDbEntity
  8
0
390
0
  6
Continuous
 62
     7
100
AcDbCircle
 10
28.521035
 20
34.727208
 30
0.0
 40
1.0
210
0.0
220
0.0
230
1.0
100
AcDbArc
 50
3.0
 51
90.0
  0
LINE
  5
320
100
AcDbEntity
  8
0
390
0
  6
Continuous
 62
     7
100
AcDbLine
 10
33.651035
 20
35.727208
 30
0.0
 11
33.048964
 21
35.727208
 31
0.0
  0
LINE
  5
321
100
AcDbEntity
  8
0
390
0
  6
Continuous
 62
     7
100
AcDbLine
 10
49.041035
 20
35.727208
 30
0.0
 11
48.438964
 21
35.727208
 31
0.0
  0
ARC
  5
322
100
AcDbEntity
  8
0
390
0
  6
Continuous
 62
     7
100
AcDbCircle
 10
38.178964
 20
34.727208
 30
0.0
 40
1.0
210
0.0
220
0.0
230
1.0
100
AcDbArc
 50
90.0
 51
177.0
  0
LINE
  5
323
100
AcDbEntity
  8
0
390
0
  6
Continuous
 62
     7
100
AcDbLine
 10
43.911035
 20
35.727208
 30
0.0
 11
43.308964
 21
35.727208
 31
0.0
  0
ARC
  5
324
100
AcDbEntity
  8
0
390
0
  6
Continuous
 62
     7
100
AcDbCircle
 10
38.781035
 20
34.727208
 30
0.0
 40
1.0
210
0.0
220
0.0
230
1.0
100
AcDbArc
 50
3.0
 51
90.0
  0
LINE
  5
325
100
AcDbEntity
  8
0
390
0
  6
Continuous
 62
     7
100
AcDbLine
 10
38.781035
 20
35.727208
 30
0.0
 11
38.178964
 21
35.727208
 31
0.0
  0
ARC
  5
326
100
AcDbEntity
  8
0
390
0
  6
Continuous
 62
     7
100
AcDbCircle
 10
33.048964
 20
34.727208
 30
0.0
 40
1.0
210
0.0
220
0.0
230
1.0
100
AcDbArc
 50
90.0
 51
177.0
  0
ARC
  5
327
100
AcDbEntity
  8
0
390
0
  6
Continuous
 62
     7
100
AcDbCircle
 10
43.308964
 20
34.727208
 30
0.0
 40
1.0
210
0.0
220
0.0
230
1.0
100
AcDbArc
 50
90.0
 51
177.0
  0
ARC
  5
328
100
AcDbEntity
  8
0
390
0
  6
Continuous
 62
     7
100
AcDbCircle
 10
33.651035
 20
34.727208
 30
0.0
 40
1.0
210
0.0
220
0.0
230
1.0
100
AcDbArc
 50
3.0
 51
90.0
  0
ARC
  5
329
100
AcDbEntity
  8
0
390
0
  6
Continuous
 62
     7
100
AcDbCircle
 10
49.041035
 20
34.727208
 30
0.0
 40
1.0
210
0.0
220
0.0
230
1.0
100
AcDbArc
 50
3.0
 51
90.0
  0
ARC
  5
32A
100
AcDbEntity
  8
0
390
0
  6
Continuous
 62
     7
100
AcDbCircle
 10
48.438964
 20
34.727208
 30
0.0
 40
1.0
210
0.0
220
0.0
230
1.0
100
AcDbArc
 50
90.0
 51
177.0
  0
ARC
  5
32B
100
AcDbEntity
  8
0
390
0
  6
Continuous
 62
     7
100
AcDbCircle
 10
43.911035
 20
34.727208
 30
0.0
 40
1.0
210
0.0
220
0.0
230
1.0
100
AcDbArc
 50
3.0
 51
90.0
  0
LINE
  5
32C
100
AcDbEntity
  8
0
390
0
  6
Continuous
 62
     7
100
AcDbLine
 10
-34.639665
 20
34.779544
 30
0.0
 11
-34.668612
 21
34.227208
 31
0.0
  0
LINE
  5
32D
100
AcDbEntity
  8
0
390
0
  6
Continuous
 62
     7
100
AcDbLine
 10
-50.029665
 20
34.779544
 30
0.0
 11
-50.058612
 21
34.227208
 31
0.0
  0
LINE
  5
32E
100
AcDbEntity
  8
0
390
0
  6
Continuous
 62
     7
100
AcDbLine
 10
-29.509665
 20
34.779544
 30
0.0
 11
-29.538612
 21
34.227208
 31
0.0
  0
LINE
  5
32F
100
AcDbEntity
  8
0
390
0
  6
Continuous
 62
     7
100
AcDbLine
 10
-39.769665
 20
34.779544
 30
0.0
 11
-39.798612
 21
34.227208
 31
0.0
  0
LINE
  5
330
100
AcDbEntity
  8
0
390
0
  6
Continuous
 62
     7
100
AcDbLine
 10
-44.899665
 20
34.779544
 30
0.0
 11
-44.928612
 21
34.227208
 31
0.0
  0
LINE
  5
331
100
AcDbEntity
  8
0
390
0
  6
Continuous
 62
     7
100
AcDbLine
 10
-47.401389
 20
34.227208
 30
0.0
 11
-47.430335
 21
34.779544
 31
0.0
  0
LINE
  5
332
100
AcDbEntity
  8
0
390
0
  6
Continuous
 62
     7
100
AcDbLine
 10
-32.011389
 20
34.227208
 30
0.0
 11
-32.040335
 21
34.779544
 31
0.0
  0
LINE
  5
333
100
AcDbEntity
  8
0
390
0
  6
Continuous
 62
     7
100
AcDbLine
 10
16.660335
 20
34.779544
 30
0.0
 11
16.631388
 21
34.227208
 31
0.0
  0
LINE
  5
334
100
AcDbEntity
  8
0
390
0
  6
Continuous
 62
     7
100
AcDbLine
 10
-19.249665
 20
34.779544
 30
0.0
 11
-19.278612
 21
34.227208
 31
0.0
  0
LINE
  5
335
100
AcDbEntity
  8
0
390
0
  6
Continuous
 62
     7
100
AcDbLine
 10
-24.379665
 20
34.779544
 30
0.0
 11
-24.408612
 21
34.227208
 31
0.0
  0
LINE
  5
336
100
AcDbEntity
  8
0
390
0
  6
Continuous
 62
     7
100
AcDbLine
 10
-42.271389
 20
34.227208
 30
0.0
 11
-42.300335
 21
34.779544
 31
0.0
  0
LINE
  5
337
100
AcDbEntity
  8
0
390
0
  6
Continuous
 62
     7
100
AcDbLine
 10
26.920335
 20
34.779544
 30
0.0
 11
26.891388
 21
34.227208
 31
0.0
  0
LINE
  5
338
100
AcDbEntity
  8
0
390
0
  6
Continuous
 62
     7
100
AcDbLine
 10
-37.141389
 20
34.227208
 30
0.0
 11
-37.170335
 21
34.779544
 31
0.0
  0
LINE
  5
339
100
AcDbEntity
  8
0
390
0
  6
Continuous
 62
     7
100
AcDbLine
 10
21.790335
 20
34.779544
 30
0.0
 11
21.761388
 21
34.227208
 31
0.0
  0
LINE
  5
33A
100
AcDbEntity
  8
0
390
0
  6
Continuous
 62
     7
100
AcDbLine
 10
-16.621389
 20
34.227208
 30
0.0
 11
-16.650335
 21
34.779544
 31
0.0
  0
LINE
  5
33B
100
AcDbEntity
  8
0
390
0
  6
Continuous
 62
     7
100
AcDbLine
 10
-26.881389
 20
34.227208
 30
0.0
 11
-26.910335
 21
34.779544
 31
0.0
  0
LINE
  5
33C
100
AcDbEntity
  8
0
390
0
  6
Continuous
 62
     7
100
AcDbLine
 10
-21.751389
 20
34.227208
 30
0.0
 11
-21.780335
 21
34.779544
 31
0.0
  0
LINE
  5
33D
100
AcDbEntity
  8
0
390
0
  6
Continuous
 62
     7
100
AcDbLine
 10
42.310335
 20
34.779544
 30
0.0
 11
42.281388
 21
34.227208
 31
0.0
  0
LINE
  5
33E
100
AcDbEntity
  8
0
390
0
  6
Continuous
 62
     7
100
AcDbLine
 10
47.440335
 20
34.779544
 30
0.0
 11
47.411388
 21
34.227208
 31
0.0
  0
LINE
  5
33F
100
AcDbEntity
  8
0
390
0
  6
Continuous
 62
     7
100
AcDbLine
 10
32.050335
 20
34.779544
 30
0.0
 11
32.021388
 21
34.227208
 31
0.0
  0
LINE
  5
340
100
AcDbEntity
  8
0
390
0
  6
Continuous
 62
     7
100
AcDbLine
 10
19.288611
 20
34.227208
 30
0.0
 11
19.259665
 21
34.779544
 31
0.0
  0
LINE
  5
341
100
AcDbEntity
  8
0
390
0
  6
Continuous
 62
     7
100
AcDbLine
 10
37.180335
 20
34.779544
 30
0.0
 11
37.151388
 21
34.227208
 31
0.0
  0
LINE
  5
342
100
AcDbEntity
  8
0
390
0
  6
Continuous
 62
     7
100
AcDbLine
 10
24.418611
 20
34.227208
 30
0.0
 11
24.389665
 21
34.779544
 31
0.0
  0
LINE
  5
343
100
AcDbEntity
  8
0
390
0
  6
Continuous
 62
     7
100
AcDbLine
 10
39.808611
 20
34.227208
 30
0.0
 11
39.779665
 21
34.779544
 31
0.0
  0
LINE
  5
344
100
AcDbEntity
  8
0
390
0
  6
Continuous
 62
     7
100
AcDbLine
 10
50.068611
 20
34.227208
 30
0.0
 11
50.039665
 21
34.779544
 31
0.0
  0
LINE
  5
345
100
AcDbEntity
  8
0
390
0
  6
Continuous
 62
     7
100
AcDbLine
 10
44.938611
 20
34.227208
 30
0.0
 11
44.909665
 21
34.779544
 31
0.0
  0
LINE
  5
346
100
AcDbEntity
  8
0
390
0
  6
Continuous
 62
     7
100
AcDbLine
 10
34.678611
 20
34.227208
 30
0.0
 11
34.649665
 21
34.779544
 31
0.0
  0
LINE
  5
347
100
AcDbEntity
  8
0
390
0
  6
Continuous
 62
     7
100
AcDbLine
 10
29.548611
 20
34.227208
 30
0.0
 11
29.519665
 21
34.779544
 31
0.0
  0
ARC
  5
348
100
AcDbEntity
  8
0
390
0
  6
Continuous
 62
     7
100
AcDbCircle
 10
-51.5
 20
32.727208
 30
0.0
 40
1.5
210
0.0
220
0.0
230
1.0
100
AcDbArc
 50
90.0
 51
180.0
  0
LINE
  5
349
100
AcDbEntity
  8
0
390
0
  6
Continuous
 62
     7
100
AcDbLine
 10
-39.798612
 20
34.227208
 30
0.0
 11
-42.271389
 21
34.227208
 31
0.0
  0
LINE
  5
34A
100
AcDbEntity
  8
0
390
0
  6
Continuous
 62
     7
100
AcDbLine
 10
-34.668612
 20
34.227208
 30
0.0
 11
-37.141389
 21
34.227208
 31
0.0
  0
LINE
  5
34B
100
AcDbEntity
  8
0
390
0
  6
Continuous
 62
     7
100
AcDbLine
 10
-29.538612
 20
34.227208
 30
0.0
 11
-32.011389
 21
34.227208
 31
0.0
  0
LINE
  5
34C
100
AcDbEntity
  8
0
390
0
  6
Continuous
 62
     7
100
AcDbLine
 10
-50.058612
 20
34.227208
 30
0.0
 11
-51.5
 21
34.227208
 31
0.0
  0
LINE
  5
34D
100
AcDbEntity
  8
0
390
0
  6
Continuous
 62
     7
100
AcDbLine
 10
16.631388
 20
34.227208
 30
0.0
 11
13.127407
 21
34.227208
 31
0.0
  0
LINE
  5
34E
100
AcDbEntity
  8
0
390
0
  6
Continuous
 62
     7
100
AcDbLine
 10
-44.928612
 20
34.227208
 30
0.0
 11
-47.401389
 21
34.227208
 31
0.0
  0
LINE
  5
34F
100
AcDbEntity
  8
0
390
0
  6
Continuous
 62
     7
100
AcDbLine
 10
-19.278612
 20
34.227208
 30
0.0
 11
-21.751389
 21
34.227208
 31
0.0
  0
ARC
  5
350
100
AcDbEntity
  8
0
390
0
  6
Continuous
 62
     7
100
AcDbCircle
 10
51.5
 20
32.727208
 30
0.0
 40
1.5
210
0.0
220
0.0
230
1.0
100
AcDbArc
 50
0.0
 51
90.0
  0
LINE
  5
351
100
AcDbEntity
  8
0
390
0
  6
Continuous
 62
     7
100
AcDbLine
 10
51.5
 20
34.227208
 30
0.0
 11
50.068611
 21
34.227208
 31
0.0
  0
LINE
  5
352
100
AcDbEntity
  8
0
390
0
  6
Continuous
 62
     7
100
AcDbLine
 10
21.761388
 20
34.227208
 30
0.0
 11
19.288611
 21
34.227208
 31
0.0
  0
LINE
  5
353
100
AcDbEntity
  8
0
390
0
  6
Continuous
 62
     7
100
AcDbLine
 10
-13.127408
 20
34.227208
 30
0.0
 11
-16.621389
 21
34.227208
 31
0.0
  0
LINE
  5
354
100
AcDbEntity
  8
0
390
0
  6
Continuous
 62
     7
100
AcDbLine
 10
-24.408612
 20
34.227208
 30
0.0
 11
-26.881389
 21
34.227208
 31
0.0
  0
LINE
  5
355
100
AcDbEntity
  8
0
390
0
  6
Continuous
 62
     7
100
AcDbLine
 10
26.891388
 20
34.227208
 30
0.0
 11
24.418611
 21
34.227208
 31
0.0
  0
LINE
  5
356
100
AcDbEntity
  8
0
390
0
  6
Continuous
 62
     7
100
AcDbLine
 10
47.411388
 20
34.227208
 30
0.0
 11
44.938611
 21
34.227208
 31
0.0
  0
LINE
  5
357
100
AcDbEntity
  8
0
390
0
  6
Continuous
 62
     7
100
AcDbLine
 10
42.281388
 20
34.227208
 30
0.0
 11
39.808611
 21
34.227208
 31
0.0
  0
LINE
  5
358
100
AcDbEntity
  8
0
390
0
  6
Continuous
 62
     7
100
AcDbLine
 10
37.151388
 20
34.227208
 30
0.0
 11
34.678611
 21
34.227208
 31
0.0
  0
LINE
  5
359
100
AcDbEntity
  8
0
390
0
  6
Continuous
 62
     7
100
AcDbLine
 10
32.021388
 20
34.227208
 30
0.0
 11
29.548611
 21
34.227208
 31
0.0
  0
LINE
  5
35A
100
AcDbEntity
  8
0
390
0
  6
Continuous
 62
     7
100
AcDbLine
 10
-7.997408
 20
34.227208
 30
0.0
 11
-12.522593
 21
34.227208
 31
0.0
  0
LINE
  5
35B
100
AcDbEntity
  8
0
390
0
  6
Continuous
 62
     7
100
AcDbLine
 10
7.392592
 20
34.227208
 30
0.0
 11
2.867407
 21
34.227208
 31
0.0
  0
LINE
  5
35C
100
AcDbEntity
  8
0
390
0
  6
Continuous
 62
     7
100
AcDbLine
 10
-2.867408
 20
34.227208
 30
0.0
 11
-7.392593
 21
34.227208
 31
0.0
  0
LINE
  5
35D
100
AcDbEntity
  8
0
390
0
  6
Continuous
 62
     7
100
AcDbLine
 10
2.262592
 20
34.227208
 30
0.0
 11
-2.262593
 21
34.227208
 31
0.0
  0
LINE
  5
35E
100
AcDbEntity
  8
0
390
0
  6
Continuous
 62
     7
100
AcDbLine
 10
12.522592
 20
34.227208
 30
0.0
 11
7.997407
 21
34.227208
 31
0.0
  0
ARC
  5
35F
100
AcDbEntity
  8
0
390
0
  6
Continuous
 62
     7
100
AcDbCircle
 10
13.131035
 20
34.727208
 30
0.0
 40
1.0
210
0.0
220
0.0
230
1.0
100
AcDbArc
 50
3.0
 51
90.0
  0
ARC
  5
360
100
AcDbEntity
  8
0
390
0
  6
Continuous
 62
     7
100
AcDbCircle
 10
-2.258965
 20
34.727208
 30
0.0
 40
1.0
210
0.0
220
0.0
230
1.0
100
AcDbArc
 50
3.0
 51
90.0
  0
ARC
  5
361
100
AcDbEntity
  8
0
390
0
  6
Continuous
 62
     7
100
AcDbCircle
 10
8.001035
 20
34.727208
 30
0.0
 40
1.0
210
0.0
220
0.0
230
1.0
100
AcDbArc
 50
3.0
 51
90.0
  0
ARC
  5
362
100
AcDbEntity
  8
0
390
0
  6
Continuous
 62
     7
100
AcDbCircle
 10
2.871035
 20
34.727208
 30
0.0
 40
1.0
210
0.0
220
0.0
230
1.0
100
AcDbArc
 50
3.0
 51
90.0
  0
ARC
  5
363
100
AcDbEntity
  8
0
390
0
  6
Continuous
 62
     7
100
AcDbCircle
 10
-12.518965
 20
34.727208
 30
0.0
 40
1.0
210
0.0
220
0.0
230
1.0
100
AcDbArc
 50
3.0
 51
90.0
  0
ARC
  5
364
100
AcDbEntity
  8
0
390
0
  6
Continuous
 62
     7
100
AcDbCircle
 10
-7.388965
 20
34.727208
 30
0.0
 40
1.0
210
0.0
220
0.0
230
1.0
100
AcDbArc
 50
3.0
 51
90.0
  0
ARC
  5
365
100
AcDbEntity
  8
0
390
0
  6
Continuous
 62
     7
100
AcDbCircle
 10
-2.861036
 20
34.727208
 30
0.0
 40
1.0
210
0.0
220
0.0
230
1.0
100
AcDbArc
 50
90.0
 51
177.0
  0
ARC
  5
366
100
AcDbEntity
  8
0
390
0
  6
Continuous
 62
     7
100
AcDbCircle
 10
-7.991036
 20
34.727208
 30
0.0
 40
1.0
210
0.0
220
0.0
230
1.0
100
AcDbArc
 50
90.0
 51
177.0
  0
ARC
  5
367
100
AcDbEntity
  8
0
390
0
  6
Continuous
 62
     7
100
AcDbCircle
 10
-13.121036
 20
34.727208
 30
0.0
 40
1.0
210
0.0
220
0.0
230
1.0
100
AcDbArc
 50
90.0
 51
177.0
  0
ARC
  5
368
100
AcDbEntity
  8
0
390
0
  6
Continuous
 62
     7
100
AcDbCircle
 10
12.528964
 20
34.727208
 30
0.0
 40
1.0
210
0.0
220
0.0
230
1.0
100
AcDbArc
 50
90.0
 51
177.0
  0
ARC
  5
369
100
AcDbEntity
  8
0
390
0
  6
Continuous
 62
     7
100
AcDbCircle
 10
7.398964
 20
34.727208
 30
0.0
 40
1.0
210
0.0
220
0.0
230
1.0
100
AcDbArc
 50
90.0
 51
177.0
  0
ARC
  5
36A
100
AcDbEntity
  8
0
390
0
  6
Continuous
 62
     7
100
AcDbCircle
 10
2.268964
 20
34.727208
 30
0.0
 40
1.0
210
0.0
220
0.0
230
1.0
100
AcDbArc
 50
90.0
 51
177.0
  0
LINE
  5
36B
100
AcDbEntity
  8
0
390
0
  6
Continuous
 62
     7
100
AcDbLine
 10
13.131035
 20
35.727208
 30
0.0
 11
12.528964
 21
35.727208
 31
0.0
  0
LINE
  5
36C
100
AcDbEntity
  8
0
390
0
  6
Continuous
 62
     7
100
AcDbLine
 10
-12.518965
 20
35.727208
 30
0.0
 11
-13.121036
 21
35.727208
 31
0.0
  0
LINE
  5
36D
100
AcDbEntity
  8
0
390
0
  6
Continuous
 62
     7
100
AcDbLine
 10
8.001035
 20
35.727208
 30
0.0
 11
7.398964
 21
35.727208
 31
0.0
  0
LINE
  5
36E
100
AcDbEntity
  8
0
390
0
  6
Continuous
 62
     7
100
AcDbLine
 10
2.871035
 20
35.727208
 30
0.0
 11
2.268964
 21
35.727208
 31
0.0
  0
LINE
  5
36F
100
AcDbEntity
  8
0
390
0
  6
Continuous
 62
     7
100
AcDbLine
 10
-2.258965
 20
35.727208
 30
0.0
 11
-2.861036
 21
35.727208
 31
0.0
  0
LINE
  5
370
100
AcDbEntity
  8
0
390
0
  6
Continuous
 62
     7
100
AcDbLine
 10
-7.388965
 20
35.727208
 30
0.0
 11
-7.991036
 21
35.727208
 31
0.0
  0
LINE
  5
371
100
AcDbEntity
  8
0
390
0
  6
Continuous
 62
     7
100
AcDbLine
 10
11.530335
 20
34.779544
 30
0.0
 11
11.501388
 21
34.227208
 31
0.0
  0
LINE
  5
372
100
AcDbEntity
  8
0
390
0
  6
Continuous
 62
     7
100
AcDbLine
 10
-3.859665
 20
34.779544
 30
0.0
 11
-3.888612
 21
34.227208
 31
0.0
  0
LINE
  5
373
100
AcDbEntity
  8
0
390
0
  6
Continuous
 62
     7
100
AcDbLine
 10
1.270335
 20
34.779544
 30
0.0
 11
1.241388
 21
34.227208
 31
0.0
  0
LINE
  5
374
100
AcDbEntity
  8
0
390
0
  6
Continuous
 62
     7
100
AcDbLine
 10
6.400335
 20
34.779544
 30
0.0
 11
6.371388
 21
34.227208
 31
0.0
  0
LINE
  5
375
100
AcDbEntity
  8
0
390
0
  6
Continuous
 62
     7
100
AcDbLine
 10
14.158611
 20
34.227208
 30
0.0
 11
14.129665
 21
34.779544
 31
0.0
  0
LINE
  5
376
100
AcDbEntity
  8
0
390
0
  6
Continuous
 62
     7
100
AcDbLine
 10
3.898611
 20
34.227208
 30
0.0
 11
3.869665
 21
34.779544
 31
0.0
  0
LINE
  5
377
100
AcDbEntity
  8
0
390
0
  6
Continuous
 62
     7
100
AcDbLine
 10
-6.361389
 20
34.227208
 30
0.0
 11
-6.390335
 21
34.779544
 31
0.0
  0
LINE
  5
378
100
AcDbEntity
  8
0
390
0
  6
Continuous
 62
     7
100
AcDbLine
 10
9.028611
 20
34.227208
 30
0.0
 11
8.999665
 21
34.779544
 31
0.0
  0
LINE
  5
379
100
AcDbEntity
  8
0
390
0
  6
Continuous
 62
     7
100
AcDbLine
 10
-8.989665
 20
34.779544
 30
0.0
 11
-9.018612
 21
34.227208
 31
0.0
  0
LINE
  5
37A
100
AcDbEntity
  8
0
390
0
  6
Continuous
 62
     7
100
AcDbLine
 10
-1.231389
 20
34.227208
 30
0.0
 11
-1.260335
 21
34.779544
 31
0.0
  0
LINE
  5
37B
100
AcDbEntity
  8
0
390
0
  6
Continuous
 62
     7
100
AcDbLine
 10
-14.119665
 20
34.779544
 30
0.0
 11
-14.148612
 21
34.227208
 31
0.0
  0
LINE
  5
37C
100
AcDbEntity
  8
0
390
0
  6
Continuous
 62
     7
100
AcDbLine
 10
-11.491389
 20
34.227208
 30
0.0
 11
-11.520335
 21
34.779544
 31
0.0
  0
LINE
  5
37D
100
AcDbEntity
  8
0
390
0
  6
Continuous
 62
     7
100
AcDbLine
 10
-11.5
 20
30.0
 30
0.0
 11
11.5
 21
30.0
 31
0.0
  0
LINE
  5
37E
100
AcDbEntity
  8
0
390
0
  6
Continuous
 62
     7
100
AcDbLine
 10
14.129665
 20
34.779544
 30
0.0
 11
14.129665
 21
34.227208
 31
0.0
  0
LINE
  5
37F
100
AcDbEntity
  8
0
390
0
  6
Continuous
 62
     7
100
AcDbLine
 10
13.131035
 20
35.727208
 30
0.0
 11
13.131035
 21
34.227201
 31
0.0
  0
LINE
  5
380
100
AcDbEntity
  8
0
390
0
  6
Continuous
 62
     7
100
AcDbLine
 10
-1.260335
 20
34.779544
 30
0.0
 11
-1.260335
 21
34.227208
 31
0.0
  0
LINE
  5
381
100
AcDbEntity
  8
0
390
0
  6
Continuous
 62
     7
100
AcDbLine
 10
-2.258965
 20
35.727208
 30
0.0
 11
-2.258965
 21
34.227201
 31
0.0
  0
LINE
  5
382
100
AcDbEntity
  8
0
390
0
  6
Continuous
 62
     7
100
AcDbLine
 10
8.999665
 20
34.779544
 30
0.0
 11
8.999665
 21
34.227208
 31
0.0
  0
LINE
  5
383
100
AcDbEntity
  8
0
390
0
  6
Continuous
 62
     7
100
AcDbLine
 10
8.001035
 20
35.727208
 30
0.0
 11
8.001035
 21
34.227201
 31
0.0
  0
LINE
  5
384
100
AcDbEntity
  8
0
390
0
  6
Continuous
 62
     7
100
AcDbLine
 10
3.869665
 20
34.779544
 30
0.0
 11
3.869665
 21
34.227208
 31
0.0
  0
LINE
  5
385
100
AcDbEntity
  8
0
390
0
  6
Continuous
 62
     7
100
AcDbLine
 10
2.871035
 20
35.727208
 30
0.0
 11
2.871035
 21
34.227201
 31
0.0
  0
LINE
  5
386
100
AcDbEntity
  8
0
390
0
  6
Continuous
 62
     7
100
AcDbLine
 10
-11.520335
 20
34.779544
 30
0.0
 11
-11.520335
 21
34.227208
 31
0.0
  0
LINE
  5
387
100
AcDbEntity
  8
0
390
0
  6
Continuous
 62
     7
100
AcDbLine
 10
-12.518965
 20
35.727208
 30
0.0
 11
-12.518965
 21
34.227201
 31
0.0
  0
LINE
  5
388
100
AcDbEntity
  8
0
390
0
  6
Continuous
 62
     7
100
AcDbLine
 10
-6.390335
 20
34.779544
 30
0.0
 11
-6.390335
 21
34.227208
 31
0.0
  0
LINE
  5
389
100
AcDbEntity
  8
0
390
0
  6
Continuous
 62
     7
100
AcDbLine
 10
-7.388965
 20
35.727208
 30
0.0
 11
-7.388965
 21
34.227201
 31
0.0
  0
LINE
  5
38A
100
AcDbEntity
  8
0
390
0
  6
Continuous
 62
     7
100
AcDbLine
 10
-2.861036
 20
35.727208
 30
0.0
 11
-2.861036
 21
34.227208
 31
0.0
  0
LINE
  5
38B
100
AcDbEntity
  8
0
390
0
  6
Continuous
 62
     7
100
AcDbLine
 10
-3.859665
 20
34.779544
 30
0.0
 11
-3.859665
 21
34.227208
 31
0.0
  0
LINE
  5
38C
100
AcDbEntity
  8
0
390
0
  6
Continuous
 62
     7
100
AcDbLine
 10
-7.991036
 20
35.727208
 30
0.0
 11
-7.991036
 21
34.227208
 31
0.0
  0
LINE
  5
38D
100
AcDbEntity
  8
0
390
0
  6
Continuous
 62
     7
100
AcDbLine
 10
-8.989665
 20
34.779544
 30
0.0
 11
-8.989665
 21
34.227208
 31
0.0
  0
LINE
  5
38E
100
AcDbEntity
  8
0
390
0
  6
Continuous
 62
     7
100
AcDbLine
 10
-13.121036
 20
35.727208
 30
0.0
 11
-13.121036
 21
34.227208
 31
0.0
  0
LINE
  5
38F
100
AcDbEntity
  8
0
390
0
  6
Continuous
 62
     7
100
AcDbLine
 10
-14.119665
 20
34.779544
 30
0.0
 11
-14.119665
 21
34.227208
 31
0.0
  0
LINE
  5
390
100
AcDbEntity
  8
0
390
0
  6
Continuous
 62
     7
100
AcDbLine
 10
12.528964
 20
35.727208
 30
0.0
 11
12.528964
 21
34.227208
 31
0.0
  0
LINE
  5
391
100
AcDbEntity
  8
0
390
0
  6
Continuous
 62
     7
100
AcDbLine
 10
11.530335
 20
34.779544
 30
0.0
 11
11.530335
 21
34.227208
 31
0.0
  0
LINE
  5
392
100
AcDbEntity
  8
0
390
0
  6
Continuous
 62
     7
100
AcDbLine
 10
7.398964
 20
35.727208
 30
0.0
 11
7.398964
 21
34.227208
 31
0.0
  0
LINE
  5
393
100
AcDbEntity
  8
0
390
0
  6
Continuous
 62
     7
100
AcDbLine
 10
6.400335
 20
34.779544
 30
0.0
 11
6.400335
 21
34.227208
 31
0.0
  0
LINE
  5
394
100
AcDbEntity
  8
0
390
0
  6
Continuous
 62
     7
100
AcDbLine
 10
2.268964
 20
35.727208
 30
0.0
 11
2.268964
 21
34.227208
 31
0.0
  0
LINE
  5
395
100
AcDbEntity
  8
0
390
0
  6
Continuous
 62
     7
100
AcDbLine
 10
1.270335
 20
34.779544
 30
0.0
 11
1.270335
 21
34.227208
 31
0.0
  0
LINE
  5
396
100
AcDbEntity
  8
0
390
0
  6
Continuous
 62
     7
100
AcDbLine
 10
-53.0
 20
31.398581
 30
0.0
 11
-53.0
 21
32.727208
 31
0.0
  0
LINE
  5
397
100
AcDbEntity
  8
0
390
0
  6
Continuous
 62
     7
100
AcDbLine
 10
53.0
 20
32.727208
 30
0.0
 11
53.0
 21
31.398581
 31
0.0
  0
ARC
  5
398
100
AcDbEntity
  8
0
390
0
  6
Continuous
 62
     7
100
AcDbCircle
 10
23.386035
 20
-86.074166
 30
0.0
 40
1.0
210
0.0
220
0.0
230
1.0
100
AcDbArc
 50
3.0
 51
90.0
  0
ARC
  5
399
100
AcDbEntity
  8
0
390
0
  6
Continuous
 62
     7
100
AcDbCircle
 10
51.5
 20
-88.074166
 30
0.0
 40
1.5
210
0.0
220
0.0
230
1.0
100
AcDbArc
 50
0.0
 51
90.0
  0
LINE
  5
39A
100
AcDbEntity
  8
0
390
0
  6
Continuous
 62
     7
100
AcDbLine
 10
53.0
 20
-88.074166
 30
0.0
 11
53.0
 21
-99.574166
 31
0.0
  0
ARC
  5
39B
100
AcDbEntity
  8
0
390
0
  6
Continuous
 62
     7
100
AcDbCircle
 10
51.5
 20
-99.574166
 30
0.0
 40
1.5
210
0.0
220
0.0
230
1.0
100
AcDbArc
 50
270.0
 51
360.0
  0
LINE
  5
39C
100
AcDbEntity
  8
0
390
0
  6
Continuous
 62
     7
100
AcDbLine
 10
51.5
 20
-101.074166
 30
0.0
 11
50.063611
 21
-101.074166
 31
0.0
  0
LINE
  5
39D
100
AcDbEntity
  8
0
390
0
  6
Continuous
 62
     7
100
AcDbLine
 10
50.034665
 20
-101.626502
 30
0.0
 11
50.063611
 21
-101.074166
 31
0.0
  0
ARC
  5
39E
100
AcDbEntity
  8
0
390
0
  6
Continuous
 62
     7
100
AcDbCircle
 10
49.036035
 20
-101.574166
 30
0.0
 40
1.0
210
0.0
220
0.0
230
1.0
100
AcDbArc
 50
270.0
 51
357.0
  0
LINE
  5
39F
100
AcDbEntity
  8
0
390
0
  6
Continuous
 62
     7
100
AcDbLine
 10
48.433964
 20
-102.574166
 30
0.0
 11
49.036035
 21
-102.574166
 31
0.0
  0
ARC
  5
3A0
100
AcDbEntity
  8
0
390
0
  6
Continuous
 62
     7
100
AcDbCircle
 10
48.433964
 20
-101.574166
 30
0.0
 40
1.0
210
0.0
220
0.0
230
1.0
100
AcDbArc
 50
183.0
 51
270.0
  0
LINE
  5
3A1
100
AcDbEntity
  8
0
390
0
  6
Continuous
 62
     7
100
AcDbLine
 10
47.406388
 20
-101.074166
 30
0.0
 11
47.435335
 21
-101.626502
 31
0.0
  0
LINE
  5
3A2
100
AcDbEntity
  8
0
390
0
  6
Continuous
 62
     7
100
AcDbLine
 10
47.406388
 20
-101.074166
 30
0.0
 11
44.933611
 21
-101.074166
 31
0.0
  0
LINE
  5
3A3
100
AcDbEntity
  8
0
390
0
  6
Continuous
 62
     7
100
AcDbLine
 10
44.904665
 20
-101.626502
 30
0.0
 11
44.933611
 21
-101.074166
 31
0.0
  0
ARC
  5
3A4
100
AcDbEntity
  8
0
390
0
  6
Continuous
 62
     7
100
AcDbCircle
 10
43.906035
 20
-101.574166
 30
0.0
 40
1.0
210
0.0
220
0.0
230
1.0
100
AcDbArc
 50
270.0
 51
357.0
  0
LINE
  5
3A5
100
AcDbEntity
  8
0
390
0
  6
Continuous
 62
     7
100
AcDbLine
 10
43.303964
 20
-102.574166
 30
0.0
 11
43.906035
 21
-102.574166
 31
0.0
  0
ARC
  5
3A6
100
AcDbEntity
  8
0
390
0
  6
Continuous
 62
     7
100
AcDbCircle
 10
43.303964
 20
-101.574166
 30
0.0
 40
1.0
210
0.0
220
0.0
230
1.0
100
AcDbArc
 50
183.0
 51
270.0
  0
LINE
  5
3A7
100
AcDbEntity
  8
0
390
0
  6
Continuous
 62
     7
100
AcDbLine
 10
42.276388
 20
-101.074166
 30
0.0
 11
42.305335
 21
-101.626502
 31
0.0
  0
LINE
  5
3A8
100
AcDbEntity
  8
0
390
0
  6
Continuous
 62
     7
100
AcDbLine
 10
42.276388
 20
-101.074166
 30
0.0
 11
39.803611
 21
-101.074166
 31
0.0
  0
LINE
  5
3A9
100
AcDbEntity
  8
0
390
0
  6
Continuous
 62
     7
100
AcDbLine
 10
39.774665
 20
-101.626502
 30
0.0
 11
39.803611
 21
-101.074166
 31
0.0
  0
ARC
  5
3AA
100
AcDbEntity
  8
0
390
0
  6
Continuous
 62
     7
100
AcDbCircle
 10
38.776035
 20
-101.574166
 30
0.0
 40
1.0
210
0.0
220
0.0
230
1.0
100
AcDbArc
 50
270.0
 51
357.0
  0
LINE
  5
3AB
100
AcDbEntity
  8
0
390
0
  6
Continuous
 62
     7
100
AcDbLine
 10
38.173964
 20
-102.574166
 30
0.0
 11
38.776035
 21
-102.574166
 31
0.0
  0
ARC
  5
3AC
100
AcDbEntity
  8
0
390
0
  6
Continuous
 62
     7
100
AcDbCircle
 10
38.173964
 20
-101.574166
 30
0.0
 40
1.0
210
0.0
220
0.0
230
1.0
100
AcDbArc
 50
183.0
 51
270.0
  0
LINE
  5
3AD
100
AcDbEntity
  8
0
390
0
  6
Continuous
 62
     7
100
AcDbLine
 10
37.146388
 20
-101.074166
 30
0.0
 11
37.175335
 21
-101.626502
 31
0.0
  0
LINE
  5
3AE
100
AcDbEntity
  8
0
390
0
  6
Continuous
 62
     7
100
AcDbLine
 10
37.146388
 20
-101.074166
 30
0.0
 11
34.673611
 21
-101.074166
 31
0.0
  0
LINE
  5
3AF
100
AcDbEntity
  8
0
390
0
  6
Continuous
 62
     7
100
AcDbLine
 10
34.644665
 20
-101.626502
 30
0.0
 11
34.673611
 21
-101.074166
 31
0.0
  0
ARC
  5
3B0
100
AcDbEntity
  8
0
390
0
  6
Continuous
 62
     7
100
AcDbCircle
 10
33.646035
 20
-101.574166
 30
0.0
 40
1.0
210
0.0
220
0.0
230
1.0
100
AcDbArc
 50
270.0
 51
357.0
  0
LINE
  5
3B1
100
AcDbEntity
  8
0
390
0
  6
Continuous
 62
     7
100
AcDbLine
 10
33.043964
 20
-102.574166
 30
0.0
 11
33.646035
 21
-102.574166
 31
0.0
  0
ARC
  5
3B2
100
AcDbEntity
  8
0
390
0
  6
Continuous
 62
     7
100
AcDbCircle
 10
33.043964
 20
-101.574166
 30
0.0
 40
1.0
210
0.0
220
0.0
230
1.0
100
AcDbArc
 50
183.0
 51
270.0
  0
LINE
  5
3B3
100
AcDbEntity
  8
0
390
0
  6
Continuous
 62
     7
100
AcDbLine
 10
32.016388
 20
-101.074166
 30
0.0
 11
32.045335
 21
-101.626502
 31
0.0
  0
LINE
  5
3B4
100
AcDbEntity
  8
0
390
0
  6
Continuous
 62
     7
100
AcDbLine
 10
32.016388
 20
-101.074166
 30
0.0
 11
29.543611
 21
-101.074166
 31
0.0
  0
LINE
  5
3B5
100
AcDbEntity
  8
0
390
0
  6
Continuous
 62
     7
100
AcDbLine
 10
29.514665
 20
-101.626502
 30
0.0
 11
29.543611
 21
-101.074166
 31
0.0
  0
ARC
  5
3B6
100
AcDbEntity
  8
0
390
0
  6
Continuous
 62
     7
100
AcDbCircle
 10
28.516035
 20
-101.574166
 30
0.0
 40
1.0
210
0.0
220
0.0
230
1.0
100
AcDbArc
 50
270.0
 51
357.0
  0
LINE
  5
3B7
100
AcDbEntity
  8
0
390
0
  6
Continuous
 62
     7
100
AcDbLine
 10
27.913964
 20
-102.574166
 30
0.0
 11
28.516035
 21
-102.574166
 31
0.0
  0
ARC
  5
3B8
100
AcDbEntity
  8
0
390
0
  6
Continuous
 62
     7
100
AcDbCircle
 10
27.913964
 20
-101.574166
 30
0.0
 40
1.0
210
0.0
220
0.0
230
1.0
100
AcDbArc
 50
183.0
 51
270.0
  0
LINE
  5
3B9
100
AcDbEntity
  8
0
390
0
  6
Continuous
 62
     7
100
AcDbLine
 10
26.886388
 20
-101.074166
 30
0.0
 11
26.915335
 21
-101.626502
 31
0.0
  0
LINE
  5
3BA
100
AcDbEntity
  8
0
390
0
  6
Continuous
 62
     7
100
AcDbLine
 10
26.886388
 20
-101.074166
 30
0.0
 11
24.413611
 21
-101.074166
 31
0.0
  0
LINE
  5
3BB
100
AcDbEntity
  8
0
390
0
  6
Continuous
 62
     7
100
AcDbLine
 10
24.384665
 20
-101.626502
 30
0.0
 11
24.413611
 21
-101.074166
 31
0.0
  0
ARC
  5
3BC
100
AcDbEntity
  8
0
390
0
  6
Continuous
 62
     7
100
AcDbCircle
 10
23.386035
 20
-101.574166
 30
0.0
 40
1.0
210
0.0
220
0.0
230
1.0
100
AcDbArc
 50
270.0
 51
357.0
  0
LINE
  5
3BD
100
AcDbEntity
  8
0
390
0
  6
Continuous
 62
     7
100
AcDbLine
 10
22.783964
 20
-102.574166
 30
0.0
 11
23.386035
 21
-102.574166
 31
0.0
  0
ARC
  5
3BE
100
AcDbEntity
  8
0
390
0
  6
Continuous
 62
     7
100
AcDbCircle
 10
22.783964
 20
-101.574166
 30
0.0
 40
1.0
210
0.0
220
0.0
230
1.0
100
AcDbArc
 50
183.0
 51
270.0
  0
LINE
  5
3BF
100
AcDbEntity
  8
0
390
0
  6
Continuous
 62
     7
100
AcDbLine
 10
21.756388
 20
-101.074166
 30
0.0
 11
21.785335
 21
-101.626502
 31
0.0
  0
LINE
  5
3C0
100
AcDbEntity
  8
0
390
0
  6
Continuous
 62
     7
100
AcDbLine
 10
21.756388
 20
-101.074166
 30
0.0
 11
19.283611
 21
-101.074166
 31
0.0
  0
LINE
  5
3C1
100
AcDbEntity
  8
0
390
0
  6
Continuous
 62
     7
100
AcDbLine
 10
19.254665
 20
-101.626502
 30
0.0
 11
19.283611
 21
-101.074166
 31
0.0
  0
ARC
  5
3C2
100
AcDbEntity
  8
0
390
0
  6
Continuous
 62
     7
100
AcDbCircle
 10
18.256035
 20
-101.574166
 30
0.0
 40
1.0
210
0.0
220
0.0
230
1.0
100
AcDbArc
 50
270.0
 51
357.0
  0
LINE
  5
3C3
100
AcDbEntity
  8
0
390
0
  6
Continuous
 62
     7
100
AcDbLine
 10
17.653964
 20
-102.574166
 30
0.0
 11
18.256035
 21
-102.574166
 31
0.0
  0
ARC
  5
3C4
100
AcDbEntity
  8
0
390
0
  6
Continuous
 62
     7
100
AcDbCircle
 10
17.653964
 20
-101.574166
 30
0.0
 40
1.0
210
0.0
220
0.0
230
1.0
100
AcDbArc
 50
183.0
 51
270.0
  0
LINE
  5
3C5
100
AcDbEntity
  8
0
390
0
  6
Continuous
 62
     7
100
AcDbLine
 10
16.626388
 20
-101.074166
 30
0.0
 11
16.655335
 21
-101.626502
 31
0.0
  0
LINE
  5
3C6
100
AcDbEntity
  8
0
390
0
  6
Continuous
 62
     7
100
AcDbLine
 10
16.626388
 20
-101.074166
 30
0.0
 11
14.153611
 21
-101.074166
 31
0.0
  0
LINE
  5
3C7
100
AcDbEntity
  8
0
390
0
  6
Continuous
 62
     7
100
AcDbLine
 10
14.124665
 20
-101.626502
 30
0.0
 11
14.153611
 21
-101.074166
 31
0.0
  0
ARC
  5
3C8
100
AcDbEntity
  8
0
390
0
  6
Continuous
 62
     7
100
AcDbCircle
 10
13.126035
 20
-101.574166
 30
0.0
 40
1.0
210
0.0
220
0.0
230
1.0
100
AcDbArc
 50
270.0
 51
357.0
  0
LINE
  5
3C9
100
AcDbEntity
  8
0
390
0
  6
Continuous
 62
     7
100
AcDbLine
 10
12.523964
 20
-102.574166
 30
0.0
 11
13.126035
 21
-102.574166
 31
0.0
  0
ARC
  5
3CA
100
AcDbEntity
  8
0
390
0
  6
Continuous
 62
     7
100
AcDbCircle
 10
12.523964
 20
-101.574166
 30
0.0
 40
1.0
210
0.0
220
0.0
230
1.0
100
AcDbArc
 50
183.0
 51
270.0
  0
LINE
  5
3CB
100
AcDbEntity
  8
0
390
0
  6
Continuous
 62
     7
100
AcDbLine
 10
11.496388
 20
-101.074166
 30
0.0
 11
11.525335
 21
-101.626502
 31
0.0
  0
LINE
  5
3CC
100
AcDbEntity
  8
0
390
0
  6
Continuous
 62
     7
100
AcDbLine
 10
11.496388
 20
-101.074166
 30
0.0
 11
9.023611
 21
-101.074166
 31
0.0
  0
LINE
  5
3CD
100
AcDbEntity
  8
0
390
0
  6
Continuous
 62
     7
100
AcDbLine
 10
8.994665
 20
-101.626502
 30
0.0
 11
9.023611
 21
-101.074166
 31
0.0
  0
ARC
  5
3CE
100
AcDbEntity
  8
0
390
0
  6
Continuous
 62
     7
100
AcDbCircle
 10
7.996035
 20
-101.574166
 30
0.0
 40
1.0
210
0.0
220
0.0
230
1.0
100
AcDbArc
 50
270.0
 51
357.0
  0
LINE
  5
3CF
100
AcDbEntity
  8
0
390
0
  6
Continuous
 62
     7
100
AcDbLine
 10
7.393964
 20
-102.574166
 30
0.0
 11
7.996035
 21
-102.574166
 31
0.0
  0
ARC
  5
3D0
100
AcDbEntity
  8
0
390
0
  6
Continuous
 62
     7
100
AcDbCircle
 10
7.393964
 20
-101.574166
 30
0.0
 40
1.0
210
0.0
220
0.0
230
1.0
100
AcDbArc
 50
183.0
 51
270.0
  0
LINE
  5
3D1
100
AcDbEntity
  8
0
390
0
  6
Continuous
 62
     7
100
AcDbLine
 10
6.366388
 20
-101.074166
 30
0.0
 11
6.395335
 21
-101.626502
 31
0.0
  0
LINE
  5
3D2
100
AcDbEntity
  8
0
390
0
  6
Continuous
 62
     7
100
AcDbLine
 10
6.366388
 20
-101.074166
 30
0.0
 11
3.893611
 21
-101.074166
 31
0.0
  0
LINE
  5
3D3
100
AcDbEntity
  8
0
390
0
  6
Continuous
 62
     7
100
AcDbLine
 10
3.864665
 20
-101.626502
 30
0.0
 11
3.893611
 21
-101.074166
 31
0.0
  0
ARC
  5
3D4
100
AcDbEntity
  8
0
390
0
  6
Continuous
 62
     7
100
AcDbCircle
 10
2.866035
 20
-101.574166
 30
0.0
 40
1.0
210
0.0
220
0.0
230
1.0
100
AcDbArc
 50
270.0
 51
357.0
  0
LINE
  5
3D5
100
AcDbEntity
  8
0
390
0
  6
Continuous
 62
     7
100
AcDbLine
 10
2.263964
 20
-102.574166
 30
0.0
 11
2.866035
 21
-102.574166
 31
0.0
  0
ARC
  5
3D6
100
AcDbEntity
  8
0
390
0
  6
Continuous
 62
     7
100
AcDbCircle
 10
2.263964
 20
-101.574166
 30
0.0
 40
1.0
210
0.0
220
0.0
230
1.0
100
AcDbArc
 50
183.0
 51
270.0
  0
LINE
  5
3D7
100
AcDbEntity
  8
0
390
0
  6
Continuous
 62
     7
100
AcDbLine
 10
1.236388
 20
-101.074166
 30
0.0
 11
1.265335
 21
-101.626502
 31
0.0
  0
LINE
  5
3D8
100
AcDbEntity
  8
0
390
0
  6
Continuous
 62
     7
100
AcDbLine
 10
1.236388
 20
-101.074166
 30
0.0
 11
-1.236389
 21
-101.074166
 31
0.0
  0
LINE
  5
3D9
100
AcDbEntity
  8
0
390
0
  6
Continuous
 62
     7
100
AcDbLine
 10
-1.265335
 20
-101.626502
 30
0.0
 11
-1.236389
 21
-101.074166
 31
0.0
  0
ARC
  5
3DA
100
AcDbEntity
  8
0
390
0
  6
Continuous
 62
     7
100
AcDbCircle
 10
-2.263965
 20
-101.574166
 30
0.0
 40
1.0
210
0.0
220
0.0
230
1.0
100
AcDbArc
 50
270.0
 51
357.0
  0
LINE
  5
3DB
100
AcDbEntity
  8
0
390
0
  6
Continuous
 62
     7
100
AcDbLine
 10
-2.866036
 20
-102.574166
 30
0.0
 11
-2.263965
 21
-102.574166
 31
0.0
  0
ARC
  5
3DC
100
AcDbEntity
  8
0
390
0
  6
Continuous
 62
     7
100
AcDbCircle
 10
-2.866036
 20
-101.574166
 30
0.0
 40
1.0
210
0.0
220
0.0
230
1.0
100
AcDbArc
 50
183.0
 51
270.0
  0
LINE
  5
3DD
100
AcDbEntity
  8
0
390
0
  6
Continuous
 62
     7
100
AcDbLine
 10
-3.893612
 20
-101.074166
 30
0.0
 11
-3.864665
 21
-101.626502
 31
0.0
  0
LINE
  5
3DE
100
AcDbEntity
  8
0
390
0
  6
Continuous
 62
     7
100
AcDbLine
 10
-3.893612
 20
-101.074166
 30
0.0
 11
-6.366389
 21
-101.074166
 31
0.0
  0
LINE
  5
3DF
100
AcDbEntity
  8
0
390
0
  6
Continuous
 62
     7
100
AcDbLine
 10
-6.395335
 20
-101.626502
 30
0.0
 11
-6.366389
 21
-101.074166
 31
0.0
  0
ARC
  5
3E0
100
AcDbEntity
  8
0
390
0
  6
Continuous
 62
     7
100
AcDbCircle
 10
-7.393965
 20
-101.574166
 30
0.0
 40
1.0
210
0.0
220
0.0
230
1.0
100
AcDbArc
 50
270.0
 51
357.0
  0
LINE
  5
3E1
100
AcDbEntity
  8
0
390
0
  6
Continuous
 62
     7
100
AcDbLine
 10
-7.996036
 20
-102.574166
 30
0.0
 11
-7.393965
 21
-102.574166
 31
0.0
  0
ARC
  5
3E2
100
AcDbEntity
  8
0
390
0
  6
Continuous
 62
     7
100
AcDbCircle
 10
-7.996036
 20
-101.574166
 30
0.0
 40
1.0
210
0.0
220
0.0
230
1.0
100
AcDbArc
 50
183.0
 51
270.0
  0
LINE
  5
3E3
100
AcDbEntity
  8
0
390
0
  6
Continuous
 62
     7
100
AcDbLine
 10
-9.023612
 20
-101.074166
 30
0.0
 11
-8.994665
 21
-101.626502
 31
0.0
  0
LINE
  5
3E4
100
AcDbEntity
  8
0
390
0
  6
Continuous
 62
     7
100
AcDbLine
 10
-9.023612
 20
-101.074166
 30
0.0
 11
-11.496389
 21
-101.074166
 31
0.0
  0
LINE
  5
3E5
100
AcDbEntity
  8
0
390
0
  6
Continuous
 62
     7
100
AcDbLine
 10
-11.525335
 20
-101.626502
 30
0.0
 11
-11.496389
 21
-101.074166
 31
0.0
  0
ARC
  5
3E6
100
AcDbEntity
  8
0
390
0
  6
Continuous
 62
     7
100
AcDbCircle
 10
-12.523965
 20
-101.574166
 30
0.0
 40
1.0
210
0.0
220
0.0
230
1.0
100
AcDbArc
 50
270.0
 51
357.0
  0
LINE
  5
3E7
100
AcDbEntity
  8
0
390
0
  6
Continuous
 62
     7
100
AcDbLine
 10
-13.126036
 20
-102.574166
 30
0.0
 11
-12.523965
 21
-102.574166
 31
0.0
  0
ARC
  5
3E8
100
AcDbEntity
  8
0
390
0
  6
Continuous
 62
     7
100
AcDbCircle
 10
-13.126036
 20
-101.574166
 30
0.0
 40
1.0
210
0.0
220
0.0
230
1.0
100
AcDbArc
 50
183.0
 51
270.0
  0
LINE
  5
3E9
100
AcDbEntity
  8
0
390
0
  6
Continuous
 62
     7
100
AcDbLine
 10
-14.153612
 20
-101.074166
 30
0.0
 11
-14.124665
 21
-101.626502
 31
0.0
  0
LINE
  5
3EA
100
AcDbEntity
  8
0
390
0
  6
Continuous
 62
     7
100
AcDbLine
 10
-14.153612
 20
-101.074166
 30
0.0
 11
-16.626389
 21
-101.074166
 31
0.0
  0
LINE
  5
3EB
100
AcDbEntity
  8
0
390
0
  6
Continuous
 62
     7
100
AcDbLine
 10
-16.655335
 20
-101.626502
 30
0.0
 11
-16.626389
 21
-101.074166
 31
0.0
  0
ARC
  5
3EC
100
AcDbEntity
  8
0
390
0
  6
Continuous
 62
     7
100
AcDbCircle
 10
-17.653965
 20
-101.574166
 30
0.0
 40
1.0
210
0.0
220
0.0
230
1.0
100
AcDbArc
 50
270.0
 51
357.0
  0
LINE
  5
3ED
100
AcDbEntity
  8
0
390
0
  6
Continuous
 62
     7
100
AcDbLine
 10
-18.256036
 20
-102.574166
 30
0.0
 11
-17.653965
 21
-102.574166
 31
0.0
  0
ARC
  5
3EE
100
AcDbEntity
  8
0
390
0
  6
Continuous
 62
     7
100
AcDbCircle
 10
-18.256036
 20
-101.574166
 30
0.0
 40
1.0
210
0.0
220
0.0
230
1.0
100
AcDbArc
 50
183.0
 51
270.0
  0
LINE
  5
3EF
100
AcDbEntity
  8
0
390
0
  6
Continuous
 62
     7
100
AcDbLine
 10
-19.283612
 20
-101.074166
 30
0.0
 11
-19.254665
 21
-101.626502
 31
0.0
  0
LINE
  5
3F0
100
AcDbEntity
  8
0
390
0
  6
Continuous
 62
     7
100
AcDbLine
 10
-19.283612
 20
-101.074166
 30
0.0
 11
-21.756389
 21
-101.074166
 31
0.0
  0
LINE
  5
3F1
100
AcDbEntity
  8
0
390
0
  6
Continuous
 62
     7
100
AcDbLine
 10
-21.785335
 20
-101.626502
 30
0.0
 11
-21.756389
 21
-101.074166
 31
0.0
  0
ARC
  5
3F2
100
AcDbEntity
  8
0
390
0
  6
Continuous
 62
     7
100
AcDbCircle
 10
-22.783965
 20
-101.574166
 30
0.0
 40
1.0
210
0.0
220
0.0
230
1.0
100
AcDbArc
 50
270.0
 51
357.0
  0
LINE
  5
3F3
100
AcDbEntity
  8
0
390
0
  6
Continuous
 62
     7
100
AcDbLine
 10
-23.386036
 20
-102.574166
 30
0.0
 11
-22.783965
 21
-102.574166
 31
0.0
  0
ARC
  5
3F4
100
AcDbEntity
  8
0
390
0
  6
Continuous
 62
     7
100
AcDbCircle
 10
-23.386036
 20
-101.574166
 30
0.0
 40
1.0
210
0.0
220
0.0
230
1.0
100
AcDbArc
 50
183.0
 51
270.0
  0
LINE
  5
3F5
100
AcDbEntity
  8
0
390
0
  6
Continuous
 62
     7
100
AcDbLine
 10
-24.413612
 20
-101.074166
 30
0.0
 11
-24.384665
 21
-101.626502
 31
0.0
  0
LINE
  5
3F6
100
AcDbEntity
  8
0
390
0
  6
Continuous
 62
     7
100
AcDbLine
 10
-24.413612
 20
-101.074166
 30
0.0
 11
-26.886389
 21
-101.074166
 31
0.0
  0
LINE
  5
3F7
100
AcDbEntity
  8
0
390
0
  6
Continuous
 62
     7
100
AcDbLine
 10
-26.915335
 20
-101.626502
 30
0.0
 11
-26.886389
 21
-101.074166
 31
0.0
  0
ARC
  5
3F8
100
AcDbEntity
  8
0
390
0
  6
Continuous
 62
     7
100
AcDbCircle
 10
-27.913965
 20
-101.574166
 30
0.0
 40
1.0
210
0.0
220
0.0
230
1.0
100
AcDbArc
 50
270.0
 51
357.0
  0
LINE
  5
3F9
100
AcDbEntity
  8
0
390
0
  6
Continuous
 62
     7
100
AcDbLine
 10
-28.516036
 20
-102.574166
 30
0.0
 11
-27.913965
 21
-102.574166
 31
0.0
  0
ARC
  5
3FA
100
AcDbEntity
  8
0
390
0
  6
Continuous
 62
     7
100
AcDbCircle
 10
-28.516036
 20
-101.574166
 30
0.0
 40
1.0
210
0.0
220
0.0
230
1.0
100
AcDbArc
 50
183.0
 51
270.0
  0
LINE
  5
3FB
100
AcDbEntity
  8
0
390
0
  6
Continuous
 62
     7
100
AcDbLine
 10
-29.543612
 20
-101.074166
 30
0.0
 11
-29.514665
 21
-101.626502
 31
0.0
  0
LINE
  5
3FC
100
AcDbEntity
  8
0
390
0
  6
Continuous
 62
     7
100
AcDbLine
 10
-29.543612
 20
-101.074166
 30
0.0
 11
-32.016389
 21
-101.074166
 31
0.0
  0
LINE
  5
3FD
100
AcDbEntity
  8
0
390
0
  6
Continuous
 62
     7
100
AcDbLine
 10
-32.045335
 20
-101.626502
 30
0.0
 11
-32.016389
 21
-101.074166
 31
0.0
  0
ARC
  5
3FE
100
AcDbEntity
  8
0
390
0
  6
Continuous
 62
     7
100
AcDbCircle
 10
-33.043965
 20
-101.574166
 30
0.0
 40
1.0
210
0.0
220
0.0
230
1.0
100
AcDbArc
 50
270.0
 51
357.0
  0
LINE
  5
3FF
100
AcDbEntity
  8
0
390
0
  6
Continuous
 62
     7
100
AcDbLine
 10
-33.646036
 20
-102.574166
 30
0.0
 11
-33.043965
 21
-102.574166
 31
0.0
  0
ARC
  5
400
100
AcDbEntity
  8
0
390
0
  6
Continuous
 62
     7
100
AcDbCircle
 10
-33.646036
 20
-101.574166
 30
0.0
 40
1.0
210
0.0
220
0.0
230
1.0
100
AcDbArc
 50
183.0
 51
270.0
  0
LINE
  5
401
100
AcDbEntity
  8
0
390
0
  6
Continuous
 62
     7
100
AcDbLine
 10
-34.673612
 20
-101.074166
 30
0.0
 11
-34.644665
 21
-101.626502
 31
0.0
  0
LINE
  5
402
100
AcDbEntity
  8
0
390
0
  6
Continuous
 62
     7
100
AcDbLine
 10
-34.673612
 20
-101.074166
 30
0.0
 11
-37.146389
 21
-101.074166
 31
0.0
  0
LINE
  5
403
100
AcDbEntity
  8
0
390
0
  6
Continuous
 62
     7
100
AcDbLine
 10
-37.175335
 20
-101.626502
 30
0.0
 11
-37.146389
 21
-101.074166
 31
0.0
  0
ARC
  5
404
100
AcDbEntity
  8
0
390
0
  6
Continuous
 62
     7
100
AcDbCircle
 10
-38.173965
 20
-101.574166
 30
0.0
 40
1.0
210
0.0
220
0.0
230
1.0
100
AcDbArc
 50
270.0
 51
357.0
  0
LINE
  5
405
100
AcDbEntity
  8
0
390
0
  6
Continuous
 62
     7
100
AcDbLine
 10
-38.776036
 20
-102.574166
 30
0.0
 11
-38.173965
 21
-102.574166
 31
0.0
  0
ARC
  5
406
100
AcDbEntity
  8
0
390
0
  6
Continuous
 62
     7
100
AcDbCircle
 10
-38.776036
 20
-101.574166
 30
0.0
 40
1.0
210
0.0
220
0.0
230
1.0
100
AcDbArc
 50
183.0
 51
270.0
  0
LINE
  5
407
100
AcDbEntity
  8
0
390
0
  6
Continuous
 62
     7
100
AcDbLine
 10
-39.803612
 20
-101.074166
 30
0.0
 11
-39.774665
 21
-101.626502
 31
0.0
  0
LINE
  5
408
100
AcDbEntity
  8
0
390
0
  6
Continuous
 62
     7
100
AcDbLine
 10
-39.803612
 20
-101.074166
 30
0.0
 11
-42.276389
 21
-101.074166
 31
0.0
  0
LINE
  5
409
100
AcDbEntity
  8
0
390
0
  6
Continuous
 62
     7
100
AcDbLine
 10
-42.305335
 20
-101.626502
 30
0.0
 11
-42.276389
 21
-101.074166
 31
0.0
  0
ARC
  5
40A
100
AcDbEntity
  8
0
390
0
  6
Continuous
 62
     7
100
AcDbCircle
 10
-43.303965
 20
-101.574166
 30
0.0
 40
1.0
210
0.0
220
0.0
230
1.0
100
AcDbArc
 50
270.0
 51
357.0
  0
LINE
  5
40B
100
AcDbEntity
  8
0
390
0
  6
Continuous
 62
     7
100
AcDbLine
 10
-43.906036
 20
-102.574166
 30
0.0
 11
-43.303965
 21
-102.574166
 31
0.0
  0
ARC
  5
40C
100
AcDbEntity
  8
0
390
0
  6
Continuous
 62
     7
100
AcDbCircle
 10
-43.906036
 20
-101.574166
 30
0.0
 40
1.0
210
0.0
220
0.0
230
1.0
100
AcDbArc
 50
183.0
 51
270.0
  0
LINE
  5
40D
100
AcDbEntity
  8
0
390
0
  6
Continuous
 62
     7
100
AcDbLine
 10
-44.933612
 20
-101.074166
 30
0.0
 11
-44.904665
 21
-101.626502
 31
0.0
  0
LINE
  5
40E
100
AcDbEntity
  8
0
390
0
  6
Continuous
 62
     7
100
AcDbLine
 10
-44.933612
 20
-101.074166
 30
0.0
 11
-47.406389
 21
-101.074166
 31
0.0
  0
LINE
  5
40F
100
AcDbEntity
  8
0
390
0
  6
Continuous
 62
     7
100
AcDbLine
 10
-47.435335
 20
-101.626502
 30
0.0
 11
-47.406389
 21
-101.074166
 31
0.0
  0
ARC
  5
410
100
AcDbEntity
  8
0
390
0
  6
Continuous
 62
     7
100
AcDbCircle
 10
-48.433965
 20
-101.574166
 30
0.0
 40
1.0
210
0.0
220
0.0
230
1.0
100
AcDbArc
 50
270.0
 51
357.0
  0
LINE
  5
411
100
AcDbEntity
  8
0
390
0
  6
Continuous
 62
     7
100
AcDbLine
 10
-49.036036
 20
-102.574166
 30
0.0
 11
-48.433965
 21
-102.574166
 31
0.0
  0
ARC
  5
412
100
AcDbEntity
  8
0
390
0
  6
Continuous
 62
     7
100
AcDbCircle
 10
-49.036036
 20
-101.574166
 30
0.0
 40
1.0
210
0.0
220
0.0
230
1.0
100
AcDbArc
 50
183.0
 51
270.0
  0
LINE
  5
413
100
AcDbEntity
  8
0
390
0
  6
Continuous
 62
     7
100
AcDbLine
 10
-50.063612
 20
-101.074166
 30
0.0
 11
-50.034665
 21
-101.626502
 31
0.0
  0
LINE
  5
414
100
AcDbEntity
  8
0
390
0
  6
Continuous
 62
     7
100
AcDbLine
 10
-50.063612
 20
-101.074166
 30
0.0
 11
-51.5
 21
-101.074166
 31
0.0
  0
ARC
  5
415
100
AcDbEntity
  8
0
390
0
  6
Continuous
 62
     7
100
AcDbCircle
 10
-51.5
 20
-99.574166
 30
0.0
 40
1.5
210
0.0
220
0.0
230
1.0
100
AcDbArc
 50
180.0
 51
270.0
  0
LINE
  5
416
100
AcDbEntity
  8
0
390
0
  6
Continuous
 62
     7
100
AcDbLine
 10
-53.0
 20
-99.574166
 30
0.0
 11
-53.0
 21
-88.074166
 31
0.0
  0
ARC
  5
417
100
AcDbEntity
  8
0
390
0
  6
Continuous
 62
     7
100
AcDbCircle
 10
-51.5
 20
-88.074166
 30
0.0
 40
1.5
210
0.0
220
0.0
230
1.0
100
AcDbArc
 50
90.0
 51
180.0
  0
LINE
  5
418
100
AcDbEntity
  8
0
390
0
  6
Continuous
 62
     7
100
AcDbLine
 10
-51.5
 20
-86.574166
 30
0.0
 11
-50.063612
 21
-86.574166
 31
0.0
  0
LINE
  5
419
100
AcDbEntity
  8
0
390
0
  6
Continuous
 62
     7
100
AcDbLine
 10
-50.034665
 20
-86.02183
 30
0.0
 11
-50.063612
 21
-86.574166
 31
0.0
  0
ARC
  5
41A
100
AcDbEntity
  8
0
390
0
  6
Continuous
 62
     7
100
AcDbCircle
 10
-49.036036
 20
-86.074166
 30
0.0
 40
1.0
210
0.0
220
0.0
230
1.0
100
AcDbArc
 50
90.0
 51
177.0
  0
LINE
  5
41B
100
AcDbEntity
  8
0
390
0
  6
Continuous
 62
     7
100
AcDbLine
 10
-48.433965
 20
-85.074166
 30
0.0
 11
-49.036036
 21
-85.074166
 31
0.0
  0
ARC
  5
41C
100
AcDbEntity
  8
0
390
0
  6
Continuous
 62
     7
100
AcDbCircle
 10
-48.433965
 20
-86.074166
 30
0.0
 40
1.0
210
0.0
220
0.0
230
1.0
100
AcDbArc
 50
3.0
 51
90.0
  0
LINE
  5
41D
100
AcDbEntity
  8
0
390
0
  6
Continuous
 62
     7
100
AcDbLine
 10
-47.406389
 20
-86.574166
 30
0.0
 11
-47.435335
 21
-86.02183
 31
0.0
  0
LINE
  5
41E
100
AcDbEntity
  8
0
390
0
  6
Continuous
 62
     7
100
AcDbLine
 10
-47.406389
 20
-86.574166
 30
0.0
 11
-44.933612
 21
-86.574166
 31
0.0
  0
LINE
  5
41F
100
AcDbEntity
  8
0
390
0
  6
Continuous
 62
     7
100
AcDbLine
 10
-44.904665
 20
-86.02183
 30
0.0
 11
-44.933612
 21
-86.574166
 31
0.0
  0
ARC
  5
420
100
AcDbEntity
  8
0
390
0
  6
Continuous
 62
     7
100
AcDbCircle
 10
-43.906036
 20
-86.074166
 30
0.0
 40
1.0
210
0.0
220
0.0
230
1.0
100
AcDbArc
 50
90.0
 51
177.0
  0
LINE
  5
421
100
AcDbEntity
  8
0
390
0
  6
Continuous
 62
     7
100
AcDbLine
 10
-43.303965
 20
-85.074166
 30
0.0
 11
-43.906036
 21
-85.074166
 31
0.0
  0
ARC
  5
422
100
AcDbEntity
  8
0
390
0
  6
Continuous
 62
     7
100
AcDbCircle
 10
-43.303965
 20
-86.074166
 30
0.0
 40
1.0
210
0.0
220
0.0
230
1.0
100
AcDbArc
 50
3.0
 51
90.0
  0
LINE
  5
423
100
AcDbEntity
  8
0
390
0
  6
Continuous
 62
     7
100
AcDbLine
 10
-42.276389
 20
-86.574166
 30
0.0
 11
-42.305335
 21
-86.02183
 31
0.0
  0
LINE
  5
424
100
AcDbEntity
  8
0
390
0
  6
Continuous
 62
     7
100
AcDbLine
 10
-42.276389
 20
-86.574166
 30
0.0
 11
-39.803612
 21
-86.574166
 31
0.0
  0
LINE
  5
425
100
AcDbEntity
  8
0
390
0
  6
Continuous
 62
     7
100
AcDbLine
 10
-39.774665
 20
-86.02183
 30
0.0
 11
-39.803612
 21
-86.574166
 31
0.0
  0
ARC
  5
426
100
AcDbEntity
  8
0
390
0
  6
Continuous
 62
     7
100
AcDbCircle
 10
-38.776036
 20
-86.074166
 30
0.0
 40
1.0
210
0.0
220
0.0
230
1.0
100
AcDbArc
 50
90.0
 51
177.0
  0
LINE
  5
427
100
AcDbEntity
  8
0
390
0
  6
Continuous
 62
     7
100
AcDbLine
 10
-38.173965
 20
-85.074166
 30
0.0
 11
-38.776036
 21
-85.074166
 31
0.0
  0
ARC
  5
428
100
AcDbEntity
  8
0
390
0
  6
Continuous
 62
     7
100
AcDbCircle
 10
-38.173965
 20
-86.074166
 30
0.0
 40
1.0
210
0.0
220
0.0
230
1.0
100
AcDbArc
 50
3.0
 51
90.0
  0
LINE
  5
429
100
AcDbEntity
  8
0
390
0
  6
Continuous
 62
     7
100
AcDbLine
 10
-37.146389
 20
-86.574166
 30
0.0
 11
-37.175335
 21
-86.02183
 31
0.0
  0
LINE
  5
42A
100
AcDbEntity
  8
0
390
0
  6
Continuous
 62
     7
100
AcDbLine
 10
-37.146389
 20
-86.574166
 30
0.0
 11
-34.673612
 21
-86.574166
 31
0.0
  0
LINE
  5
42B
100
AcDbEntity
  8
0
390
0
  6
Continuous
 62
     7
100
AcDbLine
 10
-34.644665
 20
-86.02183
 30
0.0
 11
-34.673612
 21
-86.574166
 31
0.0
  0
ARC
  5
42C
100
AcDbEntity
  8
0
390
0
  6
Continuous
 62
     7
100
AcDbCircle
 10
-33.646036
 20
-86.074166
 30
0.0
 40
1.0
210
0.0
220
0.0
230
1.0
100
AcDbArc
 50
90.0
 51
177.0
  0
LINE
  5
42D
100
AcDbEntity
  8
0
390
0
  6
Continuous
 62
     7
100
AcDbLine
 10
-33.043965
 20
-85.074166
 30
0.0
 11
-33.646036
 21
-85.074166
 31
0.0
  0
ARC
  5
42E
100
AcDbEntity
  8
0
390
0
  6
Continuous
 62
     7
100
AcDbCircle
 10
-33.043965
 20
-86.074166
 30
0.0
 40
1.0
210
0.0
220
0.0
230
1.0
100
AcDbArc
 50
3.0
 51
90.0
  0
LINE
  5
42F
100
AcDbEntity
  8
0
390
0
  6
Continuous
 62
     7
100
AcDbLine
 10
-32.016389
 20
-86.574166
 30
0.0
 11
-32.045335
 21
-86.02183
 31
0.0
  0
LINE
  5
430
100
AcDbEntity
  8
0
390
0
  6
Continuous
 62
     7
100
AcDbLine
 10
-32.016389
 20
-86.574166
 30
0.0
 11
-29.543612
 21
-86.574166
 31
0.0
  0
LINE
  5
431
100
AcDbEntity
  8
0
390
0
  6
Continuous
 62
     7
100
AcDbLine
 10
-29.514665
 20
-86.02183
 30
0.0
 11
-29.543612
 21
-86.574166
 31
0.0
  0
ARC
  5
432
100
AcDbEntity
  8
0
390
0
  6
Continuous
 62
     7
100
AcDbCircle
 10
-28.516036
 20
-86.074166
 30
0.0
 40
1.0
210
0.0
220
0.0
230
1.0
100
AcDbArc
 50
90.0
 51
177.0
  0
LINE
  5
433
100
AcDbEntity
  8
0
390
0
  6
Continuous
 62
     7
100
AcDbLine
 10
-27.913965
 20
-85.074166
 30
0.0
 11
-28.516036
 21
-85.074166
 31
0.0
  0
ARC
  5
434
100
AcDbEntity
  8
0
390
0
  6
Continuous
 62
     7
100
AcDbCircle
 10
-27.913965
 20
-86.074166
 30
0.0
 40
1.0
210
0.0
220
0.0
230
1.0
100
AcDbArc
 50
3.0
 51
90.0
  0
LINE
  5
435
100
AcDbEntity
  8
0
390
0
  6
Continuous
 62
     7
100
AcDbLine
 10
-26.886389
 20
-86.574166
 30
0.0
 11
-26.915335
 21
-86.02183
 31
0.0
  0
LINE
  5
436
100
AcDbEntity
  8
0
390
0
  6
Continuous
 62
     7
100
AcDbLine
 10
-26.886389
 20
-86.574166
 30
0.0
 11
-24.413612
 21
-86.574166
 31
0.0
  0
LINE
  5
437
100
AcDbEntity
  8
0
390
0
  6
Continuous
 62
     7
100
AcDbLine
 10
-24.384665
 20
-86.02183
 30
0.0
 11
-24.413612
 21
-86.574166
 31
0.0
  0
ARC
  5
438
100
AcDbEntity
  8
0
390
0
  6
Continuous
 62
     7
100
AcDbCircle
 10
-23.386036
 20
-86.074166
 30
0.0
 40
1.0
210
0.0
220
0.0
230
1.0
100
AcDbArc
 50
90.0
 51
177.0
  0
LINE
  5
439
100
AcDbEntity
  8
0
390
0
  6
Continuous
 62
     7
100
AcDbLine
 10
-22.783965
 20
-85.074166
 30
0.0
 11
-23.386036
 21
-85.074166
 31
0.0
  0
ARC
  5
43A
100
AcDbEntity
  8
0
390
0
  6
Continuous
 62
     7
100
AcDbCircle
 10
-22.783965
 20
-86.074166
 30
0.0
 40
1.0
210
0.0
220
0.0
230
1.0
100
AcDbArc
 50
3.0
 51
90.0
  0
LINE
  5
43B
100
AcDbEntity
  8
0
390
0
  6
Continuous
 62
     7
100
AcDbLine
 10
-21.756389
 20
-86.574166
 30
0.0
 11
-21.785335
 21
-86.02183
 31
0.0
  0
LINE
  5
43C
100
AcDbEntity
  8
0
390
0
  6
Continuous
 62
     7
100
AcDbLine
 10
-21.756389
 20
-86.574166
 30
0.0
 11
-19.0
 21
-86.574166
 31
0.0
  0
ARC
  5
43D
100
AcDbEntity
  8
0
390
0
  6
Continuous
 62
     7
100
AcDbCircle
 10
-19.0
 20
-88.074166
 30
0.0
 40
1.5
210
0.0
220
0.0
230
1.0
100
AcDbArc
 50
0.0
 51
90.0
  0
LINE
  5
43E
100
AcDbEntity
  8
0
390
0
  6
Continuous
 62
     7
100
AcDbLine
 10
-17.5
 20
-88.074166
 30
0.0
 11
-17.5
 21
-89.085425
 31
0.0
  0
LINE
  5
43F
100
AcDbEntity
  8
0
390
0
  6
Continuous
 62
     7
100
AcDbLine
 10
-17.5
 20
-89.085425
 30
0.0
 11
-50.488742
 21
-89.085425
 31
0.0
  0
LINE
  5
440
100
AcDbEntity
  8
0
390
0
  6
Continuous
 62
     7
100
AcDbLine
 10
-50.488742
 20
-89.085425
 30
0.0
 11
-50.488742
 21
-98.562908
 31
0.0
  0
LINE
  5
441
100
AcDbEntity
  8
0
390
0
  6
Continuous
 62
     7
100
AcDbLine
 10
-50.488742
 20
-98.562908
 30
0.0
 11
50.488741
 21
-98.562908
 31
0.0
  0
LINE
  5
442
100
AcDbEntity
  8
0
390
0
  6
Continuous
 62
     7
100
AcDbLine
 10
50.488741
 20
-98.562908
 30
0.0
 11
50.488741
 21
-89.085425
 31
0.0
  0
LINE
  5
443
100
AcDbEntity
  8
0
390
0
  6
Continuous
 62
     7
100
AcDbLine
 10
50.488741
 20
-89.085425
 30
0.0
 11
17.5
 21
-89.085425
 31
0.0
  0
LINE
  5
444
100
AcDbEntity
  8
0
390
0
  6
Continuous
 62
     7
100
AcDbLine
 10
17.5
 20
-88.074166
 30
0.0
 11
17.5
 21
-89.085425
 31
0.0
  0
ARC
  5
445
100
AcDbEntity
  8
0
390
0
  6
Continuous
 62
     7
100
AcDbCircle
 10
19.0
 20
-88.074166
 30
0.0
 40
1.5
210
0.0
220
0.0
230
1.0
100
AcDbArc
 50
90.0
 51
180.0
  0
LINE
  5
446
100
AcDbEntity
  8
0
390
0
  6
Continuous
 62
     7
100
AcDbLine
 10
19.0
 20
-86.574166
 30
0.0
 11
21.756388
 21
-86.574166
 31
0.0
  0
LINE
  5
447
100
AcDbEntity
  8
0
390
0
  6
Continuous
 62
     7
100
AcDbLine
 10
21.785335
 20
-86.02183
 30
0.0
 11
21.756388
 21
-86.574166
 31
0.0
  0
ARC
  5
448
100
AcDbEntity
  8
0
390
0
  6
Continuous
 62
     7
100
AcDbCircle
 10
38.776035
 20
-86.074166
 30
0.0
 40
1.0
210
0.0
220
0.0
230
1.0
100
AcDbArc
 50
3.0
 51
90.0
  0
LINE
  5
449
100
AcDbEntity
  8
0
390
0
  6
Continuous
 62
     7
100
AcDbLine
 10
39.803611
 20
-86.574166
 30
0.0
 11
42.276388
 21
-86.574166
 31
0.0
  0
ARC
  5
44A
100
AcDbEntity
  8
0
390
0
  6
Continuous
 62
     7
100
AcDbCircle
 10
22.783964
 20
-86.074166
 30
0.0
 40
1.0
210
0.0
220
0.0
230
1.0
100
AcDbArc
 50
90.0
 51
177.0
  0
LINE
  5
44B
100
AcDbEntity
  8
0
390
0
  6
Continuous
 62
     7
100
AcDbLine
 10
44.933611
 20
-86.574166
 30
0.0
 11
44.904665
 21
-86.02183
 31
0.0
  0
LINE
  5
44C
100
AcDbEntity
  8
0
390
0
  6
Continuous
 62
     7
100
AcDbLine
 10
42.305335
 20
-86.02183
 30
0.0
 11
42.276388
 21
-86.574166
 31
0.0
  0
LINE
  5
44D
100
AcDbEntity
  8
0
390
0
  6
Continuous
 62
     7
100
AcDbLine
 10
24.413611
 20
-86.574166
 30
0.0
 11
26.886388
 21
-86.574166
 31
0.0
  0
LINE
  5
44E
100
AcDbEntity
  8
0
390
0
  6
Continuous
 62
     7
100
AcDbLine
 10
43.906035
 20
-85.074166
 30
0.0
 11
43.303964
 21
-85.074166
 31
0.0
  0
ARC
  5
44F
100
AcDbEntity
  8
0
390
0
  6
Continuous
 62
     7
100
AcDbCircle
 10
43.906035
 20
-86.074166
 30
0.0
 40
1.0
210
0.0
220
0.0
230
1.0
100
AcDbArc
 50
3.0
 51
90.0
  0
LINE
  5
450
100
AcDbEntity
  8
0
390
0
  6
Continuous
 62
     7
100
AcDbLine
 10
44.933611
 20
-86.574166
 30
0.0
 11
47.406388
 21
-86.574166
 31
0.0
  0
LINE
  5
451
100
AcDbEntity
  8
0
390
0
  6
Continuous
 62
     7
100
AcDbLine
 10
24.413611
 20
-86.574166
 30
0.0
 11
24.384665
 21
-86.02183
 31
0.0
  0
LINE
  5
452
100
AcDbEntity
  8
0
390
0
  6
Continuous
 62
     7
100
AcDbLine
 10
50.063611
 20
-86.574166
 30
0.0
 11
50.034665
 21
-86.02183
 31
0.0
  0
LINE
  5
453
100
AcDbEntity
  8
0
390
0
  6
Continuous
 62
     7
100
AcDbLine
 10
47.435335
 20
-86.02183
 30
0.0
 11
47.406388
 21
-86.574166
 31
0.0
  0
LINE
  5
454
100
AcDbEntity
  8
0
390
0
  6
Continuous
 62
     7
100
AcDbLine
 10
23.386035
 20
-85.074166
 30
0.0
 11
22.783964
 21
-85.074166
 31
0.0
  0
LINE
  5
455
100
AcDbEntity
  8
0
390
0
  6
Continuous
 62
     7
100
AcDbLine
 10
49.036035
 20
-85.074166
 30
0.0
 11
48.433964
 21
-85.074166
 31
0.0
  0
ARC
  5
456
100
AcDbEntity
  8
0
390
0
  6
Continuous
 62
     7
100
AcDbCircle
 10
49.036035
 20
-86.074166
 30
0.0
 40
1.0
210
0.0
220
0.0
230
1.0
100
AcDbArc
 50
3.0
 51
90.0
  0
LINE
  5
457
100
AcDbEntity
  8
0
390
0
  6
Continuous
 62
     7
100
AcDbLine
 10
50.063611
 20
-86.574166
 30
0.0
 11
51.5
 21
-86.574166
 31
0.0
  0
LINE
  5
458
100
AcDbEntity
  8
0
390
0
  6
Continuous
 62
     7
100
AcDbLine
 10
29.543611
 20
-86.574166
 30
0.0
 11
29.514665
 21
-86.02183
 31
0.0
  0
LINE
  5
459
100
AcDbEntity
  8
0
390
0
  6
Continuous
 62
     7
100
AcDbLine
 10
26.915335
 20
-86.02183
 30
0.0
 11
26.886388
 21
-86.574166
 31
0.0
  0
ARC
  5
45A
100
AcDbEntity
  8
0
390
0
  6
Continuous
 62
     7
100
AcDbCircle
 10
27.913964
 20
-86.074166
 30
0.0
 40
1.0
210
0.0
220
0.0
230
1.0
100
AcDbArc
 50
90.0
 51
177.0
  0
LINE
  5
45B
100
AcDbEntity
  8
0
390
0
  6
Continuous
 62
     7
100
AcDbLine
 10
28.516035
 20
-85.074166
 30
0.0
 11
27.913964
 21
-85.074166
 31
0.0
  0
ARC
  5
45C
100
AcDbEntity
  8
0
390
0
  6
Continuous
 62
     7
100
AcDbCircle
 10
28.516035
 20
-86.074166
 30
0.0
 40
1.0
210
0.0
220
0.0
230
1.0
100
AcDbArc
 50
3.0
 51
90.0
  0
LINE
  5
45D
100
AcDbEntity
  8
0
390
0
  6
Continuous
 62
     7
100
AcDbLine
 10
29.543611
 20
-86.574166
 30
0.0
 11
32.016388
 21
-86.574166
 31
0.0
  0
ARC
  5
45E
100
AcDbEntity
  8
0
390
0
  6
Continuous
 62
     7
100
AcDbCircle
 10
43.303964
 20
-86.074166
 30
0.0
 40
1.0
210
0.0
220
0.0
230
1.0
100
AcDbArc
 50
90.0
 51
177.0
  0
LINE
  5
45F
100
AcDbEntity
  8
0
390
0
  6
Continuous
 62
     7
100
AcDbLine
 10
34.673611
 20
-86.574166
 30
0.0
 11
34.644665
 21
-86.02183
 31
0.0
  0
LINE
  5
460
100
AcDbEntity
  8
0
390
0
  6
Continuous
 62
     7
100
AcDbLine
 10
32.045335
 20
-86.02183
 30
0.0
 11
32.016388
 21
-86.574166
 31
0.0
  0
ARC
  5
461
100
AcDbEntity
  8
0
390
0
  6
Continuous
 62
     7
100
AcDbCircle
 10
33.043964
 20
-86.074166
 30
0.0
 40
1.0
210
0.0
220
0.0
230
1.0
100
AcDbArc
 50
90.0
 51
177.0
  0
LINE
  5
462
100
AcDbEntity
  8
0
390
0
  6
Continuous
 62
     7
100
AcDbLine
 10
33.646035
 20
-85.074166
 30
0.0
 11
33.043964
 21
-85.074166
 31
0.0
  0
ARC
  5
463
100
AcDbEntity
  8
0
390
0
  6
Continuous
 62
     7
100
AcDbCircle
 10
33.646035
 20
-86.074166
 30
0.0
 40
1.0
210
0.0
220
0.0
230
1.0
100
AcDbArc
 50
3.0
 51
90.0
  0
LINE
  5
464
100
AcDbEntity
  8
0
390
0
  6
Continuous
 62
     7
100
AcDbLine
 10
34.673611
 20
-86.574166
 30
0.0
 11
37.146388
 21
-86.574166
 31
0.0
  0
ARC
  5
465
100
AcDbEntity
  8
0
390
0
  6
Continuous
 62
     7
100
AcDbCircle
 10
48.433964
 20
-86.074166
 30
0.0
 40
1.0
210
0.0
220
0.0
230
1.0
100
AcDbArc
 50
90.0
 51
177.0
  0
LINE
  5
466
100
AcDbEntity
  8
0
390
0
  6
Continuous
 62
     7
100
AcDbLine
 10
39.803611
 20
-86.574166
 30
0.0
 11
39.774665
 21
-86.02183
 31
0.0
  0
LINE
  5
467
100
AcDbEntity
  8
0
390
0
  6
Continuous
 62
     7
100
AcDbLine
 10
37.175335
 20
-86.02183
 30
0.0
 11
37.146388
 21
-86.574166
 31
0.0
  0
ARC
  5
468
100
AcDbEntity
  8
0
390
0
  6
Continuous
 62
     7
100
AcDbCircle
 10
38.173964
 20
-86.074166
 30
0.0
 40
1.0
210
0.0
220
0.0
230
1.0
100
AcDbArc
 50
90.0
 51
177.0
  0
LINE
  5
469
100
AcDbEntity
  8
0
390
0
  6
Continuous
 62
     7
100
AcDbLine
 10
38.776035
 20
-85.074166
 30
0.0
 11
38.173964
 21
-85.074166
 31
0.0
  0
LINE
  5
46A
100
AcDbEntity
  8
0
390
0
  6
Continuous
 62
     7
100
AcDbLine
 10
17.5
 20
-88.074166
 30
0.0
 11
11.5
 21
-88.074166
 31
0.0
  0
ARC
  5
46B
100
AcDbEntity
  8
0
390
0
  6
Continuous
 62
     7
100
AcDbCircle
 10
13.0
 20
-88.074166
 30
0.0
 40
1.5
210
0.0
220
0.0
230
1.0
100
AcDbArc
 50
90.0
 51
180.0
  0
LINE
  5
46C
100
AcDbEntity
  8
0
390
0
  6
Continuous
 62
     7
100
AcDbLine
 10
13.0
 20
-86.574166
 30
0.0
 11
19.0
 21
-86.574166
 31
0.0
  0
LINE
  5
46D
100
AcDbEntity
  8
0
390
0
  6
Continuous
 62
     7
100
AcDbLine
 10
-11.5
 20
-88.074166
 30
0.0
 11
-17.5
 21
-88.074166
 31
0.0
  0
ARC
  5
46E
100
AcDbEntity
  8
0
390
0
  6
Continuous
 62
     7
100
AcDbCircle
 10
-13.0
 20
-88.074166
 30
0.0
 40
1.5
210
0.0
220
0.0
230
1.0
100
AcDbArc
 50
0.0
 51
90.0
  0
LINE
  5
46F
100
AcDbEntity
  8
0
390
0
  6
Continuous
 62
     7
100
AcDbLine
 10
-19.0
 20
-86.574166
 30
0.0
 11
-13.0
 21
-86.574166
 31
0.0
  0
LINE
  5
470
100
AcDbEntity
  8
0
390
0
  6
Continuous
 62
     7
100
AcDbLine
 10
11.5
 20
-89.163972
 30
0.0
 11
13.531373
 21
-89.085425
 31
0.0
  0
LINE
  5
471
100
AcDbEntity
  8
0
390
0
  6
Continuous
 62
     7
100
AcDbLine
 10
11.5
 20
-88.074166
 30
0.0
 11
11.5
 21
-89.163975
 31
0.0
  0
LINE
  5
472
100
AcDbEntity
  8
0
390
0
  6
Continuous
 62
     7
100
AcDbLine
 10
17.5
 20
-89.085425
 30
0.0
 11
13.531373
 21
-89.085425
 31
0.0
  0
LINE
  5
473
100
AcDbEntity
  8
0
390
0
  6
Continuous
 62
     7
100
AcDbLine
 10
-13.531373
 20
-89.085425
 30
0.0
 11
-11.5
 21
-89.163972
 31
0.0
  0
LINE
  5
474
100
AcDbEntity
  8
0
390
0
  6
Continuous
 62
     7
100
AcDbLine
 10
-11.5
 20
-88.074166
 30
0.0
 11
-11.5
 21
-89.163975
 31
0.0
  0
LINE
  5
475
100
AcDbEntity
  8
0
390
0
  6
Continuous
 62
     7
100
AcDbLine
 10
-13.531373
 20
-89.085425
 30
0.0
 11
-17.5
 21
-89.085425
 31
0.0
  0
LINE
  5
476
100
AcDbEntity
  8
0
390
0
  6
Continuous
 62
     7
100
AcDbLine
 10
-11.5
 20
-89.163972
 30
0.0
 11
-11.5
 21
-89.515021
 31
0.0
  0
LINE
  5
477
100
AcDbEntity
  8
0
390
0
  6
Continuous
 62
     7
100
AcDbLine
 10
-50.059146
 20
-89.515021
 30
0.0
 11
-11.5
 21
-89.515021
 31
0.0
  0
LINE
  5
478
100
AcDbEntity
  8
0
390
0
  6
Continuous
 62
     7
100
AcDbLine
 10
-50.488742
 20
-89.085425
 30
0.0
 11
-50.059146
 21
-89.515021
 31
0.0
  0
LINE
  5
479
100
AcDbEntity
  8
0
390
0
  6
Continuous
 62
     7
100
AcDbLine
 10
50.488741
 20
-89.085425
 30
0.0
 11
50.059145
 21
-89.515021
 31
0.0
  0
LINE
  5
47A
100
AcDbEntity
  8
0
390
0
  6
Continuous
 62
     7
100
AcDbLine
 10
11.5
 20
-89.515021
 30
0.0
 11
50.059145
 21
-89.515021
 31
0.0
  0
LINE
  5
47B
100
AcDbEntity
  8
0
390
0
  6
Continuous
 62
     7
100
AcDbLine
 10
11.5
 20
-89.515021
 30
0.0
 11
11.5
 21
-89.163975
 31
0.0
  0
LINE
  5
47C
100
AcDbEntity
  8
0
390
0
  6
Continuous
 62
     7
100
AcDbLine
 10
-50.488742
 20
-98.562908
 30
0.0
 11
-50.059146
 21
-98.133312
 31
0.0
  0
LINE
  5
47D
100
AcDbEntity
  8
0
390
0
  6
Continuous
 62
     7
100
AcDbLine
 10
-50.0
 20
-92.998702
 30
0.0
 11
-49.985288
 21
-89.515021
 31
0.0
  0
LINE
  5
47E
100
AcDbEntity
  8
0
390
0
  6
Continuous
 62
     7
100
AcDbLine
 10
-50.0
 20
-94.649631
 30
0.0
 11
-50.0
 21
-92.998702
 31
0.0
  0
LINE
  5
47F
100
AcDbEntity
  8
0
390
0
  6
Continuous
 62
     7
100
AcDbLine
 10
50.488741
 20
-98.562908
 30
0.0
 11
50.059145
 21
-98.133312
 31
0.0
  0
LINE
  5
480
100
AcDbEntity
  8
0
390
0
  6
Continuous
 62
     7
100
AcDbLine
 10
50.0
 20
-94.649631
 30
0.0
 11
49.985288
 21
-98.133312
 31
0.0
  0
LINE
  5
481
100
AcDbEntity
  8
0
390
0
  6
Continuous
 62
     7
100
AcDbLine
 10
50.0
 20
-92.998702
 30
0.0
 11
50.0
 21
-94.649631
 31
0.0
  0
LINE
  5
482
100
AcDbEntity
  8
0
390
0
  6
Continuous
 62
     7
100
AcDbLine
 10
-50.059146
 20
-98.133312
 30
0.0
 11
50.059145
 21
-98.133312
 31
0.0
  0
LINE
  5
483
100
AcDbEntity
  8
0
390
0
  6
Continuous
 62
     7
100
AcDbLine
 10
-15.247273
 20
-86.074166
 30
0.0
 11
-19.542728
 21
-86.074166
 31
0.0
  0
LINE
  5
484
100
AcDbEntity
  8
0
390
0
  6
Continuous
 62
     7
100
AcDbLine
 10
16.133926
 20
-86.074451
 30
0.0
 11
16.133926
 21
-86.574166
 31
0.0
  0
LINE
  5
485
100
AcDbEntity
  8
0
390
0
  6
Continuous
 62
     7
100
AcDbLine
 10
19.88524
 20
-86.074451
 30
0.0
 11
16.133926
 21
-86.074451
 31
0.0
  0
LINE
  5
486
100
AcDbEntity
  8
0
390
0
  6
Continuous
 62
     7
100
AcDbLine
 10
19.88524
 20
-86.074451
 30
0.0
 11
19.88524
 21
-86.574166
 31
0.0
  0
LINE
  5
487
100
AcDbEntity
  8
0
390
0
  6
Continuous
 62
     7
100
AcDbLine
 10
16.133926
 20
-86.074451
 30
0.0
 11
14.881978
 21
-86.074451
 31
0.0
  0
LINE
  5
488
100
AcDbEntity
  8
0
390
0
  6
Continuous
 62
     7
100
AcDbLine
 10
14.881978
 20
-86.074451
 30
0.0
 11
14.881978
 21
-86.574166
 31
0.0
  0
LINE
  5
489
100
AcDbEntity
  8
0
390
0
  6
Continuous
 62
     7
100
AcDbLine
 10
-18.251036
 20
-86.073106
 30
0.0
 11
-18.251036
 21
-83.846959
 31
0.0
  0
LINE
  5
48A
100
AcDbEntity
  8
0
390
0
  6
Continuous
 62
     7
100
AcDbLine
 10
-19.249665
 20
-86.072605
 30
0.0
 11
-19.249665
 21
-84.794623
 31
0.0
  0
LINE
  5
48B
100
AcDbEntity
  8
0
390
0
  6
Continuous
 62
     7
100
AcDbLine
 10
17.658964
 20
-86.074451
 30
0.0
 11
17.658964
 21
-83.846959
 31
0.0
  0
LINE
  5
48C
100
AcDbEntity
  8
0
390
0
  6
Continuous
 62
     7
100
AcDbLine
 10
16.660335
 20
-86.074451
 30
0.0
 11
16.660335
 21
-84.794623
 31
0.0
  0
LINE
  5
48D
100
AcDbEntity
  8
0
390
0
  6
Continuous
 62
     7
100
AcDbLine
 10
19.259665
 20
-86.074451
 30
0.0
 11
19.259665
 21
-84.794623
 31
0.0
  0
LINE
  5
48E
100
AcDbEntity
  8
0
390
0
  6
Continuous
 62
     7
100
AcDbLine
 10
18.261035
 20
-86.074451
 30
0.0
 11
18.261035
 21
-83.846959
 31
0.0
  0
LINE
  5
48F
100
AcDbEntity
  8
0
390
0
  6
Continuous
 62
     7
100
AcDbLine
 10
-16.650335
 20
-86.072605
 30
0.0
 11
-16.650335
 21
-84.794623
 31
0.0
  0
LINE
  5
490
100
AcDbEntity
  8
0
390
0
  6
Continuous
 62
     7
100
AcDbLine
 10
-17.648965
 20
-86.073106
 30
0.0
 11
-17.648965
 21
-83.846959
 31
0.0
  0
LINE
  5
491
100
AcDbEntity
  8
0
390
0
  6
Continuous
 62
     7
100
AcDbLine
 10
-19.278612
 20
-86.073687
 30
0.0
 11
-19.278612
 21
-85.346959
 31
0.0
  0
LINE
  5
492
100
AcDbEntity
  8
0
390
0
  6
Continuous
 62
     7
100
AcDbLine
 10
16.631388
 20
-86.074451
 30
0.0
 11
16.631388
 21
-85.346959
 31
0.0
  0
LINE
  5
493
100
AcDbEntity
  8
0
390
0
  6
Continuous
 62
     7
100
AcDbLine
 10
-16.621389
 20
-86.073687
 30
0.0
 11
-16.621389
 21
-85.346959
 31
0.0
  0
LINE
  5
494
100
AcDbEntity
  8
0
390
0
  6
Continuous
 62
     7
100
AcDbLine
 10
19.288611
 20
-86.074451
 30
0.0
 11
19.288611
 21
-85.346959
 31
0.0
  0
LINE
  5
495
100
AcDbEntity
  8
0
390
0
  6
Continuous
 62
     7
100
AcDbLine
 10
44.909665
 20
-86.117236
 30
0.0
 11
44.909665
 21
-84.794623
 31
0.0
  0
LINE
  5
496
100
AcDbEntity
  8
0
390
0
  6
Continuous
 62
     7
100
AcDbLine
 10
43.911035
 20
-85.074179
 30
0.0
 11
43.911035
 21
-83.846959
 31
0.0
  0
LINE
  5
497
100
AcDbEntity
  8
0
390
0
  6
Continuous
 62
     7
100
AcDbLine
 10
34.649665
 20
-86.117236
 30
0.0
 11
34.649665
 21
-84.794623
 31
0.0
  0
LINE
  5
498
100
AcDbEntity
  8
0
390
0
  6
Continuous
 62
     7
100
AcDbLine
 10
33.651035
 20
-85.074179
 30
0.0
 11
33.651035
 21
-83.846959
 31
0.0
  0
LINE
  5
499
100
AcDbEntity
  8
0
390
0
  6
Continuous
 62
     7
100
AcDbLine
 10
24.389665
 20
-86.117236
 30
0.0
 11
24.389665
 21
-84.794623
 31
0.0
  0
LINE
  5
49A
100
AcDbEntity
  8
0
390
0
  6
Continuous
 62
     7
100
AcDbLine
 10
23.391035
 20
-85.074179
 30
0.0
 11
23.391035
 21
-83.846959
 31
0.0
  0
LINE
  5
49B
100
AcDbEntity
  8
0
390
0
  6
Continuous
 62
     7
100
AcDbLine
 10
29.519665
 20
-86.117236
 30
0.0
 11
29.519665
 21
-84.794623
 31
0.0
  0
LINE
  5
49C
100
AcDbEntity
  8
0
390
0
  6
Continuous
 62
     7
100
AcDbLine
 10
28.521035
 20
-85.074179
 30
0.0
 11
28.521035
 21
-83.846959
 31
0.0
  0
LINE
  5
49D
100
AcDbEntity
  8
0
390
0
  6
Continuous
 62
     7
100
AcDbLine
 10
39.779665
 20
-86.117236
 30
0.0
 11
39.779665
 21
-84.794623
 31
0.0
  0
LINE
  5
49E
100
AcDbEntity
  8
0
390
0
  6
Continuous
 62
     7
100
AcDbLine
 10
38.781035
 20
-85.074179
 30
0.0
 11
38.781035
 21
-83.846959
 31
0.0
  0
LINE
  5
49F
100
AcDbEntity
  8
0
390
0
  6
Continuous
 62
     7
100
AcDbLine
 10
50.039665
 20
-86.117236
 30
0.0
 11
50.039665
 21
-84.794623
 31
0.0
  0
LINE
  5
4A0
100
AcDbEntity
  8
0
390
0
  6
Continuous
 62
     7
100
AcDbLine
 10
49.041035
 20
-85.074179
 30
0.0
 11
49.041035
 21
-83.846959
 31
0.0
  0
LINE
  5
4A1
100
AcDbEntity
  8
0
390
0
  6
Continuous
 62
     7
100
AcDbLine
 10
-37.170335
 20
-86.117236
 30
0.0
 11
-37.170335
 21
-84.794623
 31
0.0
  0
LINE
  5
4A2
100
AcDbEntity
  8
0
390
0
  6
Continuous
 62
     7
100
AcDbLine
 10
-38.168965
 20
-85.074179
 30
0.0
 11
-38.168965
 21
-83.846959
 31
0.0
  0
LINE
  5
4A3
100
AcDbEntity
  8
0
390
0
  6
Continuous
 62
     7
100
AcDbLine
 10
-21.780335
 20
-86.117236
 30
0.0
 11
-21.780335
 21
-84.794623
 31
0.0
  0
LINE
  5
4A4
100
AcDbEntity
  8
0
390
0
  6
Continuous
 62
     7
100
AcDbLine
 10
-22.778965
 20
-85.074179
 30
0.0
 11
-22.778965
 21
-83.846959
 31
0.0
  0
LINE
  5
4A5
100
AcDbEntity
  8
0
390
0
  6
Continuous
 62
     7
100
AcDbLine
 10
-26.910335
 20
-86.117236
 30
0.0
 11
-26.910335
 21
-84.794623
 31
0.0
  0
LINE
  5
4A6
100
AcDbEntity
  8
0
390
0
  6
Continuous
 62
     7
100
AcDbLine
 10
-27.908965
 20
-85.074179
 30
0.0
 11
-27.908965
 21
-83.846959
 31
0.0
  0
LINE
  5
4A7
100
AcDbEntity
  8
0
390
0
  6
Continuous
 62
     7
100
AcDbLine
 10
-42.300335
 20
-86.117236
 30
0.0
 11
-42.300335
 21
-84.794623
 31
0.0
  0
LINE
  5
4A8
100
AcDbEntity
  8
0
390
0
  6
Continuous
 62
     7
100
AcDbLine
 10
-43.298965
 20
-85.074179
 30
0.0
 11
-43.298965
 21
-83.846959
 31
0.0
  0
LINE
  5
4A9
100
AcDbEntity
  8
0
390
0
  6
Continuous
 62
     7
100
AcDbLine
 10
-47.430335
 20
-86.117236
 30
0.0
 11
-47.430335
 21
-84.794623
 31
0.0
  0
LINE
  5
4AA
100
AcDbEntity
  8
0
390
0
  6
Continuous
 62
     7
100
AcDbLine
 10
-48.428965
 20
-85.074179
 30
0.0
 11
-48.428965
 21
-83.846959
 31
0.0
  0
LINE
  5
4AB
100
AcDbEntity
  8
0
390
0
  6
Continuous
 62
     7
100
AcDbLine
 10
-32.040335
 20
-86.117236
 30
0.0
 11
-32.040335
 21
-84.794623
 31
0.0
  0
LINE
  5
4AC
100
AcDbEntity
  8
0
390
0
  6
Continuous
 62
     7
100
AcDbLine
 10
-33.038965
 20
-85.074179
 30
0.0
 11
-33.038965
 21
-83.846959
 31
0.0
  0
LINE
  5
4AD
100
AcDbEntity
  8
0
390
0
  6
Continuous
 62
     7
100
AcDbLine
 10
43.308964
 20
-102.574166
 30
0.0
 11
43.308964
 21
-103.801374
 31
0.0
  0
LINE
  5
4AE
100
AcDbEntity
  8
0
390
0
  6
Continuous
 62
     7
100
AcDbLine
 10
42.310335
 20
-101.686862
 30
0.0
 11
42.310335
 21
-102.85371
 31
0.0
  0
LINE
  5
4AF
100
AcDbEntity
  8
0
390
0
  6
Continuous
 62
     7
100
AcDbLine
 10
-13.121036
 20
-102.574166
 30
0.0
 11
-13.121036
 21
-103.801374
 31
0.0
  0
LINE
  5
4B0
100
AcDbEntity
  8
0
390
0
  6
Continuous
 62
     7
100
AcDbLine
 10
-14.119665
 20
-101.686862
 30
0.0
 11
-14.119665
 21
-102.85371
 31
0.0
  0
LINE
  5
4B1
100
AcDbEntity
  8
0
390
0
  6
Continuous
 62
     7
100
AcDbLine
 10
-7.991036
 20
-102.574166
 30
0.0
 11
-7.991036
 21
-103.801374
 31
0.0
  0
LINE
  5
4B2
100
AcDbEntity
  8
0
390
0
  6
Continuous
 62
     7
100
AcDbLine
 10
-8.989665
 20
-101.686862
 30
0.0
 11
-8.989665
 21
-102.85371
 31
0.0
  0
LINE
  5
4B3
100
AcDbEntity
  8
0
390
0
  6
Continuous
 62
     7
100
AcDbLine
 10
-2.861036
 20
-102.574166
 30
0.0
 11
-2.861036
 21
-103.801374
 31
0.0
  0
LINE
  5
4B4
100
AcDbEntity
  8
0
390
0
  6
Continuous
 62
     7
100
AcDbLine
 10
-3.859665
 20
-101.686862
 30
0.0
 11
-3.859665
 21
-102.85371
 31
0.0
  0
LINE
  5
4B5
100
AcDbEntity
  8
0
390
0
  6
Continuous
 62
     7
100
AcDbLine
 10
12.528964
 20
-102.574166
 30
0.0
 11
12.528964
 21
-103.801374
 31
0.0
  0
LINE
  5
4B6
100
AcDbEntity
  8
0
390
0
  6
Continuous
 62
     7
100
AcDbLine
 10
11.530335
 20
-101.686862
 30
0.0
 11
11.530335
 21
-102.85371
 31
0.0
  0
LINE
  5
4B7
100
AcDbEntity
  8
0
390
0
  6
Continuous
 62
     7
100
AcDbLine
 10
17.658964
 20
-102.574166
 30
0.0
 11
17.658964
 21
-103.801374
 31
0.0
  0
LINE
  5
4B8
100
AcDbEntity
  8
0
390
0
  6
Continuous
 62
     7
100
AcDbLine
 10
16.660335
 20
-101.686862
 30
0.0
 11
16.660335
 21
-102.85371
 31
0.0
  0
LINE
  5
4B9
100
AcDbEntity
  8
0
390
0
  6
Continuous
 62
     7
100
AcDbLine
 10
22.788964
 20
-102.574166
 30
0.0
 11
22.788964
 21
-103.801374
 31
0.0
  0
LINE
  5
4BA
100
AcDbEntity
  8
0
390
0
  6
Continuous
 62
     7
100
AcDbLine
 10
21.790335
 20
-101.686862
 30
0.0
 11
21.790335
 21
-102.85371
 31
0.0
  0
LINE
  5
4BB
100
AcDbEntity
  8
0
390
0
  6
Continuous
 62
     7
100
AcDbLine
 10
48.438964
 20
-102.574166
 30
0.0
 11
48.438964
 21
-103.801374
 31
0.0
  0
LINE
  5
4BC
100
AcDbEntity
  8
0
390
0
  6
Continuous
 62
     7
100
AcDbLine
 10
47.440335
 20
-101.686862
 30
0.0
 11
47.440335
 21
-102.85371
 31
0.0
  0
LINE
  5
4BD
100
AcDbEntity
  8
0
390
0
  6
Continuous
 62
     7
100
AcDbLine
 10
-38.771036
 20
-102.574166
 30
0.0
 11
-38.771036
 21
-103.801374
 31
0.0
  0
LINE
  5
4BE
100
AcDbEntity
  8
0
390
0
  6
Continuous
 62
     7
100
AcDbLine
 10
-39.769665
 20
-101.686862
 30
0.0
 11
-39.769665
 21
-102.85371
 31
0.0
  0
LINE
  5
4BF
100
AcDbEntity
  8
0
390
0
  6
Continuous
 62
     7
100
AcDbLine
 10
-43.901036
 20
-102.574166
 30
0.0
 11
-43.901036
 21
-103.801374
 31
0.0
  0
LINE
  5
4C0
100
AcDbEntity
  8
0
390
0
  6
Continuous
 62
     7
100
AcDbLine
 10
-44.899665
 20
-101.686862
 30
0.0
 11
-44.899665
 21
-102.85371
 31
0.0
  0
LINE
  5
4C1
100
AcDbEntity
  8
0
390
0
  6
Continuous
 62
     7
100
AcDbLine
 10
-49.031036
 20
-102.574166
 30
0.0
 11
-49.031036
 21
-103.801374
 31
0.0
  0
LINE
  5
4C2
100
AcDbEntity
  8
0
390
0
  6
Continuous
 62
     7
100
AcDbLine
 10
-50.029665
 20
-101.686862
 30
0.0
 11
-50.029665
 21
-102.85371
 31
0.0
  0
LINE
  5
4C3
100
AcDbEntity
  8
0
390
0
  6
Continuous
 62
     7
100
AcDbLine
 10
-33.641036
 20
-102.574166
 30
0.0
 11
-33.641036
 21
-103.801374
 31
0.0
  0
LINE
  5
4C4
100
AcDbEntity
  8
0
390
0
  6
Continuous
 62
     7
100
AcDbLine
 10
-34.639665
 20
-101.686862
 30
0.0
 11
-34.639665
 21
-102.85371
 31
0.0
  0
LINE
  5
4C5
100
AcDbEntity
  8
0
390
0
  6
Continuous
 62
     7
100
AcDbLine
 10
33.048964
 20
-102.574166
 30
0.0
 11
33.048964
 21
-103.801374
 31
0.0
  0
LINE
  5
4C6
100
AcDbEntity
  8
0
390
0
  6
Continuous
 62
     7
100
AcDbLine
 10
32.050335
 20
-101.686862
 30
0.0
 11
32.050335
 21
-102.85371
 31
0.0
  0
LINE
  5
4C7
100
AcDbEntity
  8
0
390
0
  6
Continuous
 62
     7
100
AcDbLine
 10
-28.511036
 20
-102.574166
 30
0.0
 11
-28.511036
 21
-103.801374
 31
0.0
  0
LINE
  5
4C8
100
AcDbEntity
  8
0
390
0
  6
Continuous
 62
     7
100
AcDbLine
 10
-29.509665
 20
-101.686862
 30
0.0
 11
-29.509665
 21
-102.85371
 31
0.0
  0
LINE
  5
4C9
100
AcDbEntity
  8
0
390
0
  6
Continuous
 62
     7
100
AcDbLine
 10
38.178964
 20
-102.574166
 30
0.0
 11
38.178964
 21
-103.801374
 31
0.0
  0
LINE
  5
4CA
100
AcDbEntity
  8
0
390
0
  6
Continuous
 62
     7
100
AcDbLine
 10
37.180335
 20
-101.686862
 30
0.0
 11
37.180335
 21
-102.85371
 31
0.0
  0
LINE
  5
4CB
100
AcDbEntity
  8
0
390
0
  6
Continuous
 62
     7
100
AcDbLine
 10
-23.381036
 20
-102.574166
 30
0.0
 11
-23.381036
 21
-103.801374
 31
0.0
  0
LINE
  5
4CC
100
AcDbEntity
  8
0
390
0
  6
Continuous
 62
     7
100
AcDbLine
 10
-24.379665
 20
-101.686862
 30
0.0
 11
-24.379665
 21
-102.85371
 31
0.0
  0
LINE
  5
4CD
100
AcDbEntity
  8
0
390
0
  6
Continuous
 62
     7
100
AcDbLine
 10
-18.251036
 20
-102.574166
 30
0.0
 11
-18.251036
 21
-103.801374
 31
0.0
  0
LINE
  5
4CE
100
AcDbEntity
  8
0
390
0
  6
Continuous
 62
     7
100
AcDbLine
 10
-19.249665
 20
-101.686862
 30
0.0
 11
-19.249665
 21
-102.85371
 31
0.0
  0
LINE
  5
4CF
100
AcDbEntity
  8
0
390
0
  6
Continuous
 62
     7
100
AcDbLine
 10
7.398964
 20
-102.574166
 30
0.0
 11
7.398964
 21
-103.801374
 31
0.0
  0
LINE
  5
4D0
100
AcDbEntity
  8
0
390
0
  6
Continuous
 62
     7
100
AcDbLine
 10
6.400335
 20
-101.686862
 30
0.0
 11
6.400335
 21
-102.85371
 31
0.0
  0
LINE
  5
4D1
100
AcDbEntity
  8
0
390
0
  6
Continuous
 62
     7
100
AcDbLine
 10
27.918964
 20
-102.574166
 30
0.0
 11
27.918964
 21
-103.801374
 31
0.0
  0
LINE
  5
4D2
100
AcDbEntity
  8
0
390
0
  6
Continuous
 62
     7
100
AcDbLine
 10
26.920335
 20
-101.686862
 30
0.0
 11
26.920335
 21
-102.85371
 31
0.0
  0
LINE
  5
4D3
100
AcDbEntity
  8
0
390
0
  6
Continuous
 62
     7
100
AcDbLine
 10
2.268964
 20
-102.574166
 30
0.0
 11
2.268964
 21
-103.801374
 31
0.0
  0
LINE
  5
4D4
100
AcDbEntity
  8
0
390
0
  6
Continuous
 62
     7
100
AcDbLine
 10
1.270335
 20
-101.686862
 30
0.0
 11
1.270335
 21
-102.85371
 31
0.0
  0
LINE
  5
4D5
100
AcDbEntity
  8
0
390
0
  6
Continuous
 62
     7
100
AcDbLine
 10
27.918964
 20
-85.074166
 30
0.0
 11
27.918964
 21
-83.846959
 31
0.0
  0
LINE
  5
4D6
100
AcDbEntity
  8
0
390
0
  6
Continuous
 62
     7
100
AcDbLine
 10
26.920335
 20
-85.961471
 30
0.0
 11
26.920335
 21
-84.794623
 31
0.0
  0
LINE
  5
4D7
100
AcDbEntity
  8
0
390
0
  6
Continuous
 62
     7
100
AcDbLine
 10
-43.901036
 20
-85.074166
 30
0.0
 11
-43.901036
 21
-83.846959
 31
0.0
  0
LINE
  5
4D8
100
AcDbEntity
  8
0
390
0
  6
Continuous
 62
     7
100
AcDbLine
 10
-44.899665
 20
-85.961471
 30
0.0
 11
-44.899665
 21
-84.794623
 31
0.0
  0
LINE
  5
4D9
100
AcDbEntity
  8
0
390
0
  6
Continuous
 62
     7
100
AcDbLine
 10
43.308964
 20
-85.074166
 30
0.0
 11
43.308964
 21
-83.846959
 31
0.0
  0
LINE
  5
4DA
100
AcDbEntity
  8
0
390
0
  6
Continuous
 62
     7
100
AcDbLine
 10
42.310335
 20
-85.961471
 30
0.0
 11
42.310335
 21
-84.794623
 31
0.0
  0
LINE
  5
4DB
100
AcDbEntity
  8
0
390
0
  6
Continuous
 62
     7
100
AcDbLine
 10
48.438964
 20
-85.074166
 30
0.0
 11
48.438964
 21
-83.846959
 31
0.0
  0
LINE
  5
4DC
100
AcDbEntity
  8
0
390
0
  6
Continuous
 62
     7
100
AcDbLine
 10
47.440335
 20
-85.961471
 30
0.0
 11
47.440335
 21
-84.794623
 31
0.0
  0
LINE
  5
4DD
100
AcDbEntity
  8
0
390
0
  6
Continuous
 62
     7
100
AcDbLine
 10
33.048964
 20
-85.074166
 30
0.0
 11
33.048964
 21
-83.846959
 31
0.0
  0
LINE
  5
4DE
100
AcDbEntity
  8
0
390
0
  6
Continuous
 62
     7
100
AcDbLine
 10
32.050335
 20
-85.961471
 30
0.0
 11
32.050335
 21
-84.794623
 31
0.0
  0
LINE
  5
4DF
100
AcDbEntity
  8
0
390
0
  6
Continuous
 62
     7
100
AcDbLine
 10
-28.511036
 20
-85.074166
 30
0.0
 11
-28.511036
 21
-83.846959
 31
0.0
  0
LINE
  5
4E0
100
AcDbEntity
  8
0
390
0
  6
Continuous
 62
     7
100
AcDbLine
 10
-29.509665
 20
-85.961471
 30
0.0
 11
-29.509665
 21
-84.794623
 31
0.0
  0
LINE
  5
4E1
100
AcDbEntity
  8
0
390
0
  6
Continuous
 62
     7
100
AcDbLine
 10
-33.641036
 20
-85.074166
 30
0.0
 11
-33.641036
 21
-83.846959
 31
0.0
  0
LINE
  5
4E2
100
AcDbEntity
  8
0
390
0
  6
Continuous
 62
     7
100
AcDbLine
 10
-34.639665
 20
-85.961471
 30
0.0
 11
-34.639665
 21
-84.794623
 31
0.0
  0
LINE
  5
4E3
100
AcDbEntity
  8
0
390
0
  6
Continuous
 62
     7
100
AcDbLine
 10
-38.771036
 20
-85.074166
 30
0.0
 11
-38.771036
 21
-83.846959
 31
0.0
  0
LINE
  5
4E4
100
AcDbEntity
  8
0
390
0
  6
Continuous
 62
     7
100
AcDbLine
 10
-39.769665
 20
-85.961471
 30
0.0
 11
-39.769665
 21
-84.794623
 31
0.0
  0
LINE
  5
4E5
100
AcDbEntity
  8
0
390
0
  6
Continuous
 62
     7
100
AcDbLine
 10
-49.031036
 20
-85.074166
 30
0.0
 11
-49.031036
 21
-83.846959
 31
0.0
  0
LINE
  5
4E6
100
AcDbEntity
  8
0
390
0
  6
Continuous
 62
     7
100
AcDbLine
 10
-50.029665
 20
-85.961471
 30
0.0
 11
-50.029665
 21
-84.794623
 31
0.0
  0
LINE
  5
4E7
100
AcDbEntity
  8
0
390
0
  6
Continuous
 62
     7
100
AcDbLine
 10
22.788964
 20
-85.074166
 30
0.0
 11
22.788964
 21
-83.846959
 31
0.0
  0
LINE
  5
4E8
100
AcDbEntity
  8
0
390
0
  6
Continuous
 62
     7
100
AcDbLine
 10
21.790335
 20
-85.961471
 30
0.0
 11
21.790335
 21
-84.794623
 31
0.0
  0
LINE
  5
4E9
100
AcDbEntity
  8
0
390
0
  6
Continuous
 62
     7
100
AcDbLine
 10
-23.381036
 20
-85.074166
 30
0.0
 11
-23.381036
 21
-83.846959
 31
0.0
  0
LINE
  5
4EA
100
AcDbEntity
  8
0
390
0
  6
Continuous
 62
     7
100
AcDbLine
 10
-24.379665
 20
-85.961471
 30
0.0
 11
-24.379665
 21
-84.794623
 31
0.0
  0
LINE
  5
4EB
100
AcDbEntity
  8
0
390
0
  6
Continuous
 62
     7
100
AcDbLine
 10
38.178964
 20
-85.074166
 30
0.0
 11
38.178964
 21
-83.846959
 31
0.0
  0
LINE
  5
4EC
100
AcDbEntity
  8
0
390
0
  6
Continuous
 62
     7
100
AcDbLine
 10
37.180335
 20
-85.961471
 30
0.0
 11
37.180335
 21
-84.794623
 31
0.0
  0
LINE
  5
4ED
100
AcDbEntity
  8
0
390
0
  6
Continuous
 62
     7
100
AcDbLine
 10
19.259665
 20
-101.531097
 30
0.0
 11
19.259665
 21
-102.85371
 31
0.0
  0
LINE
  5
4EE
100
AcDbEntity
  8
0
390
0
  6
Continuous
 62
     7
100
AcDbLine
 10
18.261035
 20
-102.574154
 30
0.0
 11
18.261035
 21
-103.801374
 31
0.0
  0
LINE
  5
4EF
100
AcDbEntity
  8
0
390
0
  6
Continuous
 62
     7
100
AcDbLine
 10
8.999665
 20
-101.531097
 30
0.0
 11
8.999665
 21
-102.85371
 31
0.0
  0
LINE
  5
4F0
100
AcDbEntity
  8
0
390
0
  6
Continuous
 62
     7
100
AcDbLine
 10
8.001035
 20
-102.574154
 30
0.0
 11
8.001035
 21
-103.801374
 31
0.0
  0
LINE
  5
4F1
100
AcDbEntity
  8
0
390
0
  6
Continuous
 62
     7
100
AcDbLine
 10
14.129665
 20
-101.531097
 30
0.0
 11
14.129665
 21
-102.85371
 31
0.0
  0
LINE
  5
4F2
100
AcDbEntity
  8
0
390
0
  6
Continuous
 62
     7
100
AcDbLine
 10
13.131035
 20
-102.574154
 30
0.0
 11
13.131035
 21
-103.801374
 31
0.0
  0
LINE
  5
4F3
100
AcDbEntity
  8
0
390
0
  6
Continuous
 62
     7
100
AcDbLine
 10
24.389665
 20
-101.531097
 30
0.0
 11
24.389665
 21
-102.85371
 31
0.0
  0
LINE
  5
4F4
100
AcDbEntity
  8
0
390
0
  6
Continuous
 62
     7
100
AcDbLine
 10
23.391035
 20
-102.574154
 30
0.0
 11
23.391035
 21
-103.801374
 31
0.0
  0
LINE
  5
4F5
100
AcDbEntity
  8
0
390
0
  6
Continuous
 62
     7
100
AcDbLine
 10
-42.300335
 20
-101.531097
 30
0.0
 11
-42.300335
 21
-102.85371
 31
0.0
  0
LINE
  5
4F6
100
AcDbEntity
  8
0
390
0
  6
Continuous
 62
     7
100
AcDbLine
 10
-43.298965
 20
-102.574154
 30
0.0
 11
-43.298965
 21
-103.801374
 31
0.0
  0
LINE
  5
4F7
100
AcDbEntity
  8
0
390
0
  6
Continuous
 62
     7
100
AcDbLine
 10
39.779665
 20
-101.531097
 30
0.0
 11
39.779665
 21
-102.85371
 31
0.0
  0
LINE
  5
4F8
100
AcDbEntity
  8
0
390
0
  6
Continuous
 62
     7
100
AcDbLine
 10
38.781035
 20
-102.574154
 30
0.0
 11
38.781035
 21
-103.801374
 31
0.0
  0
LINE
  5
4F9
100
AcDbEntity
  8
0
390
0
  6
Continuous
 62
     7
100
AcDbLine
 10
-47.430335
 20
-101.531097
 30
0.0
 11
-47.430335
 21
-102.85371
 31
0.0
  0
LINE
  5
4FA
100
AcDbEntity
  8
0
390
0
  6
Continuous
 62
     7
100
AcDbLine
 10
-48.428965
 20
-102.574154
 30
0.0
 11
-48.428965
 21
-103.801374
 31
0.0
  0
LINE
  5
4FB
100
AcDbEntity
  8
0
390
0
  6
Continuous
 62
     7
100
AcDbLine
 10
34.649665
 20
-101.531097
 30
0.0
 11
34.649665
 21
-102.85371
 31
0.0
  0
LINE
  5
4FC
100
AcDbEntity
  8
0
390
0
  6
Continuous
 62
     7
100
AcDbLine
 10
33.651035
 20
-102.574154
 30
0.0
 11
33.651035
 21
-103.801374
 31
0.0
  0
LINE
  5
4FD
100
AcDbEntity
  8
0
390
0
  6
Continuous
 62
     7
100
AcDbLine
 10
-32.040335
 20
-101.531097
 30
0.0
 11
-32.040335
 21
-102.85371
 31
0.0
  0
LINE
  5
4FE
100
AcDbEntity
  8
0
390
0
  6
Continuous
 62
     7
100
AcDbLine
 10
-33.038965
 20
-102.574154
 30
0.0
 11
-33.038965
 21
-103.801374
 31
0.0
  0
LINE
  5
4FF
100
AcDbEntity
  8
0
390
0
  6
Continuous
 62
     7
100
AcDbLine
 10
3.869665
 20
-101.531097
 30
0.0
 11
3.869665
 21
-102.85371
 31
0.0
  0
LINE
  5
500
100
AcDbEntity
  8
0
390
0
  6
Continuous
 62
     7
100
AcDbLine
 10
2.871035
 20
-102.574154
 30
0.0
 11
2.871035
 21
-103.801374
 31
0.0
  0
LINE
  5
501
100
AcDbEntity
  8
0
390
0
  6
Continuous
 62
     7
100
AcDbLine
 10
29.519665
 20
-101.531097
 30
0.0
 11
29.519665
 21
-102.85371
 31
0.0
  0
LINE
  5
502
100
AcDbEntity
  8
0
390
0
  6
Continuous
 62
     7
100
AcDbLine
 10
28.521035
 20
-102.574154
 30
0.0
 11
28.521035
 21
-103.801374
 31
0.0
  0
LINE
  5
503
100
AcDbEntity
  8
0
390
0
  6
Continuous
 62
     7
100
AcDbLine
 10
-1.260335
 20
-101.531097
 30
0.0
 11
-1.260335
 21
-102.85371
 31
0.0
  0
LINE
  5
504
100
AcDbEntity
  8
0
390
0
  6
Continuous
 62
     7
100
AcDbLine
 10
-2.258965
 20
-102.574154
 30
0.0
 11
-2.258965
 21
-103.801374
 31
0.0
  0
LINE
  5
505
100
AcDbEntity
  8
0
390
0
  6
Continuous
 62
     7
100
AcDbLine
 10
-26.910335
 20
-101.531097
 30
0.0
 11
-26.910335
 21
-102.85371
 31
0.0
  0
LINE
  5
506
100
AcDbEntity
  8
0
390
0
  6
Continuous
 62
     7
100
AcDbLine
 10
-27.908965
 20
-102.574154
 30
0.0
 11
-27.908965
 21
-103.801374
 31
0.0
  0
LINE
  5
507
100
AcDbEntity
  8
0
390
0
  6
Continuous
 62
     7
100
AcDbLine
 10
-21.780335
 20
-101.531097
 30
0.0
 11
-21.780335
 21
-102.85371
 31
0.0
  0
LINE
  5
508
100
AcDbEntity
  8
0
390
0
  6
Continuous
 62
     7
100
AcDbLine
 10
-22.778965
 20
-102.574154
 30
0.0
 11
-22.778965
 21
-103.801374
 31
0.0
  0
LINE
  5
509
100
AcDbEntity
  8
0
390
0
  6
Continuous
 62
     7
100
AcDbLine
 10
-37.170335
 20
-101.531097
 30
0.0
 11
-37.170335
 21
-102.85371
 31
0.0
  0
LINE
  5
50A
100
AcDbEntity
  8
0
390
0
  6
Continuous
 62
     7
100
AcDbLine
 10
-38.168965
 20
-102.574154
 30
0.0
 11
-38.168965
 21
-103.801374
 31
0.0
  0
LINE
  5
50B
100
AcDbEntity
  8
0
390
0
  6
Continuous
 62
     7
100
AcDbLine
 10
44.909665
 20
-101.531097
 30
0.0
 11
44.909665
 21
-102.85371
 31
0.0
  0
LINE
  5
50C
100
AcDbEntity
  8
0
390
0
  6
Continuous
 62
     7
100
AcDbLine
 10
43.911035
 20
-102.574154
 30
0.0
 11
43.911035
 21
-103.801374
 31
0.0
  0
LINE
  5
50D
100
AcDbEntity
  8
0
390
0
  6
Continuous
 62
     7
100
AcDbLine
 10
-16.650335
 20
-101.531097
 30
0.0
 11
-16.650335
 21
-102.85371
 31
0.0
  0
LINE
  5
50E
100
AcDbEntity
  8
0
390
0
  6
Continuous
 62
     7
100
AcDbLine
 10
-17.648965
 20
-102.574154
 30
0.0
 11
-17.648965
 21
-103.801374
 31
0.0
  0
LINE
  5
50F
100
AcDbEntity
  8
0
390
0
  6
Continuous
 62
     7
100
AcDbLine
 10
-6.390335
 20
-101.531097
 30
0.0
 11
-6.390335
 21
-102.85371
 31
0.0
  0
LINE
  5
510
100
AcDbEntity
  8
0
390
0
  6
Continuous
 62
     7
100
AcDbLine
 10
-7.388965
 20
-102.574154
 30
0.0
 11
-7.388965
 21
-103.801374
 31
0.0
  0
LINE
  5
511
100
AcDbEntity
  8
0
390
0
  6
Continuous
 62
     7
100
AcDbLine
 10
-11.520335
 20
-101.531097
 30
0.0
 11
-11.520335
 21
-102.85371
 31
0.0
  0
LINE
  5
512
100
AcDbEntity
  8
0
390
0
  6
Continuous
 62
     7
100
AcDbLine
 10
-12.518965
 20
-102.574154
 30
0.0
 11
-12.518965
 21
-103.801374
 31
0.0
  0
LINE
  5
513
100
AcDbEntity
  8
0
390
0
  6
Continuous
 62
     7
100
AcDbLine
 10
50.039665
 20
-101.531097
 30
0.0
 11
50.039665
 21
-102.85371
 31
0.0
  0
LINE
  5
514
100
AcDbEntity
  8
0
390
0
  6
Continuous
 62
     7
100
AcDbLine
 10
49.041035
 20
-102.574154
 30
0.0
 11
49.041035
 21
-103.801374
 31
0.0
  0
LINE
  5
515
100
AcDbEntity
  8
0
390
0
  6
Continuous
 62
     7
100
AcDbLine
 10
14.158611
 20
-101.074166
 30
0.0
 11
14.158611
 21
-102.301374
 31
0.0
  0
LINE
  5
516
100
AcDbEntity
  8
0
390
0
  6
Continuous
 62
     7
100
AcDbLine
 10
19.288611
 20
-101.074166
 30
0.0
 11
19.288611
 21
-102.301374
 31
0.0
  0
LINE
  5
517
100
AcDbEntity
  8
0
390
0
  6
Continuous
 62
     7
100
AcDbLine
 10
9.028611
 20
-101.074166
 30
0.0
 11
9.028611
 21
-102.301374
 31
0.0
  0
LINE
  5
518
100
AcDbEntity
  8
0
390
0
  6
Continuous
 62
     7
100
AcDbLine
 10
24.418611
 20
-101.074166
 30
0.0
 11
24.418611
 21
-102.301374
 31
0.0
  0
LINE
  5
519
100
AcDbEntity
  8
0
390
0
  6
Continuous
 62
     7
100
AcDbLine
 10
3.898611
 20
-101.074166
 30
0.0
 11
3.898611
 21
-102.301374
 31
0.0
  0
LINE
  5
51A
100
AcDbEntity
  8
0
390
0
  6
Continuous
 62
     7
100
AcDbLine
 10
-47.401389
 20
-101.074166
 30
0.0
 11
-47.401389
 21
-102.301374
 31
0.0
  0
LINE
  5
51B
100
AcDbEntity
  8
0
390
0
  6
Continuous
 62
     7
100
AcDbLine
 10
-32.011389
 20
-101.074166
 30
0.0
 11
-32.011389
 21
-102.301374
 31
0.0
  0
LINE
  5
51C
100
AcDbEntity
  8
0
390
0
  6
Continuous
 62
     7
100
AcDbLine
 10
-42.271389
 20
-101.074166
 30
0.0
 11
-42.271389
 21
-102.301374
 31
0.0
  0
LINE
  5
51D
100
AcDbEntity
  8
0
390
0
  6
Continuous
 62
     7
100
AcDbLine
 10
29.548611
 20
-101.074166
 30
0.0
 11
29.548611
 21
-102.301374
 31
0.0
  0
LINE
  5
51E
100
AcDbEntity
  8
0
390
0
  6
Continuous
 62
     7
100
AcDbLine
 10
-1.231389
 20
-101.074166
 30
0.0
 11
-1.231389
 21
-102.301374
 31
0.0
  0
LINE
  5
51F
100
AcDbEntity
  8
0
390
0
  6
Continuous
 62
     7
100
AcDbLine
 10
-21.751389
 20
-101.074166
 30
0.0
 11
-21.751389
 21
-102.301374
 31
0.0
  0
LINE
  5
520
100
AcDbEntity
  8
0
390
0
  6
Continuous
 62
     7
100
AcDbLine
 10
-16.621389
 20
-101.074166
 30
0.0
 11
-16.621389
 21
-102.301374
 31
0.0
  0
LINE
  5
521
100
AcDbEntity
  8
0
390
0
  6
Continuous
 62
     7
100
AcDbLine
 10
-26.881389
 20
-101.074166
 30
0.0
 11
-26.881389
 21
-102.301374
 31
0.0
  0
LINE
  5
522
100
AcDbEntity
  8
0
390
0
  6
Continuous
 62
     7
100
AcDbLine
 10
-6.361389
 20
-101.074166
 30
0.0
 11
-6.361389
 21
-102.301374
 31
0.0
  0
LINE
  5
523
100
AcDbEntity
  8
0
390
0
  6
Continuous
 62
     7
100
AcDbLine
 10
39.808611
 20
-101.074166
 30
0.0
 11
39.808611
 21
-102.301374
 31
0.0
  0
LINE
  5
524
100
AcDbEntity
  8
0
390
0
  6
Continuous
 62
     7
100
AcDbLine
 10
34.678611
 20
-101.074166
 30
0.0
 11
34.678611
 21
-102.301374
 31
0.0
  0
LINE
  5
525
100
AcDbEntity
  8
0
390
0
  6
Continuous
 62
     7
100
AcDbLine
 10
-37.141389
 20
-101.074166
 30
0.0
 11
-37.141389
 21
-102.301374
 31
0.0
  0
LINE
  5
526
100
AcDbEntity
  8
0
390
0
  6
Continuous
 62
     7
100
AcDbLine
 10
-11.491389
 20
-101.074166
 30
0.0
 11
-11.491389
 21
-102.301374
 31
0.0
  0
LINE
  5
527
100
AcDbEntity
  8
0
390
0
  6
Continuous
 62
     7
100
AcDbLine
 10
44.938611
 20
-101.074166
 30
0.0
 11
44.938611
 21
-102.301374
 31
0.0
  0
LINE
  5
528
100
AcDbEntity
  8
0
390
0
  6
Continuous
 62
     7
100
AcDbLine
 10
50.068611
 20
-101.074166
 30
0.0
 11
50.068611
 21
-102.301374
 31
0.0
  0
LINE
  5
529
100
AcDbEntity
  8
0
390
0
  6
Continuous
 62
     7
100
AcDbLine
 10
24.418611
 20
-86.574166
 30
0.0
 11
24.418611
 21
-85.346959
 31
0.0
  0
LINE
  5
52A
100
AcDbEntity
  8
0
390
0
  6
Continuous
 62
     7
100
AcDbLine
 10
-42.271389
 20
-86.574166
 30
0.0
 11
-42.271389
 21
-85.346959
 31
0.0
  0
LINE
  5
52B
100
AcDbEntity
  8
0
390
0
  6
Continuous
 62
     7
100
AcDbLine
 10
-47.401389
 20
-86.574166
 30
0.0
 11
-47.401389
 21
-85.346959
 31
0.0
  0
LINE
  5
52C
100
AcDbEntity
  8
0
390
0
  6
Continuous
 62
     7
100
AcDbLine
 10
-32.011389
 20
-86.574166
 30
0.0
 11
-32.011389
 21
-85.346959
 31
0.0
  0
LINE
  5
52D
100
AcDbEntity
  8
0
390
0
  6
Continuous
 62
     7
100
AcDbLine
 10
-37.141389
 20
-86.574166
 30
0.0
 11
-37.141389
 21
-85.346959
 31
0.0
  0
LINE
  5
52E
100
AcDbEntity
  8
0
390
0
  6
Continuous
 62
     7
100
AcDbLine
 10
-26.881389
 20
-86.574166
 30
0.0
 11
-26.881389
 21
-85.346959
 31
0.0
  0
LINE
  5
52F
100
AcDbEntity
  8
0
390
0
  6
Continuous
 62
     7
100
AcDbLine
 10
-21.751389
 20
-86.574166
 30
0.0
 11
-21.751389
 21
-85.346959
 31
0.0
  0
LINE
  5
530
100
AcDbEntity
  8
0
390
0
  6
Continuous
 62
     7
100
AcDbLine
 10
44.938611
 20
-86.574166
 30
0.0
 11
44.938611
 21
-85.346959
 31
0.0
  0
LINE
  5
531
100
AcDbEntity
  8
0
390
0
  6
Continuous
 62
     7
100
AcDbLine
 10
29.548611
 20
-86.574166
 30
0.0
 11
29.548611
 21
-85.346959
 31
0.0
  0
LINE
  5
532
100
AcDbEntity
  8
0
390
0
  6
Continuous
 62
     7
100
AcDbLine
 10
50.068611
 20
-86.574166
 30
0.0
 11
50.068611
 21
-85.346959
 31
0.0
  0
LINE
  5
533
100
AcDbEntity
  8
0
390
0
  6
Continuous
 62
     7
100
AcDbLine
 10
34.678611
 20
-86.574166
 30
0.0
 11
34.678611
 21
-85.346959
 31
0.0
  0
LINE
  5
534
100
AcDbEntity
  8
0
390
0
  6
Continuous
 62
     7
100
AcDbLine
 10
39.808611
 20
-86.574166
 30
0.0
 11
39.808611
 21
-85.346959
 31
0.0
  0
LINE
  5
535
100
AcDbEntity
  8
0
390
0
  6
Continuous
 62
     7
100
AcDbLine
 10
42.281388
 20
-101.169572
 30
0.0
 11
42.281388
 21
-102.301374
 31
0.0
  0
LINE
  5
536
100
AcDbEntity
  8
0
390
0
  6
Continuous
 62
     7
100
AcDbLine
 10
-39.798612
 20
-101.169572
 30
0.0
 11
-39.798612
 21
-102.301374
 31
0.0
  0
LINE
  5
537
100
AcDbEntity
  8
0
390
0
  6
Continuous
 62
     7
100
AcDbLine
 10
-34.668612
 20
-101.169572
 30
0.0
 11
-34.668612
 21
-102.301374
 31
0.0
  0
LINE
  5
538
100
AcDbEntity
  8
0
390
0
  6
Continuous
 62
     7
100
AcDbLine
 10
-50.058612
 20
-101.169572
 30
0.0
 11
-50.058612
 21
-102.301374
 31
0.0
  0
LINE
  5
539
100
AcDbEntity
  8
0
390
0
  6
Continuous
 62
     7
100
AcDbLine
 10
26.891388
 20
-101.169572
 30
0.0
 11
26.891388
 21
-102.301374
 31
0.0
  0
LINE
  5
53A
100
AcDbEntity
  8
0
390
0
  6
Continuous
 62
     7
100
AcDbLine
 10
-9.018612
 20
-101.169572
 30
0.0
 11
-9.018612
 21
-102.301374
 31
0.0
  0
LINE
  5
53B
100
AcDbEntity
  8
0
390
0
  6
Continuous
 62
     7
100
AcDbLine
 10
1.241388
 20
-101.169572
 30
0.0
 11
1.241388
 21
-102.301374
 31
0.0
  0
LINE
  5
53C
100
AcDbEntity
  8
0
390
0
  6
Continuous
 62
     7
100
AcDbLine
 10
37.151388
 20
-86.478761
 30
0.0
 11
37.151388
 21
-85.346959
 31
0.0
  0
LINE
  5
53D
100
AcDbEntity
  8
0
390
0
  6
Continuous
 62
     7
100
AcDbLine
 10
21.761388
 20
-86.478761
 30
0.0
 11
21.761388
 21
-85.346959
 31
0.0
  0
LINE
  5
53E
100
AcDbEntity
  8
0
390
0
  6
Continuous
 62
     7
100
AcDbLine
 10
11.501388
 20
-101.169572
 30
0.0
 11
11.501388
 21
-102.301374
 31
0.0
  0
LINE
  5
53F
100
AcDbEntity
  8
0
390
0
  6
Continuous
 62
     7
100
AcDbLine
 10
47.411388
 20
-86.478761
 30
0.0
 11
47.411388
 21
-85.346959
 31
0.0
  0
LINE
  5
540
100
AcDbEntity
  8
0
390
0
  6
Continuous
 62
     7
100
AcDbLine
 10
32.021388
 20
-86.478761
 30
0.0
 11
32.021388
 21
-85.346959
 31
0.0
  0
LINE
  5
541
100
AcDbEntity
  8
0
390
0
  6
Continuous
 62
     7
100
AcDbLine
 10
26.891388
 20
-86.478761
 30
0.0
 11
26.891388
 21
-85.346959
 31
0.0
  0
LINE
  5
542
100
AcDbEntity
  8
0
390
0
  6
Continuous
 62
     7
100
AcDbLine
 10
42.281388
 20
-86.478761
 30
0.0
 11
42.281388
 21
-85.346959
 31
0.0
  0
LINE
  5
543
100
AcDbEntity
  8
0
390
0
  6
Continuous
 62
     7
100
AcDbLine
 10
-50.058612
 20
-86.478761
 30
0.0
 11
-50.058612
 21
-85.346959
 31
0.0
  0
LINE
  5
544
100
AcDbEntity
  8
0
390
0
  6
Continuous
 62
     7
100
AcDbLine
 10
-29.538612
 20
-86.478761
 30
0.0
 11
-29.538612
 21
-85.346959
 31
0.0
  0
LINE
  5
545
100
AcDbEntity
  8
0
390
0
  6
Continuous
 62
     7
100
AcDbLine
 10
-34.668612
 20
-86.478761
 30
0.0
 11
-34.668612
 21
-85.346959
 31
0.0
  0
LINE
  5
546
100
AcDbEntity
  8
0
390
0
  6
Continuous
 62
     7
100
AcDbLine
 10
-39.798612
 20
-86.478761
 30
0.0
 11
-39.798612
 21
-85.346959
 31
0.0
  0
LINE
  5
547
100
AcDbEntity
  8
0
390
0
  6
Continuous
 62
     7
100
AcDbLine
 10
-24.408612
 20
-86.478761
 30
0.0
 11
-24.408612
 21
-85.346959
 31
0.0
  0
LINE
  5
548
100
AcDbEntity
  8
0
390
0
  6
Continuous
 62
     7
100
AcDbLine
 10
-44.928612
 20
-86.478761
 30
0.0
 11
-44.928612
 21
-85.346959
 31
0.0
  0
LINE
  5
549
100
AcDbEntity
  8
0
390
0
  6
Continuous
 62
     7
100
AcDbLine
 10
47.411388
 20
-101.169572
 30
0.0
 11
47.411388
 21
-102.301374
 31
0.0
  0
LINE
  5
54A
100
AcDbEntity
  8
0
390
0
  6
Continuous
 62
     7
100
AcDbLine
 10
32.021388
 20
-101.169572
 30
0.0
 11
32.021388
 21
-102.301374
 31
0.0
  0
LINE
  5
54B
100
AcDbEntity
  8
0
390
0
  6
Continuous
 62
     7
100
AcDbLine
 10
37.151388
 20
-101.169572
 30
0.0
 11
37.151388
 21
-102.301374
 31
0.0
  0
LINE
  5
54C
100
AcDbEntity
  8
0
390
0
  6
Continuous
 62
     7
100
AcDbLine
 10
-24.408612
 20
-101.169572
 30
0.0
 11
-24.408612
 21
-102.301374
 31
0.0
  0
LINE
  5
54D
100
AcDbEntity
  8
0
390
0
  6
Continuous
 62
     7
100
AcDbLine
 10
-29.538612
 20
-101.169572
 30
0.0
 11
-29.538612
 21
-102.301374
 31
0.0
  0
LINE
  5
54E
100
AcDbEntity
  8
0
390
0
  6
Continuous
 62
     7
100
AcDbLine
 10
-19.278612
 20
-101.169572
 30
0.0
 11
-19.278612
 21
-102.301374
 31
0.0
  0
LINE
  5
54F
100
AcDbEntity
  8
0
390
0
  6
Continuous
 62
     7
100
AcDbLine
 10
-14.148612
 20
-101.169572
 30
0.0
 11
-14.148612
 21
-102.301374
 31
0.0
  0
LINE
  5
550
100
AcDbEntity
  8
0
390
0
  6
Continuous
 62
     7
100
AcDbLine
 10
-44.928612
 20
-101.169572
 30
0.0
 11
-44.928612
 21
-102.301374
 31
0.0
  0
LINE
  5
551
100
AcDbEntity
  8
0
390
0
  6
Continuous
 62
     7
100
AcDbLine
 10
-3.888612
 20
-101.169572
 30
0.0
 11
-3.888612
 21
-102.301374
 31
0.0
  0
LINE
  5
552
100
AcDbEntity
  8
0
390
0
  6
Continuous
 62
     7
100
AcDbLine
 10
6.371388
 20
-101.169572
 30
0.0
 11
6.371388
 21
-102.301374
 31
0.0
  0
LINE
  5
553
100
AcDbEntity
  8
0
390
0
  6
Continuous
 62
     7
100
AcDbLine
 10
21.761388
 20
-101.169572
 30
0.0
 11
21.761388
 21
-102.301374
 31
0.0
  0
LINE
  5
554
100
AcDbEntity
  8
0
390
0
  6
Continuous
 62
     7
100
AcDbLine
 10
16.631388
 20
-101.169572
 30
0.0
 11
16.631388
 21
-102.301374
 31
0.0
  0
LINE
  5
555
100
AcDbEntity
  8
0
390
0
  6
Continuous
 62
     7
100
AcDbLine
 10
-53.0
 20
-100.801374
 30
0.0
 11
-53.0
 21
-99.574166
 31
0.0
  0
LINE
  5
556
100
AcDbEntity
  8
0
390
0
  6
Continuous
 62
     7
100
AcDbLine
 10
-51.5
 20
-101.074166
 30
0.0
 11
-51.5
 21
-102.301374
 31
0.0
  0
LINE
  5
557
100
AcDbEntity
  8
0
390
0
  6
Continuous
 62
     7
100
AcDbLine
 10
51.5
 20
-102.301374
 30
0.0
 11
51.5
 21
-101.074166
 31
0.0
  0
LINE
  5
558
100
AcDbEntity
  8
0
390
0
  6
Continuous
 62
     7
100
AcDbLine
 10
53.0
 20
-99.574166
 30
0.0
 11
53.0
 21
-100.801374
 31
0.0
  0
LINE
  5
559
100
AcDbEntity
  8
0
390
0
  6
Continuous
 62
     7
100
AcDbLine
 10
53.0
 20
-86.846959
 30
0.0
 11
53.0
 21
-88.074166
 31
0.0
  0
LINE
  5
55A
100
AcDbEntity
  8
0
390
0
  6
Continuous
 62
     7
100
AcDbLine
 10
51.5
 20
-86.574166
 30
0.0
 11
51.5
 21
-85.346959
 31
0.0
  0
LINE
  5
55B
100
AcDbEntity
  8
0
390
0
  6
Continuous
 62
     7
100
AcDbLine
 10
13.0
 20
-85.346959
 30
0.0
 11
13.0
 21
-86.574166
 31
0.0
  0
LINE
  5
55C
100
AcDbEntity
  8
0
390
0
  6
Continuous
 62
     7
100
AcDbLine
 10
11.5
 20
-88.074166
 30
0.0
 11
11.5
 21
-86.846959
 31
0.0
  0
LINE
  5
55D
100
AcDbEntity
  8
0
390
0
  6
Continuous
 62
     7
100
AcDbLine
 10
-11.5
 20
-86.846959
 30
0.0
 11
-11.5
 21
-88.074166
 31
0.0
  0
LINE
  5
55E
100
AcDbEntity
  8
0
390
0
  6
Continuous
 62
     7
100
AcDbLine
 10
-13.0
 20
-86.574166
 30
0.0
 11
-13.0
 21
-85.346959
 31
0.0
  0
LINE
  5
55F
100
AcDbEntity
  8
0
390
0
  6
Continuous
 62
     7
100
AcDbLine
 10
-51.5
 20
-85.346959
 30
0.0
 11
-51.5
 21
-86.574166
 31
0.0
  0
LINE
  5
560
100
AcDbEntity
  8
0
390
0
  6
Continuous
 62
     7
100
AcDbLine
 10
-53.0
 20
-88.074166
 30
0.0
 11
-53.0
 21
-86.846959
 31
0.0
  0
LINE
  5
561
100
AcDbEntity
  8
0
390
0
  6
Continuous
 62
     7
100
AcDbLine
 10
-49.985288
 20
-98.133312
 30
0.0
 11
-50.0
 21
-94.649631
 31
0.0
  0
LINE
  5
562
100
AcDbEntity
  8
0
390
0
  6
Continuous
 62
     7
100
AcDbLine
 10
50.0
 20
-94.649631
 30
0.0
 11
-50.0
 21
-94.649631
 31
0.0
  0
LINE
  5
563
100
AcDbEntity
  8
0
390
0
  6
Continuous
 62
     7
100
AcDbLine
 10
49.985288
 20
-89.515021
 30
0.0
 11
50.0
 21
-92.998702
 31
0.0
  0
LINE
  5
564
100
AcDbEntity
  8
0
390
0
  6
Continuous
 62
     7
100
AcDbLine
 10
-11.5
 20
-89.515021
 30
0.0
 11
-11.5
 21
-88.346959
 31
0.0
  0
LINE
  5
565
100
AcDbEntity
  8
0
390
0
  6
Continuous
 62
     7
100
AcDbLine
 10
-11.5
 20
-89.574166
 30
0.0
 11
-11.5
 21
-89.515021
 31
0.0
  0
LINE
  5
566
100
AcDbEntity
  8
0
390
0
  6
Continuous
 62
     7
100
AcDbLine
 10
-50.0
 20
-92.998702
 30
0.0
 11
50.0
 21
-92.998702
 31
0.0
  0
LINE
  5
567
100
AcDbEntity
  8
0
390
0
  6
Continuous
 62
     7
100
AcDbLine
 10
-11.5
 20
-89.574166
 30
0.0
 11
11.5
 21
-89.574166
 31
0.0
  0
LINE
  5
568
100
AcDbEntity
  8
0
390
0
  6
Continuous
 62
     7
100
AcDbLine
 10
11.5
 20
-89.515021
 30
0.0
 11
11.5
 21
-89.574166
 31
0.0
  0
LINE
  5
569
100
AcDbEntity
  8
0
390
0
  6
Continuous
 62
     7
100
AcDbLine
 10
11.5
 20
-88.346959
 30
0.0
 11
11.5
 21
-89.515021
 31
0.0
  0
LINE
  5
56A
100
AcDbEntity
  8
0
390
0
  6
Continuous
 62
     7
100
AcDbLine
 10
-19.542728
 20
-86.074166
 30
0.0
 11
-19.542728
 21
-86.574166
 31
0.0
  0
LINE
  5
56B
100
AcDbEntity
  8
0
390
0
  6
Continuous
 62
     7
100
AcDbLine
 10
-15.247273
 20
-86.574166
 30
0.0
 11
-15.247273
 21
-86.074166
 31
0.0
  0
ARC
  5
56C
100
AcDbEntity
  8
0
390
0
  6
Continuous
 62
     7
100
AcDbCircle
 10
-18.251036
 20
-84.846959
 30
0.0
 40
1.0
210
0.0
220
0.0
230
1.0
100
AcDbArc
 50
90.0
 51
177.0
  0
ARC
  5
56D
100
AcDbEntity
  8
0
390
0
  6
Continuous
 62
     7
100
AcDbCircle
 10
17.658964
 20
-84.846959
 30
0.0
 40
1.0
210
0.0
220
0.0
230
1.0
100
AcDbArc
 50
90.0
 51
177.0
  0
ARC
  5
56E
100
AcDbEntity
  8
0
390
0
  6
Continuous
 62
     7
100
AcDbCircle
 10
18.261035
 20
-84.846959
 30
0.0
 40
1.0
210
0.0
220
0.0
230
1.0
100
AcDbArc
 50
3.0
 51
90.0
  0
ARC
  5
56F
100
AcDbEntity
  8
0
390
0
  6
Continuous
 62
     7
100
AcDbCircle
 10
-17.648965
 20
-84.846959
 30
0.0
 40
1.0
210
0.0
220
0.0
230
1.0
100
AcDbArc
 50
3.0
 51
90.0
  0
LINE
  5
570
100
AcDbEntity
  8
0
390
0
  6
Continuous
 62
     7
100
AcDbLine
 10
-17.648965
 20
-83.846959
 30
0.0
 11
-18.251036
 21
-83.846959
 31
0.0
  0
LINE
  5
571
100
AcDbEntity
  8
0
390
0
  6
Continuous
 62
     7
100
AcDbLine
 10
18.261035
 20
-83.846959
 30
0.0
 11
17.658964
 21
-83.846959
 31
0.0
  0
LINE
  5
572
100
AcDbEntity
  8
0
390
0
  6
Continuous
 62
     7
100
AcDbLine
 10
-19.249665
 20
-84.794623
 30
0.0
 11
-19.278612
 21
-85.346959
 31
0.0
  0
LINE
  5
573
100
AcDbEntity
  8
0
390
0
  6
Continuous
 62
     7
100
AcDbLine
 10
16.660335
 20
-84.794623
 30
0.0
 11
16.631388
 21
-85.346959
 31
0.0
  0
LINE
  5
574
100
AcDbEntity
  8
0
390
0
  6
Continuous
 62
     7
100
AcDbLine
 10
-16.621389
 20
-85.346959
 30
0.0
 11
-16.650335
 21
-84.794623
 31
0.0
  0
LINE
  5
575
100
AcDbEntity
  8
0
390
0
  6
Continuous
 62
     7
100
AcDbLine
 10
19.288611
 20
-85.346959
 30
0.0
 11
19.259665
 21
-84.794623
 31
0.0
  0
ARC
  5
576
100
AcDbEntity
  8
0
390
0
  6
Continuous
 62
     7
100
AcDbCircle
 10
43.911035
 20
-84.846959
 30
0.0
 40
1.0
210
0.0
220
0.0
230
1.0
100
AcDbArc
 50
3.0
 51
90.0
  0
ARC
  5
577
100
AcDbEntity
  8
0
390
0
  6
Continuous
 62
     7
100
AcDbCircle
 10
33.651035
 20
-84.846959
 30
0.0
 40
1.0
210
0.0
220
0.0
230
1.0
100
AcDbArc
 50
3.0
 51
90.0
  0
ARC
  5
578
100
AcDbEntity
  8
0
390
0
  6
Continuous
 62
     7
100
AcDbCircle
 10
23.391035
 20
-84.846959
 30
0.0
 40
1.0
210
0.0
220
0.0
230
1.0
100
AcDbArc
 50
3.0
 51
90.0
  0
ARC
  5
579
100
AcDbEntity
  8
0
390
0
  6
Continuous
 62
     7
100
AcDbCircle
 10
28.521035
 20
-84.846959
 30
0.0
 40
1.0
210
0.0
220
0.0
230
1.0
100
AcDbArc
 50
3.0
 51
90.0
  0
ARC
  5
57A
100
AcDbEntity
  8
0
390
0
  6
Continuous
 62
     7
100
AcDbCircle
 10
38.781035
 20
-84.846959
 30
0.0
 40
1.0
210
0.0
220
0.0
230
1.0
100
AcDbArc
 50
3.0
 51
90.0
  0
ARC
  5
57B
100
AcDbEntity
  8
0
390
0
  6
Continuous
 62
     7
100
AcDbCircle
 10
49.041035
 20
-84.846959
 30
0.0
 40
1.0
210
0.0
220
0.0
230
1.0
100
AcDbArc
 50
3.0
 51
90.0
  0
ARC
  5
57C
100
AcDbEntity
  8
0
390
0
  6
Continuous
 62
     7
100
AcDbCircle
 10
-38.168965
 20
-84.846959
 30
0.0
 40
1.0
210
0.0
220
0.0
230
1.0
100
AcDbArc
 50
3.0
 51
90.0
  0
ARC
  5
57D
100
AcDbEntity
  8
0
390
0
  6
Continuous
 62
     7
100
AcDbCircle
 10
-22.778965
 20
-84.846959
 30
0.0
 40
1.0
210
0.0
220
0.0
230
1.0
100
AcDbArc
 50
3.0
 51
90.0
  0
ARC
  5
57E
100
AcDbEntity
  8
0
390
0
  6
Continuous
 62
     7
100
AcDbCircle
 10
-27.908965
 20
-84.846959
 30
0.0
 40
1.0
210
0.0
220
0.0
230
1.0
100
AcDbArc
 50
3.0
 51
90.0
  0
ARC
  5
57F
100
AcDbEntity
  8
0
390
0
  6
Continuous
 62
     7
100
AcDbCircle
 10
-43.298965
 20
-84.846959
 30
0.0
 40
1.0
210
0.0
220
0.0
230
1.0
100
AcDbArc
 50
3.0
 51
90.0
  0
ARC
  5
580
100
AcDbEntity
  8
0
390
0
  6
Continuous
 62
     7
100
AcDbCircle
 10
-48.428965
 20
-84.846959
 30
0.0
 40
1.0
210
0.0
220
0.0
230
1.0
100
AcDbArc
 50
3.0
 51
90.0
  0
ARC
  5
581
100
AcDbEntity
  8
0
390
0
  6
Continuous
 62
     7
100
AcDbCircle
 10
-33.038965
 20
-84.846959
 30
0.0
 40
1.0
210
0.0
220
0.0
230
1.0
100
AcDbArc
 50
3.0
 51
90.0
  0
ARC
  5
582
100
AcDbEntity
  8
0
390
0
  6
Continuous
 62
     7
100
AcDbCircle
 10
43.308964
 20
-102.801374
 30
0.0
 40
1.0
210
0.0
220
0.0
230
1.0
100
AcDbArc
 50
183.0
 51
270.0
  0
ARC
  5
583
100
AcDbEntity
  8
0
390
0
  6
Continuous
 62
     7
100
AcDbCircle
 10
-13.121036
 20
-102.801374
 30
0.0
 40
1.0
210
0.0
220
0.0
230
1.0
100
AcDbArc
 50
183.0
 51
270.0
  0
ARC
  5
584
100
AcDbEntity
  8
0
390
0
  6
Continuous
 62
     7
100
AcDbCircle
 10
-7.991036
 20
-102.801374
 30
0.0
 40
1.0
210
0.0
220
0.0
230
1.0
100
AcDbArc
 50
183.0
 51
270.0
  0
ARC
  5
585
100
AcDbEntity
  8
0
390
0
  6
Continuous
 62
     7
100
AcDbCircle
 10
-2.861036
 20
-102.801374
 30
0.0
 40
1.0
210
0.0
220
0.0
230
1.0
100
AcDbArc
 50
183.0
 51
270.0
  0
ARC
  5
586
100
AcDbEntity
  8
0
390
0
  6
Continuous
 62
     7
100
AcDbCircle
 10
12.528964
 20
-102.801374
 30
0.0
 40
1.0
210
0.0
220
0.0
230
1.0
100
AcDbArc
 50
183.0
 51
270.0
  0
ARC
  5
587
100
AcDbEntity
  8
0
390
0
  6
Continuous
 62
     7
100
AcDbCircle
 10
17.658964
 20
-102.801374
 30
0.0
 40
1.0
210
0.0
220
0.0
230
1.0
100
AcDbArc
 50
183.0
 51
270.0
  0
ARC
  5
588
100
AcDbEntity
  8
0
390
0
  6
Continuous
 62
     7
100
AcDbCircle
 10
22.788964
 20
-102.801374
 30
0.0
 40
1.0
210
0.0
220
0.0
230
1.0
100
AcDbArc
 50
183.0
 51
270.0
  0
ARC
  5
589
100
AcDbEntity
  8
0
390
0
  6
Continuous
 62
     7
100
AcDbCircle
 10
48.438964
 20
-102.801374
 30
0.0
 40
1.0
210
0.0
220
0.0
230
1.0
100
AcDbArc
 50
183.0
 51
270.0
  0
ARC
  5
58A
100
AcDbEntity
  8
0
390
0
  6
Continuous
 62
     7
100
AcDbCircle
 10
-38.771036
 20
-102.801374
 30
0.0
 40
1.0
210
0.0
220
0.0
230
1.0
100
AcDbArc
 50
183.0
 51
270.0
  0
ARC
  5
58B
100
AcDbEntity
  8
0
390
0
  6
Continuous
 62
     7
100
AcDbCircle
 10
-43.901036
 20
-102.801374
 30
0.0
 40
1.0
210
0.0
220
0.0
230
1.0
100
AcDbArc
 50
183.0
 51
270.0
  0
ARC
  5
58C
100
AcDbEntity
  8
0
390
0
  6
Continuous
 62
     7
100
AcDbCircle
 10
-49.031036
 20
-102.801374
 30
0.0
 40
1.0
210
0.0
220
0.0
230
1.0
100
AcDbArc
 50
183.0
 51
270.0
  0
ARC
  5
58D
100
AcDbEntity
  8
0
390
0
  6
Continuous
 62
     7
100
AcDbCircle
 10
-33.641036
 20
-102.801374
 30
0.0
 40
1.0
210
0.0
220
0.0
230
1.0
100
AcDbArc
 50
183.0
 51
270.0
  0
ARC
  5
58E
100
AcDbEntity
  8
0
390
0
  6
Continuous
 62
     7
100
AcDbCircle
 10
33.048964
 20
-102.801374
 30
0.0
 40
1.0
210
0.0
220
0.0
230
1.0
100
AcDbArc
 50
183.0
 51
270.0
  0
ARC
  5
58F
100
AcDbEntity
  8
0
390
0
  6
Continuous
 62
     7
100
AcDbCircle
 10
-28.511036
 20
-102.801374
 30
0.0
 40
1.0
210
0.0
220
0.0
230
1.0
100
AcDbArc
 50
183.0
 51
270.0
  0
ARC
  5
590
100
AcDbEntity
  8
0
390
0
  6
Continuous
 62
     7
100
AcDbCircle
 10
38.178964
 20
-102.801374
 30
0.0
 40
1.0
210
0.0
220
0.0
230
1.0
100
AcDbArc
 50
183.0
 51
270.0
  0
ARC
  5
591
100
AcDbEntity
  8
0
390
0
  6
Continuous
 62
     7
100
AcDbCircle
 10
-23.381036
 20
-102.801374
 30
0.0
 40
1.0
210
0.0
220
0.0
230
1.0
100
AcDbArc
 50
183.0
 51
270.0
  0
ARC
  5
592
100
AcDbEntity
  8
0
390
0
  6
Continuous
 62
     7
100
AcDbCircle
 10
-18.251036
 20
-102.801374
 30
0.0
 40
1.0
210
0.0
220
0.0
230
1.0
100
AcDbArc
 50
183.0
 51
270.0
  0
ARC
  5
593
100
AcDbEntity
  8
0
390
0
  6
Continuous
 62
     7
100
AcDbCircle
 10
7.398964
 20
-102.801374
 30
0.0
 40
1.0
210
0.0
220
0.0
230
1.0
100
AcDbArc
 50
183.0
 51
270.0
  0
ARC
  5
594
100
AcDbEntity
  8
0
390
0
  6
Continuous
 62
     7
100
AcDbCircle
 10
27.918964
 20
-102.801374
 30
0.0
 40
1.0
210
0.0
220
0.0
230
1.0
100
AcDbArc
 50
183.0
 51
270.0
  0
ARC
  5
595
100
AcDbEntity
  8
0
390
0
  6
Continuous
 62
     7
100
AcDbCircle
 10
2.268964
 20
-102.801374
 30
0.0
 40
1.0
210
0.0
220
0.0
230
1.0
100
AcDbArc
 50
183.0
 51
270.0
  0
ARC
  5
596
100
AcDbEntity
  8
0
390
0
  6
Continuous
 62
     7
100
AcDbCircle
 10
27.918964
 20
-84.846959
 30
0.0
 40
1.0
210
0.0
220
0.0
230
1.0
100
AcDbArc
 50
90.0
 51
177.0
  0
ARC
  5
597
100
AcDbEntity
  8
0
390
0
  6
Continuous
 62
     7
100
AcDbCircle
 10
-43.901036
 20
-84.846959
 30
0.0
 40
1.0
210
0.0
220
0.0
230
1.0
100
AcDbArc
 50
90.0
 51
177.0
  0
ARC
  5
598
100
AcDbEntity
  8
0
390
0
  6
Continuous
 62
     7
100
AcDbCircle
 10
43.308964
 20
-84.846959
 30
0.0
 40
1.0
210
0.0
220
0.0
230
1.0
100
AcDbArc
 50
90.0
 51
177.0
  0
ARC
  5
599
100
AcDbEntity
  8
0
390
0
  6
Continuous
 62
     7
100
AcDbCircle
 10
48.438964
 20
-84.846959
 30
0.0
 40
1.0
210
0.0
220
0.0
230
1.0
100
AcDbArc
 50
90.0
 51
177.0
  0
ARC
  5
59A
100
AcDbEntity
  8
0
390
0
  6
Continuous
 62
     7
100
AcDbCircle
 10
33.048964
 20
-84.846959
 30
0.0
 40
1.0
210
0.0
220
0.0
230
1.0
100
AcDbArc
 50
90.0
 51
177.0
  0
ARC
  5
59B
100
AcDbEntity
  8
0
390
0
  6
Continuous
 62
     7
100
AcDbCircle
 10
-28.511036
 20
-84.846959
 30
0.0
 40
1.0
210
0.0
220
0.0
230
1.0
100
AcDbArc
 50
90.0
 51
177.0
  0
ARC
  5
59C
100
AcDbEntity
  8
0
390
0
  6
Continuous
 62
     7
100
AcDbCircle
 10
-33.641036
 20
-84.846959
 30
0.0
 40
1.0
210
0.0
220
0.0
230
1.0
100
AcDbArc
 50
90.0
 51
177.0
  0
ARC
  5
59D
100
AcDbEntity
  8
0
390
0
  6
Continuous
 62
     7
100
AcDbCircle
 10
-38.771036
 20
-84.846959
 30
0.0
 40
1.0
210
0.0
220
0.0
230
1.0
100
AcDbArc
 50
90.0
 51
177.0
  0
ARC
  5
59E
100
AcDbEntity
  8
0
390
0
  6
Continuous
 62
     7
100
AcDbCircle
 10
-49.031036
 20
-84.846959
 30
0.0
 40
1.0
210
0.0
220
0.0
230
1.0
100
AcDbArc
 50
90.0
 51
177.0
  0
ARC
  5
59F
100
AcDbEntity
  8
0
390
0
  6
Continuous
 62
     7
100
AcDbCircle
 10
22.788964
 20
-84.846959
 30
0.0
 40
1.0
210
0.0
220
0.0
230
1.0
100
AcDbArc
 50
90.0
 51
177.0
  0
ARC
  5
5A0
100
AcDbEntity
  8
0
390
0
  6
Continuous
 62
     7
100
AcDbCircle
 10
-23.381036
 20
-84.846959
 30
0.0
 40
1.0
210
0.0
220
0.0
230
1.0
100
AcDbArc
 50
90.0
 51
177.0
  0
ARC
  5
5A1
100
AcDbEntity
  8
0
390
0
  6
Continuous
 62
     7
100
AcDbCircle
 10
38.178964
 20
-84.846959
 30
0.0
 40
1.0
210
0.0
220
0.0
230
1.0
100
AcDbArc
 50
90.0
 51
177.0
  0
ARC
  5
5A2
100
AcDbEntity
  8
0
390
0
  6
Continuous
 62
     7
100
AcDbCircle
 10
18.261035
 20
-102.801374
 30
0.0
 40
1.0
210
0.0
220
0.0
230
1.0
100
AcDbArc
 50
270.0
 51
357.0
  0
ARC
  5
5A3
100
AcDbEntity
  8
0
390
0
  6
Continuous
 62
     7
100
AcDbCircle
 10
8.001035
 20
-102.801374
 30
0.0
 40
1.0
210
0.0
220
0.0
230
1.0
100
AcDbArc
 50
270.0
 51
357.0
  0
ARC
  5
5A4
100
AcDbEntity
  8
0
390
0
  6
Continuous
 62
     7
100
AcDbCircle
 10
13.131035
 20
-102.801374
 30
0.0
 40
1.0
210
0.0
220
0.0
230
1.0
100
AcDbArc
 50
270.0
 51
357.0
  0
ARC
  5
5A5
100
AcDbEntity
  8
0
390
0
  6
Continuous
 62
     7
100
AcDbCircle
 10
23.391035
 20
-102.801374
 30
0.0
 40
1.0
210
0.0
220
0.0
230
1.0
100
AcDbArc
 50
270.0
 51
357.0
  0
ARC
  5
5A6
100
AcDbEntity
  8
0
390
0
  6
Continuous
 62
     7
100
AcDbCircle
 10
-43.298965
 20
-102.801374
 30
0.0
 40
1.0
210
0.0
220
0.0
230
1.0
100
AcDbArc
 50
270.0
 51
357.0
  0
ARC
  5
5A7
100
AcDbEntity
  8
0
390
0
  6
Continuous
 62
     7
100
AcDbCircle
 10
38.781035
 20
-102.801374
 30
0.0
 40
1.0
210
0.0
220
0.0
230
1.0
100
AcDbArc
 50
270.0
 51
357.0
  0
ARC
  5
5A8
100
AcDbEntity
  8
0
390
0
  6
Continuous
 62
     7
100
AcDbCircle
 10
-48.428965
 20
-102.801374
 30
0.0
 40
1.0
210
0.0
220
0.0
230
1.0
100
AcDbArc
 50
270.0
 51
357.0
  0
ARC
  5
5A9
100
AcDbEntity
  8
0
390
0
  6
Continuous
 62
     7
100
AcDbCircle
 10
33.651035
 20
-102.801374
 30
0.0
 40
1.0
210
0.0
220
0.0
230
1.0
100
AcDbArc
 50
270.0
 51
357.0
  0
ARC
  5
5AA
100
AcDbEntity
  8
0
390
0
  6
Continuous
 62
     7
100
AcDbCircle
 10
-33.038965
 20
-102.801374
 30
0.0
 40
1.0
210
0.0
220
0.0
230
1.0
100
AcDbArc
 50
270.0
 51
357.0
  0
ARC
  5
5AB
100
AcDbEntity
  8
0
390
0
  6
Continuous
 62
     7
100
AcDbCircle
 10
2.871035
 20
-102.801374
 30
0.0
 40
1.0
210
0.0
220
0.0
230
1.0
100
AcDbArc
 50
270.0
 51
357.0
  0
ARC
  5
5AC
100
AcDbEntity
  8
0
390
0
  6
Continuous
 62
     7
100
AcDbCircle
 10
28.521035
 20
-102.801374
 30
0.0
 40
1.0
210
0.0
220
0.0
230
1.0
100
AcDbArc
 50
270.0
 51
357.0
  0
ARC
  5
5AD
100
AcDbEntity
  8
0
390
0
  6
Continuous
 62
     7
100
AcDbCircle
 10
-2.258965
 20
-102.801374
 30
0.0
 40
1.0
210
0.0
220
0.0
230
1.0
100
AcDbArc
 50
270.0
 51
357.0
  0
ARC
  5
5AE
100
AcDbEntity
  8
0
390
0
  6
Continuous
 62
     7
100
AcDbCircle
 10
-27.908965
 20
-102.801374
 30
0.0
 40
1.0
210
0.0
220
0.0
230
1.0
100
AcDbArc
 50
270.0
 51
357.0
  0
ARC
  5
5AF
100
AcDbEntity
  8
0
390
0
  6
Continuous
 62
     7
100
AcDbCircle
 10
-22.778965
 20
-102.801374
 30
0.0
 40
1.0
210
0.0
220
0.0
230
1.0
100
AcDbArc
 50
270.0
 51
357.0
  0
ARC
  5
5B0
100
AcDbEntity
  8
0
390
0
  6
Continuous
 62
     7
100
AcDbCircle
 10
-38.168965
 20
-102.801374
 30
0.0
 40
1.0
210
0.0
220
0.0
230
1.0
100
AcDbArc
 50
270.0
 51
357.0
  0
ARC
  5
5B1
100
AcDbEntity
  8
0
390
0
  6
Continuous
 62
     7
100
AcDbCircle
 10
43.911035
 20
-102.801374
 30
0.0
 40
1.0
210
0.0
220
0.0
230
1.0
100
AcDbArc
 50
270.0
 51
357.0
  0
ARC
  5
5B2
100
AcDbEntity
  8
0
390
0
  6
Continuous
 62
     7
100
AcDbCircle
 10
-17.648965
 20
-102.801374
 30
0.0
 40
1.0
210
0.0
220
0.0
230
1.0
100
AcDbArc
 50
270.0
 51
357.0
  0
ARC
  5
5B3
100
AcDbEntity
  8
0
390
0
  6
Continuous
 62
     7
100
AcDbCircle
 10
-7.388965
 20
-102.801374
 30
0.0
 40
1.0
210
0.0
220
0.0
230
1.0
100
AcDbArc
 50
270.0
 51
357.0
  0
ARC
  5
5B4
100
AcDbEntity
  8
0
390
0
  6
Continuous
 62
     7
100
AcDbCircle
 10
-12.518965
 20
-102.801374
 30
0.0
 40
1.0
210
0.0
220
0.0
230
1.0
100
AcDbArc
 50
270.0
 51
357.0
  0
ARC
  5
5B5
100
AcDbEntity
  8
0
390
0
  6
Continuous
 62
     7
100
AcDbCircle
 10
49.041035
 20
-102.801374
 30
0.0
 40
1.0
210
0.0
220
0.0
230
1.0
100
AcDbArc
 50
270.0
 51
357.0
  0
LINE
  5
5B6
100
AcDbEntity
  8
0
390
0
  6
Continuous
 62
     7
100
AcDbLine
 10
22.788964
 20
-103.801374
 30
0.0
 11
23.391035
 21
-103.801374
 31
0.0
  0
LINE
  5
5B7
100
AcDbEntity
  8
0
390
0
  6
Continuous
 62
     7
100
AcDbLine
 10
17.658964
 20
-103.801374
 30
0.0
 11
18.261035
 21
-103.801374
 31
0.0
  0
LINE
  5
5B8
100
AcDbEntity
  8
0
390
0
  6
Continuous
 62
     7
100
AcDbLine
 10
27.918964
 20
-103.801374
 30
0.0
 11
28.521035
 21
-103.801374
 31
0.0
  0
LINE
  5
5B9
100
AcDbEntity
  8
0
390
0
  6
Continuous
 62
     7
100
AcDbLine
 10
2.268964
 20
-103.801374
 30
0.0
 11
2.871035
 21
-103.801374
 31
0.0
  0
LINE
  5
5BA
100
AcDbEntity
  8
0
390
0
  6
Continuous
 62
     7
100
AcDbLine
 10
-2.861036
 20
-103.801374
 30
0.0
 11
-2.258965
 21
-103.801374
 31
0.0
  0
LINE
  5
5BB
100
AcDbEntity
  8
0
390
0
  6
Continuous
 62
     7
100
AcDbLine
 10
-23.381036
 20
-103.801374
 30
0.0
 11
-22.778965
 21
-103.801374
 31
0.0
  0
LINE
  5
5BC
100
AcDbEntity
  8
0
390
0
  6
Continuous
 62
     7
100
AcDbLine
 10
-28.511036
 20
-103.801374
 30
0.0
 11
-27.908965
 21
-103.801374
 31
0.0
  0
LINE
  5
5BD
100
AcDbEntity
  8
0
390
0
  6
Continuous
 62
     7
100
AcDbLine
 10
-18.251036
 20
-103.801374
 30
0.0
 11
-17.648965
 21
-103.801374
 31
0.0
  0
LINE
  5
5BE
100
AcDbEntity
  8
0
390
0
  6
Continuous
 62
     7
100
AcDbLine
 10
-7.991036
 20
-103.801374
 30
0.0
 11
-7.388965
 21
-103.801374
 31
0.0
  0
LINE
  5
5BF
100
AcDbEntity
  8
0
390
0
  6
Continuous
 62
     7
100
AcDbLine
 10
-38.771036
 20
-103.801374
 30
0.0
 11
-38.168965
 21
-103.801374
 31
0.0
  0
LINE
  5
5C0
100
AcDbEntity
  8
0
390
0
  6
Continuous
 62
     7
100
AcDbLine
 10
48.438964
 20
-103.801374
 30
0.0
 11
49.041035
 21
-103.801374
 31
0.0
  0
LINE
  5
5C1
100
AcDbEntity
  8
0
390
0
  6
Continuous
 62
     7
100
AcDbLine
 10
12.528964
 20
-103.801374
 30
0.0
 11
13.131035
 21
-103.801374
 31
0.0
  0
LINE
  5
5C2
100
AcDbEntity
  8
0
390
0
  6
Continuous
 62
     7
100
AcDbLine
 10
-49.031036
 20
-103.801374
 30
0.0
 11
-48.428965
 21
-103.801374
 31
0.0
  0
LINE
  5
5C3
100
AcDbEntity
  8
0
390
0
  6
Continuous
 62
     7
100
AcDbLine
 10
43.308964
 20
-103.801374
 30
0.0
 11
43.911035
 21
-103.801374
 31
0.0
  0
LINE
  5
5C4
100
AcDbEntity
  8
0
390
0
  6
Continuous
 62
     7
100
AcDbLine
 10
7.398964
 20
-103.801374
 30
0.0
 11
8.001035
 21
-103.801374
 31
0.0
  0
LINE
  5
5C5
100
AcDbEntity
  8
0
390
0
  6
Continuous
 62
     7
100
AcDbLine
 10
-33.641036
 20
-103.801374
 30
0.0
 11
-33.038965
 21
-103.801374
 31
0.0
  0
LINE
  5
5C6
100
AcDbEntity
  8
0
390
0
  6
Continuous
 62
     7
100
AcDbLine
 10
33.048964
 20
-103.801374
 30
0.0
 11
33.651035
 21
-103.801374
 31
0.0
  0
LINE
  5
5C7
100
AcDbEntity
  8
0
390
0
  6
Continuous
 62
     7
100
AcDbLine
 10
38.178964
 20
-103.801374
 30
0.0
 11
38.781035
 21
-103.801374
 31
0.0
  0
LINE
  5
5C8
100
AcDbEntity
  8
0
390
0
  6
Continuous
 62
     7
100
AcDbLine
 10
-43.901036
 20
-103.801374
 30
0.0
 11
-43.298965
 21
-103.801374
 31
0.0
  0
LINE
  5
5C9
100
AcDbEntity
  8
0
390
0
  6
Continuous
 62
     7
100
AcDbLine
 10
-13.121036
 20
-103.801374
 30
0.0
 11
-12.518965
 21
-103.801374
 31
0.0
  0
LINE
  5
5CA
100
AcDbEntity
  8
0
390
0
  6
Continuous
 62
     7
100
AcDbLine
 10
28.521035
 20
-83.846959
 30
0.0
 11
27.918964
 21
-83.846959
 31
0.0
  0
LINE
  5
5CB
100
AcDbEntity
  8
0
390
0
  6
Continuous
 62
     7
100
AcDbLine
 10
33.651035
 20
-83.846959
 30
0.0
 11
33.048964
 21
-83.846959
 31
0.0
  0
LINE
  5
5CC
100
AcDbEntity
  8
0
390
0
  6
Continuous
 62
     7
100
AcDbLine
 10
23.391035
 20
-83.846959
 30
0.0
 11
22.788964
 21
-83.846959
 31
0.0
  0
LINE
  5
5CD
100
AcDbEntity
  8
0
390
0
  6
Continuous
 62
     7
100
AcDbLine
 10
43.911035
 20
-83.846959
 30
0.0
 11
43.308964
 21
-83.846959
 31
0.0
  0
LINE
  5
5CE
100
AcDbEntity
  8
0
390
0
  6
Continuous
 62
     7
100
AcDbLine
 10
38.781035
 20
-83.846959
 30
0.0
 11
38.178964
 21
-83.846959
 31
0.0
  0
LINE
  5
5CF
100
AcDbEntity
  8
0
390
0
  6
Continuous
 62
     7
100
AcDbLine
 10
49.041035
 20
-83.846959
 30
0.0
 11
48.438964
 21
-83.846959
 31
0.0
  0
LINE
  5
5D0
100
AcDbEntity
  8
0
390
0
  6
Continuous
 62
     7
100
AcDbLine
 10
-27.908965
 20
-83.846959
 30
0.0
 11
-28.511036
 21
-83.846959
 31
0.0
  0
LINE
  5
5D1
100
AcDbEntity
  8
0
390
0
  6
Continuous
 62
     7
100
AcDbLine
 10
-22.778965
 20
-83.846959
 30
0.0
 11
-23.381036
 21
-83.846959
 31
0.0
  0
LINE
  5
5D2
100
AcDbEntity
  8
0
390
0
  6
Continuous
 62
     7
100
AcDbLine
 10
-43.298965
 20
-83.846959
 30
0.0
 11
-43.901036
 21
-83.846959
 31
0.0
  0
LINE
  5
5D3
100
AcDbEntity
  8
0
390
0
  6
Continuous
 62
     7
100
AcDbLine
 10
-38.168965
 20
-83.846959
 30
0.0
 11
-38.771036
 21
-83.846959
 31
0.0
  0
LINE
  5
5D4
100
AcDbEntity
  8
0
390
0
  6
Continuous
 62
     7
100
AcDbLine
 10
-48.428965
 20
-83.846959
 30
0.0
 11
-49.031036
 21
-83.846959
 31
0.0
  0
LINE
  5
5D5
100
AcDbEntity
  8
0
390
0
  6
Continuous
 62
     7
100
AcDbLine
 10
-33.038965
 20
-83.846959
 30
0.0
 11
-33.641036
 21
-83.846959
 31
0.0
  0
LINE
  5
5D6
100
AcDbEntity
  8
0
390
0
  6
Continuous
 62
     7
100
AcDbLine
 10
14.129665
 20
-102.85371
 30
0.0
 11
14.158611
 21
-102.301374
 31
0.0
  0
LINE
  5
5D7
100
AcDbEntity
  8
0
390
0
  6
Continuous
 62
     7
100
AcDbLine
 10
19.259665
 20
-102.85371
 30
0.0
 11
19.288611
 21
-102.301374
 31
0.0
  0
LINE
  5
5D8
100
AcDbEntity
  8
0
390
0
  6
Continuous
 62
     7
100
AcDbLine
 10
8.999665
 20
-102.85371
 30
0.0
 11
9.028611
 21
-102.301374
 31
0.0
  0
LINE
  5
5D9
100
AcDbEntity
  8
0
390
0
  6
Continuous
 62
     7
100
AcDbLine
 10
24.389665
 20
-102.85371
 30
0.0
 11
24.418611
 21
-102.301374
 31
0.0
  0
LINE
  5
5DA
100
AcDbEntity
  8
0
390
0
  6
Continuous
 62
     7
100
AcDbLine
 10
3.869665
 20
-102.85371
 30
0.0
 11
3.898611
 21
-102.301374
 31
0.0
  0
LINE
  5
5DB
100
AcDbEntity
  8
0
390
0
  6
Continuous
 62
     7
100
AcDbLine
 10
-47.430335
 20
-102.85371
 30
0.0
 11
-47.401389
 21
-102.301374
 31
0.0
  0
LINE
  5
5DC
100
AcDbEntity
  8
0
390
0
  6
Continuous
 62
     7
100
AcDbLine
 10
-32.040335
 20
-102.85371
 30
0.0
 11
-32.011389
 21
-102.301374
 31
0.0
  0
LINE
  5
5DD
100
AcDbEntity
  8
0
390
0
  6
Continuous
 62
     7
100
AcDbLine
 10
-42.300335
 20
-102.85371
 30
0.0
 11
-42.271389
 21
-102.301374
 31
0.0
  0
LINE
  5
5DE
100
AcDbEntity
  8
0
390
0
  6
Continuous
 62
     7
100
AcDbLine
 10
29.519665
 20
-102.85371
 30
0.0
 11
29.548611
 21
-102.301374
 31
0.0
  0
LINE
  5
5DF
100
AcDbEntity
  8
0
390
0
  6
Continuous
 62
     7
100
AcDbLine
 10
-1.260335
 20
-102.85371
 30
0.0
 11
-1.231389
 21
-102.301374
 31
0.0
  0
LINE
  5
5E0
100
AcDbEntity
  8
0
390
0
  6
Continuous
 62
     7
100
AcDbLine
 10
-21.780335
 20
-102.85371
 30
0.0
 11
-21.751389
 21
-102.301374
 31
0.0
  0
LINE
  5
5E1
100
AcDbEntity
  8
0
390
0
  6
Continuous
 62
     7
100
AcDbLine
 10
-16.650335
 20
-102.85371
 30
0.0
 11
-16.621389
 21
-102.301374
 31
0.0
  0
LINE
  5
5E2
100
AcDbEntity
  8
0
390
0
  6
Continuous
 62
     7
100
AcDbLine
 10
-26.910335
 20
-102.85371
 30
0.0
 11
-26.881389
 21
-102.301374
 31
0.0
  0
LINE
  5
5E3
100
AcDbEntity
  8
0
390
0
  6
Continuous
 62
     7
100
AcDbLine
 10
-6.390335
 20
-102.85371
 30
0.0
 11
-6.361389
 21
-102.301374
 31
0.0
  0
LINE
  5
5E4
100
AcDbEntity
  8
0
390
0
  6
Continuous
 62
     7
100
AcDbLine
 10
39.779665
 20
-102.85371
 30
0.0
 11
39.808611
 21
-102.301374
 31
0.0
  0
LINE
  5
5E5
100
AcDbEntity
  8
0
390
0
  6
Continuous
 62
     7
100
AcDbLine
 10
34.649665
 20
-102.85371
 30
0.0
 11
34.678611
 21
-102.301374
 31
0.0
  0
LINE
  5
5E6
100
AcDbEntity
  8
0
390
0
  6
Continuous
 62
     7
100
AcDbLine
 10
-37.170335
 20
-102.85371
 30
0.0
 11
-37.141389
 21
-102.301374
 31
0.0
  0
LINE
  5
5E7
100
AcDbEntity
  8
0
390
0
  6
Continuous
 62
     7
100
AcDbLine
 10
-11.520335
 20
-102.85371
 30
0.0
 11
-11.491389
 21
-102.301374
 31
0.0
  0
LINE
  5
5E8
100
AcDbEntity
  8
0
390
0
  6
Continuous
 62
     7
100
AcDbLine
 10
44.909665
 20
-102.85371
 30
0.0
 11
44.938611
 21
-102.301374
 31
0.0
  0
LINE
  5
5E9
100
AcDbEntity
  8
0
390
0
  6
Continuous
 62
     7
100
AcDbLine
 10
50.039665
 20
-102.85371
 30
0.0
 11
50.068611
 21
-102.301374
 31
0.0
  0
LINE
  5
5EA
100
AcDbEntity
  8
0
390
0
  6
Continuous
 62
     7
100
AcDbLine
 10
24.418611
 20
-85.346959
 30
0.0
 11
24.389665
 21
-84.794623
 31
0.0
  0
LINE
  5
5EB
100
AcDbEntity
  8
0
390
0
  6
Continuous
 62
     7
100
AcDbLine
 10
-42.271389
 20
-85.346959
 30
0.0
 11
-42.300335
 21
-84.794623
 31
0.0
  0
LINE
  5
5EC
100
AcDbEntity
  8
0
390
0
  6
Continuous
 62
     7
100
AcDbLine
 10
-47.401389
 20
-85.346959
 30
0.0
 11
-47.430335
 21
-84.794623
 31
0.0
  0
LINE
  5
5ED
100
AcDbEntity
  8
0
390
0
  6
Continuous
 62
     7
100
AcDbLine
 10
-32.011389
 20
-85.346959
 30
0.0
 11
-32.040335
 21
-84.794623
 31
0.0
  0
LINE
  5
5EE
100
AcDbEntity
  8
0
390
0
  6
Continuous
 62
     7
100
AcDbLine
 10
-37.141389
 20
-85.346959
 30
0.0
 11
-37.170335
 21
-84.794623
 31
0.0
  0
LINE
  5
5EF
100
AcDbEntity
  8
0
390
0
  6
Continuous
 62
     7
100
AcDbLine
 10
-26.881389
 20
-85.346959
 30
0.0
 11
-26.910335
 21
-84.794623
 31
0.0
  0
LINE
  5
5F0
100
AcDbEntity
  8
0
390
0
  6
Continuous
 62
     7
100
AcDbLine
 10
-21.751389
 20
-85.346959
 30
0.0
 11
-21.780335
 21
-84.794623
 31
0.0
  0
LINE
  5
5F1
100
AcDbEntity
  8
0
390
0
  6
Continuous
 62
     7
100
AcDbLine
 10
44.938611
 20
-85.346959
 30
0.0
 11
44.909665
 21
-84.794623
 31
0.0
  0
LINE
  5
5F2
100
AcDbEntity
  8
0
390
0
  6
Continuous
 62
     7
100
AcDbLine
 10
29.548611
 20
-85.346959
 30
0.0
 11
29.519665
 21
-84.794623
 31
0.0
  0
LINE
  5
5F3
100
AcDbEntity
  8
0
390
0
  6
Continuous
 62
     7
100
AcDbLine
 10
50.068611
 20
-85.346959
 30
0.0
 11
50.039665
 21
-84.794623
 31
0.0
  0
LINE
  5
5F4
100
AcDbEntity
  8
0
390
0
  6
Continuous
 62
     7
100
AcDbLine
 10
34.678611
 20
-85.346959
 30
0.0
 11
34.649665
 21
-84.794623
 31
0.0
  0
LINE
  5
5F5
100
AcDbEntity
  8
0
390
0
  6
Continuous
 62
     7
100
AcDbLine
 10
39.808611
 20
-85.346959
 30
0.0
 11
39.779665
 21
-84.794623
 31
0.0
  0
LINE
  5
5F6
100
AcDbEntity
  8
0
390
0
  6
Continuous
 62
     7
100
AcDbLine
 10
42.281388
 20
-102.301374
 30
0.0
 11
42.310335
 21
-102.85371
 31
0.0
  0
LINE
  5
5F7
100
AcDbEntity
  8
0
390
0
  6
Continuous
 62
     7
100
AcDbLine
 10
-39.798612
 20
-102.301374
 30
0.0
 11
-39.769665
 21
-102.85371
 31
0.0
  0
LINE
  5
5F8
100
AcDbEntity
  8
0
390
0
  6
Continuous
 62
     7
100
AcDbLine
 10
-34.668612
 20
-102.301374
 30
0.0
 11
-34.639665
 21
-102.85371
 31
0.0
  0
LINE
  5
5F9
100
AcDbEntity
  8
0
390
0
  6
Continuous
 62
     7
100
AcDbLine
 10
-50.058612
 20
-102.301374
 30
0.0
 11
-50.029665
 21
-102.85371
 31
0.0
  0
LINE
  5
5FA
100
AcDbEntity
  8
0
390
0
  6
Continuous
 62
     7
100
AcDbLine
 10
26.891388
 20
-102.301374
 30
0.0
 11
26.920335
 21
-102.85371
 31
0.0
  0
LINE
  5
5FB
100
AcDbEntity
  8
0
390
0
  6
Continuous
 62
     7
100
AcDbLine
 10
-9.018612
 20
-102.301374
 30
0.0
 11
-8.989665
 21
-102.85371
 31
0.0
  0
LINE
  5
5FC
100
AcDbEntity
  8
0
390
0
  6
Continuous
 62
     7
100
AcDbLine
 10
1.241388
 20
-102.301374
 30
0.0
 11
1.270335
 21
-102.85371
 31
0.0
  0
LINE
  5
5FD
100
AcDbEntity
  8
0
390
0
  6
Continuous
 62
     7
100
AcDbLine
 10
37.180335
 20
-84.794623
 30
0.0
 11
37.151388
 21
-85.346959
 31
0.0
  0
LINE
  5
5FE
100
AcDbEntity
  8
0
390
0
  6
Continuous
 62
     7
100
AcDbLine
 10
21.790335
 20
-84.794623
 30
0.0
 11
21.761388
 21
-85.346959
 31
0.0
  0
LINE
  5
5FF
100
AcDbEntity
  8
0
390
0
  6
Continuous
 62
     7
100
AcDbLine
 10
11.501388
 20
-102.301374
 30
0.0
 11
11.530335
 21
-102.85371
 31
0.0
  0
LINE
  5
600
100
AcDbEntity
  8
0
390
0
  6
Continuous
 62
     7
100
AcDbLine
 10
47.440335
 20
-84.794623
 30
0.0
 11
47.411388
 21
-85.346959
 31
0.0
  0
LINE
  5
601
100
AcDbEntity
  8
0
390
0
  6
Continuous
 62
     7
100
AcDbLine
 10
32.050335
 20
-84.794623
 30
0.0
 11
32.021388
 21
-85.346959
 31
0.0
  0
LINE
  5
602
100
AcDbEntity
  8
0
390
0
  6
Continuous
 62
     7
100
AcDbLine
 10
26.920335
 20
-84.794623
 30
0.0
 11
26.891388
 21
-85.346959
 31
0.0
  0
LINE
  5
603
100
AcDbEntity
  8
0
390
0
  6
Continuous
 62
     7
100
AcDbLine
 10
42.310335
 20
-84.794623
 30
0.0
 11
42.281388
 21
-85.346959
 31
0.0
  0
LINE
  5
604
100
AcDbEntity
  8
0
390
0
  6
Continuous
 62
     7
100
AcDbLine
 10
-50.029665
 20
-84.794623
 30
0.0
 11
-50.058612
 21
-85.346959
 31
0.0
  0
LINE
  5
605
100
AcDbEntity
  8
0
390
0
  6
Continuous
 62
     7
100
AcDbLine
 10
-29.509665
 20
-84.794623
 30
0.0
 11
-29.538612
 21
-85.346959
 31
0.0
  0
LINE
  5
606
100
AcDbEntity
  8
0
390
0
  6
Continuous
 62
     7
100
AcDbLine
 10
-34.639665
 20
-84.794623
 30
0.0
 11
-34.668612
 21
-85.346959
 31
0.0
  0
LINE
  5
607
100
AcDbEntity
  8
0
390
0
  6
Continuous
 62
     7
100
AcDbLine
 10
-39.769665
 20
-84.794623
 30
0.0
 11
-39.798612
 21
-85.346959
 31
0.0
  0
LINE
  5
608
100
AcDbEntity
  8
0
390
0
  6
Continuous
 62
     7
100
AcDbLine
 10
-24.379665
 20
-84.794623
 30
0.0
 11
-24.408612
 21
-85.346959
 31
0.0
  0
LINE
  5
609
100
AcDbEntity
  8
0
390
0
  6
Continuous
 62
     7
100
AcDbLine
 10
-44.899665
 20
-84.794623
 30
0.0
 11
-44.928612
 21
-85.346959
 31
0.0
  0
LINE
  5
60A
100
AcDbEntity
  8
0
390
0
  6
Continuous
 62
     7
100
AcDbLine
 10
47.411388
 20
-102.301374
 30
0.0
 11
47.440335
 21
-102.85371
 31
0.0
  0
LINE
  5
60B
100
AcDbEntity
  8
0
390
0
  6
Continuous
 62
     7
100
AcDbLine
 10
32.021388
 20
-102.301374
 30
0.0
 11
32.050335
 21
-102.85371
 31
0.0
  0
LINE
  5
60C
100
AcDbEntity
  8
0
390
0
  6
Continuous
 62
     7
100
AcDbLine
 10
37.151388
 20
-102.301374
 30
0.0
 11
37.180335
 21
-102.85371
 31
0.0
  0
LINE
  5
60D
100
AcDbEntity
  8
0
390
0
  6
Continuous
 62
     7
100
AcDbLine
 10
-24.408612
 20
-102.301374
 30
0.0
 11
-24.379665
 21
-102.85371
 31
0.0
  0
LINE
  5
60E
100
AcDbEntity
  8
0
390
0
  6
Continuous
 62
     7
100
AcDbLine
 10
-29.538612
 20
-102.301374
 30
0.0
 11
-29.509665
 21
-102.85371
 31
0.0
  0
LINE
  5
60F
100
AcDbEntity
  8
0
390
0
  6
Continuous
 62
     7
100
AcDbLine
 10
-19.278612
 20
-102.301374
 30
0.0
 11
-19.249665
 21
-102.85371
 31
0.0
  0
LINE
  5
610
100
AcDbEntity
  8
0
390
0
  6
Continuous
 62
     7
100
AcDbLine
 10
-14.148612
 20
-102.301374
 30
0.0
 11
-14.119665
 21
-102.85371
 31
0.0
  0
LINE
  5
611
100
AcDbEntity
  8
0
390
0
  6
Continuous
 62
     7
100
AcDbLine
 10
-44.928612
 20
-102.301374
 30
0.0
 11
-44.899665
 21
-102.85371
 31
0.0
  0
LINE
  5
612
100
AcDbEntity
  8
0
390
0
  6
Continuous
 62
     7
100
AcDbLine
 10
-3.888612
 20
-102.301374
 30
0.0
 11
-3.859665
 21
-102.85371
 31
0.0
  0
LINE
  5
613
100
AcDbEntity
  8
0
390
0
  6
Continuous
 62
     7
100
AcDbLine
 10
6.371388
 20
-102.301374
 30
0.0
 11
6.400335
 21
-102.85371
 31
0.0
  0
LINE
  5
614
100
AcDbEntity
  8
0
390
0
  6
Continuous
 62
     7
100
AcDbLine
 10
21.761388
 20
-102.301374
 30
0.0
 11
21.790335
 21
-102.85371
 31
0.0
  0
LINE
  5
615
100
AcDbEntity
  8
0
390
0
  6
Continuous
 62
     7
100
AcDbLine
 10
16.631388
 20
-102.301374
 30
0.0
 11
16.660335
 21
-102.85371
 31
0.0
  0
ARC
  5
616
100
AcDbEntity
  8
0
390
0
  6
Continuous
 62
     7
100
AcDbCircle
 10
-51.5
 20
-100.801374
 30
0.0
 40
1.5
210
0.0
220
0.0
230
1.0
100
AcDbArc
 50
180.0
 51
270.0
  0
ARC
  5
617
100
AcDbEntity
  8
0
390
0
  6
Continuous
 62
     7
100
AcDbCircle
 10
51.5
 20
-100.801374
 30
0.0
 40
1.5
210
0.0
220
0.0
230
1.0
100
AcDbArc
 50
270.0
 51
360.0
  0
ARC
  5
618
100
AcDbEntity
  8
0
390
0
  6
Continuous
 62
     7
100
AcDbCircle
 10
51.5
 20
-86.846959
 30
0.0
 40
1.5
210
0.0
220
0.0
230
1.0
100
AcDbArc
 50
0.0
 51
90.0
  0
ARC
  5
619
100
AcDbEntity
  8
0
390
0
  6
Continuous
 62
     7
100
AcDbCircle
 10
13.0
 20
-86.846959
 30
0.0
 40
1.5
210
0.0
220
0.0
230
1.0
100
AcDbArc
 50
90.0
 51
180.0
  0
ARC
  5
61A
100
AcDbEntity
  8
0
390
0
  6
Continuous
 62
     7
100
AcDbCircle
 10
-13.0
 20
-86.846959
 30
0.0
 40
1.5
210
0.0
220
0.0
230
1.0
100
AcDbArc
 50
0.0
 51
90.0
  0
ARC
  5
61B
100
AcDbEntity
  8
0
390
0
  6
Continuous
 62
     7
100
AcDbCircle
 10
-51.5
 20
-86.846959
 30
0.0
 40
1.5
210
0.0
220
0.0
230
1.0
100
AcDbArc
 50
90.0
 51
180.0
  0
LINE
  5
61C
100
AcDbEntity
  8
0
390
0
  6
Continuous
 62
     7
100
AcDbLine
 10
-37.141389
 20
-102.301374
 30
0.0
 11
-34.668612
 21
-102.301374
 31
0.0
  0
LINE
  5
61D
100
AcDbEntity
  8
0
390
0
  6
Continuous
 62
     7
100
AcDbLine
 10
9.028611
 20
-102.301374
 30
0.0
 11
11.501388
 21
-102.301374
 31
0.0
  0
LINE
  5
61E
100
AcDbEntity
  8
0
390
0
  6
Continuous
 62
     7
100
AcDbLine
 10
29.548611
 20
-102.301374
 30
0.0
 11
32.021388
 21
-102.301374
 31
0.0
  0
LINE
  5
61F
100
AcDbEntity
  8
0
390
0
  6
Continuous
 62
     7
100
AcDbLine
 10
14.158611
 20
-102.301374
 30
0.0
 11
16.631388
 21
-102.301374
 31
0.0
  0
LINE
  5
620
100
AcDbEntity
  8
0
390
0
  6
Continuous
 62
     7
100
AcDbLine
 10
19.288611
 20
-102.301374
 30
0.0
 11
21.761388
 21
-102.301374
 31
0.0
  0
LINE
  5
621
100
AcDbEntity
  8
0
390
0
  6
Continuous
 62
     7
100
AcDbLine
 10
34.678611
 20
-102.301374
 30
0.0
 11
37.151388
 21
-102.301374
 31
0.0
  0
LINE
  5
622
100
AcDbEntity
  8
0
390
0
  6
Continuous
 62
     7
100
AcDbLine
 10
-47.401389
 20
-102.301374
 30
0.0
 11
-44.928612
 21
-102.301374
 31
0.0
  0
LINE
  5
623
100
AcDbEntity
  8
0
390
0
  6
Continuous
 62
     7
100
AcDbLine
 10
-1.231389
 20
-102.301374
 30
0.0
 11
1.241388
 21
-102.301374
 31
0.0
  0
LINE
  5
624
100
AcDbEntity
  8
0
390
0
  6
Continuous
 62
     7
100
AcDbLine
 10
-21.751389
 20
-102.301374
 30
0.0
 11
-19.278612
 21
-102.301374
 31
0.0
  0
LINE
  5
625
100
AcDbEntity
  8
0
390
0
  6
Continuous
 62
     7
100
AcDbLine
 10
-51.5
 20
-102.301374
 30
0.0
 11
-50.058612
 21
-102.301374
 31
0.0
  0
LINE
  5
626
100
AcDbEntity
  8
0
390
0
  6
Continuous
 62
     7
100
AcDbLine
 10
-11.491389
 20
-102.301374
 30
0.0
 11
-9.018612
 21
-102.301374
 31
0.0
  0
LINE
  5
627
100
AcDbEntity
  8
0
390
0
  6
Continuous
 62
     7
100
AcDbLine
 10
-32.011389
 20
-102.301374
 30
0.0
 11
-29.538612
 21
-102.301374
 31
0.0
  0
LINE
  5
628
100
AcDbEntity
  8
0
390
0
  6
Continuous
 62
     7
100
AcDbLine
 10
-6.361389
 20
-102.301374
 30
0.0
 11
-3.888612
 21
-102.301374
 31
0.0
  0
LINE
  5
629
100
AcDbEntity
  8
0
390
0
  6
Continuous
 62
     7
100
AcDbLine
 10
24.418611
 20
-102.301374
 30
0.0
 11
26.891388
 21
-102.301374
 31
0.0
  0
LINE
  5
62A
100
AcDbEntity
  8
0
390
0
  6
Continuous
 62
     7
100
AcDbLine
 10
-42.271389
 20
-102.301374
 30
0.0
 11
-39.798612
 21
-102.301374
 31
0.0
  0
LINE
  5
62B
100
AcDbEntity
  8
0
390
0
  6
Continuous
 62
     7
100
AcDbLine
 10
-26.881389
 20
-102.301374
 30
0.0
 11
-24.408612
 21
-102.301374
 31
0.0
  0
LINE
  5
62C
100
AcDbEntity
  8
0
390
0
  6
Continuous
 62
     7
100
AcDbLine
 10
3.898611
 20
-102.301374
 30
0.0
 11
6.371388
 21
-102.301374
 31
0.0
  0
LINE
  5
62D
100
AcDbEntity
  8
0
390
0
  6
Continuous
 62
     7
100
AcDbLine
 10
-16.621389
 20
-102.301374
 30
0.0
 11
-14.148612
 21
-102.301374
 31
0.0
  0
LINE
  5
62E
100
AcDbEntity
  8
0
390
0
  6
Continuous
 62
     7
100
AcDbLine
 10
44.938611
 20
-102.301374
 30
0.0
 11
47.411388
 21
-102.301374
 31
0.0
  0
LINE
  5
62F
100
AcDbEntity
  8
0
390
0
  6
Continuous
 62
     7
100
AcDbLine
 10
39.808611
 20
-102.301374
 30
0.0
 11
42.281388
 21
-102.301374
 31
0.0
  0
LINE
  5
630
100
AcDbEntity
  8
0
390
0
  6
Continuous
 62
     7
100
AcDbLine
 10
50.068611
 20
-102.301374
 30
0.0
 11
51.5
 21
-102.301374
 31
0.0
  0
LINE
  5
631
100
AcDbEntity
  8
0
390
0
  6
Continuous
 62
     7
100
AcDbLine
 10
42.281388
 20
-85.346959
 30
0.0
 11
39.808611
 21
-85.346959
 31
0.0
  0
LINE
  5
632
100
AcDbEntity
  8
0
390
0
  6
Continuous
 62
     7
100
AcDbLine
 10
26.891388
 20
-85.346959
 30
0.0
 11
24.418611
 21
-85.346959
 31
0.0
  0
LINE
  5
633
100
AcDbEntity
  8
0
390
0
  6
Continuous
 62
     7
100
AcDbLine
 10
37.151388
 20
-85.346959
 30
0.0
 11
34.678611
 21
-85.346959
 31
0.0
  0
LINE
  5
634
100
AcDbEntity
  8
0
390
0
  6
Continuous
 62
     7
100
AcDbLine
 10
21.761388
 20
-85.346959
 30
0.0
 11
19.288611
 21
-85.346959
 31
0.0
  0
LINE
  5
635
100
AcDbEntity
  8
0
390
0
  6
Continuous
 62
     7
100
AcDbLine
 10
32.021388
 20
-85.346959
 30
0.0
 11
29.548611
 21
-85.346959
 31
0.0
  0
LINE
  5
636
100
AcDbEntity
  8
0
390
0
  6
Continuous
 62
     7
100
AcDbLine
 10
47.411388
 20
-85.346959
 30
0.0
 11
44.938611
 21
-85.346959
 31
0.0
  0
LINE
  5
637
100
AcDbEntity
  8
0
390
0
  6
Continuous
 62
     7
100
AcDbLine
 10
51.5
 20
-85.346959
 30
0.0
 11
50.068611
 21
-85.346959
 31
0.0
  0
LINE
  5
638
100
AcDbEntity
  8
0
390
0
  6
Continuous
 62
     7
100
AcDbLine
 10
-50.058612
 20
-85.346959
 30
0.0
 11
-51.5
 21
-85.346959
 31
0.0
  0
LINE
  5
639
100
AcDbEntity
  8
0
390
0
  6
Continuous
 62
     7
100
AcDbLine
 10
-24.408612
 20
-85.346959
 30
0.0
 11
-26.881389
 21
-85.346959
 31
0.0
  0
LINE
  5
63A
100
AcDbEntity
  8
0
390
0
  6
Continuous
 62
     7
100
AcDbLine
 10
-34.668612
 20
-85.346959
 30
0.0
 11
-37.141389
 21
-85.346959
 31
0.0
  0
LINE
  5
63B
100
AcDbEntity
  8
0
390
0
  6
Continuous
 62
     7
100
AcDbLine
 10
-29.538612
 20
-85.346959
 30
0.0
 11
-32.011389
 21
-85.346959
 31
0.0
  0
LINE
  5
63C
100
AcDbEntity
  8
0
390
0
  6
Continuous
 62
     7
100
AcDbLine
 10
-39.798612
 20
-85.346959
 30
0.0
 11
-42.271389
 21
-85.346959
 31
0.0
  0
LINE
  5
63D
100
AcDbEntity
  8
0
390
0
  6
Continuous
 62
     7
100
AcDbLine
 10
-44.928612
 20
-85.346959
 30
0.0
 11
-47.401389
 21
-85.346959
 31
0.0
  0
LINE
  5
63E
100
AcDbEntity
  8
0
390
0
  6
Continuous
 62
     7
100
AcDbLine
 10
16.631388
 20
-85.346959
 30
0.0
 11
13.0
 21
-85.346959
 31
0.0
  0
LINE
  5
63F
100
AcDbEntity
  8
0
390
0
  6
Continuous
 62
     7
100
AcDbLine
 10
-13.0
 20
-85.346959
 30
0.0
 11
-16.621389
 21
-85.346959
 31
0.0
  0
LINE
  5
640
100
AcDbEntity
  8
0
390
0
  6
Continuous
 62
     7
100
AcDbLine
 10
-19.278612
 20
-85.346959
 30
0.0
 11
-21.751389
 21
-85.346959
 31
0.0
  0
ARC
  5
641
100
AcDbEntity
  8
0
390
0
  6
Continuous
 62
     7
100
AcDbCircle
 10
159.997667
 20
28.727208
 30
0.0
 40
4.0
210
0.0
220
0.0
230
1.0
100
AcDbArc
 50
41.900823
 51
226.116201
  0
LINE
  5
642
100
AcDbEntity
  8
0
390
0
  6
Continuous
 62
     7
100
AcDbLine
 10
157.224875
 20
25.844219
 30
0.0
 11
155.724875
 21
25.264081
 31
0.0
  0
ARC
  5
643
100
AcDbEntity
  8
0
390
0
  6
Continuous
 62
     7
100
AcDbCircle
 10
159.997667
 20
28.727208
 30
0.0
 40
5.5
210
0.0
220
0.0
230
1.0
100
AcDbArc
 50
57.227105
 51
219.024999
  0
LINE
  5
644
100
AcDbEntity
  8
0
390
0
  6
Continuous
 62
     7
100
AcDbLine
 10
162.974875
 20
31.398581
 30
0.0
 11
162.974875
 21
33.351733
 31
0.0
  0
ARC
  5
645
100
AcDbEntity
  8
0
390
0
  6
Continuous
 62
     7
100
AcDbCircle
 10
165.952082
 20
28.727208
 30
0.0
 40
5.5
210
0.0
220
0.0
230
1.0
100
AcDbArc
 50
320.975001
 51
360.0
  0
ARC
  5
646
100
AcDbEntity
  8
0
390
0
  6
Continuous
 62
     7
100
AcDbCircle
 10
165.952082
 20
28.727208
 30
0.0
 40
4.0
210
0.0
220
0.0
230
1.0
100
AcDbArc
 50
313.883799
 51
138.099177
  0
ARC
  5
647
100
AcDbEntity
  8
0
390
0
  6
Continuous
 62
     7
100
AcDbCircle
 10
165.952082
 20
28.727208
 30
0.0
 40
5.5
210
0.0
220
0.0
230
1.0
100
AcDbArc
 50
0.0
 51
122.772895
  0
LINE
  5
648
100
AcDbEntity
  8
0
390
0
  6
Continuous
 62
     7
100
AcDbLine
 10
168.724875
 20
25.844219
 30
0.0
 11
170.224875
 21
25.264081
 31
0.0
  0
LINE
  5
649
100
AcDbEntity
  8
0
390
0
  6
Continuous
 62
     7
100
AcDbLine
 10
168.724875
 20
0.0
 30
0.0
 11
168.724875
 21
25.844219
 31
0.0
  0
LINE
  5
64A
100
AcDbEntity
  8
0
390
0
  6
Continuous
 62
     7
100
AcDbLine
 10
170.224875
 20
25.264081
 30
0.0
 11
170.224875
 21
0.0
 31
0.0
  0
LINE
  5
64B
100
AcDbEntity
  8
0
390
0
  6
Continuous
 62
     7
100
AcDbLine
 10
170.224875
 20
0.0
 30
0.0
 11
168.724875
 21
0.0
 31
0.0
  0
LINE
  5
64C
100
AcDbEntity
  8
0
390
0
  6
Continuous
 62
     7
100
AcDbLine
 10
155.724875
 20
0.0
 30
0.0
 11
155.724875
 21
25.264081
 31
0.0
  0
LINE
  5
64D
100
AcDbEntity
  8
0
390
0
  6
Continuous
 62
     7
100
AcDbLine
 10
157.224875
 20
25.844219
 30
0.0
 11
157.224875
 21
0.0
 31
0.0
  0
LINE
  5
64E
100
AcDbEntity
  8
0
390
0
  6
Continuous
 62
     7
100
AcDbLine
 10
157.224875
 20
0.0
 30
0.0
 11
155.724875
 21
0.0
 31
0.0
  0
LINE
  5
64F
100
AcDbEntity
  8
0
390
0
  6
Continuous
 62
     7
100
AcDbLine
 10
157.224875
 20
0.0
 30
0.0
 11
168.724875
 21
0.0
 31
0.0
  0
ARC
  5
650
100
AcDbEntity
  8
0
390
0
  6
Continuous
 62
     7
100
AcDbCircle
 10
165.952082
 20
28.727208
 30
0.0
 40
7.0
210
0.0
220
0.0
230
0.9999999999999999
100
AcDbArc
 50
0.0
 51
115.170629
  0
ARC
  5
651
100
AcDbEntity
  8
0
390
0
  6
Continuous
 62
     7
100
AcDbCircle
 10
165.952082
 20
28.727208
 30
0.0
 40
6.052336
210
0.0
220
0.0
230
1.0
100
AcDbArc
 50
321.395418
 51
119.466233
  0
LINE
  5
652
100
AcDbEntity
  8
0
390
0
  6
Continuous
 62
     7
100
AcDbLine
 10
162.974875
 20
35.062524
 30
0.0
 11
162.974875
 21
33.996648
 31
0.0
  0
ARC
  5
653
100
AcDbEntity
  8
0
390
0
  6
Continuous
 62
     7
100
AcDbCircle
 10
165.952082
 20
28.727208
 30
0.0
 40
7.0
210
0.0
220
0.0
230
1.0
100
AcDbArc
 50
325.556347
 51
360.0
  0
LINE
  5
654
100
AcDbEntity
  8
0
390
0
  6
Continuous
 62
     7
100
AcDbLine
 10
171.724862
 20
24.768039
 30
0.0
 11
170.77721
 21
24.97445
 31
0.0
  0
LINE
  5
655
100
AcDbEntity
  8
0
390
0
  6
Continuous
 62
     7
100
AcDbLine
 10
170.77721
 20
24.97445
 30
0.0
 11
170.681805
 21
24.9509
 31
0.0
  0
ARC
  5
656
100
AcDbEntity
  8
0
390
0
  6
Continuous
 62
     7
100
AcDbCircle
 10
159.997667
 20
28.727208
 30
0.0
 40
6.052336
210
0.0
220
0.0
230
1.0
100
AcDbArc
 50
60.533767
 51
218.604582
  0
LINE
  5
657
100
AcDbEntity
  8
0
390
0
  6
Continuous
 62
     7
100
AcDbLine
 10
155.267944
 20
24.9509
 30
0.0
 11
155.172539
 21
24.97445
 31
0.0
  0
LINE
  5
658
100
AcDbEntity
  8
0
390
0
  6
Continuous
 62
     7
100
AcDbLine
 10
155.172539
 20
24.97445
 30
0.0
 11
154.224887
 21
24.768039
 31
0.0
  0
ARC
  5
659
100
AcDbEntity
  8
0
390
0
  6
Continuous
 62
     7
100
AcDbCircle
 10
159.997667
 20
28.727208
 30
0.0
 40
7.0
210
0.0
220
0.0
230
1.0
100
AcDbArc
 50
64.829371
 51
214.443653
  0
LINE
  5
65A
100
AcDbEntity
  8
0
390
0
  6
Continuous
 62
     7
100
AcDbLine
 10
155.724875
 20
25.114479
 30
0.0
 11
155.267944
 21
24.9509
 31
0.0
  0
LINE
  5
65B
100
AcDbEntity
  8
0
390
0
  6
Continuous
 62
     7
100
AcDbLine
 10
162.974875
 20
33.996648
 30
0.0
 11
162.974875
 21
33.351733
 31
0.0
  0
LINE
  5
65C
100
AcDbEntity
  8
0
390
0
  6
Continuous
 62
     7
100
AcDbLine
 10
170.681805
 20
24.9509
 30
0.0
 11
170.224875
 21
25.114479
 31
0.0
  0
LINE
  5
65D
100
AcDbEntity
  8
0
390
0
  6
Continuous
 62
     7
100
AcDbLine
 10
155.172539
 20
24.97445
 30
0.0
 11
155.172539
 21
0.0
 31
0.0
  0
LINE
  5
65E
100
AcDbEntity
  8
0
390
0
  6
Continuous
 62
     7
100
AcDbLine
 10
155.724875
 20
0.0
 30
0.0
 11
155.172539
 21
0.0
 31
0.0
  0
LINE
  5
65F
100
AcDbEntity
  8
0
390
0
  6
Continuous
 62
     7
100
AcDbLine
 10
170.77721
 20
24.97445
 30
0.0
 11
170.77721
 21
0.0
 31
0.0
  0
LINE
  5
660
100
AcDbEntity
  8
0
390
0
  6
Continuous
 62
     7
100
AcDbLine
 10
170.77721
 20
0.0
 30
0.0
 11
170.224875
 21
0.0
 31
0.0
  0
LINE
  5
661
100
AcDbEntity
  8
0
390
0
  6
Continuous
 62
     7
100
AcDbLine
 10
154.224875
 20
24.768057
 30
0.0
 11
154.224875
 21
0.0
 31
0.0
  0
LINE
  5
662
100
AcDbEntity
  8
0
390
0
  6
Continuous
 62
     7
100
AcDbLine
 10
155.172539
 20
0.0
 30
0.0
 11
154.224875
 21
0.0
 31
0.0
  0
LINE
  5
663
100
AcDbEntity
  8
0
390
0
  6
Continuous
 62
     7
100
AcDbLine
 10
171.724875
 20
24.768057
 30
0.0
 11
171.724875
 21
0.0
 31
0.0
  0
LINE
  5
664
100
AcDbEntity
  8
0
390
0
  6
Continuous
 62
     7
100
AcDbLine
 10
171.724875
 20
0.0
 30
0.0
 11
170.77721
 21
0.0
 31
0.0
  0
POINT
  5
665
100
AcDbEntity
  8
0
390
0
 62
     7
100
AcDbPoint
 10
0.0
 20
0.0
 30
0.0
  0
ENDSEC
  0
SECTION
  2
OBJECTS
  0
DICTIONARY
  5
19
100
AcDbDictionary
280
     0
281
     1
  3
ACAD_GROUP
350
1A
  3
ACAD_MLINESTYLE
350
1B
  3
ACAD_LAYOUT
350
1E
  3
ACAD_PLOTSETTINGS
350
22
  3
ACAD_PLOTSTYLENAME
350
1F
  3
ACAD_WIPEOUT_VARS
350
23
  0
DICTIONARY
  5
1A
102
{ACAD_REACTORS
330
19
102
}
100
AcDbDictionary
280
     0
281
     1
  0
DICTIONARY
  5
1B
102
{ACAD_REACTORS
330
19
102
}
100
AcDbDictionary
280
     0
281
     1
  3
Standard
350
1C
  0
MLINESTYLE
  5
1C
102
{ACAD_REACTORS
330
1B
102
}
100
AcDbMlineStyle
  2
Standard
 70
     0
  3

 62
     0
 51
90.0
 52
90.0
 71
     2
 49
0.5
 62
   256
  6
ByLayer
 49
-0.5
 62
   256
  6
ByLayer
  0
ACDBDICTIONARYWDFLT
  5
1F
102
{ACAD_REACTORS
330
19
102
}
100
AcDbDictionary
281
     1
  3
Normal
350
1D
100
AcDbDictionaryWithDefault
340
1D
  0
ACDBPLACEHOLDER
  5
1D
102
{ACAD_REACTORS
330
1F
102
}
  0
LAYOUT
  5
20
102
{ACAD_REACTORS
330
1E
102
}
100
AcDbPlotSettings
  1

  2

  4

  6

 40
0.0
 41
0.0
 42
0.0
 43
0.0
 44
0.0
 45
0.0
 46
0.0
 47
0.0
 48
0.0
 49
0.0
140
0.0
141
0.0
142
1.0
143
1.0
 70
  1024
 72
     0
 73
     0
 74
     0
  7

 75
     0
147
1.0
148
0.0
149
0.0
100
AcDbLayout
  1
Model
 70
     0
 71
     1
 10
0.0
 20
0.0
 11
0.0
 21
0.0
 12
0.0
 22
0.0
 32
0.0
 14
0.0
 24
0.0
 34
0.0
 15
0.0
 25
0.0
 35
0.0
146
0.0
 13
0.0
 23
0.0
 33
0.0
 16
0.0
 26
0.0
 36
0.0
 17
0.0
 27
0.0
 37
0.0
 76
     0
330
A
331
0
345
0
346
0
  0
LAYOUT
  5
21
102
{ACAD_REACTORS
330
1E
102
}
100
AcDbPlotSettings
  1

  2

  4

  6

 40
0.0
 41
0.0
 42
0.0
 43
0.0
 44
0.0
 45
0.0
 46
0.0
 47
0.0
 48
0.0
 49
0.0
140
0.0
141
0.0
142
1.0
143
1.0
 70
     0
 72
     0
 73
     0
 74
     0
  7

 75
     0
147
1.0
148
0.0
149
0.0
100
AcDbLayout
  1
Layout1
 70
     0
 71
     2
 10
0.0
 20
0.0
 11
0.0
 21
0.0
 12
0.0
 22
0.0
 32
0.0
 14
0.0
 24
0.0
 34
0.0
 15
0.0
 25
0.0
 35
0.0
146
0.0
 13
0.0
 23
0.0
 33
0.0
 16
0.0
 26
0.0
 36
0.0
 17
0.0
 27
0.0
 37
0.0
 76
     0
330
B
331
0
345
0
346
0
  0
DICTIONARY
  5
1E
102
{ACAD_REACTORS
330
19
102
}
100
AcDbDictionary
280
     0
281
     1
  3
Layout1
350
21
  3
Model
350
20
  0
DICTIONARY
  5
22
102
{ACAD_REACTORS
330
19
102
}
100
AcDbDictionary
280
     0
281
     1
  0
WIPEOUTVARIABLES
  5
23
100
AcDbWipeoutVariables
 70
     1
  0
ENDSEC
  0
EOF
