  0
SECTION
  2
HEADER
  9
$ACADVER
  1
AC1015
  9
$ACADMAINTVER
 70
     6
  9
$DWGCODEPAGE
  3
DOS932
  9
$INSBASE
 10
0.0
 20
0.0
 30
0.0
  9
$EXTMIN
 10
-250.283976
 20
-48.8
 30
0.0
  9
$EXTMAX
 10
550.457563
 20
358.400551
 30
9.906
  9
$LIMMIN
 10
-250.283976
 20
-48.8
  9
$LIMMAX
 10
550.457563
 20
358.400551
  9
$ORTHOMODE
 70
     0
  9
$REGENMODE
 70
     1
  9
$FILLMODE
 70
     1
  9
$QTEXTMODE
 70
     0
  9
$MIRRTEXT
 70
     1
  9
$LTSCALE
 40
10.0
  9
$ATTMODE
 70
     1
  9
$TEXTSIZE
 40
0.2
  9
$TRACEWID
 40
0.05
  9
$TEXTSTYLE
  7
Standard
  9
$CLAYER
  8
0
  9
$CELTYPE
  6
Continuous
  9
$CECOLOR
 62
   256
  9
$CELTSCALE
 40
1.0
  9
$DISPSILH
 70
     0
  9
$DIMSCALE
 40
1.0
  9
$DIMASZ
 40
1.40208
  9
$DIMEXO
 40
1.40208
  9
$DIMDLI
 40
0.38
  9
$DIMRND
 40
0.0
  9
$DIMDLE
 40
0.0
  9
$DIMEXE
 40
1.05156
  9
$DIMTP
 40
0.0
  9
$DIMTM
 40
0.0
  9
$DIMTXT
 40
3.5052
  9
$DIMCEN
 40
0.09
  9
$DIMTSZ
 40
0.0
  9
$DIMTOL
 70
     0
  9
$DIMLIM
 70
     0
  9
$DIMTIH
 70
     0
  9
$DIMTOH
 70
     0
  9
$DIMSE1
 70
     0
  9
$DIMSE2
 70
     0
  9
$DIMTAD
 70
     1
  9
$DIMZIN
 70
     0
  9
$DIMBLK
  1

  9
$DIMASO
 70
     1
  9
$DIMSHO
 70
     1
  9
$DIMPOST
  1

  9
$DIMAPOST
  1

  9
$DIMALT
 70
     0
  9
$DIMALTD
 70
     2
  9
$DIMALTF
 40
25.4
  9
$DIMLFAC
 40
1.0
  9
$DIMTOFL
 70
     0
  9
$DIMTVP
 40
0.0
  9
$DIMTIX
 70
     0
  9
$DIMSOXD
 70
     0
  9
$DIMSAH
 70
     0
  9
$DIMBLK1
  1

  9
$DIMBLK2
  1

  9
$DIMSTYLE
  2
Standard
  9
$DIMCLRD
 70
     7
  9
$DIMCLRE
 70
     7
  9
$DIMCLRT
 70
     7
  9
$DIMTFAC
 40
0.5
  9
$DIMGAP
 40
1.7526
  9
$DIMJUST
 70
     0
  9
$DIMSD1
 70
     0
  9
$DIMSD2
 70
     0
  9
$DIMTOLJ
 70
     1
  9
$DIMTZIN
 70
     0
  9
$DIMALTZ
 70
     0
  9
$DIMALTTZ
 70
     0
  9
$DIMUPT
 70
     0
  9
$DIMDEC
 70
     2
  9
$DIMTDEC
 70
     4
  9
$DIMALTU
 70
     2
  9
$DIMALTTD
 70
     2
  9
$DIMTXSTY
  7
Standard
  9
$DIMAUNIT
 70
     0
  9
$DIMADEC
 70
     0
  9
$DIMALTRND
 40
0.0
  9
$DIMAZIN
 70
     0
  9
$DIMDSEP
 70
     0
  9
$DIMATFIT
 70
     3
  9
$DIMFRAC
 70
     0
  9
$DIMLDRBLK
  1

  9
$DIMLUNIT
 70
     2
  9
$DIMLWD
 70
     0
  9
$DIMLWE
 70
     0
  9
$DIMTMOVE
 70
     0
  9
$LUNITS
 70
     2
  9
$LUPREC
 70
     4
  9
$SKETCHINC
 40
0.1
  9
$FILLETRAD
 40
0.0
  9
$AUNITS
 70
     0
  9
$AUPREC
 70
     0
  9
$MENU
  1
acad
  9
$ELEVATION
 40
0.0
  9
$PELEVATION
 40
0.0
  9
$THICKNESS
 40
0.0
  9
$LIMCHECK
 70
     0
  9
$CHAMFERA
 40
0.0
  9
$CHAMFERB
 40
0.0
  9
$CHAMFERC
 40
0.0
  9
$CHAMFERD
 40
0.0
  9
$SKPOLY
 70
     0
  9
$TDCREATE
 40
2459786.490173611
  9
$TDUCREATE
 40
0.000000000
  9
$TDUPDATE
 40
2459786.115081018
  9
$TDUUPDATE
 40
0.000000000
  9
$TDINDWG
 40
0.0000000000
  9
$TDUSRTIMER
 40
0.0000000000
  9
$USRTIMER
 70
     1
  9
$ANGBASE
 50
0.0
  9
$ANGDIR
 70
     0
  9
$PDMODE
 70
     0
  9
$PDSIZE
 40
0.0
  9
$PLINEWID
 40
0.0
  9
$SPLFRAME
 70
     0
  9
$SPLINETYPE
 70
     6
  9
$SPLINESEGS
 70
     8
  9
$HANDSEED
  5
E8
  9
$SURFTAB1
 70
     6
  9
$SURFTAB2
 70
     6
  9
$SURFTYPE
 70
     6
  9
$SURFU
 70
     6
  9
$SURFV
 70
     6
  9
$UCSBASE
  2

  9
$UCSNAME
  2

  9
$UCSORG
 10
0.0
 20
0.0
 30
0.0
  9
$UCSXDIR
 10
1.0
 20
0.0
 30
0.0
  9
$UCSYDIR
 10
0.0
 20
1.0
 30
0.0
  9
$UCSORTHOREF
  2

  9
$UCSORTHOVIEW
 70
     0
  9
$UCSORGTOP
 10
0.0
 20
0.0
 30
0.0
  9
$UCSORGBOTTOM
 10
0.0
 20
0.0
 30
0.0
  9
$UCSORGLEFT
 10
0.0
 20
0.0
 30
0.0
  9
$UCSORGRIGHT
 10
0.0
 20
0.0
 30
0.0
  9
$UCSORGFRONT
 10
0.0
 20
0.0
 30
0.0
  9
$UCSORGBACK
 10
0.0
 20
0.0
 30
0.0
  9
$PUCSBASE
  2

  9
$PUCSNAME
  2

  9
$PUCSORG
 10
0.0
 20
0.0
 30
0.0
  9
$PUCSXDIR
 10
1.0
 20
0.0
 30
0.0
  9
$PUCSYDIR
 10
0.0
 20
1.0
 30
0.0
  9
$PUCSORTHOREF
  2

  9
$PUCSORTHOVIEW
 70
     0
  9
$PUCSORGTOP
 10
0.0
 20
0.0
 30
0.0
  9
$PUCSORGBOTTOM
 10
0.0
 20
0.0
 30
0.0
  9
$PUCSORGLEFT
 10
0.0
 20
0.0
 30
0.0
  9
$PUCSORGRIGHT
 10
0.0
 20
0.0
 30
0.0
  9
$PUCSORGFRONT
 10
0.0
 20
0.0
 30
0.0
  9
$PUCSORGBACK
 10
0.0
 20
0.0
 30
0.0
  9
$USERI1
 70
     0
  9
$USERI2
 70
     0
  9
$USERI3
 70
     0
  9
$USERI4
 70
     0
  9
$USERI5
 70
     0
  9
$USERR1
 40
0.0
  9
$USERR2
 40
0.0
  9
$USERR3
 40
0.0
  9
$USERR4
 40
0.0
  9
$USERR5
 40
0.0
  9
$WORLDVIEW
 70
     1
  9
$SHADEDGE
 70
     3
  9
$SHADEDIF
 70
    70
  9
$TILEMODE
 70
     1
  9
$MAXACTVP
 70
    16
  9
$PINSBASE
 10
0.0
 20
0.0
 30
0.0
  9
$PLIMCHECK
 70
     0
  9
$PEXTMIN
 10
1.000000E+20
 20
1.000000E+20
 30
1.000000E+20
  9
$PEXTMAX
 10
-1.000000E+20
 20
-1.000000E+20
 30
-1.000000E+20
  9
$PLIMMIN
 10
0.0
 20
0.0
  9
$PLIMMAX
 10
12.0
 20
9.0
  9
$UNITMODE
 70
     0
  9
$VISRETAIN
 70
     0
  9
$PLINEGEN
 70
     1
  9
$PSLTSCALE
 70
     0
  9
$TREEDEPTH
 70
  3020
  9
$CMLSTYLE
  2
Standard
  9
$CMLJUST
 70
     0
  9
$CMLSCALE
 40
1.0
  9
$PROXYGRAPHICS
 70
     0
  9
$MEASUREMENT
 70
     0
  9
$CELWEIGHT
370
     0
  9
$ENDCAPS
280
     0
  9
$JOINSTYLE
280
     0
  9
$LWDISPLAY
290
     0
  9
$INSUNITS
 70
     0
  9
$HYPERLINKBASE
  1

  9
$STYLESHEET
  1

  9
$XEDIT
290
     1
  9
$CEPSNTYPE
380
     0
  9
$PSTYLEMODE
290
     1
  9
$FINGERPRINTGUID
  2

  9
$VERSIONGUID
  2

  9
$EXTNAMES
290
     1
  9
$PSVPSCALE
 40
0.0
  0
ENDSEC
  0
SECTION
  2
CLASSES
  0
CLASS
  1
LWPOLYLINE
  2
AcDbPolyline
  3
AutoCAD 2000
 90
        0
280
     0
281
     1
  0
CLASS
  1
IMAGE
  2
AcDbRasterImage
  3
ISM
 90
      127
280
     0
281
     1
  0
CLASS
  1
OLE2FRAME
  2
AcDbOle2Frame
  3
AutoCAD 2000
 90
        0
280
     0
281
     1
  0
CLASS
  1
HATCH
  2
AcDbHatch
  3
AutoCAD 2000
 90
        0
280
     0
281
     1
  0
CLASS
  1
DICTIONARYVAR
  2
AcDbDictionaryVar
  3
AutoCAD 2000
 90
        0
280
     0
281
     0
  0
CLASS
  1
RASTERVARIABLES
  2
AcDbRasterVariables
  3
ISM
 90
        0
280
     0
281
     0
  0
CLASS
  1
IMAGEDEF
  2
AcDbRasterImageDef
  3
ISM
 90
        0
280
     0
281
     0
  0
CLASS
  1
IMAGEDEF_REACTOR
  2
AcDbRasterImageDefReactor
  3
ISM
 90
        1
280
     0
281
     0
  0
CLASS
  1
IDBUFFER
  2
AcDbIdBuffer
  3
AutoCAD 2000
 90
        0
280
     0
281
     0
  0
CLASS
  1
SPATIAL_FILTER
  2
AcDbSpatialFilter
  3
AutoCAD 2000
 90
        0
280
     0
281
     0
  0
CLASS
  1
XRECORD
  2
AcDbXrecord
  3
AutoCAD 2000
 90
        0
280
     0
281
     0
  0
CLASS
  1
SORTENTSTABLE
  2
AcDbSortentsTable
  3
AutoCAD 2000
 90
        0
280
     0
281
     0
  0
CLASS
  1
LAYER_INDEX
  2
AcDbLayerIndex
  3
AutoCAD 2000
 90
        0
280
     0
281
     0
  0
CLASS
  1
SPATIAL_INDEX
  2
AcDbSpatialIndex
  3
AutoCAD 2000
 90
        0
280
     0
281
     0
  0
CLASS
  1
OBJECT_PTR
  2
CAseDLPNTableRecord
  3
"ASE-LPNTableRecord"
 90
        1
280
     0
281
     0
  0
CLASS
  1
LAYOUT
  2
AcDbLayout
  3
AutoCAD 2000
 90
        0
280
     0
281
     0
  0
CLASS
  1
PLOTSETTINGS
  2
AcDbPlotSettings
  3
AutoCAD 2000
 90
        0
280
     0
281
     0
  0
CLASS
  1
ACDBDICTIONARYWDFLT
  2
AcDbDictionaryWithDefault
  3
AutoCAD 2000
 90
        0
280
     0
281
     0
  0
CLASS
  1
ACDBPLACEHOLDER
  2
AcDbPlaceHolder
  3
AutoCAD 2000
 90
        0
280
     0
281
     0
  0
CLASS
  1
VBA_PROJECT
  2
AcDbVbaProject
  3
acadvba
 90
        0
280
     0
281
     0
  0
CLASS
  1
WIPEOUT
  2
AcDbWipeout
  3
WipeOut|AutoCAD Express Tool|expresstools@autodesk.com
 90
      127
280
     0
281
     1
  0
CLASS
  1
WIPEOUTVARIABLES
  2
AcDbWipeoutVariables
  3
WipeOut|AutoCAD Express Tool|expresstools@autodesk.com
 90
        0
280
     0
281
     0
  0
CLASS
  1
RTEXT
  2
RText
  3
RText|AutoCAD Express Tool|expresstools@autodesk.com
 90
        0
280
     0
281
     1
  0
CLASS
  1
ARCALIGNEDTEXT
  2
AcDbArcAlignedText
  3
ATEXT|AutoCAD Express Tool|expresstools@autodesk.com
 90
        0
280
     0
281
     1
  0
ENDSEC
  0
SECTION
  2
TABLES
  0
TABLE
  2
VPORT
  5
7
100
AcDbSymbolTable
 70
     1
  0
VPORT
  5
15
100
AcDbSymbolTableRecord
100
AcDbViewportTableRecord
  2
*ACTIVE
 70
     0
 10
0.0
 20
0.0
 11
1.0
 21
1.0
 12
6.591288
 22
4.579184
 13
0.0
 23
0.0
 14
1.0
 24
1.0
 15
0.0
 25
0.0
 16
0.0
 26
0.0
 36
1.0
 17
0.0
 27
0.0
 37
0.0
 40
9.158369
 41
0.688564
 42
50.0
 43
0.0
 44
0.0
 50
0.0
 51
0.0
 71
     0
 72
   100
 73
     1
 74
     1
 75
     0
 76
     0
 77
     0
 78
     0
281
     0
 65
     0
110
0.0
120
0.0
130
0.0
111
1.0
121
0.0
131
0.0
112
0.0
122
1.0
132
0.0
345
0
346
0
 79
     0
146
0.0
  0
ENDTAB
  0
TABLE
  2
LTYPE
  5
4
100
AcDbSymbolTable
 70
     3
  0
LTYPE
  5
11
100
AcDbSymbolTableRecord
100
AcDbLinetypeTableRecord
  2
ByBlock
 70
    64
  3

 72
    65
 73
     0
 40
0.0
  0
LTYPE
  5
12
100
AcDbSymbolTableRecord
100
AcDbLinetypeTableRecord
  2
ByLayer
 70
    64
  3

 72
    65
 73
     0
 40
0.0
  0
LTYPE
  5
13
100
AcDbSymbolTableRecord
100
AcDbLinetypeTableRecord
  2
Continuous
 70
    64
  3
Solid line
 72
    65
 73
     0
 40
0.0
  0
ENDTAB
  0
TABLE
  2
LAYER
  5
2
100
AcDbSymbolTable
 70
     1
  0
LAYER
  5
14
100
AcDbSymbolTableRecord
100
AcDbLayerTableRecord
  2
0
 70
     0
 62
     7
  6
Continuous
290
     1
370
    -3
390
1D
  0
ENDTAB
  0
TABLE
  2
STYLE
  5
3
100
AcDbSymbolTable
 70
     1
  0
STYLE
  5
17
100
AcDbSymbolTableRecord
100
AcDbTextStyleTableRecord
  2
Standard
 70
     0
 40
0.0
 41
1.0
 50
0.0
 71
     0
 42
0.0
  3
FG教科書体NT-M
  4

1001
ACAD
1000
FG教科書体NT-M
1071
        0
  0
ENDTAB
  0
TABLE
  2
VIEW
  5
5
100
AcDbSymbolTable
 70
     0
  0
ENDTAB
  0
TABLE
  2
UCS
  5
6
100
AcDbSymbolTable
 70
     0
  0
ENDTAB
  0
TABLE
  2
APPID
  5
8
100
AcDbSymbolTable
 70
     2
  0
APPID
  5
16
100
AcDbSymbolTableRecord
100
AcDbRegAppTableRecord
  2
ACAD
 70
     0
  0
APPID
  5
26
100
AcDbSymbolTableRecord
100
AcDbRegAppTableRecord
  2
TOPsolid_Design
 70
     0
  0
ENDTAB
  0
TABLE
  2
DIMSTYLE
  5
9
100
AcDbSymbolTable
 70
     1
100
AcDbDimStyleTable
 71
     0
  0
DIMSTYLE
105
18
100
AcDbSymbolTableRecord
100
AcDbDimStyleTableRecord
  2
Standard
 70
     0
  3

  4

 40
1.0
 41
1.40208
 42
1.40208
 43
0.38
 44
1.05156
 45
0.0
 46
0.0
 47
0.0
 48
0.0
 71
     0
 72
     0
 73
     0
 74
     0
 75
     0
 76
     0
 77
     1
 78
     0
 79
     0
140
3.5052
141
0.09
142
0.0
143
25.4
144
1.0
145
0.0
146
0.5
147
1.7526
148
0.0
170
     0
171
     2
172
     0
173
     0
174
     0
175
     0
176
     7
177
     7
178
     7
179
     0
271
     2
272
     4
273
     2
274
     2
275
     0
276
     0
277
     2
278
    46
279
     0
280
     0
281
     0
282
     0
283
     1
284
     0
285
     0
286
     0
288
     0
289
     3
340
17
341
0
342
0
343
0
344
0
371
    -2
372
    -2
  0
ENDTAB
  0
TABLE
  2
BLOCK_RECORD
  5
1
100
AcDbSymbolTable
 70
     0
  0
BLOCK_RECORD
  5
A
100
AcDbSymbolTableRecord
100
AcDbBlockTableRecord
  2
*MODEL_SPACE
340
20
  0
BLOCK_RECORD
  5
B
100
AcDbSymbolTableRecord
100
AcDbBlockTableRecord
  2
*PAPER_SPACE
340
21
  0
ENDTAB
  0
ENDSEC
  0
SECTION
  2
BLOCKS
  0
BLOCK
  5
D
100
AcDbEntity
  8
0
390
0
100
AcDbBlockBegin
  2
*MODEL_SPACE
 70
     0
 10
0.0
 20
0.0
 30
0.0
  3
*MODEL_SPACE
  1

  0
ENDBLK
  5
E
100
AcDbEntity
  8
0
390
0
100
AcDbBlockEnd
  0
BLOCK
  5
F
100
AcDbEntity
 67
     1
  8
0
390
0
100
AcDbBlockBegin
  2
*PAPER_SPACE
 70
     0
 10
0.0
 20
0.0
 30
0.0
  3
*PAPER_SPACE
  1

  0
ENDBLK
  5
10
100
AcDbEntity
 67
     1
  8
0
390
0
100
AcDbBlockEnd
  0
ENDSEC
  0
SECTION
  2
ENTITIES
  0
LINE
  5
27
100
AcDbEntity
  8
0
390
0
  6
Continuous
 62
     7
100
AcDbLine
 10
31.5
 20
48.8
 30
0.0
 11
31.5
 21
45.800457
 31
0.0
  0
LINE
  5
28
100
AcDbEntity
  8
0
390
0
  6
Continuous
 62
     7
100
AcDbLine
 10
31.5
 20
45.800457
 30
0.0
 11
-28.552357
 21
44.752239
 31
0.0
  0
ELLIPSE
  5
29
100
AcDbEntity
  8
0
390
0
  6
Continuous
 62
     7
100
AcDbEllipse
 10
-28.5
 20
44.752239
 30
0.0
 11
-0.0523572193118493
 21
2.9995430854691807
 31
0.0
210
0.0
220
0.0
230
1.0
 40
0.01745
 41
6.2831853071795791
 42
7.8536770474793203
  0
LINE
  5
2A
100
AcDbEntity
  8
0
390
0
  6
Continuous
 62
     7
100
AcDbLine
 10
-28.552357
 20
47.751782
 30
0.0
 11
31.5
 21
48.8
 31
0.0
  0
LINE
  5
2B
100
AcDbEntity
  8
0
390
0
  6
Continuous
 62
     7
100
AcDbLine
 10
31.5
 20
-45.800457
 30
0.0
 11
31.5
 21
-48.8
 31
0.0
  0
LINE
  5
2C
100
AcDbEntity
  8
0
390
0
  6
Continuous
 62
     7
100
AcDbLine
 10
31.5
 20
-48.8
 30
0.0
 11
-28.552357
 21
-47.751782
 31
0.0
  0
ELLIPSE
  5
2D
100
AcDbEntity
  8
0
390
0
  6
Continuous
 62
     7
100
AcDbEllipse
 10
-28.5
 20
-44.752239
 30
0.0
 11
0.0523572193118493
 21
2.9995430854691807
 31
0.0
210
0.0
220
0.0
230
1.0
 40
0.01745
 41
1.5711009132900573
 42
3.1415926535898149
  0
LINE
  5
2E
100
AcDbEntity
  8
0
390
0
  6
Continuous
 62
     7
100
AcDbLine
 10
-28.552357
 20
-44.752239
 30
0.0
 11
31.5
 21
-45.800457
 31
0.0
  0
LINE
  5
2F
100
AcDbEntity
  8
0
390
0
  6
Continuous
 62
     7
100
AcDbLine
 10
31.5
 20
-45.800457
 30
0.0
 11
31.5
 21
45.800457
 31
0.0
  0
LINE
  5
30
100
AcDbEntity
  8
0
390
0
  6
Continuous
 62
     7
100
AcDbLine
 10
-28.552357
 20
44.752239
 30
0.0
 11
-28.552357
 21
-44.752239
 31
0.0
  0
LINE
  5
31
100
AcDbEntity
  8
0
390
0
  6
Continuous
 62
     7
100
AcDbLine
 10
-31.5
 20
-44.752239
 30
0.0
 11
-28.552357
 21
-44.752239
 31
0.0
  0
ARC
  5
32
100
AcDbEntity
  8
0
390
0
  6
Continuous
 62
     7
100
AcDbCircle
 10
-28.5
 20
-44.752239
 30
0.0
 40
3.0
210
0.0
220
0.0
230
1.0
100
AcDbArc
 50
180.0
 51
269.0
  0
LINE
  5
33
100
AcDbEntity
  8
0
390
0
  6
Continuous
 62
     7
100
AcDbLine
 10
-31.5
 20
-44.752239
 30
0.0
 11
-31.5
 21
44.752239
 31
0.0
  0
LINE
  5
34
100
AcDbEntity
  8
0
390
0
  6
Continuous
 62
     7
100
AcDbLine
 10
-31.5
 20
44.752239
 30
0.0
 11
-28.552357
 21
44.752239
 31
0.0
  0
ARC
  5
35
100
AcDbEntity
  8
0
390
0
  6
Continuous
 62
     7
100
AcDbCircle
 10
-28.5
 20
44.752239
 30
0.0
 40
3.0
210
0.0
220
0.0
230
1.0
100
AcDbArc
 50
91.0
 51
180.0
  0
LINE
  5
36
100
AcDbEntity
  8
0
390
0
  6
Continuous
 62
     7
100
AcDbLine
 10
-32.0
 20
-7.004463
 30
0.0
 11
-32.0
 21
-21.322645
 31
0.0
  0
LINE
  5
37
100
AcDbEntity
  8
0
390
0
  6
Continuous
 62
     7
100
AcDbLine
 10
-32.0
 20
23.124671
 30
0.0
 11
-31.5
 21
23.124671
 31
0.0
  0
LINE
  5
38
100
AcDbEntity
  8
0
390
0
  6
Continuous
 62
     7
100
AcDbLine
 10
-32.0
 20
13.13065
 30
0.0
 11
-31.5
 21
13.13065
 31
0.0
  0
LINE
  5
39
100
AcDbEntity
  8
0
390
0
  6
Continuous
 62
     7
100
AcDbLine
 10
-32.0
 20
13.13065
 30
0.0
 11
-32.0
 21
23.124671
 31
0.0
  0
LINE
  5
3A
100
AcDbEntity
  8
0
390
0
  6
Continuous
 62
     7
100
AcDbLine
 10
-32.0
 20
8.12815
 30
0.0
 11
-31.5
 21
8.12815
 31
0.0
  0
LINE
  5
3B
100
AcDbEntity
  8
0
390
0
  6
Continuous
 62
     7
100
AcDbLine
 10
-32.0
 20
8.12815
 30
0.0
 11
-32.0
 21
13.13065
 31
0.0
  0
LINE
  5
3C
100
AcDbEntity
  8
0
390
0
  6
Continuous
 62
     7
100
AcDbLine
 10
-32.0
 20
-21.799918
 30
0.0
 11
-31.5
 21
-21.799918
 31
0.0
  0
LINE
  5
3D
100
AcDbEntity
  8
0
390
0
  6
Continuous
 62
     7
100
AcDbLine
 10
-32.0
 20
-6.936282
 30
0.0
 11
-32.0
 21
-6.954443
 31
0.0
  0
LINE
  5
3E
100
AcDbEntity
  8
0
390
0
  6
Continuous
 62
     7
100
AcDbLine
 10
-32.0
 20
-21.372665
 30
0.0
 11
-32.0
 21
-21.799918
 31
0.0
  0
LINE
  5
3F
100
AcDbEntity
  8
0
390
0
  6
Continuous
 62
     7
100
AcDbLine
 10
-32.0
 20
-6.936282
 30
0.0
 11
-31.5
 21
-6.936282
 31
0.0
  0
LINE
  5
40
100
AcDbEntity
  8
0
390
0
  6
Continuous
 62
     7
100
AcDbLine
 10
-32.0
 20
-21.322645
 30
0.0
 11
-31.5
 21
-21.322645
 31
0.0
  0
LINE
  5
41
100
AcDbEntity
  8
0
390
0
  6
Continuous
 62
     7
100
AcDbLine
 10
-31.5
 20
-7.004463
 30
0.0
 11
-32.0
 21
-7.004463
 31
0.0
  0
ELLIPSE
  5
42
100
AcDbEntity
  8
0
390
0
  6
Continuous
 62
     7
100
AcDbEllipse
 10
226.103633
 20
-45.799543
 30
0.0
 11
2.1219665675087374
 21
-2.1219665675087374
 31
0.0
210
0.0
220
0.0
230
0.9999999999999999
 40
0.999695
 41
5.4979394370297197
 42
7.0684311773294528
  0
LINE
  5
43
100
AcDbEntity
  8
0
390
0
  6
Continuous
 62
     7
100
AcDbLine
 10
226.104547
 20
-48.8
 30
0.0
 11
134.503633
 21
-48.8
 31
0.0
  0
LINE
  5
44
100
AcDbEntity
  8
0
390
0
  6
Continuous
 62
     7
100
AcDbLine
 10
131.50409
 20
-45.800457
 30
0.0
 11
131.50409
 21
45.800457
 31
0.0
  0
ELLIPSE
  5
45
100
AcDbEntity
  8
0
390
0
  6
Continuous
 62
     7
100
AcDbEllipse
 10
134.504547
 20
45.799543
 30
0.0
 11
-2.1219665675087374
 21
2.1219665675087374
 31
0.0
210
0.0
220
0.0
230
0.9999999999999999
 40
0.999695
 41
5.4979394370297197
 42
7.0684311773294501
  0
LINE
  5
46
100
AcDbEntity
  8
0
390
0
  6
Continuous
 62
     7
100
AcDbLine
 10
134.503633
 20
48.8
 30
0.0
 11
226.104547
 21
48.8
 31
0.0
  0
ELLIPSE
  5
47
100
AcDbEntity
  8
0
390
0
  6
Continuous
 62
     7
100
AcDbEllipse
 10
226.103633
 20
45.799543
 30
0.0
 11
2.1219665675087374
 21
2.1219665675087374
 31
0.0
210
0.0
220
0.0
230
0.9999999999999999
 40
0.999695
 41
5.4979394370297197
 42
7.0684311773294528
  0
LINE
  5
48
100
AcDbEntity
  8
0
390
0
  6
Continuous
 62
     7
100
AcDbLine
 10
229.10409
 20
45.800457
 30
0.0
 11
229.10409
 21
-45.800457
 31
0.0
  0
LINE
  5
49
100
AcDbEntity
  8
0
390
0
  6
Continuous
 62
     7
100
AcDbLine
 10
134.50409
 20
-45.8
 30
0.0
 11
134.50409
 21
45.8
 31
0.0
  0
LINE
  5
4A
100
AcDbEntity
  8
0
390
0
  6
Continuous
 62
     7
100
AcDbLine
 10
226.10409
 20
-45.8
 30
0.0
 11
134.50409
 21
-45.8
 31
0.0
  0
LINE
  5
4B
100
AcDbEntity
  8
0
390
0
  6
Continuous
 62
     7
100
AcDbLine
 10
226.10409
 20
45.8
 30
0.0
 11
226.10409
 21
-45.8
 31
0.0
  0
LINE
  5
4C
100
AcDbEntity
  8
0
390
0
  6
Continuous
 62
     7
100
AcDbLine
 10
134.50409
 20
45.8
 30
0.0
 11
226.10409
 21
45.8
 31
0.0
  0
ELLIPSE
  5
4D
100
AcDbEntity
  8
0
390
0
  6
Continuous
 62
     7
100
AcDbEllipse
 10
134.504547
 20
-45.799543
 30
0.0
 11
-2.1219665675087374
 21
-2.1219665675087374
 31
0.0
210
0.0
220
0.0
230
0.9999999999999999
 40
0.999695
 41
5.4979394370297197
 42
7.0684311773294555
  0
LINE
  5
4E
100
AcDbEntity
  8
0
390
0
  6
Continuous
 62
     7
100
AcDbLine
 10
224.428138
 20
44.124049
 30
0.0
 11
226.10409
 21
45.8
 31
0.0
  0
LINE
  5
4F
100
AcDbEntity
  8
0
390
0
  6
Continuous
 62
     7
100
AcDbLine
 10
136.180042
 20
44.124049
 30
0.0
 11
224.428138
 21
44.124049
 31
0.0
  0
LINE
  5
50
100
AcDbEntity
  8
0
390
0
  6
Continuous
 62
     7
100
AcDbLine
 10
136.180042
 20
44.124049
 30
0.0
 11
134.50409
 21
45.8
 31
0.0
  0
LINE
  5
51
100
AcDbEntity
  8
0
390
0
  6
Continuous
 62
     7
100
AcDbLine
 10
136.180042
 20
-44.124048
 30
0.0
 11
134.50409
 21
-45.8
 31
0.0
  0
LINE
  5
52
100
AcDbEntity
  8
0
390
0
  6
Continuous
 62
     7
100
AcDbLine
 10
224.428138
 20
-44.124048
 30
0.0
 11
136.180042
 21
-44.124048
 31
0.0
  0
LINE
  5
53
100
AcDbEntity
  8
0
390
0
  6
Continuous
 62
     7
100
AcDbLine
 10
224.428138
 20
-44.124048
 30
0.0
 11
226.10409
 21
-45.8
 31
0.0
  0
LINE
  5
54
100
AcDbEntity
  8
0
390
0
  6
Continuous
 62
     7
100
AcDbLine
 10
136.180042
 20
-44.124048
 30
0.0
 11
136.180042
 21
44.124049
 31
0.0
  0
LINE
  5
55
100
AcDbEntity
  8
0
390
0
  6
Continuous
 62
     7
100
AcDbLine
 10
224.428138
 20
44.124049
 30
0.0
 11
224.428138
 21
-44.124048
 31
0.0
  0
LINE
  5
56
100
AcDbEntity
  8
0
390
0
  6
Continuous
 62
     7
100
AcDbLine
 10
-175.748247
 20
8.12815
 30
0.0
 11
-171.651745
 21
8.12815
 31
0.0
  0
LINE
  5
57
100
AcDbEntity
  8
0
390
0
  6
Continuous
 62
     7
100
AcDbLine
 10
-178.83567
 20
15.768457
 30
0.0
 11
-175.748247
 21
8.12815
 31
0.0
  0
LINE
  5
58
100
AcDbEntity
  8
0
390
0
  6
Continuous
 62
     7
100
AcDbLine
 10
-176.898043
 20
20.565091
 30
0.0
 11
-178.83567
 21
15.768457
 31
0.0
  0
LINE
  5
59
100
AcDbEntity
  8
0
390
0
  6
Continuous
 62
     7
100
AcDbLine
 10
-173.700422
 20
12.651066
 30
0.0
 11
-176.898043
 21
20.565091
 31
0.0
  0
LINE
  5
5A
100
AcDbEntity
  8
0
390
0
  6
Continuous
 62
     7
100
AcDbLine
 10
-169.468314
 20
23.124671
 30
0.0
 11
-173.700422
 21
12.651066
 31
0.0
  0
LINE
  5
5B
100
AcDbEntity
  8
0
390
0
  6
Continuous
 62
     7
100
AcDbLine
 10
-165.59306
 20
23.124671
 30
0.0
 11
-169.468314
 21
23.124671
 31
0.0
  0
LINE
  5
5C
100
AcDbEntity
  8
0
390
0
  6
Continuous
 62
     7
100
AcDbLine
 10
-171.651745
 20
8.12815
 30
0.0
 11
-165.59306
 21
23.124671
 31
0.0
  0
LINE
  5
5D
100
AcDbEntity
  8
0
390
0
  6
Continuous
 62
     7
100
AcDbLine
 10
-182.411797
 20
8.12815
 30
0.0
 11
-178.536594
 21
8.12815
 31
0.0
  0
LINE
  5
5E
100
AcDbEntity
  8
0
390
0
  6
Continuous
 62
     7
100
AcDbLine
 10
-188.471432
 20
23.124671
 30
0.0
 11
-182.411797
 21
8.12815
 31
0.0
  0
LINE
  5
5F
100
AcDbEntity
  8
0
390
0
  6
Continuous
 62
     7
100
AcDbLine
 10
-184.59623
 20
23.124671
 30
0.0
 11
-188.471432
 21
23.124671
 31
0.0
  0
LINE
  5
60
100
AcDbEntity
  8
0
390
0
  6
Continuous
 62
     7
100
AcDbLine
 10
-178.536594
 20
8.12815
 30
0.0
 11
-184.59623
 21
23.124671
 31
0.0
  0
LINE
  5
61
100
AcDbEntity
  8
0
390
0
  6
Continuous
 62
     7
100
AcDbLine
 10
-189.07517
 20
8.12815
 30
0.0
 11
-185.200244
 21
8.12815
 31
0.0
  0
LINE
  5
62
100
AcDbEntity
  8
0
390
0
  6
Continuous
 62
     7
100
AcDbLine
 10
-195.133955
 20
23.124671
 30
0.0
 11
-189.07517
 21
8.12815
 31
0.0
  0
LINE
  5
63
100
AcDbEntity
  8
0
390
0
  6
Continuous
 62
     7
100
AcDbLine
 10
-191.259881
 20
23.124671
 30
0.0
 11
-195.133955
 21
23.124671
 31
0.0
  0
LINE
  5
64
100
AcDbEntity
  8
0
390
0
  6
Continuous
 62
     7
100
AcDbLine
 10
-185.200244
 20
8.12815
 30
0.0
 11
-191.259881
 21
23.124671
 31
0.0
  0
LINE
  5
65
100
AcDbEntity
  8
0
390
0
  6
Continuous
 62
     7
100
AcDbLine
 10
-196.319182
 20
19.372146
 30
0.0
 11
-200.861466
 21
8.12815
 31
0.0
  0
LINE
  5
66
100
AcDbEntity
  8
0
390
0
  6
Continuous
 62
     7
100
AcDbLine
 10
-193.17716
 20
11.591775
 30
0.0
 11
-196.319182
 21
19.372146
 31
0.0
  0
LINE
  5
67
100
AcDbEntity
  8
0
390
0
  6
Continuous
 62
     7
100
AcDbLine
 10
-195.586978
 20
11.591775
 30
0.0
 11
-193.17716
 21
11.591775
 31
0.0
  0
LINE
  5
68
100
AcDbEntity
  8
0
390
0
  6
Continuous
 62
     7
100
AcDbLine
 10
-196.987391
 20
8.12815
 30
0.0
 11
-195.586978
 21
11.591775
 31
0.0
  0
LINE
  5
69
100
AcDbEntity
  8
0
390
0
  6
Continuous
 62
     7
100
AcDbLine
 10
-200.861466
 20
8.12815
 30
0.0
 11
-196.987391
 21
8.12815
 31
0.0
  0
LINE
  5
6A
100
AcDbEntity
  8
0
390
0
  6
Continuous
 62
     7
100
AcDbLine
 10
-168.863396
 20
8.12815
 30
0.0
 11
-163.600461
 21
8.12815
 31
0.0
  0
LINE
  5
6B
100
AcDbEntity
  8
0
390
0
  6
Continuous
 62
     7
100
AcDbLine
 10
-167.982306
 20
10.308928
 30
0.0
 11
-168.863396
 21
8.12815
 31
0.0
  0
LINE
  5
6C
100
AcDbEntity
  8
0
390
0
  6
Continuous
 62
     7
100
AcDbLine
 10
-165.852163
 20
10.308928
 30
0.0
 11
-167.982306
 21
10.308928
 31
0.0
  0
ARC
  5
6D
100
AcDbEntity
  8
0
390
0
  6
Continuous
 62
     7
100
AcDbCircle
 10
-165.852163
 20
13.643928
 30
0.0
 40
3.335
210
0.0
220
0.0
230
1.0
100
AcDbArc
 50
270.0
 51
360.0
  0
LINE
  5
6E
100
AcDbEntity
  8
0
390
0
  6
Continuous
 62
     7
100
AcDbLine
 10
-162.517163
 20
23.124671
 30
0.0
 11
-162.517163
 21
13.643928
 31
0.0
  0
LINE
  5
6F
100
AcDbEntity
  8
0
390
0
  6
Continuous
 62
     7
100
AcDbLine
 10
-158.597961
 20
23.124671
 30
0.0
 11
-162.517163
 21
23.124671
 31
0.0
  0
LINE
  5
70
100
AcDbEntity
  8
0
390
0
  6
Continuous
 62
     7
100
AcDbLine
 10
-158.597961
 20
13.13065
 30
0.0
 11
-158.597961
 21
23.124671
 31
0.0
  0
ARC
  5
71
100
AcDbEntity
  8
0
390
0
  6
Continuous
 62
     7
100
AcDbCircle
 10
-163.600461
 20
13.13065
 30
0.0
 40
5.0025
210
0.0
220
0.0
230
1.0
100
AcDbArc
 50
270.0
 51
360.0
  0
LINE
  5
72
100
AcDbEntity
  8
0
390
0
  6
Continuous
 62
     7
100
AcDbLine
 10
-188.344484
 20
-19.754463
 30
0.0
 11
-188.344484
 21
-8.913554
 31
0.0
  0
LINE
  5
73
100
AcDbEntity
  8
0
390
0
  6
Continuous
 62
     7
100
AcDbLine
 10
-201.230848
 20
-6.936282
 30
0.0
 11
-186.299029
 21
-6.936282
 31
0.0
  0
LINE
  5
74
100
AcDbEntity
  8
0
390
0
  6
Continuous
 62
     7
100
AcDbLine
 10
-186.299029
 20
-6.936282
 30
0.0
 11
-186.299029
 21
-21.799918
 31
0.0
  0
LINE
  5
75
100
AcDbEntity
  8
0
390
0
  6
Continuous
 62
     7
100
AcDbLine
 10
-199.185393
 20
-19.754463
 30
0.0
 11
-188.344484
 21
-19.754463
 31
0.0
  0
LINE
  5
76
100
AcDbEntity
  8
0
390
0
  6
Continuous
 62
     7
100
AcDbLine
 10
-199.185393
 20
-8.913554
 30
0.0
 11
-199.185393
 21
-19.754463
 31
0.0
  0
LINE
  5
77
100
AcDbEntity
  8
0
390
0
  6
Continuous
 62
     7
100
AcDbLine
 10
-186.299029
 20
-21.799918
 30
0.0
 11
-201.230848
 21
-21.799918
 31
0.0
  0
LINE
  5
78
100
AcDbEntity
  8
0
390
0
  6
Continuous
 62
     7
100
AcDbLine
 10
-201.230848
 20
-21.799918
 30
0.0
 11
-201.230848
 21
-6.936282
 31
0.0
  0
LINE
  5
79
100
AcDbEntity
  8
0
390
0
  6
Continuous
 62
     7
100
AcDbLine
 10
-188.344484
 20
-8.913554
 30
0.0
 11
-199.185393
 21
-8.913554
 31
0.0
  0
SPLINE
  5
7A
100
AcDbEntity
  8
0
390
0
  6
Continuous
 62
     7
100
AcDbSpline
210
0.0
220
0.0
230
1.0
 70
     0
 71
     2
 72
    20
 73
    17
 74
     0
 42
0.000001
 43
0.000001
 40
-1.0
 40
0.0
 40
0.0
 40
1.0
 40
1.0
 40
2.0
 40
2.0
 40
3.0
 40
3.0
 40
4.0
 40
4.0
 40
5.0
 40
5.0
 40
6.0
 40
6.0
 40
7.0
 40
7.0
 40
8.0
 40
8.0
 40
9.0
 10
-165.91772731539493
 20
-19.621970301398285
 30
0.0
 10
-167.27630214667718
 20
-17.845372445106143
 30
0.0
 10
-167.37108045891176
 20
-14.844059224344175
 30
0.0
 10
-167.48084760122265
 20
-11.368099717833424
 30
0.0
 10
-166.06741552767824
 20
-9.1066084001623633
 30
0.0
 10
-164.75357487394993
 20
-7.0044633541971324
 30
0.0
 10
-162.63993851031358
 20
-7.0044633541971324
 30
0.0
 10
-160.66266578304086
 20
-7.0044633541971324
 30
0.0
 10
-159.45748396485905
 20
-8.7452815360152805
 30
0.0
 10
-158.20812032849543
 20
-10.54991789965165
 30
0.0
 10
-158.08190741962574
 20
-13.547474485306854
 30
0.0
 10
-157.93539305576815
 20
-17.027190626924316
 30
0.0
 10
-159.28964044772044
 20
-19.214821029308826
 30
0.0
 10
-160.59448396485902
 20
-21.322645172378806
 30
0.0
 10
-162.63993851031358
 20
-21.322645172378806
 30
0.0
 10
-164.6172112375863
 20
-21.322645172378806
 30
0.0
 10
-165.91772731539493
 20
-19.621970301398285
 30
0.0
  0
POLYLINE
  5
7B
100
AcDbEntity
  8
0
390
0
  6
Continuous
 62
     7
100
AcDb2dPolyline
 66
     1
 10
0.0
 20
0.0
 30
0.0
 70
     1
 40
0.1
 41
0.1
  0
VERTEX
  5
7C
100
AcDbEntity
  8
0
390
0
 62
     7
100
AcDbVertex
100
AcDb2dVertex
 10
-164.685393
 20
-17.299918
 30
0.0
  0
VERTEX
  5
7D
100
AcDbEntity
  8
0
390
0
 62
     7
100
AcDbVertex
100
AcDb2dVertex
 10
-164.344423
 20
-18.028256
 30
0.0
  0
VERTEX
  5
7E
100
AcDbEntity
  8
0
390
0
 62
     7
100
AcDbVertex
100
AcDb2dVertex
 10
-163.93515
 20
-18.576908
 30
0.0
  0
VERTEX
  5
7F
100
AcDbEntity
  8
0
390
0
 62
     7
100
AcDbVertex
100
AcDb2dVertex
 10
-163.457573
 20
-18.945872
 30
0.0
  0
VERTEX
  5
80
100
AcDbEntity
  8
0
390
0
 62
     7
100
AcDbVertex
100
AcDb2dVertex
 10
-162.911693
 20
-19.13515
 30
0.0
  0
VERTEX
  5
81
100
AcDbEntity
  8
0
390
0
 62
     7
100
AcDbVertex
100
AcDb2dVertex
 10
-162.329793
 20
-19.141113
 30
0.0
  0
VERTEX
  5
82
100
AcDbEntity
  8
0
390
0
 62
     7
100
AcDbVertex
100
AcDb2dVertex
 10
-161.810393
 20
-18.94878
 30
0.0
  0
VERTEX
  5
83
100
AcDbEntity
  8
0
390
0
 62
     7
100
AcDbVertex
100
AcDb2dVertex
 10
-161.353494
 20
-18.558152
 30
0.0
  0
VERTEX
  5
84
100
AcDbEntity
  8
0
390
0
 62
     7
100
AcDbVertex
100
AcDb2dVertex
 10
-160.959094
 20
-17.969227
 30
0.0
  0
VERTEX
  5
85
100
AcDbEntity
  8
0
390
0
 62
     7
100
AcDbVertex
100
AcDb2dVertex
 10
-160.702261
 20
-17.378063
 30
0.0
  0
VERTEX
  5
86
100
AcDbEntity
  8
0
390
0
 62
     7
100
AcDbVertex
100
AcDb2dVertex
 10
-160.500919
 20
-16.682972
 30
0.0
 42
0.100221
  0
VERTEX
  5
87
100
AcDbEntity
  8
0
390
0
 62
     7
100
AcDbVertex
100
AcDb2dVertex
 10
-160.438748
 20
-11.953731
 30
0.0
  0
VERTEX
  5
88
100
AcDbEntity
  8
0
390
0
 62
     7
100
AcDbVertex
100
AcDb2dVertex
 10
-160.672444
 20
-11.098697
 30
0.0
  0
VERTEX
  5
89
100
AcDbEntity
  8
0
390
0
 62
     7
100
AcDbVertex
100
AcDb2dVertex
 10
-161.004644
 20
-10.311959
 30
0.0
  0
VERTEX
  5
8A
100
AcDbEntity
  8
0
390
0
 62
     7
100
AcDbVertex
100
AcDb2dVertex
 10
-161.397383
 20
-9.727795
 30
0.0
  0
VERTEX
  5
8B
100
AcDbEntity
  8
0
390
0
 62
     7
100
AcDbVertex
100
AcDb2dVertex
 10
-161.850663
 20
-9.346205
 30
0.0
  0
VERTEX
  5
8C
100
AcDbEntity
  8
0
390
0
 62
     7
100
AcDbVertex
100
AcDb2dVertex
 10
-162.364484
 20
-9.167191
 30
0.0
  0
VERTEX
  5
8D
100
AcDbEntity
  8
0
390
0
 62
     7
100
AcDbVertex
100
AcDb2dVertex
 10
-162.974134
 20
-9.159022
 30
0.0
  0
VERTEX
  5
8E
100
AcDbEntity
  8
0
390
0
 62
     7
100
AcDbVertex
100
AcDb2dVertex
 10
-163.504904
 20
-9.31997
 30
0.0
  0
VERTEX
  5
8F
100
AcDbEntity
  8
0
390
0
 62
     7
100
AcDbVertex
100
AcDb2dVertex
 10
-163.956792
 20
-9.650036
 30
0.0
  0
VERTEX
  5
90
100
AcDbEntity
  8
0
390
0
 62
     7
100
AcDbVertex
100
AcDb2dVertex
 10
-164.329799
 20
-10.149219
 30
0.0
  0
VERTEX
  5
91
100
AcDbEntity
  8
0
390
0
 62
     7
100
AcDbVertex
100
AcDb2dVertex
 10
-164.642368
 20
-10.806101
 30
0.0
  0
VERTEX
  5
92
100
AcDbEntity
  8
0
390
0
 62
     7
100
AcDbVertex
100
AcDb2dVertex
 10
-164.883572
 20
-11.557869
 30
0.0
 42
0.108337
  0
VERTEX
  5
93
100
AcDbEntity
  8
0
390
0
 62
     7
100
AcDbVertex
100
AcDb2dVertex
 10
-164.944663
 20
-16.439165
 30
0.0
  0
SEQEND
  5
94
100
AcDbEntity
  8
0
390
0
  0
SPLINE
  5
95
100
AcDbEntity
  8
0
390
0
  6
Continuous
 62
     7
100
AcDbSpline
210
0.0
220
0.0
230
1.0
 70
     0
 71
     2
 72
    20
 73
    17
 74
     0
 42
0.000001
 43
0.000001
 40
-1.0
 40
0.0
 40
0.0
 40
1.0
 40
1.0
 40
2.0
 40
2.0
 40
3.0
 40
3.0
 40
4.0
 40
4.0
 40
5.0
 40
5.0
 40
6.0
 40
6.0
 40
7.0
 40
7.0
 40
8.0
 40
8.0
 40
9.0
 10
-175.56996915382732
 20
-13.739141597302273
 30
0.0
 10
-175.04902941940443
 20
-14.572645172378884
 30
0.0
 10
-174.09432258777449
 20
-14.638487022836099
 30
0.0
 10
-173.07175669213169
 20
-14.70900880874243
 30
0.0
 10
-172.45459632440955
 20
-13.961919942552525
 30
0.0
 10
-171.77630214667715
 20
-13.140826990560683
 30
0.0
 10
-171.77630214667715
 20
-11.913554263287995
 30
0.0
 10
-171.77630214667715
 20
-10.822645172378909
 30
0.0
 10
-172.32175669213171
 20
-10.072645172378936
 30
0.0
 10
-172.86721123758625
 20
-9.3226451723789072
 30
0.0
 10
-173.7539209745498
 20
-9.2593087625957864
 30
0.0
 10
-174.77630214667712
 20
-9.186281536015251
 30
0.0
 10
-175.45633501904172
 20
-9.9378968159971599
 30
0.0
 10
-176.07175669213169
 20
-10.618099717833452
 30
0.0
 10
-176.07175669213169
 20
-11.777190626924339
 30
0.0
 10
-176.07175669213169
 20
-12.936281536015226
 30
0.0
 10
-175.56996915382732
 20
-13.739141597302273
 30
0.0
  0
LINE
  5
96
100
AcDbEntity
  8
0
390
0
  6
Continuous
 62
     7
100
AcDbLine
 10
-177.912666
 20
-17.709009
 30
0.0
 11
-175.730848
 21
-17.709009
 31
0.0
  0
SPLINE
  5
97
100
AcDbEntity
  8
0
390
0
  6
Continuous
 62
     7
100
AcDbSpline
210
0.0
220
0.0
230
1.0
 70
     0
 71
     2
 72
    12
 73
     9
 74
     0
 42
0.000001
 43
0.000001
 40
2.0
 40
2.0
 40
2.0
 40
3.0
 40
3.0
 40
4.0
 40
4.0
 40
5.0
 40
5.0
 40
6.0
 40
6.0
 40
6.0
 10
-175.73084760122259
 20
-17.709008808742489
 30
0.0
 10
-175.59448396485897
 20
-18.527190626924316
 30
0.0
 10
-175.05290000296932
 20
-18.94134306836931
 30
0.0
 10
-174.43539305576803
 20
-19.413554263287946
 30
0.0
 10
-173.6843922217397
 20
-19.282945422587293
 30
0.0
 10
-172.86721123758625
 20
-19.14082699056069
 30
0.0
 10
-172.32776642217081
 20
-17.978945849665916
 30
0.0
 10
-171.98084760122262
 20
-17.231736081469773
 30
0.0
 10
-171.77630214667715
 20
-15.663554263287971
 30
0.0
  0
POLYLINE
  5
98
100
AcDbEntity
  8
0
390
0
  6
Continuous
 62
     7
100
AcDb2dPolyline
 66
     1
 10
0.0
 20
0.0
 30
0.0
 40
0.1
 41
0.1
  0
VERTEX
  5
99
100
AcDbEntity
  8
0
390
0
 62
     7
100
AcDbVertex
100
AcDb2dVertex
 10
-171.776302
 20
-15.663554
 30
0.0
  0
VERTEX
  5
9A
100
AcDbEntity
  8
0
390
0
 62
     7
100
AcDbVertex
100
AcDb2dVertex
 10
-172.313214
 20
-16.195714
 30
0.0
  0
VERTEX
  5
9B
100
AcDbEntity
  8
0
390
0
 62
     7
100
AcDbVertex
100
AcDb2dVertex
 10
-172.969402
 20
-16.564921
 30
0.0
  0
VERTEX
  5
9C
100
AcDbEntity
  8
0
390
0
 62
     7
100
AcDbVertex
100
AcDb2dVertex
 10
-173.744868
 20
-16.771175
 30
0.0
  0
VERTEX
  5
9D
100
AcDbEntity
  8
0
390
0
 62
     7
100
AcDbVertex
100
AcDb2dVertex
 10
-174.639612
 20
-16.814476
 30
0.0
  0
VERTEX
  5
9E
100
AcDbEntity
  8
0
390
0
 62
     7
100
AcDbVertex
100
AcDb2dVertex
 10
-175.358499
 20
-16.714567
 30
0.0
  0
VERTEX
  5
9F
100
AcDbEntity
  8
0
390
0
 62
     7
100
AcDbVertex
100
AcDb2dVertex
 10
-176.014833
 20
-16.474852
 30
0.0
  0
VERTEX
  5
A0
100
AcDbEntity
  8
0
390
0
 62
     7
100
AcDbVertex
100
AcDb2dVertex
 10
-176.608613
 20
-16.095332
 30
0.0
  0
VERTEX
  5
A1
100
AcDbEntity
  8
0
390
0
 62
     7
100
AcDbVertex
100
AcDb2dVertex
 10
-177.139841
 20
-15.576006
 30
0.0
  0
VERTEX
  5
A2
100
AcDbEntity
  8
0
390
0
 62
     7
100
AcDbVertex
100
AcDb2dVertex
 10
-177.545604
 20
-15.004892
 30
0.0
  0
VERTEX
  5
A3
100
AcDbEntity
  8
0
390
0
 62
     7
100
AcDbVertex
100
AcDb2dVertex
 10
-177.853706
 20
-14.363093
 30
0.0
  0
VERTEX
  5
A4
100
AcDbEntity
  8
0
390
0
 62
     7
100
AcDbVertex
100
AcDb2dVertex
 10
-178.064145
 20
-13.650608
 30
0.0
  0
VERTEX
  5
A5
100
AcDbEntity
  8
0
390
0
 62
     7
100
AcDbVertex
100
AcDb2dVertex
 10
-178.176922
 20
-12.867438
 30
0.0
  0
VERTEX
  5
A6
100
AcDbEntity
  8
0
390
0
 62
     7
100
AcDbVertex
100
AcDb2dVertex
 10
-178.184889
 20
-11.568012
 30
0.0
  0
VERTEX
  5
A7
100
AcDbEntity
  8
0
390
0
 62
     7
100
AcDbVertex
100
AcDb2dVertex
 10
-177.995775
 20
-10.396343
 30
0.0
  0
VERTEX
  5
A8
100
AcDbEntity
  8
0
390
0
 62
     7
100
AcDbVertex
100
AcDb2dVertex
 10
-177.60958
 20
-9.352433
 30
0.0
  0
VERTEX
  5
A9
100
AcDbEntity
  8
0
390
0
 62
     7
100
AcDbVertex
100
AcDb2dVertex
 10
-177.026302
 20
-8.436282
 30
0.0
  0
VERTEX
  5
AA
100
AcDbEntity
  8
0
390
0
 62
     7
100
AcDbVertex
100
AcDb2dVertex
 10
-176.421153
 20
-7.837559
 30
0.0
  0
VERTEX
  5
AB
100
AcDbEntity
  8
0
390
0
 62
     7
100
AcDbVertex
100
AcDb2dVertex
 10
-175.696615
 20
-7.405029
 30
0.0
  0
VERTEX
  5
AC
100
AcDbEntity
  8
0
390
0
 62
     7
100
AcDbVertex
100
AcDb2dVertex
 10
-174.852687
 20
-7.138691
 30
0.0
  0
VERTEX
  5
AD
100
AcDbEntity
  8
0
390
0
 62
     7
100
AcDbVertex
100
AcDb2dVertex
 10
-173.88937
 20
-7.038545
 30
0.0
  0
VERTEX
  5
AE
100
AcDbEntity
  8
0
390
0
 62
     7
100
AcDbVertex
100
AcDb2dVertex
 10
-172.922289
 20
-7.117384
 30
0.0
  0
VERTEX
  5
AF
100
AcDbEntity
  8
0
390
0
 62
     7
100
AcDbVertex
100
AcDb2dVertex
 10
-172.065933
 20
-7.387984
 30
0.0
  0
VERTEX
  5
B0
100
AcDbEntity
  8
0
390
0
 62
     7
100
AcDbVertex
100
AcDb2dVertex
 10
-171.320301
 20
-7.850343
 30
0.0
  0
VERTEX
  5
B1
100
AcDbEntity
  8
0
390
0
 62
     7
100
AcDbVertex
100
AcDb2dVertex
 10
-170.685393
 20
-8.504463
 30
0.0
  0
VERTEX
  5
B2
100
AcDbEntity
  8
0
390
0
 62
     7
100
AcDbVertex
100
AcDb2dVertex
 10
-170.178291
 20
-9.339691
 30
0.0
  0
VERTEX
  5
B3
100
AcDbEntity
  8
0
390
0
 62
     7
100
AcDbVertex
100
AcDb2dVertex
 10
-169.816075
 20
-10.345372
 30
0.0
  0
VERTEX
  5
B4
100
AcDbEntity
  8
0
390
0
 62
     7
100
AcDbVertex
100
AcDb2dVertex
 10
-169.598745
 20
-11.521509
 30
0.0
 42
-0.080171
  0
VERTEX
  5
B5
100
AcDbEntity
  8
0
390
0
 62
     7
100
AcDbVertex
100
AcDb2dVertex
 10
-170.110898
 20
-18.382116
 30
0.0
  0
VERTEX
  5
B6
100
AcDbEntity
  8
0
390
0
 62
     7
100
AcDbVertex
100
AcDb2dVertex
 10
-170.430062
 20
-19.106652
 30
0.0
  0
VERTEX
  5
B7
100
AcDbEntity
  8
0
390
0
 62
     7
100
AcDbVertex
100
AcDb2dVertex
 10
-170.826106
 20
-19.74592
 30
0.0
  0
VERTEX
  5
B8
100
AcDbEntity
  8
0
390
0
 62
     7
100
AcDbVertex
100
AcDb2dVertex
 10
-171.299029
 20
-20.299918
 30
0.0
  0
VERTEX
  5
B9
100
AcDbEntity
  8
0
390
0
 62
     7
100
AcDbVertex
100
AcDb2dVertex
 10
-171.844484
 20
-20.747361
 30
0.0
  0
VERTEX
  5
BA
100
AcDbEntity
  8
0
390
0
 62
     7
100
AcDbVertex
100
AcDb2dVertex
 10
-172.45812
 20
-21.066963
 30
0.0
  0
VERTEX
  5
BB
100
AcDbEntity
  8
0
390
0
 62
     7
100
AcDbVertex
100
AcDb2dVertex
 10
-173.139939
 20
-21.258725
 30
0.0
  0
VERTEX
  5
BC
100
AcDbEntity
  8
0
390
0
 62
     7
100
AcDbVertex
100
AcDb2dVertex
 10
-173.889939
 20
-21.322645
 30
0.0
  0
VERTEX
  5
BD
100
AcDbEntity
  8
0
390
0
 62
     7
100
AcDbVertex
100
AcDb2dVertex
 10
-174.61418
 20
-21.267015
 30
0.0
  0
VERTEX
  5
BE
100
AcDbEntity
  8
0
390
0
 62
     7
100
AcDbVertex
100
AcDb2dVertex
 10
-175.286906
 20
-21.100126
 30
0.0
  0
VERTEX
  5
BF
100
AcDbEntity
  8
0
390
0
 62
     7
100
AcDbVertex
100
AcDb2dVertex
 10
-175.908116
 20
-20.821977
 30
0.0
  0
VERTEX
  5
C0
100
AcDbEntity
  8
0
390
0
 62
     7
100
AcDbVertex
100
AcDb2dVertex
 10
-176.47781
 20
-20.432569
 30
0.0
  0
SEQEND
  5
C1
100
AcDbEntity
  8
0
390
0
  0
ARC
  5
C2
100
AcDbEntity
  8
0
390
0
  6
Continuous
 62
     7
100
AcDbCircle
 10
-173.750763
 20
-17.256133
 30
0.0
 40
4.18647
210
0.0
220
0.0
230
1.0
100
AcDbArc
 50
186.21019
 51
229.353121
  0
LINE
  5
C3
100
AcDbEntity
  8
0
390
0
  6
Continuous
 62
     7
100
AcDbLine
 10
-225.056215
 20
44.752239
 30
0.0
 11
-225.056215
 21
-44.752239
 31
0.0
  0
LINE
  5
C4
100
AcDbEntity
  8
0
390
0
  6
Continuous
 62
     7
100
AcDbLine
 10
-135.551737
 20
44.752239
 30
0.0
 11
-225.056215
 21
44.752239
 31
0.0
  0
LINE
  5
C5
100
AcDbEntity
  8
0
390
0
  6
Continuous
 62
     7
100
AcDbLine
 10
-135.551737
 20
-44.752239
 30
0.0
 11
-135.551737
 21
44.752239
 31
0.0
  0
LINE
  5
C6
100
AcDbEntity
  8
0
390
0
  6
Continuous
 62
     7
100
AcDbLine
 10
-225.056215
 20
-44.752239
 30
0.0
 11
-135.551737
 21
-44.752239
 31
0.0
  0
LINE
  5
C7
100
AcDbEntity
  8
0
390
0
  6
Continuous
 62
     7
100
AcDbLine
 10
-225.056215
 20
47.751782
 30
0.0
 11
-135.551737
 21
47.751782
 31
0.0
  0
LINE
  5
C8
100
AcDbEntity
  8
0
390
0
  6
Continuous
 62
     7
100
AcDbLine
 10
-135.551737
 20
47.751782
 30
0.0
 11
-135.551737
 21
44.752239
 31
0.0
  0
LINE
  5
C9
100
AcDbEntity
  8
0
390
0
  6
Continuous
 62
     7
100
AcDbLine
 10
-225.056215
 20
47.751782
 30
0.0
 11
-225.056215
 21
44.752239
 31
0.0
  0
LINE
  5
CA
100
AcDbEntity
  8
0
390
0
  6
Continuous
 62
     7
100
AcDbLine
 10
-225.056215
 20
-44.752239
 30
0.0
 11
-225.056215
 21
-47.751782
 31
0.0
  0
ELLIPSE
  5
CB
100
AcDbEntity
  8
0
390
0
  6
Continuous
 62
     7
100
AcDbEllipse
 10
-225.056215
 20
-44.752239
 30
0.0
 11
2.1213203435598849
 21
-2.1213203435593853
 31
0.0
210
0.0
220
0.0
230
1.0
 40
0.999695
 41
3.9271431102346885
 42
5.4976348505344363
  0
LINE
  5
CC
100
AcDbEntity
  8
0
390
0
  6
Continuous
 62
     7
100
AcDbLine
 10
-228.055759
 20
-44.752239
 30
0.0
 11
-225.056215
 21
-44.752239
 31
0.0
  0
ELLIPSE
  5
CD
100
AcDbEntity
  8
0
390
0
  6
Continuous
 62
     7
100
AcDbEllipse
 10
-135.551737
 20
44.752239
 30
0.0
 11
-2.1213203435598849
 21
2.1213203435593853
 31
0.0
210
0.0
220
0.0
230
1.0
 40
0.999695
 41
3.9271431102347072
 42
5.4976348505344363
  0
LINE
  5
CE
100
AcDbEntity
  8
0
390
0
  6
Continuous
 62
     7
100
AcDbLine
 10
-135.551737
 20
44.752239
 30
0.0
 11
-132.552194
 21
44.752239
 31
0.0
  0
LINE
  5
CF
100
AcDbEntity
  8
0
390
0
  6
Continuous
 62
     7
100
AcDbLine
 10
-132.552194
 20
44.752239
 30
0.0
 11
-132.552194
 21
-44.752239
 31
0.0
  0
LINE
  5
D0
100
AcDbEntity
  8
0
390
0
  6
Continuous
 62
     7
100
AcDbLine
 10
-135.551737
 20
-44.752239
 30
0.0
 11
-132.552194
 21
-44.752239
 31
0.0
  0
LINE
  5
D1
100
AcDbEntity
  8
0
390
0
  6
Continuous
 62
     7
100
AcDbLine
 10
-228.055759
 20
44.752239
 30
0.0
 11
-225.056215
 21
44.752239
 31
0.0
  0
ELLIPSE
  5
D2
100
AcDbEntity
  8
0
390
0
  6
Continuous
 62
     7
100
AcDbEllipse
 10
-225.056215
 20
44.752239
 30
0.0
 11
-2.1213203435593853
 21
-2.1213203435598849
 31
0.0
210
0.0
220
0.0
230
1.0
 40
0.999695
 41
3.9271431102347072
 42
5.4976348505344363
  0
LINE
  5
D3
100
AcDbEntity
  8
0
390
0
  6
Continuous
 62
     7
100
AcDbLine
 10
-135.551737
 20
-44.752239
 30
0.0
 11
-135.551737
 21
-47.751782
 31
0.0
  0
LINE
  5
D4
100
AcDbEntity
  8
0
390
0
  6
Continuous
 62
     7
100
AcDbLine
 10
-135.551737
 20
-47.751782
 30
0.0
 11
-225.056215
 21
-47.751782
 31
0.0
  0
LINE
  5
D5
100
AcDbEntity
  8
0
390
0
  6
Continuous
 62
     7
100
AcDbLine
 10
-228.055759
 20
-44.752239
 30
0.0
 11
-228.055759
 21
44.752239
 31
0.0
  0
ELLIPSE
  5
D6
100
AcDbEntity
  8
0
390
0
  6
Continuous
 62
     7
100
AcDbEllipse
 10
-135.551737
 20
-44.752239
 30
0.0
 11
2.1213203435593853
 21
2.1213203435598849
 31
0.0
210
0.0
220
0.0
230
1.0
 40
0.999695
 41
3.9271431102347072
 42
5.4976348505344559
  0
ELLIPSE
  5
D7
100
AcDbEntity
  8
0
390
0
  6
Continuous
 62
     7
100
AcDbEllipse
 10
-226.103519
 20
45.799543
 30
0.0
 11
-2.1219665675087374
 21
2.1219665675087374
 31
0.0
210
0.0
220
0.0
230
0.9999999999999999
 40
0.999695
 41
5.4979394370297197
 42
7.0684311773294528
  0
LINE
  5
D8
100
AcDbEntity
  8
0
390
0
  6
Continuous
 62
     7
100
AcDbLine
 10
-226.104433
 20
48.8
 30
0.0
 11
-225.056215
 21
47.751782
 31
0.0
  0
LINE
  5
D9
100
AcDbEntity
  8
0
390
0
  6
Continuous
 62
     7
100
AcDbLine
 10
-228.055759
 20
44.752239
 30
0.0
 11
-229.103976
 21
45.800457
 31
0.0
  0
ELLIPSE
  5
DA
100
AcDbEntity
  8
0
390
0
  6
Continuous
 62
     7
100
AcDbEllipse
 10
-134.504433
 20
45.799543
 30
0.0
 11
2.1219665675087649
 21
2.1219665675087374
 31
0.0
210
0.0
220
0.0
230
1.0
 40
0.999695
 41
5.4979394370297223
 42
7.0684311773294528
  0
LINE
  5
DB
100
AcDbEntity
  8
0
390
0
  6
Continuous
 62
     7
100
AcDbLine
 10
-131.503976
 20
45.800457
 30
0.0
 11
-132.552194
 21
44.752239
 31
0.0
  0
LINE
  5
DC
100
AcDbEntity
  8
0
390
0
  6
Continuous
 62
     7
100
AcDbLine
 10
-135.551737
 20
47.751782
 30
0.0
 11
-134.503519
 21
48.8
 31
0.0
  0
ELLIPSE
  5
DD
100
AcDbEntity
  8
0
390
0
  6
Continuous
 62
     7
100
AcDbEllipse
 10
-134.504433
 20
-45.799543
 30
0.0
 11
2.1219665675087374
 21
-2.1219665675087374
 31
0.0
210
0.0
220
0.0
230
0.9999999999999999
 40
0.999695
 41
5.4979394370297188
 42
7.0684311773294528
  0
LINE
  5
DE
100
AcDbEntity
  8
0
390
0
  6
Continuous
 62
     7
100
AcDbLine
 10
-134.503519
 20
-48.8
 30
0.0
 11
-135.551737
 21
-47.751782
 31
0.0
  0
LINE
  5
DF
100
AcDbEntity
  8
0
390
0
  6
Continuous
 62
     7
100
AcDbLine
 10
-132.552194
 20
-44.752239
 30
0.0
 11
-131.503976
 21
-45.800457
 31
0.0
  0
ELLIPSE
  5
E0
100
AcDbEntity
  8
0
390
0
  6
Continuous
 62
     7
100
AcDbEllipse
 10
-226.103519
 20
-45.799543
 30
0.0
 11
-2.1219665675087374
 21
-2.1219665675087374
 31
0.0
210
0.0
220
0.0
230
0.9999999999999999
 40
0.999695
 41
5.4979394370297197
 42
7.0684311773294528
  0
LINE
  5
E1
100
AcDbEntity
  8
0
390
0
  6
Continuous
 62
     7
100
AcDbLine
 10
-229.103976
 20
-45.800457
 30
0.0
 11
-228.055759
 21
-44.752239
 31
0.0
  0
LINE
  5
E2
100
AcDbEntity
  8
0
390
0
  6
Continuous
 62
     7
100
AcDbLine
 10
-225.056215
 20
-47.751782
 30
0.0
 11
-226.104433
 21
-48.8
 31
0.0
  0
LINE
  5
E3
100
AcDbEntity
  8
0
390
0
  6
Continuous
 62
     7
100
AcDbLine
 10
-229.103976
 20
45.800457
 30
0.0
 11
-229.103976
 21
-45.800457
 31
0.0
  0
LINE
  5
E4
100
AcDbEntity
  8
0
390
0
  6
Continuous
 62
     7
100
AcDbLine
 10
-226.104433
 20
-48.8
 30
0.0
 11
-134.503519
 21
-48.8
 31
0.0
  0
LINE
  5
E5
100
AcDbEntity
  8
0
390
0
  6
Continuous
 62
     7
100
AcDbLine
 10
-131.503976
 20
-45.800457
 30
0.0
 11
-131.503976
 21
45.800457
 31
0.0
  0
LINE
  5
E6
100
AcDbEntity
  8
0
390
0
  6
Continuous
 62
     7
100
AcDbLine
 10
-134.503519
 20
48.8
 30
0.0
 11
-226.104433
 21
48.8
 31
0.0
  0
POINT
  5
E7
100
AcDbEntity
  8
0
390
0
 62
     7
100
AcDbPoint
 10
0.0
 20
0.0
 30
0.0
  0
ENDSEC
  0
SECTION
  2
OBJECTS
  0
DICTIONARY
  5
19
100
AcDbDictionary
280
     0
281
     1
  3
ACAD_GROUP
350
1A
  3
ACAD_MLINESTYLE
350
1B
  3
ACAD_LAYOUT
350
1E
  3
ACAD_PLOTSETTINGS
350
22
  3
ACAD_PLOTSTYLENAME
350
1F
  3
ACAD_WIPEOUT_VARS
350
23
  0
DICTIONARY
  5
1A
102
{ACAD_REACTORS
330
19
102
}
100
AcDbDictionary
280
     0
281
     1
  0
DICTIONARY
  5
1B
102
{ACAD_REACTORS
330
19
102
}
100
AcDbDictionary
280
     0
281
     1
  3
Standard
350
1C
  0
MLINESTYLE
  5
1C
102
{ACAD_REACTORS
330
1B
102
}
100
AcDbMlineStyle
  2
Standard
 70
     0
  3

 62
     0
 51
90.0
 52
90.0
 71
     2
 49
0.5
 62
   256
  6
ByLayer
 49
-0.5
 62
   256
  6
ByLayer
  0
ACDBDICTIONARYWDFLT
  5
1F
102
{ACAD_REACTORS
330
19
102
}
100
AcDbDictionary
281
     1
  3
Normal
350
1D
100
AcDbDictionaryWithDefault
340
1D
  0
ACDBPLACEHOLDER
  5
1D
102
{ACAD_REACTORS
330
1F
102
}
  0
LAYOUT
  5
20
102
{ACAD_REACTORS
330
1E
102
}
100
AcDbPlotSettings
  1

  2

  4

  6

 40
0.0
 41
0.0
 42
0.0
 43
0.0
 44
0.0
 45
0.0
 46
0.0
 47
0.0
 48
0.0
 49
0.0
140
0.0
141
0.0
142
1.0
143
1.0
 70
  1024
 72
     0
 73
     0
 74
     0
  7

 75
     0
147
1.0
148
0.0
149
0.0
100
AcDbLayout
  1
Model
 70
     0
 71
     1
 10
0.0
 20
0.0
 11
0.0
 21
0.0
 12
0.0
 22
0.0
 32
0.0
 14
0.0
 24
0.0
 34
0.0
 15
0.0
 25
0.0
 35
0.0
146
0.0
 13
0.0
 23
0.0
 33
0.0
 16
0.0
 26
0.0
 36
0.0
 17
0.0
 27
0.0
 37
0.0
 76
     0
330
A
331
0
345
0
346
0
  0
LAYOUT
  5
21
102
{ACAD_REACTORS
330
1E
102
}
100
AcDbPlotSettings
  1

  2

  4

  6

 40
0.0
 41
0.0
 42
0.0
 43
0.0
 44
0.0
 45
0.0
 46
0.0
 47
0.0
 48
0.0
 49
0.0
140
0.0
141
0.0
142
1.0
143
1.0
 70
     0
 72
     0
 73
     0
 74
     0
  7

 75
     0
147
1.0
148
0.0
149
0.0
100
AcDbLayout
  1
Layout1
 70
     0
 71
     2
 10
0.0
 20
0.0
 11
0.0
 21
0.0
 12
0.0
 22
0.0
 32
0.0
 14
0.0
 24
0.0
 34
0.0
 15
0.0
 25
0.0
 35
0.0
146
0.0
 13
0.0
 23
0.0
 33
0.0
 16
0.0
 26
0.0
 36
0.0
 17
0.0
 27
0.0
 37
0.0
 76
     0
330
B
331
0
345
0
346
0
  0
DICTIONARY
  5
1E
102
{ACAD_REACTORS
330
19
102
}
100
AcDbDictionary
280
     0
281
     1
  3
Layout1
350
21
  3
Model
350
20
  0
DICTIONARY
  5
22
102
{ACAD_REACTORS
330
19
102
}
100
AcDbDictionary
280
     0
281
     1
  0
WIPEOUTVARIABLES
  5
23
100
AcDbWipeoutVariables
 70
     1
  0
ENDSEC
  0
EOF
