  0
SECTION
  2
HEADER
  9
$ACADVER
  1
AC1015
  9
$ACADMAINTVER
 70
     6
  9
$DWGCODEPAGE
  3
DOS932
  9
$INSBASE
 10
0.0
 20
0.0
 30
0.0
  9
$EXTMIN
 10
-36.495
 20
-109.717704
 30
0.0
  9
$EXTMAX
 10
346.843922
 20
271.709472
 30
9.906
  9
$LIMMIN
 10
-36.495
 20
-109.717704
  9
$LIMMAX
 10
346.843922
 20
271.709472
  9
$ORTHOMODE
 70
     0
  9
$REGENMODE
 70
     1
  9
$FILLMODE
 70
     1
  9
$QTEXTMODE
 70
     0
  9
$MIRRTEXT
 70
     1
  9
$LTSCALE
 40
10.0
  9
$ATTMODE
 70
     1
  9
$TEXTSIZE
 40
0.2
  9
$TRACEWID
 40
0.05
  9
$TEXTSTYLE
  7
Standard
  9
$CLAYER
  8
0
  9
$CELTYPE
  6
Continuous
  9
$CECOLOR
 62
   256
  9
$CELTSCALE
 40
1.0
  9
$DISPSILH
 70
     0
  9
$DIMSCALE
 40
1.0
  9
$DIMASZ
 40
1.40208
  9
$DIMEXO
 40
1.40208
  9
$DIMDLI
 40
0.38
  9
$DIMRND
 40
0.0
  9
$DIMDLE
 40
0.0
  9
$DIMEXE
 40
1.05156
  9
$DIMTP
 40
0.0
  9
$DIMTM
 40
0.0
  9
$DIMTXT
 40
3.5052
  9
$DIMCEN
 40
0.09
  9
$DIMTSZ
 40
0.0
  9
$DIMTOL
 70
     0
  9
$DIMLIM
 70
     0
  9
$DIMTIH
 70
     0
  9
$DIMTOH
 70
     0
  9
$DIMSE1
 70
     0
  9
$DIMSE2
 70
     0
  9
$DIMTAD
 70
     1
  9
$DIMZIN
 70
     0
  9
$DIMBLK
  1

  9
$DIMASO
 70
     1
  9
$DIMSHO
 70
     1
  9
$DIMPOST
  1

  9
$DIMAPOST
  1

  9
$DIMALT
 70
     0
  9
$DIMALTD
 70
     2
  9
$DIMALTF
 40
25.4
  9
$DIMLFAC
 40
1.0
  9
$DIMTOFL
 70
     0
  9
$DIMTVP
 40
0.0
  9
$DIMTIX
 70
     0
  9
$DIMSOXD
 70
     0
  9
$DIMSAH
 70
     0
  9
$DIMBLK1
  1

  9
$DIMBLK2
  1

  9
$DIMSTYLE
  2
Standard
  9
$DIMCLRD
 70
     7
  9
$DIMCLRE
 70
     7
  9
$DIMCLRT
 70
     7
  9
$DIMTFAC
 40
0.5
  9
$DIMGAP
 40
1.7526
  9
$DIMJUST
 70
     0
  9
$DIMSD1
 70
     0
  9
$DIMSD2
 70
     0
  9
$DIMTOLJ
 70
     1
  9
$DIMTZIN
 70
     0
  9
$DIMALTZ
 70
     0
  9
$DIMALTTZ
 70
     0
  9
$DIMUPT
 70
     0
  9
$DIMDEC
 70
     2
  9
$DIMTDEC
 70
     4
  9
$DIMALTU
 70
     2
  9
$DIMALTTD
 70
     2
  9
$DIMTXSTY
  7
Standard
  9
$DIMAUNIT
 70
     0
  9
$DIMADEC
 70
     0
  9
$DIMALTRND
 40
0.0
  9
$DIMAZIN
 70
     0
  9
$DIMDSEP
 70
     0
  9
$DIMATFIT
 70
     3
  9
$DIMFRAC
 70
     0
  9
$DIMLDRBLK
  1

  9
$DIMLUNIT
 70
     2
  9
$DIMLWD
 70
     0
  9
$DIMLWE
 70
     0
  9
$DIMTMOVE
 70
     0
  9
$LUNITS
 70
     2
  9
$LUPREC
 70
     4
  9
$SKETCHINC
 40
0.1
  9
$FILLETRAD
 40
0.0
  9
$AUNITS
 70
     0
  9
$AUPREC
 70
     0
  9
$MENU
  1
acad
  9
$ELEVATION
 40
0.0
  9
$PELEVATION
 40
0.0
  9
$THICKNESS
 40
0.0
  9
$LIMCHECK
 70
     0
  9
$CHAMFERA
 40
0.0
  9
$CHAMFERB
 40
0.0
  9
$CHAMFERC
 40
0.0
  9
$CHAMFERD
 40
0.0
  9
$SKPOLY
 70
     0
  9
$TDCREATE
 40
2459776.659363426
  9
$TDUCREATE
 40
0.000000000
  9
$TDUPDATE
 40
2459776.284328704
  9
$TDUUPDATE
 40
0.000000000
  9
$TDINDWG
 40
0.0000000000
  9
$TDUSRTIMER
 40
0.0000000000
  9
$USRTIMER
 70
     1
  9
$ANGBASE
 50
0.0
  9
$ANGDIR
 70
     0
  9
$PDMODE
 70
     0
  9
$PDSIZE
 40
0.0
  9
$PLINEWID
 40
0.0
  9
$SPLFRAME
 70
     0
  9
$SPLINETYPE
 70
     6
  9
$SPLINESEGS
 70
     8
  9
$HANDSEED
  5
FA
  9
$SURFTAB1
 70
     6
  9
$SURFTAB2
 70
     6
  9
$SURFTYPE
 70
     6
  9
$SURFU
 70
     6
  9
$SURFV
 70
     6
  9
$UCSBASE
  2

  9
$UCSNAME
  2

  9
$UCSORG
 10
0.0
 20
0.0
 30
0.0
  9
$UCSXDIR
 10
1.0
 20
0.0
 30
0.0
  9
$UCSYDIR
 10
0.0
 20
1.0
 30
0.0
  9
$UCSORTHOREF
  2

  9
$UCSORTHOVIEW
 70
     0
  9
$UCSORGTOP
 10
0.0
 20
0.0
 30
0.0
  9
$UCSORGBOTTOM
 10
0.0
 20
0.0
 30
0.0
  9
$UCSORGLEFT
 10
0.0
 20
0.0
 30
0.0
  9
$UCSORGRIGHT
 10
0.0
 20
0.0
 30
0.0
  9
$UCSORGFRONT
 10
0.0
 20
0.0
 30
0.0
  9
$UCSORGBACK
 10
0.0
 20
0.0
 30
0.0
  9
$PUCSBASE
  2

  9
$PUCSNAME
  2

  9
$PUCSORG
 10
0.0
 20
0.0
 30
0.0
  9
$PUCSXDIR
 10
1.0
 20
0.0
 30
0.0
  9
$PUCSYDIR
 10
0.0
 20
1.0
 30
0.0
  9
$PUCSORTHOREF
  2

  9
$PUCSORTHOVIEW
 70
     0
  9
$PUCSORGTOP
 10
0.0
 20
0.0
 30
0.0
  9
$PUCSORGBOTTOM
 10
0.0
 20
0.0
 30
0.0
  9
$PUCSORGLEFT
 10
0.0
 20
0.0
 30
0.0
  9
$PUCSORGRIGHT
 10
0.0
 20
0.0
 30
0.0
  9
$PUCSORGFRONT
 10
0.0
 20
0.0
 30
0.0
  9
$PUCSORGBACK
 10
0.0
 20
0.0
 30
0.0
  9
$USERI1
 70
     0
  9
$USERI2
 70
     0
  9
$USERI3
 70
     0
  9
$USERI4
 70
     0
  9
$USERI5
 70
     0
  9
$USERR1
 40
0.0
  9
$USERR2
 40
0.0
  9
$USERR3
 40
0.0
  9
$USERR4
 40
0.0
  9
$USERR5
 40
0.0
  9
$WORLDVIEW
 70
     1
  9
$SHADEDGE
 70
     3
  9
$SHADEDIF
 70
    70
  9
$TILEMODE
 70
     1
  9
$MAXACTVP
 70
    16
  9
$PINSBASE
 10
0.0
 20
0.0
 30
0.0
  9
$PLIMCHECK
 70
     0
  9
$PEXTMIN
 10
1.000000E+20
 20
1.000000E+20
 30
1.000000E+20
  9
$PEXTMAX
 10
-1.000000E+20
 20
-1.000000E+20
 30
-1.000000E+20
  9
$PLIMMIN
 10
0.0
 20
0.0
  9
$PLIMMAX
 10
12.0
 20
9.0
  9
$UNITMODE
 70
     0
  9
$VISRETAIN
 70
     0
  9
$PLINEGEN
 70
     1
  9
$PSLTSCALE
 70
     0
  9
$TREEDEPTH
 70
  3020
  9
$CMLSTYLE
  2
Standard
  9
$CMLJUST
 70
     0
  9
$CMLSCALE
 40
1.0
  9
$PROXYGRAPHICS
 70
     0
  9
$MEASUREMENT
 70
     0
  9
$CELWEIGHT
370
     0
  9
$ENDCAPS
280
     0
  9
$JOINSTYLE
280
     0
  9
$LWDISPLAY
290
     0
  9
$INSUNITS
 70
     0
  9
$HYPERLINKBASE
  1

  9
$STYLESHEET
  1

  9
$XEDIT
290
     1
  9
$CEPSNTYPE
380
     0
  9
$PSTYLEMODE
290
     1
  9
$FINGERPRINTGUID
  2

  9
$VERSIONGUID
  2

  9
$EXTNAMES
290
     1
  9
$PSVPSCALE
 40
0.0
  0
ENDSEC
  0
SECTION
  2
CLASSES
  0
CLASS
  1
LWPOLYLINE
  2
AcDbPolyline
  3
AutoCAD 2000
 90
        0
280
     0
281
     1
  0
CLASS
  1
IMAGE
  2
AcDbRasterImage
  3
ISM
 90
      127
280
     0
281
     1
  0
CLASS
  1
OLE2FRAME
  2
AcDbOle2Frame
  3
AutoCAD 2000
 90
        0
280
     0
281
     1
  0
CLASS
  1
HATCH
  2
AcDbHatch
  3
AutoCAD 2000
 90
        0
280
     0
281
     1
  0
CLASS
  1
DICTIONARYVAR
  2
AcDbDictionaryVar
  3
AutoCAD 2000
 90
        0
280
     0
281
     0
  0
CLASS
  1
RASTERVARIABLES
  2
AcDbRasterVariables
  3
ISM
 90
        0
280
     0
281
     0
  0
CLASS
  1
IMAGEDEF
  2
AcDbRasterImageDef
  3
ISM
 90
        0
280
     0
281
     0
  0
CLASS
  1
IMAGEDEF_REACTOR
  2
AcDbRasterImageDefReactor
  3
ISM
 90
        1
280
     0
281
     0
  0
CLASS
  1
IDBUFFER
  2
AcDbIdBuffer
  3
AutoCAD 2000
 90
        0
280
     0
281
     0
  0
CLASS
  1
SPATIAL_FILTER
  2
AcDbSpatialFilter
  3
AutoCAD 2000
 90
        0
280
     0
281
     0
  0
CLASS
  1
XRECORD
  2
AcDbXrecord
  3
AutoCAD 2000
 90
        0
280
     0
281
     0
  0
CLASS
  1
SORTENTSTABLE
  2
AcDbSortentsTable
  3
AutoCAD 2000
 90
        0
280
     0
281
     0
  0
CLASS
  1
LAYER_INDEX
  2
AcDbLayerIndex
  3
AutoCAD 2000
 90
        0
280
     0
281
     0
  0
CLASS
  1
SPATIAL_INDEX
  2
AcDbSpatialIndex
  3
AutoCAD 2000
 90
        0
280
     0
281
     0
  0
CLASS
  1
OBJECT_PTR
  2
CAseDLPNTableRecord
  3
"ASE-LPNTableRecord"
 90
        1
280
     0
281
     0
  0
CLASS
  1
LAYOUT
  2
AcDbLayout
  3
AutoCAD 2000
 90
        0
280
     0
281
     0
  0
CLASS
  1
PLOTSETTINGS
  2
AcDbPlotSettings
  3
AutoCAD 2000
 90
        0
280
     0
281
     0
  0
CLASS
  1
ACDBDICTIONARYWDFLT
  2
AcDbDictionaryWithDefault
  3
AutoCAD 2000
 90
        0
280
     0
281
     0
  0
CLASS
  1
ACDBPLACEHOLDER
  2
AcDbPlaceHolder
  3
AutoCAD 2000
 90
        0
280
     0
281
     0
  0
CLASS
  1
VBA_PROJECT
  2
AcDbVbaProject
  3
acadvba
 90
        0
280
     0
281
     0
  0
CLASS
  1
WIPEOUT
  2
AcDbWipeout
  3
WipeOut|AutoCAD Express Tool|expresstools@autodesk.com
 90
      127
280
     0
281
     1
  0
CLASS
  1
WIPEOUTVARIABLES
  2
AcDbWipeoutVariables
  3
WipeOut|AutoCAD Express Tool|expresstools@autodesk.com
 90
        0
280
     0
281
     0
  0
CLASS
  1
RTEXT
  2
RText
  3
RText|AutoCAD Express Tool|expresstools@autodesk.com
 90
        0
280
     0
281
     1
  0
CLASS
  1
ARCALIGNEDTEXT
  2
AcDbArcAlignedText
  3
ATEXT|AutoCAD Express Tool|expresstools@autodesk.com
 90
        0
280
     0
281
     1
  0
ENDSEC
  0
SECTION
  2
TABLES
  0
TABLE
  2
VPORT
  5
7
100
AcDbSymbolTable
 70
     1
  0
VPORT
  5
15
100
AcDbSymbolTableRecord
100
AcDbViewportTableRecord
  2
*ACTIVE
 70
     0
 10
0.0
 20
0.0
 11
1.0
 21
1.0
 12
6.591288
 22
4.579184
 13
0.0
 23
0.0
 14
1.0
 24
1.0
 15
0.0
 25
0.0
 16
0.0
 26
0.0
 36
1.0
 17
0.0
 27
0.0
 37
0.0
 40
9.158369
 41
0.688564
 42
50.0
 43
0.0
 44
0.0
 50
0.0
 51
0.0
 71
     0
 72
   100
 73
     1
 74
     1
 75
     0
 76
     0
 77
     0
 78
     0
281
     0
 65
     0
110
0.0
120
0.0
130
0.0
111
1.0
121
0.0
131
0.0
112
0.0
122
1.0
132
0.0
345
0
346
0
 79
     0
146
0.0
  0
ENDTAB
  0
TABLE
  2
LTYPE
  5
4
100
AcDbSymbolTable
 70
     3
  0
LTYPE
  5
11
100
AcDbSymbolTableRecord
100
AcDbLinetypeTableRecord
  2
ByBlock
 70
    64
  3

 72
    65
 73
     0
 40
0.0
  0
LTYPE
  5
12
100
AcDbSymbolTableRecord
100
AcDbLinetypeTableRecord
  2
ByLayer
 70
    64
  3

 72
    65
 73
     0
 40
0.0
  0
LTYPE
  5
13
100
AcDbSymbolTableRecord
100
AcDbLinetypeTableRecord
  2
Continuous
 70
    64
  3
Solid line
 72
    65
 73
     0
 40
0.0
  0
ENDTAB
  0
TABLE
  2
LAYER
  5
2
100
AcDbSymbolTable
 70
     1
  0
LAYER
  5
14
100
AcDbSymbolTableRecord
100
AcDbLayerTableRecord
  2
0
 70
     0
 62
     7
  6
Continuous
290
     1
370
    -3
390
1D
  0
ENDTAB
  0
TABLE
  2
STYLE
  5
3
100
AcDbSymbolTable
 70
     1
  0
STYLE
  5
17
100
AcDbSymbolTableRecord
100
AcDbTextStyleTableRecord
  2
Standard
 70
     0
 40
0.0
 41
1.0
 50
0.0
 71
     0
 42
0.0
  3
FG教科書体NT-M
  4

1001
ACAD
1000
FG教科書体NT-M
1071
        0
  0
ENDTAB
  0
TABLE
  2
VIEW
  5
5
100
AcDbSymbolTable
 70
     0
  0
ENDTAB
  0
TABLE
  2
UCS
  5
6
100
AcDbSymbolTable
 70
     0
  0
ENDTAB
  0
TABLE
  2
APPID
  5
8
100
AcDbSymbolTable
 70
     2
  0
APPID
  5
16
100
AcDbSymbolTableRecord
100
AcDbRegAppTableRecord
  2
ACAD
 70
     0
  0
APPID
  5
26
100
AcDbSymbolTableRecord
100
AcDbRegAppTableRecord
  2
TOPsolid_Design
 70
     0
  0
ENDTAB
  0
TABLE
  2
DIMSTYLE
  5
9
100
AcDbSymbolTable
 70
     1
100
AcDbDimStyleTable
 71
     0
  0
DIMSTYLE
105
18
100
AcDbSymbolTableRecord
100
AcDbDimStyleTableRecord
  2
Standard
 70
     0
  3

  4

 40
1.0
 41
1.40208
 42
1.40208
 43
0.38
 44
1.05156
 45
0.0
 46
0.0
 47
0.0
 48
0.0
 71
     0
 72
     0
 73
     0
 74
     0
 75
     0
 76
     0
 77
     1
 78
     0
 79
     0
140
3.5052
141
0.09
142
0.0
143
25.4
144
1.0
145
0.0
146
0.5
147
1.7526
148
0.0
170
     0
171
     2
172
     0
173
     0
174
     0
175
     0
176
     7
177
     7
178
     7
179
     0
271
     2
272
     4
273
     2
274
     2
275
     0
276
     0
277
     2
278
    46
279
     0
280
     0
281
     0
282
     0
283
     1
284
     0
285
     0
286
     0
288
     0
289
     3
340
17
341
0
342
0
343
0
344
0
371
    -2
372
    -2
  0
ENDTAB
  0
TABLE
  2
BLOCK_RECORD
  5
1
100
AcDbSymbolTable
 70
     0
  0
BLOCK_RECORD
  5
A
100
AcDbSymbolTableRecord
100
AcDbBlockTableRecord
  2
*MODEL_SPACE
340
20
  0
BLOCK_RECORD
  5
B
100
AcDbSymbolTableRecord
100
AcDbBlockTableRecord
  2
*PAPER_SPACE
340
21
  0
ENDTAB
  0
ENDSEC
  0
SECTION
  2
BLOCKS
  0
BLOCK
  5
D
100
AcDbEntity
  8
0
390
0
100
AcDbBlockBegin
  2
*MODEL_SPACE
 70
     0
 10
0.0
 20
0.0
 30
0.0
  3
*MODEL_SPACE
  1

  0
ENDBLK
  5
E
100
AcDbEntity
  8
0
390
0
100
AcDbBlockEnd
  0
BLOCK
  5
F
100
AcDbEntity
 67
     1
  8
0
390
0
100
AcDbBlockBegin
  2
*PAPER_SPACE
 70
     0
 10
0.0
 20
0.0
 30
0.0
  3
*PAPER_SPACE
  1

  0
ENDBLK
  5
10
100
AcDbEntity
 67
     1
  8
0
390
0
100
AcDbBlockEnd
  0
ENDSEC
  0
SECTION
  2
ENTITIES
  0
ARC
  5
27
100
AcDbEntity
  8
0
390
0
  6
Continuous
 62
     7
100
AcDbCircle
 10
-7.236873
 20
49.558987
 30
0.0
 40
2.864782
210
0.0
220
0.0
230
1.0
100
AcDbArc
 50
181.947346
 51
211.975766
  0
LINE
  5
28
100
AcDbEntity
  8
0
390
0
  6
Continuous
 62
     7
100
AcDbLine
 10
-9.666987
 20
48.041911
 30
0.0
 11
-9.666987
 21
47.970965
 31
0.0
  0
ARC
  5
29
100
AcDbEntity
  8
0
390
0
  6
Continuous
 62
     7
100
AcDbCircle
 10
-0.042605
 20
45.050517
 30
0.0
 40
10.057721
210
0.0
220
0.0
230
1.0
100
AcDbArc
 50
163.119962
 51
179.538595
  0
LINE
  5
2A
100
AcDbEntity
  8
0
390
0
  6
Continuous
 62
     7
100
AcDbLine
 10
-10.1
 20
49.461638
 30
0.0
 11
-10.1
 21
45.131511
 31
0.0
  0
LINE
  5
2B
100
AcDbEntity
  8
0
390
0
  6
Continuous
 62
     7
100
AcDbLine
 10
-5.1
 20
48.041911
 30
0.0
 11
-9.666987
 21
48.041911
 31
0.0
  0
LINE
  5
2C
100
AcDbEntity
  8
0
390
0
  6
Continuous
 62
     7
100
AcDbLine
 10
-9.666987
 20
47.970965
 30
0.0
 11
-5.1
 21
47.970965
 31
0.0
  0
LINE
  5
2D
100
AcDbEntity
  8
0
390
0
  6
Continuous
 62
     7
100
AcDbLine
 10
-5.1
 20
42.292057
 30
0.0
 11
-9.666987
 21
42.292057
 31
0.0
  0
ARC
  5
2E
100
AcDbEntity
  8
0
390
0
  6
Continuous
 62
     7
100
AcDbCircle
 10
0.282121
 20
45.262026
 30
0.0
 40
10.382942
210
0.0
220
0.0
230
1.0
100
AcDbArc
 50
180.720233
 51
196.62121
  0
LINE
  5
2F
100
AcDbEntity
  8
0
390
0
  6
Continuous
 62
     7
100
AcDbLine
 10
-9.666987
 20
42.221111
 30
0.0
 11
-5.1
 21
42.221111
 31
0.0
  0
LINE
  5
30
100
AcDbEntity
  8
0
390
0
  6
Continuous
 62
     7
100
AcDbLine
 10
-9.666987
 20
42.292057
 30
0.0
 11
-9.666987
 21
42.221111
 31
0.0
  0
ARC
  5
31
100
AcDbEntity
  8
0
390
0
  6
Continuous
 62
     7
100
AcDbCircle
 10
-7.30158
 20
40.723771
 30
0.0
 40
2.799497
210
0.0
220
0.0
230
1.0
100
AcDbArc
 50
147.665552
 51
178.411336
  0
LINE
  5
32
100
AcDbEntity
  8
0
390
0
  6
Continuous
 62
     7
100
AcDbLine
 10
-10.1
 20
45.131511
 30
0.0
 11
-10.1
 21
40.801384
 31
0.0
  0
LINE
  5
33
100
AcDbEntity
  8
0
390
0
  6
Continuous
 62
     7
100
AcDbLine
 10
-5.1
 20
39.381657
 30
0.0
 11
-9.666987
 21
39.381657
 31
0.0
  0
ARC
  5
34
100
AcDbEntity
  8
0
390
0
  6
Continuous
 62
     7
100
AcDbCircle
 10
-7.236873
 20
40.898733
 30
0.0
 40
2.864782
210
0.0
220
0.0
230
1.0
100
AcDbArc
 50
181.947346
 51
211.975766
  0
LINE
  5
35
100
AcDbEntity
  8
0
390
0
  6
Continuous
 62
     7
100
AcDbLine
 10
-9.666987
 20
50.881365
 30
0.0
 11
-5.1
 21
50.881365
 31
0.0
  0
ARC
  5
36
100
AcDbEntity
  8
0
390
0
  6
Continuous
 62
     7
100
AcDbCircle
 10
-7.327681
 20
49.391986
 30
0.0
 40
2.773193
210
0.0
220
0.0
230
1.0
100
AcDbArc
 50
147.516088
 51
178.5608
  0
LINE
  5
37
100
AcDbEntity
  8
0
390
0
  6
Continuous
 62
     7
100
AcDbLine
 10
-10.1
 20
50.131511
 30
0.0
 11
-10.1
 21
49.461638
 31
0.0
  0
LINE
  5
38
100
AcDbEntity
  8
0
390
0
  6
Continuous
 62
     7
100
AcDbLine
 10
-9.666987
 20
50.881511
 30
0.0
 11
-9.666987
 21
50.881365
 31
0.0
  0
LINE
  5
39
100
AcDbEntity
  8
0
390
0
  6
Continuous
 62
     7
100
AcDbLine
 10
-9.666987
 20
39.381657
 30
0.0
 11
-9.666987
 21
39.381511
 31
0.0
  0
LINE
  5
3A
100
AcDbEntity
  8
0
390
0
  6
Continuous
 62
     7
100
AcDbLine
 10
-10.1
 20
40.801384
 30
0.0
 11
-10.1
 21
40.131511
 31
0.0
  0
ARC
  5
3B
100
AcDbEntity
  8
0
390
0
  6
Continuous
 62
     7
100
AcDbCircle
 10
-7.236873
 20
69.558987
 30
0.0
 40
2.864782
210
0.0
220
0.0
230
1.0
100
AcDbArc
 50
181.947346
 51
211.975766
  0
LINE
  5
3C
100
AcDbEntity
  8
0
390
0
  6
Continuous
 62
     7
100
AcDbLine
 10
-9.666987
 20
68.041911
 30
0.0
 11
-9.666987
 21
67.970965
 31
0.0
  0
ARC
  5
3D
100
AcDbEntity
  8
0
390
0
  6
Continuous
 62
     7
100
AcDbCircle
 10
-0.042605
 20
65.050517
 30
0.0
 40
10.057721
210
0.0
220
0.0
230
1.0
100
AcDbArc
 50
163.119962
 51
179.538595
  0
LINE
  5
3E
100
AcDbEntity
  8
0
390
0
  6
Continuous
 62
     7
100
AcDbLine
 10
-10.1
 20
69.461638
 30
0.0
 11
-10.1
 21
65.131511
 31
0.0
  0
ARC
  5
3F
100
AcDbEntity
  8
0
390
0
  6
Continuous
 62
     7
100
AcDbCircle
 10
-7.30158
 20
60.723771
 30
0.0
 40
2.799497
210
0.0
220
0.0
230
1.0
100
AcDbArc
 50
147.665552
 51
178.411336
  0
LINE
  5
40
100
AcDbEntity
  8
0
390
0
  6
Continuous
 62
     7
100
AcDbLine
 10
-10.1
 20
65.131511
 30
0.0
 11
-10.1
 21
60.801384
 31
0.0
  0
LINE
  5
41
100
AcDbEntity
  8
0
390
0
  6
Continuous
 62
     7
100
AcDbLine
 10
-9.666987
 20
62.221111
 30
0.0
 11
-5.1
 21
62.221111
 31
0.0
  0
LINE
  5
42
100
AcDbEntity
  8
0
390
0
  6
Continuous
 62
     7
100
AcDbLine
 10
-9.666987
 20
62.292057
 30
0.0
 11
-9.666987
 21
62.221111
 31
0.0
  0
LINE
  5
43
100
AcDbEntity
  8
0
390
0
  6
Continuous
 62
     7
100
AcDbLine
 10
-5.1
 20
68.041911
 30
0.0
 11
-9.666987
 21
68.041911
 31
0.0
  0
LINE
  5
44
100
AcDbEntity
  8
0
390
0
  6
Continuous
 62
     7
100
AcDbLine
 10
-9.666987
 20
67.970965
 30
0.0
 11
-5.1
 21
67.970965
 31
0.0
  0
LINE
  5
45
100
AcDbEntity
  8
0
390
0
  6
Continuous
 62
     7
100
AcDbLine
 10
-5.1
 20
62.292057
 30
0.0
 11
-9.666987
 21
62.292057
 31
0.0
  0
ARC
  5
46
100
AcDbEntity
  8
0
390
0
  6
Continuous
 62
     7
100
AcDbCircle
 10
0.282121
 20
65.262026
 30
0.0
 40
10.382942
210
0.0
220
0.0
230
1.0
100
AcDbArc
 50
180.720233
 51
196.62121
  0
LINE
  5
47
100
AcDbEntity
  8
0
390
0
  6
Continuous
 62
     7
100
AcDbLine
 10
-5.1
 20
59.381657
 30
0.0
 11
-9.666987
 21
59.381657
 31
0.0
  0
ARC
  5
48
100
AcDbEntity
  8
0
390
0
  6
Continuous
 62
     7
100
AcDbCircle
 10
-7.236873
 20
60.898733
 30
0.0
 40
2.864782
210
0.0
220
0.0
230
1.0
100
AcDbArc
 50
181.947346
 51
211.975766
  0
LINE
  5
49
100
AcDbEntity
  8
0
390
0
  6
Continuous
 62
     7
100
AcDbLine
 10
-9.666987
 20
70.881365
 30
0.0
 11
-5.1
 21
70.881365
 31
0.0
  0
ARC
  5
4A
100
AcDbEntity
  8
0
390
0
  6
Continuous
 62
     7
100
AcDbCircle
 10
-7.327681
 20
69.391986
 30
0.0
 40
2.773193
210
0.0
220
0.0
230
1.0
100
AcDbArc
 50
147.516088
 51
178.5608
  0
LINE
  5
4B
100
AcDbEntity
  8
0
390
0
  6
Continuous
 62
     7
100
AcDbLine
 10
-10.1
 20
70.131511
 30
0.0
 11
-10.1
 21
69.461638
 31
0.0
  0
LINE
  5
4C
100
AcDbEntity
  8
0
390
0
  6
Continuous
 62
     7
100
AcDbLine
 10
-9.666987
 20
70.881511
 30
0.0
 11
-9.666987
 21
70.881365
 31
0.0
  0
LINE
  5
4D
100
AcDbEntity
  8
0
390
0
  6
Continuous
 62
     7
100
AcDbLine
 10
-9.666987
 20
59.381657
 30
0.0
 11
-9.666987
 21
59.381511
 31
0.0
  0
LINE
  5
4E
100
AcDbEntity
  8
0
390
0
  6
Continuous
 62
     7
100
AcDbLine
 10
-10.1
 20
60.801384
 30
0.0
 11
-10.1
 21
60.131511
 31
0.0
  0
LINE
  5
4F
100
AcDbEntity
  8
0
390
0
  6
Continuous
 62
     7
100
AcDbLine
 10
9.1
 20
68.018263
 30
0.0
 11
5.1
 21
68.018263
 31
0.0
  0
LINE
  5
50
100
AcDbEntity
  8
0
390
0
  6
Continuous
 62
     7
100
AcDbLine
 10
9.1
 20
68.018263
 30
0.0
 11
9.1
 21
62.24476
 31
0.0
  0
LINE
  5
51
100
AcDbEntity
  8
0
390
0
  6
Continuous
 62
     7
100
AcDbLine
 10
9.1
 20
62.24476
 30
0.0
 11
5.1
 21
62.24476
 31
0.0
  0
LINE
  5
52
100
AcDbEntity
  8
0
390
0
  6
Continuous
 62
     7
100
AcDbLine
 10
9.1
 20
62.24476
 30
0.0
 11
9.1
 21
59.358009
 31
0.0
  0
LINE
  5
53
100
AcDbEntity
  8
0
390
0
  6
Continuous
 62
     7
100
AcDbLine
 10
9.1
 20
59.358009
 30
0.0
 11
5.1
 21
59.358009
 31
0.0
  0
LINE
  5
54
100
AcDbEntity
  8
0
390
0
  6
Continuous
 62
     7
100
AcDbLine
 10
9.1
 20
70.905014
 30
0.0
 11
5.1
 21
70.905014
 31
0.0
  0
LINE
  5
55
100
AcDbEntity
  8
0
390
0
  6
Continuous
 62
     7
100
AcDbLine
 10
9.1
 20
70.905014
 30
0.0
 11
9.1
 21
68.018263
 31
0.0
  0
LINE
  5
56
100
AcDbEntity
  8
0
390
0
  6
Continuous
 62
     7
100
AcDbLine
 10
-14.4
 20
68.131511
 30
0.0
 11
-14.4
 21
62.131511
 31
0.0
  0
LINE
  5
57
100
AcDbEntity
  8
0
390
0
  6
Continuous
 62
     7
100
AcDbLine
 10
-14.9
 20
62.631511
 30
0.0
 11
-14.9
 21
67.631511
 31
0.0
  0
LINE
  5
58
100
AcDbEntity
  8
0
390
0
  6
Continuous
 62
     7
100
AcDbLine
 10
9.1
 20
42.24476
 30
0.0
 11
9.1
 21
39.358009
 31
0.0
  0
LINE
  5
59
100
AcDbEntity
  8
0
390
0
  6
Continuous
 62
     7
100
AcDbLine
 10
9.1
 20
39.358009
 30
0.0
 11
5.1
 21
39.358009
 31
0.0
  0
LINE
  5
5A
100
AcDbEntity
  8
0
390
0
  6
Continuous
 62
     7
100
AcDbLine
 10
9.1
 20
48.018263
 30
0.0
 11
5.1
 21
48.018263
 31
0.0
  0
LINE
  5
5B
100
AcDbEntity
  8
0
390
0
  6
Continuous
 62
     7
100
AcDbLine
 10
9.1
 20
48.018263
 30
0.0
 11
9.1
 21
42.24476
 31
0.0
  0
LINE
  5
5C
100
AcDbEntity
  8
0
390
0
  6
Continuous
 62
     7
100
AcDbLine
 10
9.1
 20
42.24476
 30
0.0
 11
5.1
 21
42.24476
 31
0.0
  0
LINE
  5
5D
100
AcDbEntity
  8
0
390
0
  6
Continuous
 62
     7
100
AcDbLine
 10
9.1
 20
50.905014
 30
0.0
 11
5.1
 21
50.905014
 31
0.0
  0
LINE
  5
5E
100
AcDbEntity
  8
0
390
0
  6
Continuous
 62
     7
100
AcDbLine
 10
9.1
 20
50.905014
 30
0.0
 11
9.1
 21
48.018263
 31
0.0
  0
LINE
  5
5F
100
AcDbEntity
  8
0
390
0
  6
Continuous
 62
     7
100
AcDbLine
 10
-14.9
 20
42.631511
 30
0.0
 11
-14.9
 21
47.631511
 31
0.0
  0
LINE
  5
60
100
AcDbEntity
  8
0
390
0
  6
Continuous
 62
     7
100
AcDbLine
 10
-14.4
 20
48.131511
 30
0.0
 11
-14.4
 21
42.131511
 31
0.0
  0
ARC
  5
61
100
AcDbEntity
  8
0
390
0
  6
Continuous
 62
     7
100
AcDbCircle
 10
0.0
 20
0.0
 30
0.0
 40
34.495
210
0.0
220
0.0
230
1.0
100
AcDbArc
 50
100.185591
 51
79.814409
  0
LINE
  5
62
100
AcDbEntity
  8
0
390
0
  6
Continuous
 62
     7
100
AcDbLine
 10
-6.1
 20
37.631511
 30
0.0
 11
-6.1
 21
33.951363
 31
0.0
  0
LINE
  5
63
100
AcDbEntity
  8
0
390
0
  6
Continuous
 62
     7
100
AcDbLine
 10
-3.5
 20
37.631511
 30
0.0
 11
-6.1
 21
37.631511
 31
0.0
  0
LINE
  5
64
100
AcDbEntity
  8
0
390
0
  6
Continuous
 62
     7
100
AcDbLine
 10
-3.5
 20
31.353828
 30
0.0
 11
-3.5
 21
37.631511
 31
0.0
  0
LINE
  5
65
100
AcDbEntity
  8
0
390
0
  6
Continuous
 62
     7
100
AcDbLine
 10
3.5
 20
37.631511
 30
0.0
 11
3.5
 21
31.353828
 31
0.0
  0
LINE
  5
66
100
AcDbEntity
  8
0
390
0
  6
Continuous
 62
     7
100
AcDbLine
 10
6.1
 20
37.631511
 30
0.0
 11
3.5
 21
37.631511
 31
0.0
  0
LINE
  5
67
100
AcDbEntity
  8
0
390
0
  6
Continuous
 62
     7
100
AcDbLine
 10
6.1
 20
33.951363
 30
0.0
 11
6.1
 21
37.631511
 31
0.0
  0
ARC
  5
68
100
AcDbEntity
  8
0
390
0
  6
Continuous
 62
     7
100
AcDbCircle
 10
0.0
 20
0.0
 30
0.0
 40
30.25
210
0.0
220
0.0
230
1.0
100
AcDbArc
 50
99.060675
 51
80.939325
  0
ARC
  5
69
100
AcDbEntity
  8
0
390
0
  6
Continuous
 62
     7
100
AcDbCircle
 10
5.0
 20
31.353828
 30
0.0
 40
1.5
210
0.0
220
0.0
230
1.0
100
AcDbArc
 50
180.0
 51
260.939325
  0
ARC
  5
6A
100
AcDbEntity
  8
0
390
0
  6
Continuous
 62
     7
100
AcDbCircle
 10
-5.0
 20
31.353828
 30
0.0
 40
1.5
210
0.0
220
0.0
230
1.0
100
AcDbArc
 50
279.060675
 51
360.0
  0
ARC
  5
6B
100
AcDbEntity
  8
0
390
0
  6
Continuous
 62
     7
100
AcDbCircle
 10
0.0
 20
0.0
 30
0.0
 40
35.495
210
0.0
220
0.0
230
1.0
100
AcDbArc
 50
297.880297
 51
80.104299
  0
ARC
  5
6C
100
AcDbEntity
  8
0
390
0
  6
Continuous
 62
     7
100
AcDbCircle
 10
10.051618
 20
-19.0
 30
0.0
 40
14.0
210
0.0
220
0.0
230
1.0
100
AcDbArc
 50
270.0
 51
297.880297
  0
LINE
  5
6D
100
AcDbEntity
  8
0
390
0
  6
Continuous
 62
     7
100
AcDbLine
 10
10.045149
 20
-33.0
 30
0.0
 11
10.051618
 21
-33.0
 31
0.0
  0
ARC
  5
6E
100
AcDbEntity
  8
0
390
0
  6
Continuous
 62
     7
100
AcDbCircle
 10
10.051618
 20
-19.0
 30
0.0
 40
15.0
210
0.0
220
0.0
230
1.0
100
AcDbArc
 50
270.0
 51
297.880297
  0
LINE
  5
6F
100
AcDbEntity
  8
0
390
0
  6
Continuous
 62
     7
100
AcDbLine
 10
10.051618
 20
-34.0
 30
0.0
 11
10.051618
 21
-33.0
 31
0.0
  0
LINE
  5
70
100
AcDbEntity
  8
0
390
0
  6
Continuous
 62
     7
100
AcDbLine
 10
17.066006
 20
-32.258897
 30
0.0
 11
16.59838
 21
-31.374971
 31
0.0
  0
ARC
  5
71
100
AcDbEntity
  8
0
390
0
  6
Continuous
 62
     7
100
AcDbCircle
 10
-10.051618
 20
-19.0
 30
0.0
 40
14.0
210
0.0
220
0.0
230
0.9999999999999999
100
AcDbArc
 50
242.119703
 51
270.0
  0
LINE
  5
72
100
AcDbEntity
  8
0
390
0
  6
Continuous
 62
     7
100
AcDbLine
 10
-10.051618
 20
-33.0
 30
0.0
 11
-10.051618
 21
-34.0
 31
0.0
  0
ARC
  5
73
100
AcDbEntity
  8
0
390
0
  6
Continuous
 62
     7
100
AcDbCircle
 10
-10.051618
 20
-19.0
 30
0.0
 40
15.0
210
0.0
220
0.0
230
1.0
100
AcDbArc
 50
242.119703
 51
270.0
  0
LINE
  5
74
100
AcDbEntity
  8
0
390
0
  6
Continuous
 62
     7
100
AcDbLine
 10
-16.59838
 20
-31.374971
 30
0.0
 11
-17.066006
 21
-32.258897
 31
0.0
  0
ARC
  5
75
100
AcDbEntity
  8
0
390
0
  6
Continuous
 62
     7
100
AcDbCircle
 10
0.0
 20
0.0
 30
0.0
 40
35.495
210
0.0
220
0.0
230
1.0
100
AcDbArc
 50
99.895701
 51
242.119703
  0
ARC
  5
76
100
AcDbEntity
  8
0
390
0
  6
Continuous
 62
     7
100
AcDbCircle
 10
0.0
 20
0.0
 30
0.0
 40
36.495
210
0.0
220
0.0
230
1.0
100
AcDbArc
 50
99.621933
 51
242.119703
  0
LINE
  5
77
100
AcDbEntity
  8
0
390
0
  6
Continuous
 62
     7
100
AcDbLine
 10
-10.051618
 20
-33.0
 30
0.0
 11
-10.045149
 21
-33.0
 31
0.0
  0
LINE
  5
78
100
AcDbEntity
  8
0
390
0
  6
Continuous
 62
     7
100
AcDbLine
 10
-5.822802
 20
-34.0
 30
0.0
 11
-10.051618
 21
-34.0
 31
0.0
  0
LINE
  5
79
100
AcDbEntity
  8
0
390
0
  6
Continuous
 62
     7
100
AcDbLine
 10
10.051618
 20
-34.0
 30
0.0
 11
5.822802
 21
-34.0
 31
0.0
  0
ARC
  5
7A
100
AcDbEntity
  8
0
390
0
  6
Continuous
 62
     7
100
AcDbCircle
 10
0.0
 20
0.0
 30
0.0
 40
36.495
210
0.0
220
0.0
230
1.0
100
AcDbArc
 50
297.880297
 51
80.378067
  0
LINE
  5
7B
100
AcDbEntity
  8
0
390
0
  6
Continuous
 62
     7
100
AcDbLine
 10
4.5
 20
76.323253
 30
0.0
 11
5.1
 21
76.323253
 31
0.0
  0
LINE
  5
7C
100
AcDbEntity
  8
0
390
0
  6
Continuous
 62
     7
100
AcDbLine
 10
-5.1
 20
76.323253
 30
0.0
 11
-4.5
 21
76.323253
 31
0.0
  0
LINE
  5
7D
100
AcDbEntity
  8
0
390
0
  6
Continuous
 62
     7
100
AcDbLine
 10
5.1
 20
37.631511
 30
0.0
 11
5.1
 21
76.323253
 31
0.0
  0
LINE
  5
7E
100
AcDbEntity
  8
0
390
0
  6
Continuous
 62
     7
100
AcDbLine
 10
4.5
 20
37.631511
 30
0.0
 11
4.5
 21
76.323253
 31
0.0
  0
LINE
  5
7F
100
AcDbEntity
  8
0
390
0
  6
Continuous
 62
     7
100
AcDbLine
 10
-5.1
 20
76.323253
 30
0.0
 11
-5.1
 21
37.631511
 31
0.0
  0
LINE
  5
80
100
AcDbEntity
  8
0
390
0
  6
Continuous
 62
     7
100
AcDbLine
 10
-4.5
 20
76.323253
 30
0.0
 11
-4.5
 21
37.631511
 31
0.0
  0
LINE
  5
81
100
AcDbEntity
  8
0
390
0
  6
Continuous
 62
     7
100
AcDbLine
 10
-4.5
 20
78.631511
 30
0.0
 11
-4.5
 21
76.323253
 31
0.0
  0
LINE
  5
82
100
AcDbEntity
  8
0
390
0
  6
Continuous
 62
     7
100
AcDbLine
 10
-5.1
 20
78.631511
 30
0.0
 11
-5.1
 21
76.323253
 31
0.0
  0
LINE
  5
83
100
AcDbEntity
  8
0
390
0
  6
Continuous
 62
     7
100
AcDbLine
 10
5.1
 20
76.323253
 30
0.0
 11
5.1
 21
78.631511
 31
0.0
  0
LINE
  5
84
100
AcDbEntity
  8
0
390
0
  6
Continuous
 62
     7
100
AcDbLine
 10
4.5
 20
76.323253
 30
0.0
 11
4.5
 21
78.631511
 31
0.0
  0
LINE
  5
85
100
AcDbEntity
  8
0
390
0
  6
Continuous
 62
     7
100
AcDbLine
 10
-9.666987
 20
50.881511
 30
0.0
 11
-10.1
 21
50.131511
 31
0.0
  0
LINE
  5
86
100
AcDbEntity
  8
0
390
0
  6
Continuous
 62
     7
100
AcDbLine
 10
-10.1
 20
40.131511
 30
0.0
 11
-9.666987
 21
39.381511
 31
0.0
  0
LINE
  5
87
100
AcDbEntity
  8
0
390
0
  6
Continuous
 62
     7
100
AcDbLine
 10
-5.1
 20
50.881511
 30
0.0
 11
-9.666987
 21
50.881511
 31
0.0
  0
LINE
  5
88
100
AcDbEntity
  8
0
390
0
  6
Continuous
 62
     7
100
AcDbLine
 10
-9.666987
 20
39.381511
 30
0.0
 11
-5.1
 21
39.381511
 31
0.0
  0
LINE
  5
89
100
AcDbEntity
  8
0
390
0
  6
Continuous
 62
     7
100
AcDbLine
 10
-9.666987
 20
70.881511
 30
0.0
 11
-10.1
 21
70.131511
 31
0.0
  0
LINE
  5
8A
100
AcDbEntity
  8
0
390
0
  6
Continuous
 62
     7
100
AcDbLine
 10
-10.1
 20
60.131511
 30
0.0
 11
-9.666987
 21
59.381511
 31
0.0
  0
LINE
  5
8B
100
AcDbEntity
  8
0
390
0
  6
Continuous
 62
     7
100
AcDbLine
 10
-9.666987
 20
59.381511
 30
0.0
 11
-5.1
 21
59.381511
 31
0.0
  0
LINE
  5
8C
100
AcDbEntity
  8
0
390
0
  6
Continuous
 62
     7
100
AcDbLine
 10
-5.1
 20
70.881511
 30
0.0
 11
-9.666987
 21
70.881511
 31
0.0
  0
LINE
  5
8D
100
AcDbEntity
  8
0
390
0
  6
Continuous
 62
     7
100
AcDbLine
 10
-14.4
 20
62.131511
 30
0.0
 11
-10.1
 21
62.131511
 31
0.0
  0
LINE
  5
8E
100
AcDbEntity
  8
0
390
0
  6
Continuous
 62
     7
100
AcDbLine
 10
-4.5
 20
62.131511
 30
0.0
 11
4.5
 21
62.131511
 31
0.0
  0
LINE
  5
8F
100
AcDbEntity
  8
0
390
0
  6
Continuous
 62
     7
100
AcDbLine
 10
4.5
 20
68.131511
 30
0.0
 11
-4.5
 21
68.131511
 31
0.0
  0
LINE
  5
90
100
AcDbEntity
  8
0
390
0
  6
Continuous
 62
     7
100
AcDbLine
 10
-10.1
 20
68.131511
 30
0.0
 11
-14.4
 21
68.131511
 31
0.0
  0
LINE
  5
91
100
AcDbEntity
  8
0
390
0
  6
Continuous
 62
     7
100
AcDbLine
 10
-14.4
 20
68.131511
 30
0.0
 11
-14.9
 21
67.631511
 31
0.0
  0
LINE
  5
92
100
AcDbEntity
  8
0
390
0
  6
Continuous
 62
     7
100
AcDbLine
 10
-14.9
 20
62.631511
 30
0.0
 11
-14.4
 21
62.131511
 31
0.0
  0
LINE
  5
93
100
AcDbEntity
  8
0
390
0
  6
Continuous
 62
     7
100
AcDbLine
 10
-14.4
 20
48.131511
 30
0.0
 11
-14.9
 21
47.631511
 31
0.0
  0
LINE
  5
94
100
AcDbEntity
  8
0
390
0
  6
Continuous
 62
     7
100
AcDbLine
 10
-14.9
 20
42.631511
 30
0.0
 11
-14.4
 21
42.131511
 31
0.0
  0
LINE
  5
95
100
AcDbEntity
  8
0
390
0
  6
Continuous
 62
     7
100
AcDbLine
 10
-14.4
 20
42.131511
 30
0.0
 11
-10.1
 21
42.131511
 31
0.0
  0
LINE
  5
96
100
AcDbEntity
  8
0
390
0
  6
Continuous
 62
     7
100
AcDbLine
 10
-4.5
 20
42.131511
 30
0.0
 11
4.5
 21
42.131511
 31
0.0
  0
LINE
  5
97
100
AcDbEntity
  8
0
390
0
  6
Continuous
 62
     7
100
AcDbLine
 10
4.5
 20
48.131511
 30
0.0
 11
-4.5
 21
48.131511
 31
0.0
  0
LINE
  5
98
100
AcDbEntity
  8
0
390
0
  6
Continuous
 62
     7
100
AcDbLine
 10
-10.1
 20
48.131511
 30
0.0
 11
-14.4
 21
48.131511
 31
0.0
  0
LINE
  5
99
100
AcDbEntity
  8
0
390
0
  6
Continuous
 62
     7
100
AcDbLine
 10
-4.5
 20
78.631511
 30
0.0
 11
-5.1
 21
78.631511
 31
0.0
  0
LINE
  5
9A
100
AcDbEntity
  8
0
390
0
  6
Continuous
 62
     7
100
AcDbLine
 10
5.1
 20
78.631511
 30
0.0
 11
4.5
 21
78.631511
 31
0.0
  0
LINE
  5
9B
100
AcDbEntity
  8
0
390
0
  6
Continuous
 62
     7
100
AcDbLine
 10
128.34667
 20
62.24476
 30
0.0
 11
128.34667
 21
68.018263
 31
0.0
  0
LINE
  5
9C
100
AcDbEntity
  8
0
390
0
  6
Continuous
 62
     7
100
AcDbLine
 10
118.34667
 20
68.018263
 30
0.0
 11
118.34667
 21
62.24476
 31
0.0
  0
LINE
  5
9D
100
AcDbEntity
  8
0
390
0
  6
Continuous
 62
     7
100
AcDbLine
 10
123.34667
 20
59.358009
 30
0.0
 11
128.34667
 21
62.24476
 31
0.0
  0
LINE
  5
9E
100
AcDbEntity
  8
0
390
0
  6
Continuous
 62
     7
100
AcDbLine
 10
118.34667
 20
62.24476
 30
0.0
 11
123.34667
 21
59.358009
 31
0.0
  0
LINE
  5
9F
100
AcDbEntity
  8
0
390
0
  6
Continuous
 62
     7
100
AcDbLine
 10
123.34667
 20
70.905014
 30
0.0
 11
118.34667
 21
68.018263
 31
0.0
  0
LINE
  5
A0
100
AcDbEntity
  8
0
390
0
  6
Continuous
 62
     7
100
AcDbLine
 10
128.34667
 20
68.018263
 30
0.0
 11
123.34667
 21
70.905014
 31
0.0
  0
LINE
  5
A1
100
AcDbEntity
  8
0
390
0
  6
Continuous
 62
     7
100
AcDbLine
 10
128.34667
 20
42.24476
 30
0.0
 11
128.34667
 21
48.018263
 31
0.0
  0
LINE
  5
A2
100
AcDbEntity
  8
0
390
0
  6
Continuous
 62
     7
100
AcDbLine
 10
118.34667
 20
48.018263
 30
0.0
 11
118.34667
 21
42.24476
 31
0.0
  0
LINE
  5
A3
100
AcDbEntity
  8
0
390
0
  6
Continuous
 62
     7
100
AcDbLine
 10
123.34667
 20
39.358009
 30
0.0
 11
128.34667
 21
42.24476
 31
0.0
  0
LINE
  5
A4
100
AcDbEntity
  8
0
390
0
  6
Continuous
 62
     7
100
AcDbLine
 10
118.34667
 20
42.24476
 30
0.0
 11
123.34667
 21
39.358009
 31
0.0
  0
LINE
  5
A5
100
AcDbEntity
  8
0
390
0
  6
Continuous
 62
     7
100
AcDbLine
 10
123.34667
 20
50.905014
 30
0.0
 11
118.34667
 21
48.018263
 31
0.0
  0
LINE
  5
A6
100
AcDbEntity
  8
0
390
0
  6
Continuous
 62
     7
100
AcDbLine
 10
128.34667
 20
48.018263
 30
0.0
 11
123.34667
 21
50.905014
 31
0.0
  0
LINE
  5
A7
100
AcDbEntity
  8
0
390
0
  6
Continuous
 62
     7
100
AcDbLine
 10
130.84667
 20
34.966913
 30
0.0
 11
130.84667
 21
-31.374971
 31
0.0
  0
LINE
  5
A8
100
AcDbEntity
  8
0
390
0
  6
Continuous
 62
     7
100
AcDbLine
 10
130.84667
 20
-31.374971
 30
0.0
 11
129.84667
 21
-32.258897
 31
0.0
  0
LINE
  5
A9
100
AcDbEntity
  8
0
390
0
  6
Continuous
 62
     7
100
AcDbLine
 10
129.84667
 20
-32.258897
 30
0.0
 11
129.84667
 21
35.981593
 31
0.0
  0
LINE
  5
AA
100
AcDbEntity
  8
0
390
0
  6
Continuous
 62
     7
100
AcDbLine
 10
129.84667
 20
35.981593
 30
0.0
 11
130.84667
 21
34.966913
 31
0.0
  0
LINE
  5
AB
100
AcDbEntity
  8
0
390
0
  6
Continuous
 62
     7
100
AcDbLine
 10
129.84667
 20
-32.258897
 30
0.0
 11
116.84667
 21
-32.258897
 31
0.0
  0
LINE
  5
AC
100
AcDbEntity
  8
0
390
0
  6
Continuous
 62
     7
100
AcDbLine
 10
116.84667
 20
35.981593
 30
0.0
 11
116.84667
 21
-32.258897
 31
0.0
  0
LINE
  5
AD
100
AcDbEntity
  8
0
390
0
  6
Continuous
 62
     7
100
AcDbLine
 10
129.84667
 20
35.981593
 30
0.0
 11
116.84667
 21
35.981593
 31
0.0
  0
LINE
  5
AE
100
AcDbEntity
  8
0
390
0
  6
Continuous
 62
     7
100
AcDbLine
 10
116.84667
 20
-32.258897
 30
0.0
 11
115.84667
 21
-31.374971
 31
0.0
  0
LINE
  5
AF
100
AcDbEntity
  8
0
390
0
  6
Continuous
 62
     7
100
AcDbLine
 10
115.84667
 20
-31.374971
 30
0.0
 11
115.84667
 21
34.966913
 31
0.0
  0
LINE
  5
B0
100
AcDbEntity
  8
0
390
0
  6
Continuous
 62
     7
100
AcDbLine
 10
115.84667
 20
34.966913
 30
0.0
 11
116.84667
 21
35.981593
 31
0.0
  0
LINE
  5
B1
100
AcDbEntity
  8
0
390
0
  6
Continuous
 62
     7
100
AcDbLine
 10
137.34667
 20
-34.495
 30
0.0
 11
137.34667
 21
33.951363
 31
0.0
  0
LINE
  5
B2
100
AcDbEntity
  8
0
390
0
  6
Continuous
 62
     7
100
AcDbLine
 10
109.34667
 20
-34.495
 30
0.0
 11
109.34667
 21
33.951363
 31
0.0
  0
LINE
  5
B3
100
AcDbEntity
  8
0
390
0
  6
Continuous
 62
     7
100
AcDbLine
 10
137.34667
 20
33.951363
 30
0.0
 11
130.84667
 21
33.951363
 31
0.0
  0
LINE
  5
B4
100
AcDbEntity
  8
0
390
0
  6
Continuous
 62
     7
100
AcDbLine
 10
115.84667
 20
33.951363
 30
0.0
 11
109.34667
 21
33.951363
 31
0.0
  0
LINE
  5
B5
100
AcDbEntity
  8
0
390
0
  6
Continuous
 62
     7
100
AcDbLine
 10
129.84667
 20
-34.0
 30
0.0
 11
129.84667
 21
-32.258897
 31
0.0
  0
LINE
  5
B6
100
AcDbEntity
  8
0
390
0
  6
Continuous
 62
     7
100
AcDbLine
 10
129.84667
 20
-34.0
 30
0.0
 11
116.84667
 21
-34.0
 31
0.0
  0
LINE
  5
B7
100
AcDbEntity
  8
0
390
0
  6
Continuous
 62
     7
100
AcDbLine
 10
116.84667
 20
-32.258897
 30
0.0
 11
116.84667
 21
-34.0
 31
0.0
  0
LINE
  5
B8
100
AcDbEntity
  8
0
390
0
  6
Continuous
 62
     7
100
AcDbLine
 10
130.84667
 20
-33.0
 30
0.0
 11
129.84667
 21
-34.0
 31
0.0
  0
LINE
  5
B9
100
AcDbEntity
  8
0
390
0
  6
Continuous
 62
     7
100
AcDbLine
 10
130.84667
 20
-31.374971
 30
0.0
 11
130.84667
 21
-33.0
 31
0.0
  0
LINE
  5
BA
100
AcDbEntity
  8
0
390
0
  6
Continuous
 62
     7
100
AcDbLine
 10
116.84667
 20
-34.0
 30
0.0
 11
115.84667
 21
-33.0
 31
0.0
  0
LINE
  5
BB
100
AcDbEntity
  8
0
390
0
  6
Continuous
 62
     7
100
AcDbLine
 10
115.84667
 20
-33.0
 30
0.0
 11
115.84667
 21
-31.374971
 31
0.0
  0
LINE
  5
BC
100
AcDbEntity
  8
0
390
0
  6
Continuous
 62
     7
100
AcDbLine
 10
137.34667
 20
37.631511
 30
0.0
 11
109.34667
 21
37.631511
 31
0.0
  0
LINE
  5
BD
100
AcDbEntity
  8
0
390
0
  6
Continuous
 62
     7
100
AcDbLine
 10
137.34667
 20
33.951363
 30
0.0
 11
137.34667
 21
37.631511
 31
0.0
  0
LINE
  5
BE
100
AcDbEntity
  8
0
390
0
  6
Continuous
 62
     7
100
AcDbLine
 10
109.34667
 20
33.951363
 30
0.0
 11
109.34667
 21
37.631511
 31
0.0
  0
ARC
  5
BF
100
AcDbEntity
  8
0
390
0
  6
Continuous
 62
     7
100
AcDbCircle
 10
123.34667
 20
43.631511
 30
0.0
 40
35.0
210
0.0
220
0.0
230
0.9999999999999999
100
AcDbArc
 50
69.075168
 51
110.924832
  0
LINE
  5
C0
100
AcDbEntity
  8
0
390
0
  6
Continuous
 62
     7
100
AcDbLine
 10
110.84667
 20
37.631511
 30
0.0
 11
110.84667
 21
76.323253
 31
0.0
  0
LINE
  5
C1
100
AcDbEntity
  8
0
390
0
  6
Continuous
 62
     7
100
AcDbLine
 10
135.84667
 20
37.631511
 30
0.0
 11
135.84667
 21
76.323253
 31
0.0
  0
LINE
  5
C2
100
AcDbEntity
  8
0
390
0
  6
Continuous
 62
     7
100
AcDbLine
 10
109.34667
 20
-34.495
 30
0.0
 11
137.34667
 21
-34.495
 31
0.0
  0
LINE
  5
C3
100
AcDbEntity
  8
0
390
0
  6
Continuous
 62
     7
100
AcDbLine
 10
-34.495
 20
-109.717704
 30
0.0
 11
34.495
 21
-109.717704
 31
0.0
  0
LINE
  5
C4
100
AcDbEntity
  8
0
390
0
  6
Continuous
 62
     7
100
AcDbLine
 10
-34.495
 20
-81.717704
 30
0.0
 11
34.495
 21
-81.717704
 31
0.0
  0
ARC
  5
C5
100
AcDbEntity
  8
0
390
0
  6
Continuous
 62
     7
100
AcDbCircle
 10
0.0
 20
-136.217704
 30
0.0
 40
34.495
210
0.0
220
0.0
230
1.0
100
AcDbArc
 50
99.718134
 51
106.930168
  0
LINE
  5
C6
100
AcDbEntity
  8
0
390
0
  6
Continuous
 62
     7
100
AcDbLine
 10
-5.822802
 20
-102.217704
 30
0.0
 11
-5.822802
 21
-89.217704
 31
0.0
  0
ARC
  5
C7
100
AcDbEntity
  8
0
390
0
  6
Continuous
 62
     7
100
AcDbCircle
 10
0.0
 20
-55.217704
 30
0.0
 40
34.495
210
0.0
220
0.0
230
1.0
100
AcDbArc
 50
253.069832
 51
260.281866
  0
ARC
  5
C8
100
AcDbEntity
  8
0
390
0
  6
Continuous
 62
     7
100
AcDbCircle
 10
0.0
 20
-55.217704
 30
0.0
 40
34.495
210
0.0
220
0.0
230
1.0
100
AcDbArc
 50
279.718134
 51
286.930168
  0
LINE
  5
C9
100
AcDbEntity
  8
0
390
0
  6
Continuous
 62
     7
100
AcDbLine
 10
5.822802
 20
-102.217704
 30
0.0
 11
5.822802
 21
-89.217704
 31
0.0
  0
ARC
  5
CA
100
AcDbEntity
  8
0
390
0
  6
Continuous
 62
     7
100
AcDbCircle
 10
0.0
 20
-136.217704
 30
0.0
 40
34.495
210
0.0
220
0.0
230
1.0
100
AcDbArc
 50
73.069832
 51
80.281866
  0
LINE
  5
CB
100
AcDbEntity
  8
0
390
0
  6
Continuous
 62
     7
100
AcDbLine
 10
-10.051618
 20
-88.217704
 30
0.0
 11
-10.045149
 21
-88.217704
 31
0.0
  0
LINE
  5
CC
100
AcDbEntity
  8
0
390
0
  6
Continuous
 62
     7
100
AcDbLine
 10
-5.822802
 20
-89.217704
 30
0.0
 11
-10.051618
 21
-89.217704
 31
0.0
  0
LINE
  5
CD
100
AcDbEntity
  8
0
390
0
  6
Continuous
 62
     7
100
AcDbLine
 10
-10.051618
 20
-88.217704
 30
0.0
 11
-10.051618
 21
-89.217704
 31
0.0
  0
LINE
  5
CE
100
AcDbEntity
  8
0
390
0
  6
Continuous
 62
     7
100
AcDbLine
 10
-10.051618
 20
-102.217704
 30
0.0
 11
-5.822802
 21
-102.217704
 31
0.0
  0
LINE
  5
CF
100
AcDbEntity
  8
0
390
0
  6
Continuous
 62
     7
100
AcDbLine
 10
-10.051618
 20
-102.217704
 30
0.0
 11
-10.051618
 21
-89.217704
 31
0.0
  0
LINE
  5
D0
100
AcDbEntity
  8
0
390
0
  6
Continuous
 62
     7
100
AcDbLine
 10
10.051618
 20
-103.217704
 30
0.0
 11
10.045149
 21
-103.217704
 31
0.0
  0
LINE
  5
D1
100
AcDbEntity
  8
0
390
0
  6
Continuous
 62
     7
100
AcDbLine
 10
5.822802
 20
-102.217704
 30
0.0
 11
10.051618
 21
-102.217704
 31
0.0
  0
LINE
  5
D2
100
AcDbEntity
  8
0
390
0
  6
Continuous
 62
     7
100
AcDbLine
 10
10.051618
 20
-103.217704
 30
0.0
 11
10.051618
 21
-102.217704
 31
0.0
  0
LINE
  5
D3
100
AcDbEntity
  8
0
390
0
  6
Continuous
 62
     7
100
AcDbLine
 10
-10.045149
 20
-103.217704
 30
0.0
 11
-10.051618
 21
-103.217704
 31
0.0
  0
LINE
  5
D4
100
AcDbEntity
  8
0
390
0
  6
Continuous
 62
     7
100
AcDbLine
 10
-10.051618
 20
-102.217704
 30
0.0
 11
-10.051618
 21
-103.217704
 31
0.0
  0
LINE
  5
D5
100
AcDbEntity
  8
0
390
0
  6
Continuous
 62
     7
100
AcDbLine
 10
-17.066006
 20
-102.217704
 30
0.0
 11
-10.051618
 21
-102.217704
 31
0.0
  0
LINE
  5
D6
100
AcDbEntity
  8
0
390
0
  6
Continuous
 62
     7
100
AcDbLine
 10
-10.051618
 20
-103.217704
 30
0.0
 11
-16.59838
 21
-103.217704
 31
0.0
  0
LINE
  5
D7
100
AcDbEntity
  8
0
390
0
  6
Continuous
 62
     7
100
AcDbLine
 10
-17.066006
 20
-102.217704
 30
0.0
 11
-16.59838
 21
-103.217704
 31
0.0
  0
LINE
  5
D8
100
AcDbEntity
  8
0
390
0
  6
Continuous
 62
     7
100
AcDbLine
 10
-10.051618
 20
-89.217704
 30
0.0
 11
-17.066006
 21
-89.217704
 31
0.0
  0
LINE
  5
D9
100
AcDbEntity
  8
0
390
0
  6
Continuous
 62
     7
100
AcDbLine
 10
-17.066006
 20
-102.217704
 30
0.0
 11
-17.066006
 21
-89.217704
 31
0.0
  0
LINE
  5
DA
100
AcDbEntity
  8
0
390
0
  6
Continuous
 62
     7
100
AcDbLine
 10
10.051618
 20
-89.217704
 30
0.0
 11
5.822802
 21
-89.217704
 31
0.0
  0
LINE
  5
DB
100
AcDbEntity
  8
0
390
0
  6
Continuous
 62
     7
100
AcDbLine
 10
10.045149
 20
-88.217704
 30
0.0
 11
10.051618
 21
-88.217704
 31
0.0
  0
LINE
  5
DC
100
AcDbEntity
  8
0
390
0
  6
Continuous
 62
     7
100
AcDbLine
 10
10.051618
 20
-89.217704
 30
0.0
 11
10.051618
 21
-88.217704
 31
0.0
  0
LINE
  5
DD
100
AcDbEntity
  8
0
390
0
  6
Continuous
 62
     7
100
AcDbLine
 10
-16.59838
 20
-88.217704
 30
0.0
 11
-10.051618
 21
-88.217704
 31
0.0
  0
LINE
  5
DE
100
AcDbEntity
  8
0
390
0
  6
Continuous
 62
     7
100
AcDbLine
 10
-16.59838
 20
-88.217704
 30
0.0
 11
-17.066006
 21
-89.217704
 31
0.0
  0
LINE
  5
DF
100
AcDbEntity
  8
0
390
0
  6
Continuous
 62
     7
100
AcDbLine
 10
10.051618
 20
-102.217704
 30
0.0
 11
10.051618
 21
-89.217704
 31
0.0
  0
LINE
  5
E0
100
AcDbEntity
  8
0
390
0
  6
Continuous
 62
     7
100
AcDbLine
 10
16.59838
 20
-103.217704
 30
0.0
 11
10.051618
 21
-103.217704
 31
0.0
  0
LINE
  5
E1
100
AcDbEntity
  8
0
390
0
  6
Continuous
 62
     7
100
AcDbLine
 10
10.051618
 20
-102.217704
 30
0.0
 11
17.066006
 21
-102.217704
 31
0.0
  0
LINE
  5
E2
100
AcDbEntity
  8
0
390
0
  6
Continuous
 62
     7
100
AcDbLine
 10
16.59838
 20
-103.217704
 30
0.0
 11
17.066006
 21
-102.217704
 31
0.0
  0
LINE
  5
E3
100
AcDbEntity
  8
0
390
0
  6
Continuous
 62
     7
100
AcDbLine
 10
17.066006
 20
-89.217704
 30
0.0
 11
10.051618
 21
-89.217704
 31
0.0
  0
LINE
  5
E4
100
AcDbEntity
  8
0
390
0
  6
Continuous
 62
     7
100
AcDbLine
 10
17.066006
 20
-102.217704
 30
0.0
 11
17.066006
 21
-89.217704
 31
0.0
  0
LINE
  5
E5
100
AcDbEntity
  8
0
390
0
  6
Continuous
 62
     7
100
AcDbLine
 10
10.051618
 20
-88.217704
 30
0.0
 11
16.59838
 21
-88.217704
 31
0.0
  0
LINE
  5
E6
100
AcDbEntity
  8
0
390
0
  6
Continuous
 62
     7
100
AcDbLine
 10
17.066006
 20
-89.217704
 30
0.0
 11
16.59838
 21
-88.217704
 31
0.0
  0
LINE
  5
E7
100
AcDbEntity
  8
0
390
0
  6
Continuous
 62
     7
100
AcDbLine
 10
36.495
 20
-89.217704
 30
0.0
 11
17.066006
 21
-89.217704
 31
0.0
  0
LINE
  5
E8
100
AcDbEntity
  8
0
390
0
  6
Continuous
 62
     7
100
AcDbLine
 10
16.59838
 20
-88.217704
 30
0.0
 11
35.495
 21
-88.217704
 31
0.0
  0
LINE
  5
E9
100
AcDbEntity
  8
0
390
0
  6
Continuous
 62
     7
100
AcDbLine
 10
17.066006
 20
-102.217704
 30
0.0
 11
36.495
 21
-102.217704
 31
0.0
  0
LINE
  5
EA
100
AcDbEntity
  8
0
390
0
  6
Continuous
 62
     7
100
AcDbLine
 10
35.495
 20
-103.217704
 30
0.0
 11
16.59838
 21
-103.217704
 31
0.0
  0
LINE
  5
EB
100
AcDbEntity
  8
0
390
0
  6
Continuous
 62
     7
100
AcDbLine
 10
-36.495
 20
-102.217704
 30
0.0
 11
-17.066006
 21
-102.217704
 31
0.0
  0
LINE
  5
EC
100
AcDbEntity
  8
0
390
0
  6
Continuous
 62
     7
100
AcDbLine
 10
-16.59838
 20
-103.217704
 30
0.0
 11
-35.495
 21
-103.217704
 31
0.0
  0
LINE
  5
ED
100
AcDbEntity
  8
0
390
0
  6
Continuous
 62
     7
100
AcDbLine
 10
-17.066006
 20
-89.217704
 30
0.0
 11
-36.495
 21
-89.217704
 31
0.0
  0
LINE
  5
EE
100
AcDbEntity
  8
0
390
0
  6
Continuous
 62
     7
100
AcDbLine
 10
-35.495
 20
-88.217704
 30
0.0
 11
-16.59838
 21
-88.217704
 31
0.0
  0
LINE
  5
EF
100
AcDbEntity
  8
0
390
0
  6
Continuous
 62
     7
100
AcDbLine
 10
-34.495
 20
-103.217704
 30
0.0
 11
-34.495
 21
-109.717704
 31
0.0
  0
LINE
  5
F0
100
AcDbEntity
  8
0
390
0
  6
Continuous
 62
     7
100
AcDbLine
 10
-34.495
 20
-81.717704
 30
0.0
 11
-34.495
 21
-88.217704
 31
0.0
  0
LINE
  5
F1
100
AcDbEntity
  8
0
390
0
  6
Continuous
 62
     7
100
AcDbLine
 10
34.495
 20
-88.217704
 30
0.0
 11
34.495
 21
-81.717704
 31
0.0
  0
LINE
  5
F2
100
AcDbEntity
  8
0
390
0
  6
Continuous
 62
     7
100
AcDbLine
 10
34.495
 20
-109.717704
 30
0.0
 11
34.495
 21
-103.217704
 31
0.0
  0
LINE
  5
F3
100
AcDbEntity
  8
0
390
0
  6
Continuous
 62
     7
100
AcDbLine
 10
36.495
 20
-89.217704
 30
0.0
 11
35.495
 21
-88.217704
 31
0.0
  0
LINE
  5
F4
100
AcDbEntity
  8
0
390
0
  6
Continuous
 62
     7
100
AcDbLine
 10
36.495
 20
-102.217704
 30
0.0
 11
36.495
 21
-89.217704
 31
0.0
  0
LINE
  5
F5
100
AcDbEntity
  8
0
390
0
  6
Continuous
 62
     7
100
AcDbLine
 10
35.495
 20
-103.217704
 30
0.0
 11
36.495
 21
-102.217704
 31
0.0
  0
LINE
  5
F6
100
AcDbEntity
  8
0
390
0
  6
Continuous
 62
     7
100
AcDbLine
 10
-36.495
 20
-102.217704
 30
0.0
 11
-35.495
 21
-103.217704
 31
0.0
  0
LINE
  5
F7
100
AcDbEntity
  8
0
390
0
  6
Continuous
 62
     7
100
AcDbLine
 10
-36.495
 20
-89.217704
 30
0.0
 11
-36.495
 21
-102.217704
 31
0.0
  0
LINE
  5
F8
100
AcDbEntity
  8
0
390
0
  6
Continuous
 62
     7
100
AcDbLine
 10
-35.495
 20
-88.217704
 30
0.0
 11
-36.495
 21
-89.217704
 31
0.0
  0
POINT
  5
F9
100
AcDbEntity
  8
0
390
0
 62
     7
100
AcDbPoint
 10
0.0
 20
0.0
 30
0.0
  0
ENDSEC
  0
SECTION
  2
OBJECTS
  0
DICTIONARY
  5
19
100
AcDbDictionary
280
     0
281
     1
  3
ACAD_GROUP
350
1A
  3
ACAD_MLINESTYLE
350
1B
  3
ACAD_LAYOUT
350
1E
  3
ACAD_PLOTSETTINGS
350
22
  3
ACAD_PLOTSTYLENAME
350
1F
  3
ACAD_WIPEOUT_VARS
350
23
  0
DICTIONARY
  5
1A
102
{ACAD_REACTORS
330
19
102
}
100
AcDbDictionary
280
     0
281
     1
  0
DICTIONARY
  5
1B
102
{ACAD_REACTORS
330
19
102
}
100
AcDbDictionary
280
     0
281
     1
  3
Standard
350
1C
  0
MLINESTYLE
  5
1C
102
{ACAD_REACTORS
330
1B
102
}
100
AcDbMlineStyle
  2
Standard
 70
     0
  3

 62
     0
 51
90.0
 52
90.0
 71
     2
 49
0.5
 62
   256
  6
ByLayer
 49
-0.5
 62
   256
  6
ByLayer
  0
ACDBDICTIONARYWDFLT
  5
1F
102
{ACAD_REACTORS
330
19
102
}
100
AcDbDictionary
281
     1
  3
Normal
350
1D
100
AcDbDictionaryWithDefault
340
1D
  0
ACDBPLACEHOLDER
  5
1D
102
{ACAD_REACTORS
330
1F
102
}
  0
LAYOUT
  5
20
102
{ACAD_REACTORS
330
1E
102
}
100
AcDbPlotSettings
  1

  2

  4

  6

 40
0.0
 41
0.0
 42
0.0
 43
0.0
 44
0.0
 45
0.0
 46
0.0
 47
0.0
 48
0.0
 49
0.0
140
0.0
141
0.0
142
1.0
143
1.0
 70
  1024
 72
     0
 73
     0
 74
     0
  7

 75
     0
147
1.0
148
0.0
149
0.0
100
AcDbLayout
  1
Model
 70
     0
 71
     1
 10
0.0
 20
0.0
 11
0.0
 21
0.0
 12
0.0
 22
0.0
 32
0.0
 14
0.0
 24
0.0
 34
0.0
 15
0.0
 25
0.0
 35
0.0
146
0.0
 13
0.0
 23
0.0
 33
0.0
 16
0.0
 26
0.0
 36
0.0
 17
0.0
 27
0.0
 37
0.0
 76
     0
330
A
331
0
345
0
346
0
  0
LAYOUT
  5
21
102
{ACAD_REACTORS
330
1E
102
}
100
AcDbPlotSettings
  1

  2

  4

  6

 40
0.0
 41
0.0
 42
0.0
 43
0.0
 44
0.0
 45
0.0
 46
0.0
 47
0.0
 48
0.0
 49
0.0
140
0.0
141
0.0
142
1.0
143
1.0
 70
     0
 72
     0
 73
     0
 74
     0
  7

 75
     0
147
1.0
148
0.0
149
0.0
100
AcDbLayout
  1
Layout1
 70
     0
 71
     2
 10
0.0
 20
0.0
 11
0.0
 21
0.0
 12
0.0
 22
0.0
 32
0.0
 14
0.0
 24
0.0
 34
0.0
 15
0.0
 25
0.0
 35
0.0
146
0.0
 13
0.0
 23
0.0
 33
0.0
 16
0.0
 26
0.0
 36
0.0
 17
0.0
 27
0.0
 37
0.0
 76
     0
330
B
331
0
345
0
346
0
  0
DICTIONARY
  5
1E
102
{ACAD_REACTORS
330
19
102
}
100
AcDbDictionary
280
     0
281
     1
  3
Layout1
350
21
  3
Model
350
20
  0
DICTIONARY
  5
22
102
{ACAD_REACTORS
330
19
102
}
100
AcDbDictionary
280
     0
281
     1
  0
WIPEOUTVARIABLES
  5
23
100
AcDbWipeoutVariables
 70
     1
  0
ENDSEC
  0
EOF
