  0
SECTION
  2
HEADER
  9
$ACADVER
  1
AC1015
  9
$ACADMAINTVER
 70
     6
  9
$DWGCODEPAGE
  3
DOS932
  9
$INSBASE
 10
0.0
 20
0.0
 30
0.0
  9
$EXTMIN
 10
-143.599039
 20
-17.849101
 30
0.0
  9
$EXTMAX
 10
438.99391
 20
391.420775
 30
9.906
  9
$LIMMIN
 10
-143.599039
 20
-17.849101
  9
$LIMMAX
 10
438.99391
 20
391.420775
  9
$ORTHOMODE
 70
     0
  9
$REGENMODE
 70
     1
  9
$FILLMODE
 70
     1
  9
$QTEXTMODE
 70
     0
  9
$MIRRTEXT
 70
     1
  9
$LTSCALE
 40
10.0
  9
$ATTMODE
 70
     1
  9
$TEXTSIZE
 40
0.2
  9
$TRACEWID
 40
0.05
  9
$TEXTSTYLE
  7
Standard
  9
$CLAYER
  8
0
  9
$CELTYPE
  6
Continuous
  9
$CECOLOR
 62
   256
  9
$CELTSCALE
 40
1.0
  9
$DISPSILH
 70
     0
  9
$DIMSCALE
 40
1.0
  9
$DIMASZ
 40
1.40208
  9
$DIMEXO
 40
1.40208
  9
$DIMDLI
 40
0.38
  9
$DIMRND
 40
0.0
  9
$DIMDLE
 40
0.0
  9
$DIMEXE
 40
1.05156
  9
$DIMTP
 40
0.0
  9
$DIMTM
 40
0.0
  9
$DIMTXT
 40
3.5052
  9
$DIMCEN
 40
0.09
  9
$DIMTSZ
 40
0.0
  9
$DIMTOL
 70
     0
  9
$DIMLIM
 70
     0
  9
$DIMTIH
 70
     0
  9
$DIMTOH
 70
     0
  9
$DIMSE1
 70
     0
  9
$DIMSE2
 70
     0
  9
$DIMTAD
 70
     1
  9
$DIMZIN
 70
     0
  9
$DIMBLK
  1

  9
$DIMASO
 70
     1
  9
$DIMSHO
 70
     1
  9
$DIMPOST
  1

  9
$DIMAPOST
  1

  9
$DIMALT
 70
     0
  9
$DIMALTD
 70
     2
  9
$DIMALTF
 40
25.4
  9
$DIMLFAC
 40
1.0
  9
$DIMTOFL
 70
     0
  9
$DIMTVP
 40
0.0
  9
$DIMTIX
 70
     0
  9
$DIMSOXD
 70
     0
  9
$DIMSAH
 70
     0
  9
$DIMBLK1
  1

  9
$DIMBLK2
  1

  9
$DIMSTYLE
  2
Standard
  9
$DIMCLRD
 70
     7
  9
$DIMCLRE
 70
     7
  9
$DIMCLRT
 70
     7
  9
$DIMTFAC
 40
0.5
  9
$DIMGAP
 40
1.7526
  9
$DIMJUST
 70
     0
  9
$DIMSD1
 70
     0
  9
$DIMSD2
 70
     0
  9
$DIMTOLJ
 70
     1
  9
$DIMTZIN
 70
     0
  9
$DIMALTZ
 70
     0
  9
$DIMALTTZ
 70
     0
  9
$DIMUPT
 70
     0
  9
$DIMDEC
 70
     2
  9
$DIMTDEC
 70
     4
  9
$DIMALTU
 70
     2
  9
$DIMALTTD
 70
     2
  9
$DIMTXSTY
  7
Standard
  9
$DIMAUNIT
 70
     0
  9
$DIMADEC
 70
     0
  9
$DIMALTRND
 40
0.0
  9
$DIMAZIN
 70
     0
  9
$DIMDSEP
 70
     0
  9
$DIMATFIT
 70
     3
  9
$DIMFRAC
 70
     0
  9
$DIMLDRBLK
  1

  9
$DIMLUNIT
 70
     2
  9
$DIMLWD
 70
     0
  9
$DIMLWE
 70
     0
  9
$DIMTMOVE
 70
     0
  9
$LUNITS
 70
     2
  9
$LUPREC
 70
     4
  9
$SKETCHINC
 40
0.1
  9
$FILLETRAD
 40
0.0
  9
$AUNITS
 70
     0
  9
$AUPREC
 70
     0
  9
$MENU
  1
acad
  9
$ELEVATION
 40
0.0
  9
$PELEVATION
 40
0.0
  9
$THICKNESS
 40
0.0
  9
$LIMCHECK
 70
     0
  9
$CHAMFERA
 40
0.0
  9
$CHAMFERB
 40
0.0
  9
$CHAMFERC
 40
0.0
  9
$CHAMFERD
 40
0.0
  9
$SKPOLY
 70
     0
  9
$TDCREATE
 40
2459786.552604167
  9
$TDUCREATE
 40
0.000000000
  9
$TDUPDATE
 40
2459786.177500000
  9
$TDUUPDATE
 40
0.000000000
  9
$TDINDWG
 40
0.0000000000
  9
$TDUSRTIMER
 40
0.0000000000
  9
$USRTIMER
 70
     1
  9
$ANGBASE
 50
0.0
  9
$ANGDIR
 70
     0
  9
$PDMODE
 70
     0
  9
$PDSIZE
 40
0.0
  9
$PLINEWID
 40
0.0
  9
$SPLFRAME
 70
     0
  9
$SPLINETYPE
 70
     6
  9
$SPLINESEGS
 70
     8
  9
$HANDSEED
  5
BD
  9
$SURFTAB1
 70
     6
  9
$SURFTAB2
 70
     6
  9
$SURFTYPE
 70
     6
  9
$SURFU
 70
     6
  9
$SURFV
 70
     6
  9
$UCSBASE
  2

  9
$UCSNAME
  2

  9
$UCSORG
 10
0.0
 20
0.0
 30
0.0
  9
$UCSXDIR
 10
1.0
 20
0.0
 30
0.0
  9
$UCSYDIR
 10
0.0
 20
1.0
 30
0.0
  9
$UCSORTHOREF
  2

  9
$UCSORTHOVIEW
 70
     0
  9
$UCSORGTOP
 10
0.0
 20
0.0
 30
0.0
  9
$UCSORGBOTTOM
 10
0.0
 20
0.0
 30
0.0
  9
$UCSORGLEFT
 10
0.0
 20
0.0
 30
0.0
  9
$UCSORGRIGHT
 10
0.0
 20
0.0
 30
0.0
  9
$UCSORGFRONT
 10
0.0
 20
0.0
 30
0.0
  9
$UCSORGBACK
 10
0.0
 20
0.0
 30
0.0
  9
$PUCSBASE
  2

  9
$PUCSNAME
  2

  9
$PUCSORG
 10
0.0
 20
0.0
 30
0.0
  9
$PUCSXDIR
 10
1.0
 20
0.0
 30
0.0
  9
$PUCSYDIR
 10
0.0
 20
1.0
 30
0.0
  9
$PUCSORTHOREF
  2

  9
$PUCSORTHOVIEW
 70
     0
  9
$PUCSORGTOP
 10
0.0
 20
0.0
 30
0.0
  9
$PUCSORGBOTTOM
 10
0.0
 20
0.0
 30
0.0
  9
$PUCSORGLEFT
 10
0.0
 20
0.0
 30
0.0
  9
$PUCSORGRIGHT
 10
0.0
 20
0.0
 30
0.0
  9
$PUCSORGFRONT
 10
0.0
 20
0.0
 30
0.0
  9
$PUCSORGBACK
 10
0.0
 20
0.0
 30
0.0
  9
$USERI1
 70
     0
  9
$USERI2
 70
     0
  9
$USERI3
 70
     0
  9
$USERI4
 70
     0
  9
$USERI5
 70
     0
  9
$USERR1
 40
0.0
  9
$USERR2
 40
0.0
  9
$USERR3
 40
0.0
  9
$USERR4
 40
0.0
  9
$USERR5
 40
0.0
  9
$WORLDVIEW
 70
     1
  9
$SHADEDGE
 70
     3
  9
$SHADEDIF
 70
    70
  9
$TILEMODE
 70
     1
  9
$MAXACTVP
 70
    16
  9
$PINSBASE
 10
0.0
 20
0.0
 30
0.0
  9
$PLIMCHECK
 70
     0
  9
$PEXTMIN
 10
1.000000E+20
 20
1.000000E+20
 30
1.000000E+20
  9
$PEXTMAX
 10
-1.000000E+20
 20
-1.000000E+20
 30
-1.000000E+20
  9
$PLIMMIN
 10
0.0
 20
0.0
  9
$PLIMMAX
 10
12.0
 20
9.0
  9
$UNITMODE
 70
     0
  9
$VISRETAIN
 70
     0
  9
$PLINEGEN
 70
     1
  9
$PSLTSCALE
 70
     0
  9
$TREEDEPTH
 70
  3020
  9
$CMLSTYLE
  2
Standard
  9
$CMLJUST
 70
     0
  9
$CMLSCALE
 40
1.0
  9
$PROXYGRAPHICS
 70
     0
  9
$MEASUREMENT
 70
     0
  9
$CELWEIGHT
370
     0
  9
$ENDCAPS
280
     0
  9
$JOINSTYLE
280
     0
  9
$LWDISPLAY
290
     0
  9
$INSUNITS
 70
     0
  9
$HYPERLINKBASE
  1

  9
$STYLESHEET
  1

  9
$XEDIT
290
     1
  9
$CEPSNTYPE
380
     0
  9
$PSTYLEMODE
290
     1
  9
$FINGERPRINTGUID
  2

  9
$VERSIONGUID
  2

  9
$EXTNAMES
290
     1
  9
$PSVPSCALE
 40
0.0
  0
ENDSEC
  0
SECTION
  2
CLASSES
  0
CLASS
  1
LWPOLYLINE
  2
AcDbPolyline
  3
AutoCAD 2000
 90
        0
280
     0
281
     1
  0
CLASS
  1
IMAGE
  2
AcDbRasterImage
  3
ISM
 90
      127
280
     0
281
     1
  0
CLASS
  1
OLE2FRAME
  2
AcDbOle2Frame
  3
AutoCAD 2000
 90
        0
280
     0
281
     1
  0
CLASS
  1
HATCH
  2
AcDbHatch
  3
AutoCAD 2000
 90
        0
280
     0
281
     1
  0
CLASS
  1
DICTIONARYVAR
  2
AcDbDictionaryVar
  3
AutoCAD 2000
 90
        0
280
     0
281
     0
  0
CLASS
  1
RASTERVARIABLES
  2
AcDbRasterVariables
  3
ISM
 90
        0
280
     0
281
     0
  0
CLASS
  1
IMAGEDEF
  2
AcDbRasterImageDef
  3
ISM
 90
        0
280
     0
281
     0
  0
CLASS
  1
IMAGEDEF_REACTOR
  2
AcDbRasterImageDefReactor
  3
ISM
 90
        1
280
     0
281
     0
  0
CLASS
  1
IDBUFFER
  2
AcDbIdBuffer
  3
AutoCAD 2000
 90
        0
280
     0
281
     0
  0
CLASS
  1
SPATIAL_FILTER
  2
AcDbSpatialFilter
  3
AutoCAD 2000
 90
        0
280
     0
281
     0
  0
CLASS
  1
XRECORD
  2
AcDbXrecord
  3
AutoCAD 2000
 90
        0
280
     0
281
     0
  0
CLASS
  1
SORTENTSTABLE
  2
AcDbSortentsTable
  3
AutoCAD 2000
 90
        0
280
     0
281
     0
  0
CLASS
  1
LAYER_INDEX
  2
AcDbLayerIndex
  3
AutoCAD 2000
 90
        0
280
     0
281
     0
  0
CLASS
  1
SPATIAL_INDEX
  2
AcDbSpatialIndex
  3
AutoCAD 2000
 90
        0
280
     0
281
     0
  0
CLASS
  1
OBJECT_PTR
  2
CAseDLPNTableRecord
  3
"ASE-LPNTableRecord"
 90
        1
280
     0
281
     0
  0
CLASS
  1
LAYOUT
  2
AcDbLayout
  3
AutoCAD 2000
 90
        0
280
     0
281
     0
  0
CLASS
  1
PLOTSETTINGS
  2
AcDbPlotSettings
  3
AutoCAD 2000
 90
        0
280
     0
281
     0
  0
CLASS
  1
ACDBDICTIONARYWDFLT
  2
AcDbDictionaryWithDefault
  3
AutoCAD 2000
 90
        0
280
     0
281
     0
  0
CLASS
  1
ACDBPLACEHOLDER
  2
AcDbPlaceHolder
  3
AutoCAD 2000
 90
        0
280
     0
281
     0
  0
CLASS
  1
VBA_PROJECT
  2
AcDbVbaProject
  3
acadvba
 90
        0
280
     0
281
     0
  0
CLASS
  1
WIPEOUT
  2
AcDbWipeout
  3
WipeOut|AutoCAD Express Tool|expresstools@autodesk.com
 90
      127
280
     0
281
     1
  0
CLASS
  1
WIPEOUTVARIABLES
  2
AcDbWipeoutVariables
  3
WipeOut|AutoCAD Express Tool|expresstools@autodesk.com
 90
        0
280
     0
281
     0
  0
CLASS
  1
RTEXT
  2
RText
  3
RText|AutoCAD Express Tool|expresstools@autodesk.com
 90
        0
280
     0
281
     1
  0
CLASS
  1
ARCALIGNEDTEXT
  2
AcDbArcAlignedText
  3
ATEXT|AutoCAD Express Tool|expresstools@autodesk.com
 90
        0
280
     0
281
     1
  0
ENDSEC
  0
SECTION
  2
TABLES
  0
TABLE
  2
VPORT
  5
7
100
AcDbSymbolTable
 70
     1
  0
VPORT
  5
15
100
AcDbSymbolTableRecord
100
AcDbViewportTableRecord
  2
*ACTIVE
 70
     0
 10
0.0
 20
0.0
 11
1.0
 21
1.0
 12
6.591288
 22
4.579184
 13
0.0
 23
0.0
 14
1.0
 24
1.0
 15
0.0
 25
0.0
 16
0.0
 26
0.0
 36
1.0
 17
0.0
 27
0.0
 37
0.0
 40
9.158369
 41
0.688564
 42
50.0
 43
0.0
 44
0.0
 50
0.0
 51
0.0
 71
     0
 72
   100
 73
     1
 74
     1
 75
     0
 76
     0
 77
     0
 78
     0
281
     0
 65
     0
110
0.0
120
0.0
130
0.0
111
1.0
121
0.0
131
0.0
112
0.0
122
1.0
132
0.0
345
0
346
0
 79
     0
146
0.0
  0
ENDTAB
  0
TABLE
  2
LTYPE
  5
4
100
AcDbSymbolTable
 70
     3
  0
LTYPE
  5
11
100
AcDbSymbolTableRecord
100
AcDbLinetypeTableRecord
  2
ByBlock
 70
    64
  3

 72
    65
 73
     0
 40
0.0
  0
LTYPE
  5
12
100
AcDbSymbolTableRecord
100
AcDbLinetypeTableRecord
  2
ByLayer
 70
    64
  3

 72
    65
 73
     0
 40
0.0
  0
LTYPE
  5
13
100
AcDbSymbolTableRecord
100
AcDbLinetypeTableRecord
  2
Continuous
 70
    64
  3
Solid line
 72
    65
 73
     0
 40
0.0
  0
ENDTAB
  0
TABLE
  2
LAYER
  5
2
100
AcDbSymbolTable
 70
     1
  0
LAYER
  5
14
100
AcDbSymbolTableRecord
100
AcDbLayerTableRecord
  2
0
 70
     0
 62
     7
  6
Continuous
290
     1
370
    -3
390
1D
  0
ENDTAB
  0
TABLE
  2
STYLE
  5
3
100
AcDbSymbolTable
 70
     1
  0
STYLE
  5
17
100
AcDbSymbolTableRecord
100
AcDbTextStyleTableRecord
  2
Standard
 70
     0
 40
0.0
 41
1.0
 50
0.0
 71
     0
 42
0.0
  3
FG教科書体NT-M
  4

1001
ACAD
1000
FG教科書体NT-M
1071
        0
  0
ENDTAB
  0
TABLE
  2
VIEW
  5
5
100
AcDbSymbolTable
 70
     0
  0
ENDTAB
  0
TABLE
  2
UCS
  5
6
100
AcDbSymbolTable
 70
     0
  0
ENDTAB
  0
TABLE
  2
APPID
  5
8
100
AcDbSymbolTable
 70
     2
  0
APPID
  5
16
100
AcDbSymbolTableRecord
100
AcDbRegAppTableRecord
  2
ACAD
 70
     0
  0
APPID
  5
26
100
AcDbSymbolTableRecord
100
AcDbRegAppTableRecord
  2
TOPsolid_Design
 70
     0
  0
ENDTAB
  0
TABLE
  2
DIMSTYLE
  5
9
100
AcDbSymbolTable
 70
     1
100
AcDbDimStyleTable
 71
     0
  0
DIMSTYLE
105
18
100
AcDbSymbolTableRecord
100
AcDbDimStyleTableRecord
  2
Standard
 70
     0
  3

  4

 40
1.0
 41
1.40208
 42
1.40208
 43
0.38
 44
1.05156
 45
0.0
 46
0.0
 47
0.0
 48
0.0
 71
     0
 72
     0
 73
     0
 74
     0
 75
     0
 76
     0
 77
     1
 78
     0
 79
     0
140
3.5052
141
0.09
142
0.0
143
25.4
144
1.0
145
0.0
146
0.5
147
1.7526
148
0.0
170
     0
171
     2
172
     0
173
     0
174
     0
175
     0
176
     7
177
     7
178
     7
179
     0
271
     2
272
     4
273
     2
274
     2
275
     0
276
     0
277
     2
278
    46
279
     0
280
     0
281
     0
282
     0
283
     1
284
     0
285
     0
286
     0
288
     0
289
     3
340
17
341
0
342
0
343
0
344
0
371
    -2
372
    -2
  0
ENDTAB
  0
TABLE
  2
BLOCK_RECORD
  5
1
100
AcDbSymbolTable
 70
     0
  0
BLOCK_RECORD
  5
A
100
AcDbSymbolTableRecord
100
AcDbBlockTableRecord
  2
*MODEL_SPACE
340
20
  0
BLOCK_RECORD
  5
B
100
AcDbSymbolTableRecord
100
AcDbBlockTableRecord
  2
*PAPER_SPACE
340
21
  0
ENDTAB
  0
ENDSEC
  0
SECTION
  2
BLOCKS
  0
BLOCK
  5
D
100
AcDbEntity
  8
0
390
0
100
AcDbBlockBegin
  2
*MODEL_SPACE
 70
     0
 10
0.0
 20
0.0
 30
0.0
  3
*MODEL_SPACE
  1

  0
ENDBLK
  5
E
100
AcDbEntity
  8
0
390
0
100
AcDbBlockEnd
  0
BLOCK
  5
F
100
AcDbEntity
 67
     1
  8
0
390
0
100
AcDbBlockBegin
  2
*PAPER_SPACE
 70
     0
 10
0.0
 20
0.0
 30
0.0
  3
*PAPER_SPACE
  1

  0
ENDBLK
  5
10
100
AcDbEntity
 67
     1
  8
0
390
0
100
AcDbBlockEnd
  0
ENDSEC
  0
SECTION
  2
ENTITIES
  0
LINE
  5
27
100
AcDbEntity
  8
0
390
0
  6
Continuous
 62
     7
100
AcDbLine
 10
-21.75
 20
-3.072727
 30
0.0
 11
-21.75
 21
-10.709091
 31
0.0
  0
LINE
  5
28
100
AcDbEntity
  8
0
390
0
  6
Continuous
 62
     7
100
AcDbLine
 10
-21.75
 20
-10.809091
 30
0.0
 11
-21.75
 21
-10.963636
 31
0.0
  0
LINE
  5
29
100
AcDbEntity
  8
0
390
0
  6
Continuous
 62
     7
100
AcDbLine
 10
-21.7498
 20
5.665333
 30
0.0
 11
-21.7498
 21
10.998143
 31
0.0
  0
LINE
  5
2A
100
AcDbEntity
  8
0
390
0
  6
Continuous
 62
     7
100
AcDbLine
 10
-21.7498
 20
2.995999
 30
0.0
 11
-21.7498
 21
5.665333
 31
0.0
  0
LINE
  5
2B
100
AcDbEntity
  8
0
390
0
  6
Continuous
 62
     7
100
AcDbLine
 10
-21.25
 20
-14.650518
 30
0.0
 11
-21.25
 21
14.650518
 31
0.0
  0
LINE
  5
2C
100
AcDbEntity
  8
0
390
0
  6
Continuous
 62
     7
100
AcDbLine
 10
-21.25
 20
14.650518
 30
0.0
 11
-18.793631
 21
14.650518
 31
0.0
  0
LINE
  5
2D
100
AcDbEntity
  8
0
390
0
  6
Continuous
 62
     7
100
AcDbLine
 10
-18.793631
 20
14.650518
 30
0.0
 11
-18.793631
 21
-14.650518
 31
0.0
  0
LINE
  5
2E
100
AcDbEntity
  8
0
390
0
  6
Continuous
 62
     7
100
AcDbLine
 10
-21.25
 20
-14.650518
 30
0.0
 11
-18.793631
 21
-14.650518
 31
0.0
  0
ARC
  5
2F
100
AcDbEntity
  8
0
390
0
  6
Continuous
 62
     7
100
AcDbCircle
 10
-18.75
 20
14.650518
 30
0.0
 40
2.5
210
0.0
220
0.0
230
1.0
100
AcDbArc
 50
91.0
 51
180.0
  0
ARC
  5
30
100
AcDbEntity
  8
0
390
0
  6
Continuous
 62
     7
100
AcDbCircle
 10
-18.75
 20
-14.650518
 30
0.0
 40
2.5
210
0.0
220
0.0
230
1.0
100
AcDbArc
 50
180.0
 51
269.0
  0
ELLIPSE
  5
31
100
AcDbEntity
  8
0
390
0
  6
Continuous
 62
     7
100
AcDbEllipse
 10
-18.75
 20
-14.650518
 30
0.0
 11
-0.0436310160932263
 21
-2.4996192378909932
 31
0.0
210
0.0
220
0.0
230
1.0
 40
0.01745
 41
4.7126935668798504
 42
6.2831853071795862
  0
ELLIPSE
  5
32
100
AcDbEntity
  8
0
390
0
  6
Continuous
 62
     7
100
AcDbEllipse
 10
-18.75
 20
14.650518
 30
0.0
 11
0.0436310160932263
 21
-2.4996192378909932
 31
0.0
210
0.0
220
0.0
230
1.0
 40
0.01745
 41
3.1415926535897163
 42
4.7120843938895298
  0
LINE
  5
33
100
AcDbEntity
  8
0
390
0
  6
Continuous
 62
     7
100
AcDbLine
 10
21.25
 20
15.349482
 30
0.0
 11
-18.793631
 21
14.650518
 31
0.0
  0
LINE
  5
34
100
AcDbEntity
  8
0
390
0
  6
Continuous
 62
     7
100
AcDbLine
 10
-18.793631
 20
17.150137
 30
0.0
 11
21.25
 21
17.849101
 31
0.0
  0
LINE
  5
35
100
AcDbEntity
  8
0
390
0
  6
Continuous
 62
     7
100
AcDbLine
 10
21.25
 20
17.849101
 30
0.0
 11
21.25
 21
15.349482
 31
0.0
  0
LINE
  5
36
100
AcDbEntity
  8
0
390
0
  6
Continuous
 62
     7
100
AcDbLine
 10
21.25
 20
-17.849101
 30
0.0
 11
-18.793631
 21
-17.150137
 31
0.0
  0
LINE
  5
37
100
AcDbEntity
  8
0
390
0
  6
Continuous
 62
     7
100
AcDbLine
 10
-18.793631
 20
-14.650518
 30
0.0
 11
21.25
 21
-15.349482
 31
0.0
  0
LINE
  5
38
100
AcDbEntity
  8
0
390
0
  6
Continuous
 62
     7
100
AcDbLine
 10
21.25
 20
-15.349482
 30
0.0
 11
21.25
 21
-17.849101
 31
0.0
  0
LINE
  5
39
100
AcDbEntity
  8
0
390
0
  6
Continuous
 62
     7
100
AcDbLine
 10
21.25
 20
-15.349482
 30
0.0
 11
21.25
 21
15.349482
 31
0.0
  0
LINE
  5
3A
100
AcDbEntity
  8
0
390
0
  6
Continuous
 62
     7
100
AcDbLine
 10
-21.7498
 20
5.665333
 30
0.0
 11
-21.25
 21
5.665333
 31
0.0
  0
LINE
  5
3B
100
AcDbEntity
  8
0
390
0
  6
Continuous
 62
     7
100
AcDbLine
 10
-21.7498
 20
10.998143
 30
0.0
 11
-21.25
 21
10.998143
 31
0.0
  0
LINE
  5
3C
100
AcDbEntity
  8
0
390
0
  6
Continuous
 62
     7
100
AcDbLine
 10
-21.7498
 20
2.995999
 30
0.0
 11
-21.25
 21
2.995999
 31
0.0
  0
LINE
  5
3D
100
AcDbEntity
  8
0
390
0
  6
Continuous
 62
     7
100
AcDbLine
 10
-21.75
 20
-3.036364
 30
0.0
 11
-21.25
 21
-3.036364
 31
0.0
  0
LINE
  5
3E
100
AcDbEntity
  8
0
390
0
  6
Continuous
 62
     7
100
AcDbLine
 10
-21.75
 20
-10.963636
 30
0.0
 11
-21.25
 21
-10.963636
 31
0.0
  0
LINE
  5
3F
100
AcDbEntity
  8
0
390
0
  6
Continuous
 62
     7
100
AcDbLine
 10
-21.75
 20
-10.709091
 30
0.0
 11
-21.25
 21
-10.709091
 31
0.0
  0
LINE
  5
40
100
AcDbEntity
  8
0
390
0
  6
Continuous
 62
     7
100
AcDbLine
 10
-21.25
 20
-3.072727
 30
0.0
 11
-21.75
 21
-3.072727
 31
0.0
  0
LINE
  5
41
100
AcDbEntity
  8
0
390
0
  6
Continuous
 62
     7
100
AcDbLine
 10
139.417304
 20
-15.314191
 30
0.0
 11
139.417304
 21
15.314191
 31
0.0
  0
LINE
  5
42
100
AcDbEntity
  8
0
390
0
  6
Continuous
 62
     7
100
AcDbLine
 10
139.417304
 20
15.314191
 30
0.0
 11
78.788922
 21
15.314191
 31
0.0
  0
LINE
  5
43
100
AcDbEntity
  8
0
390
0
  6
Continuous
 62
     7
100
AcDbLine
 10
78.788922
 20
15.314191
 30
0.0
 11
78.788922
 21
-15.314191
 31
0.0
  0
LINE
  5
44
100
AcDbEntity
  8
0
390
0
  6
Continuous
 62
     7
100
AcDbLine
 10
78.788922
 20
-15.314191
 30
0.0
 11
139.417304
 21
-15.314191
 31
0.0
  0
ELLIPSE
  5
45
100
AcDbEntity
  8
0
390
0
  6
Continuous
 62
     7
100
AcDbEllipse
 10
78.754393
 20
-15.34872
 30
0.0
 11
-1.7683054729239478
 21
-1.7683054729239478
 31
0.0
210
0.0
220
0.0
230
1.0
 40
0.999695
 41
5.4979394370297188
 42
7.0684311773294581
  0
LINE
  5
46
100
AcDbEntity
  8
0
390
0
  6
Continuous
 62
     7
100
AcDbLine
 10
76.254012
 20
-15.349482
 30
0.0
 11
76.254012
 21
15.349482
 31
0.0
  0
ELLIPSE
  5
47
100
AcDbEntity
  8
0
390
0
  6
Continuous
 62
     7
100
AcDbEllipse
 10
78.754393
 20
15.34872
 30
0.0
 11
-1.7683054729239478
 21
1.7683054729239478
 31
0.0
210
0.0
220
0.0
230
1.0
 40
0.999695
 41
5.4979394370297205
 42
7.0684311773294546
  0
LINE
  5
48
100
AcDbEntity
  8
0
390
0
  6
Continuous
 62
     7
100
AcDbLine
 10
78.753631
 20
17.849101
 30
0.0
 11
139.452595
 21
17.849101
 31
0.0
  0
ELLIPSE
  5
49
100
AcDbEntity
  8
0
390
0
  6
Continuous
 62
     7
100
AcDbEllipse
 10
139.451834
 20
15.34872
 30
0.0
 11
1.7683054729239478
 21
1.7683054729239478
 31
0.0
210
0.0
220
0.0
230
1.0
 40
0.999695
 41
5.4979394370297188
 42
7.0684311773294555
  0
LINE
  5
4A
100
AcDbEntity
  8
0
390
0
  6
Continuous
 62
     7
100
AcDbLine
 10
141.952214
 20
15.349482
 30
0.0
 11
141.952214
 21
-15.349482
 31
0.0
  0
ELLIPSE
  5
4B
100
AcDbEntity
  8
0
390
0
  6
Continuous
 62
     7
100
AcDbEllipse
 10
139.451834
 20
-15.34872
 30
0.0
 11
1.7683054729239478
 21
-1.7683054729239478
 31
0.0
210
0.0
220
0.0
230
1.0
 40
0.999695
 41
5.4979394370297188
 42
7.0684311773294546
  0
LINE
  5
4C
100
AcDbEntity
  8
0
390
0
  6
Continuous
 62
     7
100
AcDbLine
 10
139.452595
 20
-17.849101
 30
0.0
 11
78.753631
 21
-17.849101
 31
0.0
  0
LINE
  5
4D
100
AcDbEntity
  8
0
390
0
  6
Continuous
 62
     7
100
AcDbLine
 10
138.754012
 20
14.650899
 30
0.0
 11
139.417304
 21
15.314191
 31
0.0
  0
LINE
  5
4E
100
AcDbEntity
  8
0
390
0
  6
Continuous
 62
     7
100
AcDbLine
 10
79.452214
 20
14.650899
 30
0.0
 11
138.754012
 21
14.650899
 31
0.0
  0
LINE
  5
4F
100
AcDbEntity
  8
0
390
0
  6
Continuous
 62
     7
100
AcDbLine
 10
79.452214
 20
14.650899
 30
0.0
 11
78.788922
 21
15.314191
 31
0.0
  0
LINE
  5
50
100
AcDbEntity
  8
0
390
0
  6
Continuous
 62
     7
100
AcDbLine
 10
79.452214
 20
-14.650899
 30
0.0
 11
79.452214
 21
14.650899
 31
0.0
  0
LINE
  5
51
100
AcDbEntity
  8
0
390
0
  6
Continuous
 62
     7
100
AcDbLine
 10
79.452214
 20
-14.650899
 30
0.0
 11
78.788922
 21
-15.314191
 31
0.0
  0
LINE
  5
52
100
AcDbEntity
  8
0
390
0
  6
Continuous
 62
     7
100
AcDbLine
 10
138.754012
 20
-14.650899
 30
0.0
 11
79.452214
 21
-14.650899
 31
0.0
  0
LINE
  5
53
100
AcDbEntity
  8
0
390
0
  6
Continuous
 62
     7
100
AcDbLine
 10
138.754012
 20
-14.650899
 30
0.0
 11
139.417304
 21
-15.314191
 31
0.0
  0
LINE
  5
54
100
AcDbEntity
  8
0
390
0
  6
Continuous
 62
     7
100
AcDbLine
 10
138.754012
 20
14.650899
 30
0.0
 11
138.754012
 21
-14.650899
 31
0.0
  0
LINE
  5
55
100
AcDbEntity
  8
0
390
0
  6
Continuous
 62
     7
100
AcDbLine
 10
-101.270676
 20
-9.472727
 30
0.0
 11
-102.034313
 21
-10.236364
 31
0.0
  0
LINE
  5
56
100
AcDbEntity
  8
0
390
0
  6
Continuous
 62
     7
100
AcDbLine
 10
-102.034313
 20
-10.236364
 30
0.0
 11
-104.50704
 21
-7.763636
 31
0.0
  0
LINE
  5
57
100
AcDbEntity
  8
0
390
0
  6
Continuous
 62
     7
100
AcDbLine
 10
-104.50704
 20
-7.763636
 30
0.0
 11
-107.016131
 21
-10.236364
 31
0.0
  0
LINE
  5
58
100
AcDbEntity
  8
0
390
0
  6
Continuous
 62
     7
100
AcDbLine
 10
-107.016131
 20
-10.236364
 30
0.0
 11
-107.779767
 21
-9.472727
 31
0.0
  0
LINE
  5
59
100
AcDbEntity
  8
0
390
0
  6
Continuous
 62
     7
100
AcDbLine
 10
-107.779767
 20
-9.472727
 30
0.0
 11
-105.30704
 21
-7.0
 31
0.0
  0
LINE
  5
5A
100
AcDbEntity
  8
0
390
0
  6
Continuous
 62
     7
100
AcDbLine
 10
-105.30704
 20
-7.0
 30
0.0
 11
-107.779767
 21
-4.490909
 31
0.0
  0
LINE
  5
5B
100
AcDbEntity
  8
0
390
0
  6
Continuous
 62
     7
100
AcDbLine
 10
-107.779767
 20
-4.490909
 30
0.0
 11
-107.052494
 21
-3.763636
 31
0.0
  0
LINE
  5
5C
100
AcDbEntity
  8
0
390
0
  6
Continuous
 62
     7
100
AcDbLine
 10
-107.052494
 20
-3.763636
 30
0.0
 11
-104.50704
 21
-6.272727
 31
0.0
  0
LINE
  5
5D
100
AcDbEntity
  8
0
390
0
  6
Continuous
 62
     7
100
AcDbLine
 10
-104.50704
 20
-6.272727
 30
0.0
 11
-101.997949
 21
-3.763636
 31
0.0
  0
LINE
  5
5E
100
AcDbEntity
  8
0
390
0
  6
Continuous
 62
     7
100
AcDbLine
 10
-101.997949
 20
-3.763636
 30
0.0
 11
-101.270676
 21
-4.490909
 31
0.0
  0
LINE
  5
5F
100
AcDbEntity
  8
0
390
0
  6
Continuous
 62
     7
100
AcDbLine
 10
-101.270676
 20
-4.490909
 30
0.0
 11
-103.743404
 21
-7.0
 31
0.0
  0
LINE
  5
60
100
AcDbEntity
  8
0
390
0
  6
Continuous
 62
     7
100
AcDbLine
 10
-103.743404
 20
-7.0
 30
0.0
 11
-101.270676
 21
-9.472727
 31
0.0
  0
LINE
  5
61
100
AcDbEntity
  8
0
390
0
  6
Continuous
 62
     7
100
AcDbLine
 10
-99.234313
 20
-8.054545
 30
0.0
 11
-98.143404
 21
-8.054545
 31
0.0
  0
SPLINE
  5
62
100
AcDbEntity
  8
0
390
0
  6
Continuous
 62
     7
100
AcDbSpline
210
0.0
220
0.0
230
1.0
 70
     0
 71
     2
 72
    14
 73
    11
 74
     0
 42
0.000001
 43
0.000001
 40
2.0
 40
2.0
 40
2.0
 40
3.0
 40
3.0
 40
4.0
 40
4.0
 40
5.0
 40
5.0
 40
6.0
 40
6.0
 40
7.0
 40
7.0
 40
7.0
 10
-98.143403520637875
 20
-8.0545454450431375
 30
0.0
 10
-98.03431261154698
 20
-9.1090908995885567
 30
0.0
 10
-97.485033460131419
 20
-9.3925898164481936
 30
0.0
 10
-96.907039884274226
 20
-9.6909090814067405
 30
0.0
 10
-96.472448282982114
 20
-9.4333733176781287
 30
0.0
 10
-95.925221702456028
 20
-9.1090908995885567
 30
0.0
 10
-95.879347961606399
 20
-8.5280235154929773
 30
0.0
 10
-95.816130793365133
 20
-7.7272727177704059
 30
0.0
 10
-96.359123800358148
 20
-7.4675804100781118
 30
0.0
 10
-96.652494429728776
 20
-7.3272727177703949
 30
0.0
 10
-97.37976715700151
 20
-7.3272727177703949
 30
0.0
  0
LINE
  5
63
100
AcDbEntity
  8
0
390
0
  6
Continuous
 62
     7
100
AcDbLine
 10
-97.379767
 20
-7.327273
 30
0.0
 11
-97.379767
 21
-6.2
 31
0.0
  0
SPLINE
  5
64
100
AcDbEntity
  8
0
390
0
  6
Continuous
 62
     7
100
AcDbSpline
210
0.0
220
0.0
230
1.0
 70
     0
 71
     2
 72
    14
 73
    11
 74
     0
 42
0.000001
 43
0.000001
 40
8.0
 40
8.0
 40
8.0
 40
9.0
 40
9.0
 40
10.0
 40
10.0
 40
11.0
 40
11.0
 40
12.0
 40
12.0
 40
13.0
 40
13.0
 40
13.0
 10
-97.37976715700151
 20
-6.1999999904976395
 30
0.0
 10
-96.470676247910603
 20
-6.1999999904976395
 30
0.0
 10
-96.223249229413156
 20
-5.6874725950387113
 30
0.0
 10
-95.961585338819702
 20
-5.1454545359522204
 30
0.0
 10
-96.164741723324724
 20
-4.702204242486685
 30
0.0
 10
-96.361585338819623
 20
-4.272727263224918
 30
0.0
 10
-96.796502146150303
 20
-4.1921871137192701
 30
0.0
 10
-97.34340352063785
 20
-4.0909090814067461
 30
0.0
 10
-97.670676247910578
 20
-4.4909090814067572
 30
0.0
 10
-97.997948975183306
 20
-4.8909090814067691
 30
0.0
 10
-98.070676247910583
 20
-5.472727263224952
 30
0.0
  0
LINE
  5
65
100
AcDbEntity
  8
0
390
0
  6
Continuous
 62
     7
100
AcDbLine
 10
-98.070676
 20
-5.472727
 30
0.0
 11
-99.052494
 21
-5.472727
 31
0.0
  0
SPLINE
  5
66
100
AcDbEntity
  8
0
390
0
  6
Continuous
 62
     7
100
AcDbSpline
210
0.0
220
0.0
230
1.0
 70
     0
 71
     2
 72
    14
 73
    11
 74
     0
 42
0.000001
 43
0.000001
 40
14.0
 40
14.0
 40
14.0
 40
15.0
 40
15.0
 40
16.0
 40
16.0
 40
17.0
 40
17.0
 40
18.0
 40
18.0
 40
19.0
 40
19.0
 40
19.0
 10
-99.052494429728782
 20
-5.472727263224952
 30
0.0
 10
-99.016130793365122
 20
-4.272727263224918
 30
0.0
 10
-98.407603494823618
 20
-3.6451834866040311
 30
0.0
 10
-97.852494429728722
 20
-3.0727272632249392
 30
0.0
 10
-96.907039884274226
 20
-3.0727272632249392
 30
0.0
 10
-96.179767157001478
 20
-3.0727272632249392
 30
0.0
 10
-95.643084639518975
 20
-3.5909034870010847
 30
0.0
 10
-95.125221702456031
 20
-4.0909090814067461
 30
0.0
 10
-95.066963354424587
 20
-4.8919613668391149
 30
0.0
 10
-94.979767157001504
 20
-6.0909090814067479
 30
0.0
 10
-95.816130793365133
 20
-6.6363636268613195
 30
0.0
  0
SPLINE
  5
67
100
AcDbEntity
  8
0
390
0
  6
Continuous
 62
     7
100
AcDbSpline
210
0.0
220
0.0
230
1.0
 70
     0
 71
     2
 72
    12
 73
     9
 74
     0
 42
0.000001
 43
0.000001
 40
19.0
 40
19.0
 40
19.0
 40
20.0
 40
20.0
 40
21.0
 40
21.0
 40
22.0
 40
22.0
 40
23.0
 40
23.0
 40
23.0
 10
-95.816130793365133
 20
-6.6363636268613195
 30
0.0
 10
-94.907039884274226
 20
-6.8545454450431027
 30
0.0
 10
-94.742530158192409
 20
-8.0883683906564645
 30
0.0
 10
-94.61613079336513
 20
-9.0363636268612204
 30
0.0
 10
-95.228304611764671
 20
-9.8409349310434884
 30
0.0
 10
-95.888858066092411
 20
-10.709090899588602
 30
0.0
 10
-96.907039884274226
 20
-10.709090899588602
 30
0.0
 10
-97.888858066092425
 20
-10.709090899588602
 30
0.0
 10
-98.480991989758508
 20
-10.100953356363963
 30
0.0
  0
ARC
  5
68
100
AcDbEntity
  8
0
390
0
  6
Continuous
 62
     7
100
AcDbCircle
 10
-96.429156
 20
-8.183775
 30
0.0
 40
2.808132
210
0.0
220
0.0
230
1.0
100
AcDbArc
 50
177.36233
 51
223.05686
  0
SPLINE
  5
69
100
AcDbEntity
  8
0
390
0
  6
Continuous
 62
     7
100
AcDbSpline
210
0.0
220
0.0
230
1.0
 70
     0
 71
     2
 72
    20
 73
    17
 74
     0
 42
0.000001
 43
0.000001
 40
-1.0
 40
0.0
 40
0.0
 40
1.0
 40
1.0
 40
2.0
 40
2.0
 40
3.0
 40
3.0
 40
4.0
 40
4.0
 40
5.0
 40
5.0
 40
6.0
 40
6.0
 40
7.0
 40
7.0
 40
8.0
 40
8.0
 40
9.0
 10
-92.143403520637861
 20
-8.5636363541340401
 30
0.0
 10
-91.816130793365133
 20
-9.4363636268612883
 30
0.0
 10
-91.197429906623043
 20
-9.5424266360171206
 30
0.0
 10
-90.543403520637881
 20
-9.6545454450431283
 30
0.0
 10
-90.156044108776356
 20
-8.920601296252828
 30
0.0
 10
-89.85249442972875
 20
-8.3454545359522019
 30
0.0
 10
-89.785702885709512
 20
-7.3268834896583757
 30
0.0
 10
-89.707039884274238
 20
-6.1272727177704152
 30
0.0
 10
-90.003164269032524
 20
-5.2563186449518522
 30
0.0
 10
-90.325221702456034
 20
-4.3090908995885302
 30
0.0
 10
-90.905585338819662
 20
-4.2261818086795078
 30
0.0
 10
-91.597948975183343
 20
-4.1272727177704134
 30
0.0
 10
-91.953753170987511
 20
-4.7499300604277312
 30
0.0
 10
-92.325221702456034
 20
-5.3999999904976725
 30
0.0
 10
-92.392200144340364
 20
-6.454910450175988
 30
0.0
 10
-92.470676247910603
 20
-7.6909090814067387
 30
0.0
 10
-92.143403520637861
 20
-8.5636363541340401
 30
0.0
  0
SPLINE
  5
6A
100
AcDbEntity
  8
0
390
0
  6
Continuous
 62
     7
100
AcDbSpline
210
0.0
220
0.0
230
1.0
 70
     0
 71
     2
 72
    20
 73
    17
 74
     0
 42
0.000001
 43
0.000001
 40
-1.0
 40
0.0
 40
0.0
 40
1.0
 40
1.0
 40
2.0
 40
2.0
 40
3.0
 40
3.0
 40
4.0
 40
4.0
 40
5.0
 40
5.0
 40
6.0
 40
6.0
 40
7.0
 40
7.0
 40
8.0
 40
8.0
 40
9.0
 10
-92.800648459105474
 20
-9.8020643017322495
 30
0.0
 10
-93.525221702456022
 20
-8.8545454450431045
 30
0.0
 10
-93.575770135647787
 20
-7.2538450606367544
 30
0.0
 10
-93.634312611546932
 20
-5.3999999904976725
 30
0.0
 10
-92.880482172323241
 20
-4.1938712877397366
 30
0.0
 10
-92.179767157001478
 20
-3.0727272632249392
 30
0.0
 10
-91.052494429728782
 20
-3.0727272632249392
 30
0.0
 10
-89.997948975183306
 20
-3.0727272632249392
 30
0.0
 10
-89.35518533881968
 20
-4.0011636268613149
 30
0.0
 10
-88.688858066092436
 20
-4.9636363541340494
 30
0.0
 10
-88.621544514695273
 20
-6.5623331998168055
 30
0.0
 10
-88.543403520637867
 20
-8.4181818086794813
 30
0.0
 10
-89.265668796345778
 20
-9.5849180232845388
 30
0.0
 10
-89.961585338819688
 20
-10.709090899588602
 30
0.0
 10
-91.052494429728782
 20
-10.709090899588602
 30
0.0
 10
-92.107039884274258
 20
-10.709090899588602
 30
0.0
 10
-92.800648459105474
 20
-9.8020643017322495
 30
0.0
  0
SPLINE
  5
6B
100
AcDbEntity
  8
0
390
0
  6
Continuous
 62
     7
100
AcDbSpline
210
0.0
220
0.0
230
1.0
 70
     0
 71
     2
 72
    20
 73
    17
 74
     0
 42
0.000001
 43
0.000001
 40
-1.0
 40
0.0
 40
0.0
 40
1.0
 40
1.0
 40
2.0
 40
2.0
 40
3.0
 40
3.0
 40
4.0
 40
4.0
 40
5.0
 40
5.0
 40
6.0
 40
6.0
 40
7.0
 40
7.0
 40
8.0
 40
8.0
 40
9.0
 10
-113.16158533881969
 20
-8.5636363541340401
 30
0.0
 10
-112.83431261154696
 20
-9.4363636268612883
 30
0.0
 10
-112.21561172480483
 20
-9.5424266360171206
 30
0.0
 10
-111.56158533881967
 20
-9.6545454450431283
 30
0.0
 10
-111.17422592695817
 20
-8.920601296252828
 30
0.0
 10
-110.87067624791057
 20
-8.3454545359522019
 30
0.0
 10
-110.80388470389134
 20
-7.3268834896583757
 30
0.0
 10
-110.72522170245607
 20
-6.1272727177704152
 30
0.0
 10
-111.02134608721435
 20
-5.2563186449518522
 30
0.0
 10
-111.34340352063786
 20
-4.3090908995885302
 30
0.0
 10
-111.92376715700152
 20
-4.2261818086795078
 30
0.0
 10
-112.61613079336512
 20
-4.1272727177704134
 30
0.0
 10
-112.97193498916934
 20
-4.7499300604277312
 30
0.0
 10
-113.34340352063786
 20
-5.3999999904976725
 30
0.0
 10
-113.41038196252222
 20
-6.454910450175988
 30
0.0
 10
-113.48885806609242
 20
-7.6909090814067387
 30
0.0
 10
-113.16158533881969
 20
-8.5636363541340401
 30
0.0
  0
SPLINE
  5
6C
100
AcDbEntity
  8
0
390
0
  6
Continuous
 62
     7
100
AcDbSpline
210
0.0
220
0.0
230
1.0
 70
     0
 71
     2
 72
    20
 73
    17
 74
     0
 42
0.000001
 43
0.000001
 40
-1.0
 40
0.0
 40
0.0
 40
1.0
 40
1.0
 40
2.0
 40
2.0
 40
3.0
 40
3.0
 40
4.0
 40
4.0
 40
5.0
 40
5.0
 40
6.0
 40
6.0
 40
7.0
 40
7.0
 40
8.0
 40
8.0
 40
9.0
 10
-113.81883027728733
 20
-9.8020643017322495
 30
0.0
 10
-114.54340352063781
 20
-8.8545454450431045
 30
0.0
 10
-114.59395195382965
 20
-7.2538450606367544
 30
0.0
 10
-114.65249442972879
 20
-5.3999999904976725
 30
0.0
 10
-113.89866399050507
 20
-4.1938712877397366
 30
0.0
 10
-113.19794897518331
 20
-3.0727272632249392
 30
0.0
 10
-112.0706762479106
 20
-3.0727272632249392
 30
0.0
 10
-111.01613079336512
 20
-3.0727272632249392
 30
0.0
 10
-110.37336715700151
 20
-4.0011636268613149
 30
0.0
 10
-109.7070398842742
 20
-4.9636363541340494
 30
0.0
 10
-109.63972633287703
 20
-6.5623331998168055
 30
0.0
 10
-109.56158533881967
 20
-8.4181818086794813
 30
0.0
 10
-110.28385061452759
 20
-9.5849180232845388
 30
0.0
 10
-110.97976715700152
 20
-10.709090899588602
 30
0.0
 10
-112.0706762479106
 20
-10.709090899588602
 30
0.0
 10
-113.12522170245602
 20
-10.709090899588602
 30
0.0
 10
-113.81883027728733
 20
-9.8020643017322495
 30
0.0
  0
LINE
  5
6D
100
AcDbEntity
  8
0
390
0
  6
Continuous
 62
     7
100
AcDbLine
 10
-129.561585
 20
-3.036364
 30
0.0
 11
-121.597949
 21
-3.036364
 31
0.0
  0
LINE
  5
6E
100
AcDbEntity
  8
0
390
0
  6
Continuous
 62
     7
100
AcDbLine
 10
-121.597949
 20
-3.036364
 30
0.0
 11
-121.597949
 21
-10.963636
 31
0.0
  0
LINE
  5
6F
100
AcDbEntity
  8
0
390
0
  6
Continuous
 62
     7
100
AcDbLine
 10
-121.597949
 20
-10.963636
 30
0.0
 11
-129.561585
 21
-10.963636
 31
0.0
  0
LINE
  5
70
100
AcDbEntity
  8
0
390
0
  6
Continuous
 62
     7
100
AcDbLine
 10
-129.561585
 20
-10.963636
 30
0.0
 11
-129.561585
 21
-3.036364
 31
0.0
  0
LINE
  5
71
100
AcDbEntity
  8
0
390
0
  6
Continuous
 62
     7
100
AcDbLine
 10
-122.688858
 20
-4.090909
 30
0.0
 11
-128.470676
 21
-4.090909
 31
0.0
  0
LINE
  5
72
100
AcDbEntity
  8
0
390
0
  6
Continuous
 62
     7
100
AcDbLine
 10
-128.470676
 20
-4.090909
 30
0.0
 11
-128.470676
 21
-9.872727
 31
0.0
  0
LINE
  5
73
100
AcDbEntity
  8
0
390
0
  6
Continuous
 62
     7
100
AcDbLine
 10
-128.470676
 20
-9.872727
 30
0.0
 11
-122.688858
 21
-9.872727
 31
0.0
  0
LINE
  5
74
100
AcDbEntity
  8
0
390
0
  6
Continuous
 62
     7
100
AcDbLine
 10
-122.688858
 20
-9.872727
 30
0.0
 11
-122.688858
 21
-4.090909
 31
0.0
  0
LINE
  5
75
100
AcDbEntity
  8
0
390
0
  6
Continuous
 62
     7
100
AcDbLine
 10
-115.670676
 20
-5.109091
 30
0.0
 11
-116.834313
 21
-5.109091
 31
0.0
  0
SPLINE
  5
76
100
AcDbEntity
  8
0
390
0
  6
Continuous
 62
     7
100
AcDbSpline
210
0.0
220
0.0
230
1.0
 70
     0
 71
     2
 72
    26
 73
    23
 74
     0
 42
0.000001
 43
0.000001
 40
5.0
 40
5.0
 40
5.0
 40
6.0
 40
6.0
 40
7.0
 40
7.0
 40
8.0
 40
8.0
 40
9.0
 40
9.0
 40
10.0
 40
10.0
 40
11.0
 40
11.0
 40
12.0
 40
12.0
 40
13.0
 40
13.0
 40
14.0
 40
14.0
 40
15.0
 40
15.0
 40
16.0
 40
16.0
 40
16.0
 10
-119.08885806609241
 20
-6.2727272632248638
 30
0.0
 10
-117.77976715700146
 20
-5.1454545359522204
 30
0.0
 10
-116.52130929369687
 20
-5.9673045691306932
 30
0.0
 10
-115.99794897518332
 20
-6.3090908995885879
 30
0.0
 10
-115.74150142273575
 20
-7.0356922981899555
 30
0.0
 10
-115.5615853388197
 20
-7.5454545359521781
 30
0.0
 10
-115.5615853388197
 20
-8.2363636268613085
 30
0.0
 10
-115.5615853388197
 20
-9.0727272632249445
 30
0.0
 10
-116.03501928965508
 20
-9.7631517748598675
 30
0.0
 10
-116.43431261154694
 20
-10.345454535952204
 30
0.0
 10
-117.09046143728312
 20
-10.558702904316487
 30
0.0
 10
-117.88885806609238
 20
-10.818181808679494
 30
0.0
 10
-118.64747875574758
 20
-10.514733532817344
 30
0.0
 10
-119.52522170245601
 20
-10.163636354134031
 30
0.0
 10
-119.96096922355477
 20
-9.2542502231453554
 30
0.0
 10
-120.36158533881968
 20
-8.4181818086794813
 30
0.0
 10
-120.34340106263889
 20
-6.8543340571340376
 30
0.0
 10
-120.32522170245606
 20
-5.290909081406725
 30
0.0
 10
-119.87202886789338
 20
-4.4270102405216116
 30
0.0
 10
-119.16158533881969
 20
-3.0727272632249392
 30
0.0
 10
-117.74340352063787
 20
-3.0727272632249392
 30
0.0
 10
-116.97976715700152
 20
-3.0727272632249392
 30
0.0
 10
-116.4650218486905
 20
-3.5392151988817844
 30
0.0
  0
ARC
  5
77
100
AcDbEntity
  8
0
390
0
  6
Continuous
 62
     7
100
AcDbCircle
 10
-118.197827
 20
-5.401906
 30
0.0
 40
2.544058
210
0.0
220
0.0
230
1.0
100
AcDbArc
 50
6.609262
 51
47.06889
  0
SPLINE
  5
78
100
AcDbEntity
  8
0
390
0
  6
Continuous
 62
     7
100
AcDbSpline
210
0.0
220
0.0
230
1.0
 70
     0
 71
     2
 72
    14
 73
    11
 74
     0
 42
0.000001
 43
0.000001
 40
0.0
 40
0.0
 40
0.0
 40
1.0
 40
1.0
 40
2.0
 40
2.0
 40
3.0
 40
3.0
 40
4.0
 40
4.0
 40
5.0
 40
5.0
 40
5.0
 10
-118.75470573194006
 20
-8.9950859855836285
 30
0.0
 10
-118.36158533881967
 20
-9.5454545359521799
 30
0.0
 10
-117.85290967516846
 20
-9.5309209455621833
 30
0.0
 10
-117.08885806609241
 20
-9.5090908995885126
 30
0.0
 10
-116.83521846725706
 20
-8.6974441833155289
 30
0.0
 10
-116.54340352063784
 20
-7.763636354133963
 30
0.0
 10
-116.99966856706682
 20
-7.1978676965621098
 30
0.0
 10
-117.45249442972876
 20
-6.6363636268613195
 30
0.0
 10
-118.17117415000848
 20
-6.9471440464417
 30
0.0
 10
-118.79794897518329
 20
-7.2181818086795024
 30
0.0
 10
-119.08885806609241
 20
-7.8363636268612975
 30
0.0
  0
ARC
  5
79
100
AcDbEntity
  8
0
390
0
  6
Continuous
 62
     7
100
AcDbCircle
 10
-117.147656
 20
-7.904103
 30
0.0
 40
1.942383
210
0.0
220
0.0
230
1.0
100
AcDbArc
 50
178.001455
 51
214.17155
  0
SPLINE
  5
7A
100
AcDbEntity
  8
0
390
0
  6
Continuous
 62
     7
100
AcDbSpline
210
0.0
220
0.0
230
1.0
 70
     0
 71
     2
 72
    10
 73
     7
 74
     0
 42
0.000001
 43
0.000001
 40
2.0
 40
2.0
 40
2.0
 40
3.0
 40
3.0
 40
4.0
 40
4.0
 40
5.0
 40
5.0
 40
5.0
 10
-116.83431261154696
 20
-5.1090908995885531
 30
0.0
 10
-117.01613079336514
 20
-4.1999999904976937
 30
0.0
 10
-117.77976715700146
 20
-4.1999999904976937
 30
0.0
 10
-118.36158533881967
 20
-4.1999999904976937
 30
0.0
 10
-118.7607570708349
 20
-4.8187161751212511
 30
0.0
 10
-119.08885806609241
 20
-5.3272727177703931
 30
0.0
 10
-119.08885806609241
 20
-6.2727272632248638
 30
0.0
  0
LINE
  5
7B
100
AcDbEntity
  8
0
390
0
  6
Continuous
 62
     7
100
AcDbLine
 10
-117.350396
 20
10.998143
 30
0.0
 11
-114.117429
 21
2.995999
 31
0.0
  0
LINE
  5
7C
100
AcDbEntity
  8
0
390
0
  6
Continuous
 62
     7
100
AcDbLine
 10
-112.049768
 20
2.995999
 30
0.0
 11
-115.28319
 21
10.998143
 31
0.0
  0
LINE
  5
7D
100
AcDbEntity
  8
0
390
0
  6
Continuous
 62
     7
100
AcDbLine
 10
-114.117429
 20
2.995999
 30
0.0
 11
-112.049768
 21
2.995999
 31
0.0
  0
LINE
  5
7E
100
AcDbEntity
  8
0
390
0
  6
Continuous
 62
     7
100
AcDbLine
 10
-115.28319
 20
10.998143
 30
0.0
 11
-117.350396
 21
10.998143
 31
0.0
  0
LINE
  5
7F
100
AcDbEntity
  8
0
390
0
  6
Continuous
 62
     7
100
AcDbLine
 10
-97.85479
 20
10.998143
 30
0.0
 11
-99.946076
 21
10.998143
 31
0.0
  0
LINE
  5
80
100
AcDbEntity
  8
0
390
0
  6
Continuous
 62
     7
100
AcDbLine
 10
-97.85479
 20
5.665333
 30
0.0
 11
-97.85479
 21
10.998143
 31
0.0
  0
ARC
  5
81
100
AcDbEntity
  8
0
390
0
  6
Continuous
 62
     7
100
AcDbCircle
 10
-100.524124
 20
5.665333
 30
0.0
 40
2.669334
210
0.0
220
0.0
230
1.0
100
AcDbArc
 50
270.0
 51
360.0
  0
LINE
  5
82
100
AcDbEntity
  8
0
390
0
  6
Continuous
 62
     7
100
AcDbLine
 10
-103.332426
 20
2.995999
 30
0.0
 11
-100.524124
 21
2.995999
 31
0.0
  0
LINE
  5
83
100
AcDbEntity
  8
0
390
0
  6
Continuous
 62
     7
100
AcDbLine
 10
-102.862276
 20
4.159662
 30
0.0
 11
-103.332426
 21
2.995999
 31
0.0
  0
LINE
  5
84
100
AcDbEntity
  8
0
390
0
  6
Continuous
 62
     7
100
AcDbLine
 10
-101.725632
 20
4.159662
 30
0.0
 11
-102.862276
 21
4.159662
 31
0.0
  0
ARC
  5
85
100
AcDbEntity
  8
0
390
0
  6
Continuous
 62
     7
100
AcDbCircle
 10
-101.725632
 20
5.939218
 30
0.0
 40
1.779556
210
0.0
220
0.0
230
1.0
100
AcDbArc
 50
270.0
 51
360.0
  0
LINE
  5
86
100
AcDbEntity
  8
0
390
0
  6
Continuous
 62
     7
100
AcDbLine
 10
-99.946076
 20
10.998143
 30
0.0
 11
-99.946076
 21
5.939218
 31
0.0
  0
LINE
  5
87
100
AcDbEntity
  8
0
390
0
  6
Continuous
 62
     7
100
AcDbLine
 10
-107.006182
 20
2.995999
 30
0.0
 11
-104.820289
 21
2.995999
 31
0.0
  0
LINE
  5
88
100
AcDbEntity
  8
0
390
0
  6
Continuous
 62
     7
100
AcDbLine
 10
-108.653631
 20
7.072867
 30
0.0
 11
-107.006182
 21
2.995999
 31
0.0
  0
LINE
  5
89
100
AcDbEntity
  8
0
390
0
  6
Continuous
 62
     7
100
AcDbLine
 10
-107.619714
 20
9.63235
 30
0.0
 11
-108.653631
 21
7.072867
 31
0.0
  0
LINE
  5
8A
100
AcDbEntity
  8
0
390
0
  6
Continuous
 62
     7
100
AcDbLine
 10
-105.913463
 20
5.409427
 30
0.0
 11
-107.619714
 21
9.63235
 31
0.0
  0
LINE
  5
8B
100
AcDbEntity
  8
0
390
0
  6
Continuous
 62
     7
100
AcDbLine
 10
-103.65521
 20
10.998143
 30
0.0
 11
-105.913463
 21
5.409427
 31
0.0
  0
LINE
  5
8C
100
AcDbEntity
  8
0
390
0
  6
Continuous
 62
     7
100
AcDbLine
 10
-101.587375
 20
10.998143
 30
0.0
 11
-103.65521
 21
10.998143
 31
0.0
  0
LINE
  5
8D
100
AcDbEntity
  8
0
390
0
  6
Continuous
 62
     7
100
AcDbLine
 10
-104.820289
 20
2.995999
 30
0.0
 11
-101.587375
 21
10.998143
 31
0.0
  0
LINE
  5
8E
100
AcDbEntity
  8
0
390
0
  6
Continuous
 62
     7
100
AcDbLine
 10
-110.561853
 20
2.995999
 30
0.0
 11
-108.494044
 21
2.995999
 31
0.0
  0
LINE
  5
8F
100
AcDbEntity
  8
0
390
0
  6
Continuous
 62
     7
100
AcDbLine
 10
-113.795274
 20
10.998143
 30
0.0
 11
-110.561853
 21
2.995999
 31
0.0
  0
LINE
  5
90
100
AcDbEntity
  8
0
390
0
  6
Continuous
 62
     7
100
AcDbLine
 10
-111.727466
 20
10.998143
 30
0.0
 11
-113.795274
 21
10.998143
 31
0.0
  0
LINE
  5
91
100
AcDbEntity
  8
0
390
0
  6
Continuous
 62
     7
100
AcDbLine
 10
-108.494044
 20
2.995999
 30
0.0
 11
-111.727466
 21
10.998143
 31
0.0
  0
LINE
  5
92
100
AcDbEntity
  8
0
390
0
  6
Continuous
 62
     7
100
AcDbLine
 10
-116.306251
 20
4.844189
 30
0.0
 11
-117.982833
 21
8.995795
 31
0.0
  0
LINE
  5
93
100
AcDbEntity
  8
0
390
0
  6
Continuous
 62
     7
100
AcDbLine
 10
-117.982833
 20
8.995795
 30
0.0
 11
-120.406596
 21
2.995999
 31
0.0
  0
LINE
  5
94
100
AcDbEntity
  8
0
390
0
  6
Continuous
 62
     7
100
AcDbLine
 10
-117.592129
 20
4.844189
 30
0.0
 11
-116.306251
 21
4.844189
 31
0.0
  0
LINE
  5
95
100
AcDbEntity
  8
0
390
0
  6
Continuous
 62
     7
100
AcDbLine
 10
-118.33939
 20
2.995999
 30
0.0
 11
-117.592129
 21
4.844189
 31
0.0
  0
LINE
  5
96
100
AcDbEntity
  8
0
390
0
  6
Continuous
 62
     7
100
AcDbLine
 10
-120.406596
 20
2.995999
 30
0.0
 11
-118.33939
 21
2.995999
 31
0.0
  0
LINE
  5
97
100
AcDbEntity
  8
0
390
0
  6
Continuous
 62
     7
100
AcDbLine
 10
-79.44942
 20
-14.650518
 30
0.0
 11
-79.44942
 21
14.650518
 31
0.0
  0
LINE
  5
98
100
AcDbEntity
  8
0
390
0
  6
Continuous
 62
     7
100
AcDbLine
 10
-79.44942
 20
14.650518
 30
0.0
 11
-76.9498
 21
14.650518
 31
0.0
  0
LINE
  5
99
100
AcDbEntity
  8
0
390
0
  6
Continuous
 62
     7
100
AcDbLine
 10
-76.9498
 20
14.650518
 30
0.0
 11
-76.9498
 21
-14.650518
 31
0.0
  0
LINE
  5
9A
100
AcDbEntity
  8
0
390
0
  6
Continuous
 62
     7
100
AcDbLine
 10
-79.44942
 20
-14.650518
 30
0.0
 11
-76.9498
 21
-14.650518
 31
0.0
  0
LINE
  5
9B
100
AcDbEntity
  8
0
390
0
  6
Continuous
 62
     7
100
AcDbLine
 10
-138.750455
 20
-14.650518
 30
0.0
 11
-79.44942
 21
-14.650518
 31
0.0
  0
LINE
  5
9C
100
AcDbEntity
  8
0
390
0
  6
Continuous
 62
     7
100
AcDbLine
 10
-138.750455
 20
14.650518
 30
0.0
 11
-138.750455
 21
-14.650518
 31
0.0
  0
LINE
  5
9D
100
AcDbEntity
  8
0
390
0
  6
Continuous
 62
     7
100
AcDbLine
 10
-79.44942
 20
14.650518
 30
0.0
 11
-138.750455
 21
14.650518
 31
0.0
  0
LINE
  5
9E
100
AcDbEntity
  8
0
390
0
  6
Continuous
 62
     7
100
AcDbLine
 10
-138.750455
 20
17.150137
 30
0.0
 11
-138.750455
 21
14.650518
 31
0.0
  0
LINE
  5
9F
100
AcDbEntity
  8
0
390
0
  6
Continuous
 62
     7
100
AcDbLine
 10
-138.750455
 20
17.150137
 30
0.0
 11
-79.44942
 21
17.150137
 31
0.0
  0
LINE
  5
A0
100
AcDbEntity
  8
0
390
0
  6
Continuous
 62
     7
100
AcDbLine
 10
-79.44942
 20
14.650518
 30
0.0
 11
-79.44942
 21
17.150137
 31
0.0
  0
LINE
  5
A1
100
AcDbEntity
  8
0
390
0
  6
Continuous
 62
     7
100
AcDbLine
 10
-79.44942
 20
-14.650518
 30
0.0
 11
-79.44942
 21
-17.150137
 31
0.0
  0
LINE
  5
A2
100
AcDbEntity
  8
0
390
0
  6
Continuous
 62
     7
100
AcDbLine
 10
-79.44942
 20
-17.150137
 30
0.0
 11
-138.750455
 21
-17.150137
 31
0.0
  0
LINE
  5
A3
100
AcDbEntity
  8
0
390
0
  6
Continuous
 62
     7
100
AcDbLine
 10
-138.750455
 20
-17.150137
 30
0.0
 11
-138.750455
 21
-14.650518
 31
0.0
  0
ELLIPSE
  5
A4
100
AcDbEntity
  8
0
390
0
  6
Continuous
 62
     7
100
AcDbEllipse
 10
-79.44942
 20
-14.650518
 30
0.0
 11
-1.7677669529664597
 21
-1.7677669529663209
 31
0.0
210
0.0
220
0.0
230
1.0
 40
0.999695
 41
0.7855504566450597
 42
2.3560421969447969
  0
LINE
  5
A5
100
AcDbEntity
  8
0
390
0
  6
Continuous
 62
     7
100
AcDbLine
 10
-141.250075
 20
-14.650518
 30
0.0
 11
-138.750455
 21
-14.650518
 31
0.0
  0
ELLIPSE
  5
A6
100
AcDbEntity
  8
0
390
0
  6
Continuous
 62
     7
100
AcDbEllipse
 10
-138.750455
 20
-14.650518
 30
0.0
 11
-1.7677669529662932
 21
1.7677669529664319
 31
0.0
210
0.0
220
0.0
230
1.0
 40
0.999695
 41
0.7855504566450672
 42
2.356042196944804
  0
ELLIPSE
  5
A7
100
AcDbEntity
  8
0
390
0
  6
Continuous
 62
     7
100
AcDbEllipse
 10
-79.44942
 20
14.650518
 30
0.0
 11
1.7677669529662654
 21
-1.7677669529664319
 31
0.0
210
0.0
220
0.0
230
0.9999999999999999
 40
0.999695
 41
0.7855504566450754
 42
2.3560421969448124
  0
LINE
  5
A8
100
AcDbEntity
  8
0
390
0
  6
Continuous
 62
     7
100
AcDbLine
 10
-141.250075
 20
-14.650518
 30
0.0
 11
-141.250075
 21
14.650518
 31
0.0
  0
LINE
  5
A9
100
AcDbEntity
  8
0
390
0
  6
Continuous
 62
     7
100
AcDbLine
 10
-141.250075
 20
14.650518
 30
0.0
 11
-138.750455
 21
14.650518
 31
0.0
  0
ELLIPSE
  5
AA
100
AcDbEntity
  8
0
390
0
  6
Continuous
 62
     7
100
AcDbEllipse
 10
-138.750455
 20
14.650518
 30
0.0
 11
1.7677669529664597
 21
1.7677669529663209
 31
0.0
210
0.0
220
0.0
230
1.0
 40
0.999695
 41
0.7855504566450675
 42
2.3560421969448049
  0
LINE
  5
AB
100
AcDbEntity
  8
0
390
0
  6
Continuous
 62
     7
100
AcDbLine
 10
-141.949039
 20
-15.349482
 30
0.0
 11
-141.250075
 21
-14.650518
 31
0.0
  0
LINE
  5
AC
100
AcDbEntity
  8
0
390
0
  6
Continuous
 62
     7
100
AcDbLine
 10
-138.750455
 20
-17.150137
 30
0.0
 11
-139.44942
 21
-17.849101
 31
0.0
  0
ELLIPSE
  5
AD
100
AcDbEntity
  8
0
390
0
  6
Continuous
 62
     7
100
AcDbEllipse
 10
-139.448658
 20
-15.34872
 30
0.0
 11
-1.7683054729239478
 21
-1.7683054729239478
 31
0.0
210
0.0
220
0.0
230
1.0
 40
0.999695
 41
5.4979394370297188
 42
7.0684311773294555
  0
LINE
  5
AE
100
AcDbEntity
  8
0
390
0
  6
Continuous
 62
     7
100
AcDbLine
 10
-76.250836
 20
15.349482
 30
0.0
 11
-76.9498
 21
14.650518
 31
0.0
  0
LINE
  5
AF
100
AcDbEntity
  8
0
390
0
  6
Continuous
 62
     7
100
AcDbLine
 10
-79.44942
 20
17.150137
 30
0.0
 11
-78.750456
 21
17.849101
 31
0.0
  0
ELLIPSE
  5
B0
100
AcDbEntity
  8
0
390
0
  6
Continuous
 62
     7
100
AcDbEllipse
 10
-78.751217
 20
15.34872
 30
0.0
 11
1.7683054729239478
 21
1.7683054729239478
 31
0.0
210
0.0
220
0.0
230
1.0
 40
0.999695
 41
5.4979394370297188
 42
7.0684311773294519
  0
LINE
  5
B1
100
AcDbEntity
  8
0
390
0
  6
Continuous
 62
     7
100
AcDbLine
 10
-139.44942
 20
17.849101
 30
0.0
 11
-138.750455
 21
17.150137
 31
0.0
  0
LINE
  5
B2
100
AcDbEntity
  8
0
390
0
  6
Continuous
 62
     7
100
AcDbLine
 10
-141.250075
 20
14.650518
 30
0.0
 11
-141.949039
 21
15.349482
 31
0.0
  0
ELLIPSE
  5
B3
100
AcDbEntity
  8
0
390
0
  6
Continuous
 62
     7
100
AcDbEllipse
 10
-139.448658
 20
15.34872
 30
0.0
 11
-1.7683054729239478
 21
1.7683054729239478
 31
0.0
210
0.0
220
0.0
230
1.0
 40
0.999695
 41
5.4979394370297188
 42
7.0684311773294555
  0
LINE
  5
B4
100
AcDbEntity
  8
0
390
0
  6
Continuous
 62
     7
100
AcDbLine
 10
-78.750456
 20
-17.849101
 30
0.0
 11
-79.44942
 21
-17.150137
 31
0.0
  0
LINE
  5
B5
100
AcDbEntity
  8
0
390
0
  6
Continuous
 62
     7
100
AcDbLine
 10
-76.9498
 20
-14.650518
 30
0.0
 11
-76.250836
 21
-15.349482
 31
0.0
  0
ELLIPSE
  5
B6
100
AcDbEntity
  8
0
390
0
  6
Continuous
 62
     7
100
AcDbEllipse
 10
-78.751217
 20
-15.34872
 30
0.0
 11
1.7683054729239478
 21
-1.7683054729239478
 31
0.0
210
0.0
220
0.0
230
1.0
 40
0.999695
 41
5.4979394370297161
 42
7.0684311773294546
  0
LINE
  5
B7
100
AcDbEntity
  8
0
390
0
  6
Continuous
 62
     7
100
AcDbLine
 10
-139.44942
 20
-17.849101
 30
0.0
 11
-78.750456
 21
-17.849101
 31
0.0
  0
LINE
  5
B8
100
AcDbEntity
  8
0
390
0
  6
Continuous
 62
     7
100
AcDbLine
 10
-76.250836
 20
-15.349482
 30
0.0
 11
-76.250836
 21
15.349482
 31
0.0
  0
LINE
  5
B9
100
AcDbEntity
  8
0
390
0
  6
Continuous
 62
     7
100
AcDbLine
 10
-141.949039
 20
15.349482
 30
0.0
 11
-141.949039
 21
-15.349482
 31
0.0
  0
LINE
  5
BA
100
AcDbEntity
  8
0
390
0
  6
Continuous
 62
     7
100
AcDbLine
 10
-78.750456
 20
17.849101
 30
0.0
 11
-139.44942
 21
17.849101
 31
0.0
  0
POINT
  5
BB
100
AcDbEntity
  8
0
390
0
 62
     7
100
AcDbPoint
 10
0.0
 20
0.0
 30
0.0
  0
POINT
  5
BC
100
AcDbEntity
  8
0
390
0
 62
     7
100
AcDbPoint
 10
0.0
 20
0.0
 30
0.0
  0
ENDSEC
  0
SECTION
  2
OBJECTS
  0
DICTIONARY
  5
19
100
AcDbDictionary
280
     0
281
     1
  3
ACAD_GROUP
350
1A
  3
ACAD_MLINESTYLE
350
1B
  3
ACAD_LAYOUT
350
1E
  3
ACAD_PLOTSETTINGS
350
22
  3
ACAD_PLOTSTYLENAME
350
1F
  3
ACAD_WIPEOUT_VARS
350
23
  0
DICTIONARY
  5
1A
102
{ACAD_REACTORS
330
19
102
}
100
AcDbDictionary
280
     0
281
     1
  0
DICTIONARY
  5
1B
102
{ACAD_REACTORS
330
19
102
}
100
AcDbDictionary
280
     0
281
     1
  3
Standard
350
1C
  0
MLINESTYLE
  5
1C
102
{ACAD_REACTORS
330
1B
102
}
100
AcDbMlineStyle
  2
Standard
 70
     0
  3

 62
     0
 51
90.0
 52
90.0
 71
     2
 49
0.5
 62
   256
  6
ByLayer
 49
-0.5
 62
   256
  6
ByLayer
  0
ACDBDICTIONARYWDFLT
  5
1F
102
{ACAD_REACTORS
330
19
102
}
100
AcDbDictionary
281
     1
  3
Normal
350
1D
100
AcDbDictionaryWithDefault
340
1D
  0
ACDBPLACEHOLDER
  5
1D
102
{ACAD_REACTORS
330
1F
102
}
  0
LAYOUT
  5
20
102
{ACAD_REACTORS
330
1E
102
}
100
AcDbPlotSettings
  1

  2

  4

  6

 40
0.0
 41
0.0
 42
0.0
 43
0.0
 44
0.0
 45
0.0
 46
0.0
 47
0.0
 48
0.0
 49
0.0
140
0.0
141
0.0
142
1.0
143
1.0
 70
  1024
 72
     0
 73
     0
 74
     0
  7

 75
     0
147
1.0
148
0.0
149
0.0
100
AcDbLayout
  1
Model
 70
     0
 71
     1
 10
0.0
 20
0.0
 11
0.0
 21
0.0
 12
0.0
 22
0.0
 32
0.0
 14
0.0
 24
0.0
 34
0.0
 15
0.0
 25
0.0
 35
0.0
146
0.0
 13
0.0
 23
0.0
 33
0.0
 16
0.0
 26
0.0
 36
0.0
 17
0.0
 27
0.0
 37
0.0
 76
     0
330
A
331
0
345
0
346
0
  0
LAYOUT
  5
21
102
{ACAD_REACTORS
330
1E
102
}
100
AcDbPlotSettings
  1

  2

  4

  6

 40
0.0
 41
0.0
 42
0.0
 43
0.0
 44
0.0
 45
0.0
 46
0.0
 47
0.0
 48
0.0
 49
0.0
140
0.0
141
0.0
142
1.0
143
1.0
 70
     0
 72
     0
 73
     0
 74
     0
  7

 75
     0
147
1.0
148
0.0
149
0.0
100
AcDbLayout
  1
Layout1
 70
     0
 71
     2
 10
0.0
 20
0.0
 11
0.0
 21
0.0
 12
0.0
 22
0.0
 32
0.0
 14
0.0
 24
0.0
 34
0.0
 15
0.0
 25
0.0
 35
0.0
146
0.0
 13
0.0
 23
0.0
 33
0.0
 16
0.0
 26
0.0
 36
0.0
 17
0.0
 27
0.0
 37
0.0
 76
     0
330
B
331
0
345
0
346
0
  0
DICTIONARY
  5
1E
102
{ACAD_REACTORS
330
19
102
}
100
AcDbDictionary
280
     0
281
     1
  3
Layout1
350
21
  3
Model
350
20
  0
DICTIONARY
  5
22
102
{ACAD_REACTORS
330
19
102
}
100
AcDbDictionary
280
     0
281
     1
  0
WIPEOUTVARIABLES
  5
23
100
AcDbWipeoutVariables
 70
     1
  0
ENDSEC
  0
EOF
