  0
SECTION
  2
HEADER
  9
$ACADVER
  1
AC1015
  9
$ACADMAINTVER
 70
     6
  9
$DWGCODEPAGE
  3
DOS932
  9
$INSBASE
 10
0.0
 20
0.0
 30
0.0
  9
$EXTMIN
 10
-127.418787
 20
-105.54112
 30
0.0
  9
$EXTMAX
 10
327.128675
 20
240.216329
 30
9.906
  9
$LIMMIN
 10
-127.418787
 20
-105.54112
  9
$LIMMAX
 10
327.128675
 20
240.216329
  9
$ORTHOMODE
 70
     0
  9
$REGENMODE
 70
     1
  9
$FILLMODE
 70
     1
  9
$QTEXTMODE
 70
     0
  9
$MIRRTEXT
 70
     1
  9
$LTSCALE
 40
10.0
  9
$ATTMODE
 70
     1
  9
$TEXTSIZE
 40
0.2
  9
$TRACEWID
 40
0.05
  9
$TEXTSTYLE
  7
Standard
  9
$CLAYER
  8
0
  9
$CELTYPE
  6
Continuous
  9
$CECOLOR
 62
   256
  9
$CELTSCALE
 40
1.0
  9
$DISPSILH
 70
     0
  9
$DIMSCALE
 40
1.0
  9
$DIMASZ
 40
1.40208
  9
$DIMEXO
 40
1.40208
  9
$DIMDLI
 40
0.38
  9
$DIMRND
 40
0.0
  9
$DIMDLE
 40
0.0
  9
$DIMEXE
 40
1.05156
  9
$DIMTP
 40
0.0
  9
$DIMTM
 40
0.0
  9
$DIMTXT
 40
3.5052
  9
$DIMCEN
 40
0.09
  9
$DIMTSZ
 40
0.0
  9
$DIMTOL
 70
     0
  9
$DIMLIM
 70
     0
  9
$DIMTIH
 70
     0
  9
$DIMTOH
 70
     0
  9
$DIMSE1
 70
     0
  9
$DIMSE2
 70
     0
  9
$DIMTAD
 70
     1
  9
$DIMZIN
 70
     0
  9
$DIMBLK
  1

  9
$DIMASO
 70
     1
  9
$DIMSHO
 70
     1
  9
$DIMPOST
  1

  9
$DIMAPOST
  1

  9
$DIMALT
 70
     0
  9
$DIMALTD
 70
     2
  9
$DIMALTF
 40
25.4
  9
$DIMLFAC
 40
1.0
  9
$DIMTOFL
 70
     0
  9
$DIMTVP
 40
0.0
  9
$DIMTIX
 70
     0
  9
$DIMSOXD
 70
     0
  9
$DIMSAH
 70
     0
  9
$DIMBLK1
  1

  9
$DIMBLK2
  1

  9
$DIMSTYLE
  2
Standard
  9
$DIMCLRD
 70
     7
  9
$DIMCLRE
 70
     7
  9
$DIMCLRT
 70
     7
  9
$DIMTFAC
 40
0.5
  9
$DIMGAP
 40
1.7526
  9
$DIMJUST
 70
     0
  9
$DIMSD1
 70
     0
  9
$DIMSD2
 70
     0
  9
$DIMTOLJ
 70
     1
  9
$DIMTZIN
 70
     0
  9
$DIMALTZ
 70
     0
  9
$DIMALTTZ
 70
     0
  9
$DIMUPT
 70
     0
  9
$DIMDEC
 70
     2
  9
$DIMTDEC
 70
     4
  9
$DIMALTU
 70
     2
  9
$DIMALTTD
 70
     2
  9
$DIMTXSTY
  7
Standard
  9
$DIMAUNIT
 70
     0
  9
$DIMADEC
 70
     0
  9
$DIMALTRND
 40
0.0
  9
$DIMAZIN
 70
     0
  9
$DIMDSEP
 70
     0
  9
$DIMATFIT
 70
     3
  9
$DIMFRAC
 70
     0
  9
$DIMLDRBLK
  1

  9
$DIMLUNIT
 70
     2
  9
$DIMLWD
 70
     0
  9
$DIMLWE
 70
     0
  9
$DIMTMOVE
 70
     0
  9
$LUNITS
 70
     2
  9
$LUPREC
 70
     4
  9
$SKETCHINC
 40
0.1
  9
$FILLETRAD
 40
0.0
  9
$AUNITS
 70
     0
  9
$AUPREC
 70
     0
  9
$MENU
  1
acad
  9
$ELEVATION
 40
0.0
  9
$PELEVATION
 40
0.0
  9
$THICKNESS
 40
0.0
  9
$LIMCHECK
 70
     0
  9
$CHAMFERA
 40
0.0
  9
$CHAMFERB
 40
0.0
  9
$CHAMFERC
 40
0.0
  9
$CHAMFERD
 40
0.0
  9
$SKPOLY
 70
     0
  9
$TDCREATE
 40
2459761.784421296
  9
$TDUCREATE
 40
0.000000000
  9
$TDUPDATE
 40
2459761.409363426
  9
$TDUUPDATE
 40
0.000000000
  9
$TDINDWG
 40
0.0000000000
  9
$TDUSRTIMER
 40
0.0000000000
  9
$USRTIMER
 70
     1
  9
$ANGBASE
 50
0.0
  9
$ANGDIR
 70
     0
  9
$PDMODE
 70
     0
  9
$PDSIZE
 40
0.0
  9
$PLINEWID
 40
0.0
  9
$SPLFRAME
 70
     0
  9
$SPLINETYPE
 70
     6
  9
$SPLINESEGS
 70
     8
  9
$HANDSEED
  5
238
  9
$SURFTAB1
 70
     6
  9
$SURFTAB2
 70
     6
  9
$SURFTYPE
 70
     6
  9
$SURFU
 70
     6
  9
$SURFV
 70
     6
  9
$UCSBASE
  2

  9
$UCSNAME
  2

  9
$UCSORG
 10
0.0
 20
0.0
 30
0.0
  9
$UCSXDIR
 10
1.0
 20
0.0
 30
0.0
  9
$UCSYDIR
 10
0.0
 20
1.0
 30
0.0
  9
$UCSORTHOREF
  2

  9
$UCSORTHOVIEW
 70
     0
  9
$UCSORGTOP
 10
0.0
 20
0.0
 30
0.0
  9
$UCSORGBOTTOM
 10
0.0
 20
0.0
 30
0.0
  9
$UCSORGLEFT
 10
0.0
 20
0.0
 30
0.0
  9
$UCSORGRIGHT
 10
0.0
 20
0.0
 30
0.0
  9
$UCSORGFRONT
 10
0.0
 20
0.0
 30
0.0
  9
$UCSORGBACK
 10
0.0
 20
0.0
 30
0.0
  9
$PUCSBASE
  2

  9
$PUCSNAME
  2

  9
$PUCSORG
 10
0.0
 20
0.0
 30
0.0
  9
$PUCSXDIR
 10
1.0
 20
0.0
 30
0.0
  9
$PUCSYDIR
 10
0.0
 20
1.0
 30
0.0
  9
$PUCSORTHOREF
  2

  9
$PUCSORTHOVIEW
 70
     0
  9
$PUCSORGTOP
 10
0.0
 20
0.0
 30
0.0
  9
$PUCSORGBOTTOM
 10
0.0
 20
0.0
 30
0.0
  9
$PUCSORGLEFT
 10
0.0
 20
0.0
 30
0.0
  9
$PUCSORGRIGHT
 10
0.0
 20
0.0
 30
0.0
  9
$PUCSORGFRONT
 10
0.0
 20
0.0
 30
0.0
  9
$PUCSORGBACK
 10
0.0
 20
0.0
 30
0.0
  9
$USERI1
 70
     0
  9
$USERI2
 70
     0
  9
$USERI3
 70
     0
  9
$USERI4
 70
     0
  9
$USERI5
 70
     0
  9
$USERR1
 40
0.0
  9
$USERR2
 40
0.0
  9
$USERR3
 40
0.0
  9
$USERR4
 40
0.0
  9
$USERR5
 40
0.0
  9
$WORLDVIEW
 70
     1
  9
$SHADEDGE
 70
     3
  9
$SHADEDIF
 70
    70
  9
$TILEMODE
 70
     1
  9
$MAXACTVP
 70
    16
  9
$PINSBASE
 10
0.0
 20
0.0
 30
0.0
  9
$PLIMCHECK
 70
     0
  9
$PEXTMIN
 10
1.000000E+20
 20
1.000000E+20
 30
1.000000E+20
  9
$PEXTMAX
 10
-1.000000E+20
 20
-1.000000E+20
 30
-1.000000E+20
  9
$PLIMMIN
 10
0.0
 20
0.0
  9
$PLIMMAX
 10
12.0
 20
9.0
  9
$UNITMODE
 70
     0
  9
$VISRETAIN
 70
     0
  9
$PLINEGEN
 70
     1
  9
$PSLTSCALE
 70
     0
  9
$TREEDEPTH
 70
  3020
  9
$CMLSTYLE
  2
Standard
  9
$CMLJUST
 70
     0
  9
$CMLSCALE
 40
1.0
  9
$PROXYGRAPHICS
 70
     0
  9
$MEASUREMENT
 70
     0
  9
$CELWEIGHT
370
     0
  9
$ENDCAPS
280
     0
  9
$JOINSTYLE
280
     0
  9
$LWDISPLAY
290
     0
  9
$INSUNITS
 70
     0
  9
$HYPERLINKBASE
  1

  9
$STYLESHEET
  1

  9
$XEDIT
290
     1
  9
$CEPSNTYPE
380
     0
  9
$PSTYLEMODE
290
     1
  9
$FINGERPRINTGUID
  2

  9
$VERSIONGUID
  2

  9
$EXTNAMES
290
     1
  9
$PSVPSCALE
 40
0.0
  0
ENDSEC
  0
SECTION
  2
CLASSES
  0
CLASS
  1
LWPOLYLINE
  2
AcDbPolyline
  3
AutoCAD 2000
 90
        0
280
     0
281
     1
  0
CLASS
  1
IMAGE
  2
AcDbRasterImage
  3
ISM
 90
      127
280
     0
281
     1
  0
CLASS
  1
OLE2FRAME
  2
AcDbOle2Frame
  3
AutoCAD 2000
 90
        0
280
     0
281
     1
  0
CLASS
  1
HATCH
  2
AcDbHatch
  3
AutoCAD 2000
 90
        0
280
     0
281
     1
  0
CLASS
  1
DICTIONARYVAR
  2
AcDbDictionaryVar
  3
AutoCAD 2000
 90
        0
280
     0
281
     0
  0
CLASS
  1
RASTERVARIABLES
  2
AcDbRasterVariables
  3
ISM
 90
        0
280
     0
281
     0
  0
CLASS
  1
IMAGEDEF
  2
AcDbRasterImageDef
  3
ISM
 90
        0
280
     0
281
     0
  0
CLASS
  1
IMAGEDEF_REACTOR
  2
AcDbRasterImageDefReactor
  3
ISM
 90
        1
280
     0
281
     0
  0
CLASS
  1
IDBUFFER
  2
AcDbIdBuffer
  3
AutoCAD 2000
 90
        0
280
     0
281
     0
  0
CLASS
  1
SPATIAL_FILTER
  2
AcDbSpatialFilter
  3
AutoCAD 2000
 90
        0
280
     0
281
     0
  0
CLASS
  1
XRECORD
  2
AcDbXrecord
  3
AutoCAD 2000
 90
        0
280
     0
281
     0
  0
CLASS
  1
SORTENTSTABLE
  2
AcDbSortentsTable
  3
AutoCAD 2000
 90
        0
280
     0
281
     0
  0
CLASS
  1
LAYER_INDEX
  2
AcDbLayerIndex
  3
AutoCAD 2000
 90
        0
280
     0
281
     0
  0
CLASS
  1
SPATIAL_INDEX
  2
AcDbSpatialIndex
  3
AutoCAD 2000
 90
        0
280
     0
281
     0
  0
CLASS
  1
OBJECT_PTR
  2
CAseDLPNTableRecord
  3
"ASE-LPNTableRecord"
 90
        1
280
     0
281
     0
  0
CLASS
  1
LAYOUT
  2
AcDbLayout
  3
AutoCAD 2000
 90
        0
280
     0
281
     0
  0
CLASS
  1
PLOTSETTINGS
  2
AcDbPlotSettings
  3
AutoCAD 2000
 90
        0
280
     0
281
     0
  0
CLASS
  1
ACDBDICTIONARYWDFLT
  2
AcDbDictionaryWithDefault
  3
AutoCAD 2000
 90
        0
280
     0
281
     0
  0
CLASS
  1
ACDBPLACEHOLDER
  2
AcDbPlaceHolder
  3
AutoCAD 2000
 90
        0
280
     0
281
     0
  0
CLASS
  1
VBA_PROJECT
  2
AcDbVbaProject
  3
acadvba
 90
        0
280
     0
281
     0
  0
CLASS
  1
WIPEOUT
  2
AcDbWipeout
  3
WipeOut|AutoCAD Express Tool|expresstools@autodesk.com
 90
      127
280
     0
281
     1
  0
CLASS
  1
WIPEOUTVARIABLES
  2
AcDbWipeoutVariables
  3
WipeOut|AutoCAD Express Tool|expresstools@autodesk.com
 90
        0
280
     0
281
     0
  0
CLASS
  1
RTEXT
  2
RText
  3
RText|AutoCAD Express Tool|expresstools@autodesk.com
 90
        0
280
     0
281
     1
  0
CLASS
  1
ARCALIGNEDTEXT
  2
AcDbArcAlignedText
  3
ATEXT|AutoCAD Express Tool|expresstools@autodesk.com
 90
        0
280
     0
281
     1
  0
ENDSEC
  0
SECTION
  2
TABLES
  0
TABLE
  2
VPORT
  5
7
100
AcDbSymbolTable
 70
     1
  0
VPORT
  5
15
100
AcDbSymbolTableRecord
100
AcDbViewportTableRecord
  2
*ACTIVE
 70
     0
 10
0.0
 20
0.0
 11
1.0
 21
1.0
 12
6.591288
 22
4.579184
 13
0.0
 23
0.0
 14
1.0
 24
1.0
 15
0.0
 25
0.0
 16
0.0
 26
0.0
 36
1.0
 17
0.0
 27
0.0
 37
0.0
 40
9.158369
 41
0.688564
 42
50.0
 43
0.0
 44
0.0
 50
0.0
 51
0.0
 71
     0
 72
   100
 73
     1
 74
     1
 75
     0
 76
     0
 77
     0
 78
     0
281
     0
 65
     0
110
0.0
120
0.0
130
0.0
111
1.0
121
0.0
131
0.0
112
0.0
122
1.0
132
0.0
345
0
346
0
 79
     0
146
0.0
  0
ENDTAB
  0
TABLE
  2
LTYPE
  5
4
100
AcDbSymbolTable
 70
     3
  0
LTYPE
  5
11
100
AcDbSymbolTableRecord
100
AcDbLinetypeTableRecord
  2
ByBlock
 70
    64
  3

 72
    65
 73
     0
 40
0.0
  0
LTYPE
  5
12
100
AcDbSymbolTableRecord
100
AcDbLinetypeTableRecord
  2
ByLayer
 70
    64
  3

 72
    65
 73
     0
 40
0.0
  0
LTYPE
  5
13
100
AcDbSymbolTableRecord
100
AcDbLinetypeTableRecord
  2
Continuous
 70
    64
  3
Solid line
 72
    65
 73
     0
 40
0.0
  0
ENDTAB
  0
TABLE
  2
LAYER
  5
2
100
AcDbSymbolTable
 70
     1
  0
LAYER
  5
14
100
AcDbSymbolTableRecord
100
AcDbLayerTableRecord
  2
0
 70
     0
 62
     7
  6
Continuous
290
     1
370
    -3
390
1D
  0
ENDTAB
  0
TABLE
  2
STYLE
  5
3
100
AcDbSymbolTable
 70
     1
  0
STYLE
  5
17
100
AcDbSymbolTableRecord
100
AcDbTextStyleTableRecord
  2
Standard
 70
     0
 40
0.0
 41
1.0
 50
0.0
 71
     0
 42
0.0
  3
FG教科書体NT-M
  4

1001
ACAD
1000
FG教科書体NT-M
1071
        0
  0
ENDTAB
  0
TABLE
  2
VIEW
  5
5
100
AcDbSymbolTable
 70
     0
  0
ENDTAB
  0
TABLE
  2
UCS
  5
6
100
AcDbSymbolTable
 70
     0
  0
ENDTAB
  0
TABLE
  2
APPID
  5
8
100
AcDbSymbolTable
 70
     2
  0
APPID
  5
16
100
AcDbSymbolTableRecord
100
AcDbRegAppTableRecord
  2
ACAD
 70
     0
  0
APPID
  5
26
100
AcDbSymbolTableRecord
100
AcDbRegAppTableRecord
  2
TOPsolid_Design
 70
     0
  0
ENDTAB
  0
TABLE
  2
DIMSTYLE
  5
9
100
AcDbSymbolTable
 70
     1
100
AcDbDimStyleTable
 71
     0
  0
DIMSTYLE
105
18
100
AcDbSymbolTableRecord
100
AcDbDimStyleTableRecord
  2
Standard
 70
     0
  3

  4

 40
1.0
 41
1.40208
 42
1.40208
 43
0.38
 44
1.05156
 45
0.0
 46
0.0
 47
0.0
 48
0.0
 71
     0
 72
     0
 73
     0
 74
     0
 75
     0
 76
     0
 77
     1
 78
     0
 79
     0
140
3.5052
141
0.09
142
0.0
143
25.4
144
1.0
145
0.0
146
0.5
147
1.7526
148
0.0
170
     0
171
     2
172
     0
173
     0
174
     0
175
     0
176
     7
177
     7
178
     7
179
     0
271
     2
272
     4
273
     2
274
     2
275
     0
276
     0
277
     2
278
    46
279
     0
280
     0
281
     0
282
     0
283
     1
284
     0
285
     0
286
     0
288
     0
289
     3
340
17
341
0
342
0
343
0
344
0
371
    -2
372
    -2
  0
ENDTAB
  0
TABLE
  2
BLOCK_RECORD
  5
1
100
AcDbSymbolTable
 70
     0
  0
BLOCK_RECORD
  5
A
100
AcDbSymbolTableRecord
100
AcDbBlockTableRecord
  2
*MODEL_SPACE
340
20
  0
BLOCK_RECORD
  5
B
100
AcDbSymbolTableRecord
100
AcDbBlockTableRecord
  2
*PAPER_SPACE
340
21
  0
ENDTAB
  0
ENDSEC
  0
SECTION
  2
BLOCKS
  0
BLOCK
  5
D
100
AcDbEntity
  8
0
390
0
100
AcDbBlockBegin
  2
*MODEL_SPACE
 70
     0
 10
0.0
 20
0.0
 30
0.0
  3
*MODEL_SPACE
  1

  0
ENDBLK
  5
E
100
AcDbEntity
  8
0
390
0
100
AcDbBlockEnd
  0
BLOCK
  5
F
100
AcDbEntity
 67
     1
  8
0
390
0
100
AcDbBlockBegin
  2
*PAPER_SPACE
 70
     0
 10
0.0
 20
0.0
 30
0.0
  3
*PAPER_SPACE
  1

  0
ENDBLK
  5
10
100
AcDbEntity
 67
     1
  8
0
390
0
100
AcDbBlockEnd
  0
ENDSEC
  0
SECTION
  2
ENTITIES
  0
LINE
  5
27
100
AcDbEntity
  8
0
390
0
  6
Continuous
 62
     7
100
AcDbLine
 10
9.1
 20
31.208698
 30
0.0
 11
5.1
 21
31.208698
 31
0.0
  0
LINE
  5
28
100
AcDbEntity
  8
0
390
0
  6
Continuous
 62
     7
100
AcDbLine
 10
9.1
 20
31.208698
 30
0.0
 11
9.1
 21
25.435195
 31
0.0
  0
LINE
  5
29
100
AcDbEntity
  8
0
390
0
  6
Continuous
 62
     7
100
AcDbLine
 10
9.1
 20
25.435195
 30
0.0
 11
5.1
 21
25.435195
 31
0.0
  0
LINE
  5
2A
100
AcDbEntity
  8
0
390
0
  6
Continuous
 62
     7
100
AcDbLine
 10
9.1
 20
34.095449
 30
0.0
 11
5.1
 21
34.095449
 31
0.0
  0
LINE
  5
2B
100
AcDbEntity
  8
0
390
0
  6
Continuous
 62
     7
100
AcDbLine
 10
9.1
 20
34.095449
 30
0.0
 11
9.1
 21
31.208698
 31
0.0
  0
LINE
  5
2C
100
AcDbEntity
  8
0
390
0
  6
Continuous
 62
     7
100
AcDbLine
 10
9.1
 20
22.548444
 30
0.0
 11
5.1
 21
22.548444
 31
0.0
  0
LINE
  5
2D
100
AcDbEntity
  8
0
390
0
  6
Continuous
 62
     7
100
AcDbLine
 10
9.1
 20
25.435195
 30
0.0
 11
9.1
 21
22.548444
 31
0.0
  0
LINE
  5
2E
100
AcDbEntity
  8
0
390
0
  6
Continuous
 62
     7
100
AcDbLine
 10
-19.4
 20
31.321947
 30
0.0
 11
-19.4
 21
25.321947
 31
0.0
  0
LINE
  5
2F
100
AcDbEntity
  8
0
390
0
  6
Continuous
 62
     7
100
AcDbLine
 10
-19.9
 20
25.821947
 30
0.0
 11
-19.9
 21
30.821947
 31
0.0
  0
LINE
  5
30
100
AcDbEntity
  8
0
390
0
  6
Continuous
 62
     7
100
AcDbLine
 10
-6.3
 20
20.821947
 30
0.0
 11
-6.3
 21
39.865403
 31
0.0
  0
LINE
  5
31
100
AcDbEntity
  8
0
390
0
  6
Continuous
 62
     7
100
AcDbLine
 10
-3.5
 20
39.865403
 30
0.0
 11
-6.3
 21
39.865403
 31
0.0
  0
LINE
  5
32
100
AcDbEntity
  8
0
390
0
  6
Continuous
 62
     7
100
AcDbLine
 10
-3.5
 20
39.865403
 30
0.0
 11
-3.5
 21
20.821947
 31
0.0
  0
LINE
  5
33
100
AcDbEntity
  8
0
390
0
  6
Continuous
 62
     7
100
AcDbLine
 10
-6.3
 20
20.821947
 30
0.0
 11
-6.1
 21
20.821947
 31
0.0
  0
LINE
  5
34
100
AcDbEntity
  8
0
390
0
  6
Continuous
 62
     7
100
AcDbLine
 10
-6.3
 20
40.798834
 30
0.0
 11
-3.5
 21
40.798834
 31
0.0
  0
LINE
  5
35
100
AcDbEntity
  8
0
390
0
  6
Continuous
 62
     7
100
AcDbLine
 10
-6.3
 20
39.865403
 30
0.0
 11
-6.3
 21
40.798834
 31
0.0
  0
LINE
  5
36
100
AcDbEntity
  8
0
390
0
  6
Continuous
 62
     7
100
AcDbLine
 10
-3.5
 20
40.798834
 30
0.0
 11
-3.5
 21
39.865403
 31
0.0
  0
LINE
  5
37
100
AcDbEntity
  8
0
390
0
  6
Continuous
 62
     7
100
AcDbLine
 10
-6.3
 20
40.798834
 30
0.0
 11
-6.3
 21
43.221947
 31
0.0
  0
LINE
  5
38
100
AcDbEntity
  8
0
390
0
  6
Continuous
 62
     7
100
AcDbLine
 10
-3.5
 20
40.798834
 30
0.0
 11
-3.5
 21
43.221947
 31
0.0
  0
LINE
  5
39
100
AcDbEntity
  8
0
390
0
  6
Continuous
 62
     7
100
AcDbLine
 10
-6.3
 20
27.435686
 30
0.0
 11
-10.078504
 21
27.534698
 31
0.0
  0
LINE
  5
3A
100
AcDbEntity
  8
0
390
0
  6
Continuous
 62
     7
100
AcDbLine
 10
-10.078504
 20
29.109195
 30
0.0
 11
-10.078504
 21
27.534698
 31
0.0
  0
LINE
  5
3B
100
AcDbEntity
  8
0
390
0
  6
Continuous
 62
     7
100
AcDbLine
 10
-6.3
 20
29.208207
 30
0.0
 11
-10.078504
 21
29.109195
 31
0.0
  0
ELLIPSE
  5
3C
100
AcDbEntity
  8
0
390
0
  6
Continuous
 62
     7
100
AcDbEllipse
 10
-10.0
 20
28.28367
 30
0.0
 11
1.5000000000000013
 21
0.0
 31
0.0
210
0.0
220
0.0
230
1.0
 40
0.5
 41
3.141592653589794
 42
4.6600291028248613
  0
LINE
  5
3D
100
AcDbEntity
  8
0
390
0
  6
Continuous
 62
     7
100
AcDbLine
 10
-11.5
 20
28.28367
 30
0.0
 11
-11.5
 21
28.360223
 31
0.0
  0
ELLIPSE
  5
3E
100
AcDbEntity
  8
0
390
0
  6
Continuous
 62
     7
100
AcDbEllipse
 10
-10.0
 20
28.360223
 30
0.0
 11
1.5000000000000013
 21
0.0
 31
0.0
210
0.0
220
0.0
230
1.0
 40
0.5
 41
1.6231562043547254
 42
3.1415926535898033
  0
LINE
  5
3F
100
AcDbEntity
  8
0
390
0
  6
Continuous
 62
     7
100
AcDbLine
 10
-6.3
 20
22.735686
 30
0.0
 11
-10.078504
 21
22.834698
 31
0.0
  0
LINE
  5
40
100
AcDbEntity
  8
0
390
0
  6
Continuous
 62
     7
100
AcDbLine
 10
-10.078504
 20
27.534698
 30
0.0
 11
-10.078504
 21
22.834698
 31
0.0
  0
LINE
  5
41
100
AcDbEntity
  8
0
390
0
  6
Continuous
 62
     7
100
AcDbLine
 10
-10.078504
 20
33.809195
 30
0.0
 11
-10.078504
 21
29.109195
 31
0.0
  0
LINE
  5
42
100
AcDbEntity
  8
0
390
0
  6
Continuous
 62
     7
100
AcDbLine
 10
-6.3
 20
33.908207
 30
0.0
 11
-10.078504
 21
33.809195
 31
0.0
  0
ELLIPSE
  5
43
100
AcDbEntity
  8
0
390
0
  6
Continuous
 62
     7
100
AcDbEllipse
 10
-10.0
 20
23.58367
 30
0.0
 11
1.5000000000000013
 21
0.0
 31
0.0
210
0.0
220
0.0
230
1.0
 40
0.5
 41
3.141592653589794
 42
4.6600291028248586
  0
LINE
  5
44
100
AcDbEntity
  8
0
390
0
  6
Continuous
 62
     7
100
AcDbLine
 10
-11.5
 20
23.58367
 30
0.0
 11
-11.5
 21
28.28367
 31
0.0
  0
LINE
  5
45
100
AcDbEntity
  8
0
390
0
  6
Continuous
 62
     7
100
AcDbLine
 10
-11.5
 20
28.360223
 30
0.0
 11
-11.5
 21
33.060223
 31
0.0
  0
ELLIPSE
  5
46
100
AcDbEntity
  8
0
390
0
  6
Continuous
 62
     7
100
AcDbEllipse
 10
-10.0
 20
33.060223
 30
0.0
 11
-1.5000000000000013
 21
0.0
 31
0.0
210
0.0
220
0.0
230
1.0
 40
0.5
 41
4.7647488579445199
 42
6.2831853071795862
  0
LINE
  5
47
100
AcDbEntity
  8
0
390
0
  6
Continuous
 62
     7
100
AcDbLine
 10
-10.078504
 20
34.596444
 30
0.0
 11
-10.078504
 21
33.809195
 31
0.0
  0
LINE
  5
48
100
AcDbEntity
  8
0
390
0
  6
Continuous
 62
     7
100
AcDbLine
 10
-6.3
 20
34.794467
 30
0.0
 11
-10.078504
 21
34.596444
 31
0.0
  0
LINE
  5
49
100
AcDbEntity
  8
0
390
0
  6
Continuous
 62
     7
100
AcDbLine
 10
-6.3
 20
21.849426
 30
0.0
 11
-10.078504
 21
22.047449
 31
0.0
  0
LINE
  5
4A
100
AcDbEntity
  8
0
390
0
  6
Continuous
 62
     7
100
AcDbLine
 10
-10.078504
 20
22.834698
 30
0.0
 11
-10.078504
 21
22.047449
 31
0.0
  0
ARC
  5
4B
100
AcDbEntity
  8
0
390
0
  6
Continuous
 62
     7
100
AcDbCircle
 10
-10.0
 20
33.0985
 30
0.0
 40
1.5
210
0.0
220
0.0
230
1.0
100
AcDbArc
 50
93.0
 51
180.0
  0
LINE
  5
4C
100
AcDbEntity
  8
0
390
0
  6
Continuous
 62
     7
100
AcDbLine
 10
-11.5
 20
33.060223
 30
0.0
 11
-11.5
 21
33.0985
 31
0.0
  0
ARC
  5
4D
100
AcDbEntity
  8
0
390
0
  6
Continuous
 62
     7
100
AcDbCircle
 10
-10.0
 20
23.545394
 30
0.0
 40
1.5
210
0.0
220
0.0
230
1.0
100
AcDbArc
 50
180.0
 51
267.0
  0
LINE
  5
4E
100
AcDbEntity
  8
0
390
0
  6
Continuous
 62
     7
100
AcDbLine
 10
-11.5
 20
23.545394
 30
0.0
 11
-11.5
 21
23.58367
 31
0.0
  0
LINE
  5
4F
100
AcDbEntity
  8
0
390
0
  6
Continuous
 62
     7
100
AcDbLine
 10
-10.0
 20
64.001947
 30
0.0
 11
10.0
 21
64.001947
 31
0.0
  0
LINE
  5
50
100
AcDbEntity
  8
0
390
0
  6
Continuous
 62
     7
100
AcDbLine
 10
-5.95
 20
77.601947
 30
0.0
 11
-5.95
 21
68.601957
 31
0.0
  0
LINE
  5
51
100
AcDbEntity
  8
0
390
0
  6
Continuous
 62
     7
100
AcDbLine
 10
-5.95
 20
77.601947
 30
0.0
 11
0.0
 21
77.601947
 31
0.0
  0
LINE
  5
52
100
AcDbEntity
  8
0
390
0
  6
Continuous
 62
     7
100
AcDbLine
 10
0.0
 20
77.601947
 30
0.0
 11
0.0
 21
68.601957
 31
0.0
  0
LINE
  5
53
100
AcDbEntity
  8
0
390
0
  6
Continuous
 62
     7
100
AcDbLine
 10
0.0
 20
77.601947
 30
0.0
 11
5.95
 21
77.601947
 31
0.0
  0
LINE
  5
54
100
AcDbEntity
  8
0
390
0
  6
Continuous
 62
     7
100
AcDbLine
 10
-4.999995
 20
77.601947
 30
0.0
 11
-5.95
 21
77.601947
 31
0.0
  0
LINE
  5
55
100
AcDbEntity
  8
0
390
0
  6
Continuous
 62
     7
100
AcDbLine
 10
5.95
 20
77.601947
 30
0.0
 11
4.999995
 21
77.601947
 31
0.0
  0
LINE
  5
56
100
AcDbEntity
  8
0
390
0
  6
Continuous
 62
     7
100
AcDbLine
 10
5.95
 20
77.601947
 30
0.0
 11
5.95
 21
68.601957
 31
0.0
  0
LINE
  5
57
100
AcDbEntity
  8
0
390
0
  6
Continuous
 62
     7
100
AcDbLine
 10
5.95
 20
77.601947
 30
0.0
 11
5.95
 21
68.601957
 31
0.0
  0
LINE
  5
58
100
AcDbEntity
  8
0
390
0
  6
Continuous
 62
     7
100
AcDbLine
 10
-1.4
 20
23.101947
 30
0.0
 11
-3.0
 21
23.101947
 31
0.0
  0
LINE
  5
59
100
AcDbEntity
  8
0
390
0
  6
Continuous
 62
     7
100
AcDbLine
 10
-3.0
 20
47.156093
 30
0.0
 11
-3.0
 21
23.101947
 31
0.0
  0
ARC
  5
5A
100
AcDbEntity
  8
0
390
0
  6
Continuous
 62
     7
100
AcDbCircle
 10
-4.0
 20
47.156093
 30
0.0
 40
1.0
210
0.0
220
0.0
230
1.0
100
AcDbArc
 50
0.0
 51
45.707321
  0
LINE
  5
5B
100
AcDbEntity
  8
0
390
0
  6
Continuous
 62
     7
100
AcDbLine
 10
-3.301676
 20
47.871875
 30
0.0
 11
-11.465642
 21
55.836719
 31
0.0
  0
ARC
  5
5C
100
AcDbEntity
  8
0
390
0
  6
Continuous
 62
     7
100
AcDbCircle
 10
-9.65
 20
57.697753
 30
0.0
 40
2.6
210
0.0
220
0.0
230
1.0
100
AcDbArc
 50
180.0
 51
225.707321
  0
LINE
  5
5D
100
AcDbEntity
  8
0
390
0
  6
Continuous
 62
     7
100
AcDbLine
 10
-12.25
 20
57.697753
 30
0.0
 11
-12.25
 21
66.001947
 31
0.0
  0
ARC
  5
5E
100
AcDbEntity
  8
0
390
0
  6
Continuous
 62
     7
100
AcDbCircle
 10
-9.65
 20
66.001947
 30
0.0
 40
2.6
210
0.0
220
0.0
230
1.0
100
AcDbArc
 50
90.0
 51
180.0
  0
LINE
  5
5F
100
AcDbEntity
  8
0
390
0
  6
Continuous
 62
     7
100
AcDbLine
 10
-9.65
 20
68.601947
 30
0.0
 11
9.65
 21
68.601947
 31
0.0
  0
LINE
  5
60
100
AcDbEntity
  8
0
390
0
  6
Continuous
 62
     7
100
AcDbLine
 10
12.25
 20
57.697753
 30
0.0
 11
12.25
 21
66.001947
 31
0.0
  0
ARC
  5
61
100
AcDbEntity
  8
0
390
0
  6
Continuous
 62
     7
100
AcDbCircle
 10
9.65
 20
57.697753
 30
0.0
 40
2.6
210
0.0
220
0.0
230
1.0
100
AcDbArc
 50
314.292679
 51
0.0
  0
LINE
  5
62
100
AcDbEntity
  8
0
390
0
  6
Continuous
 62
     7
100
AcDbLine
 10
3.301676
 20
47.871875
 30
0.0
 11
11.465642
 21
55.836719
 31
0.0
  0
ARC
  5
63
100
AcDbEntity
  8
0
390
0
  6
Continuous
 62
     7
100
AcDbCircle
 10
4.0
 20
47.156093
 30
0.0
 40
1.0
210
0.0
220
0.0
230
1.0
100
AcDbArc
 50
134.292679
 51
180.0
  0
LINE
  5
64
100
AcDbEntity
  8
0
390
0
  6
Continuous
 62
     7
100
AcDbLine
 10
3.0
 20
47.156093
 30
0.0
 11
3.0
 21
23.101947
 31
0.0
  0
LINE
  5
65
100
AcDbEntity
  8
0
390
0
  6
Continuous
 62
     7
100
AcDbLine
 10
1.4
 20
23.101947
 30
0.0
 11
3.0
 21
23.101947
 31
0.0
  0
LINE
  5
66
100
AcDbEntity
  8
0
390
0
  6
Continuous
 62
     7
100
AcDbLine
 10
1.4
 20
23.101947
 30
0.0
 11
1.4
 21
47.156093
 31
0.0
  0
ARC
  5
67
100
AcDbEntity
  8
0
390
0
  6
Continuous
 62
     7
100
AcDbCircle
 10
4.0
 20
47.156093
 30
0.0
 40
2.6
210
0.0
220
0.0
230
1.0
100
AcDbArc
 50
134.292679
 51
180.0
  0
LINE
  5
68
100
AcDbEntity
  8
0
390
0
  6
Continuous
 62
     7
100
AcDbLine
 10
10.348324
 20
56.981971
 30
0.0
 11
2.184358
 21
49.017126
 31
0.0
  0
ARC
  5
69
100
AcDbEntity
  8
0
390
0
  6
Continuous
 62
     7
100
AcDbCircle
 10
9.65
 20
57.697752
 30
0.0
 40
1.0
210
0.0
220
0.0
230
1.0
100
AcDbArc
 50
314.292679
 51
360.0
  0
LINE
  5
6A
100
AcDbEntity
  8
0
390
0
  6
Continuous
 62
     7
100
AcDbLine
 10
10.65
 20
66.001947
 30
0.0
 11
10.65
 21
57.697752
 31
0.0
  0
ARC
  5
6B
100
AcDbEntity
  8
0
390
0
  6
Continuous
 62
     7
100
AcDbCircle
 10
9.65
 20
66.001947
 30
0.0
 40
1.0
210
0.0
220
0.0
230
1.0
100
AcDbArc
 50
0.0
 51
90.0
  0
LINE
  5
6C
100
AcDbEntity
  8
0
390
0
  6
Continuous
 62
     7
100
AcDbLine
 10
9.65
 20
67.001947
 30
0.0
 11
-9.65
 21
67.001947
 31
0.0
  0
ARC
  5
6D
100
AcDbEntity
  8
0
390
0
  6
Continuous
 62
     7
100
AcDbCircle
 10
-9.65
 20
66.001947
 30
0.0
 40
1.0
210
0.0
220
0.0
230
1.0
100
AcDbArc
 50
90.0
 51
180.0
  0
LINE
  5
6E
100
AcDbEntity
  8
0
390
0
  6
Continuous
 62
     7
100
AcDbLine
 10
-10.65
 20
66.001947
 30
0.0
 11
-10.65
 21
57.697752
 31
0.0
  0
ARC
  5
6F
100
AcDbEntity
  8
0
390
0
  6
Continuous
 62
     7
100
AcDbCircle
 10
-9.65
 20
57.697752
 30
0.0
 40
1.0
210
0.0
220
0.0
230
1.0
100
AcDbArc
 50
180.0
 51
225.707321
  0
LINE
  5
70
100
AcDbEntity
  8
0
390
0
  6
Continuous
 62
     7
100
AcDbLine
 10
-10.348324
 20
56.981971
 30
0.0
 11
-2.184358
 21
49.017126
 31
0.0
  0
ARC
  5
71
100
AcDbEntity
  8
0
390
0
  6
Continuous
 62
     7
100
AcDbCircle
 10
-4.0
 20
47.156093
 30
0.0
 40
2.6
210
0.0
220
0.0
230
1.0
100
AcDbArc
 50
0.0
 51
45.707321
  0
LINE
  5
72
100
AcDbEntity
  8
0
390
0
  6
Continuous
 62
     7
100
AcDbLine
 10
-1.4
 20
23.101947
 30
0.0
 11
-1.4
 21
47.156093
 31
0.0
  0
ARC
  5
73
100
AcDbEntity
  8
0
390
0
  6
Continuous
 62
     7
100
AcDbCircle
 10
9.65
 20
66.001947
 30
0.0
 40
2.6
210
0.0
220
0.0
230
1.0
100
AcDbArc
 50
0.0
 51
90.0
  0
LINE
  5
74
100
AcDbEntity
  8
0
390
0
  6
Continuous
 62
     7
100
AcDbLine
 10
-9.65
 20
68.601947
 30
0.0
 11
-5.95
 21
68.601947
 31
0.0
  0
LINE
  5
75
100
AcDbEntity
  8
0
390
0
  6
Continuous
 62
     7
100
AcDbLine
 10
5.95
 20
68.601947
 30
0.0
 11
9.65
 21
68.601947
 31
0.0
  0
LINE
  5
76
100
AcDbEntity
  8
0
390
0
  6
Continuous
 62
     7
100
AcDbLine
 10
5.95
 20
68.601957
 30
0.0
 11
7.5
 21
68.601957
 31
0.0
  0
LINE
  5
77
100
AcDbEntity
  8
0
390
0
  6
Continuous
 62
     7
100
AcDbLine
 10
-7.5
 20
68.601957
 30
0.0
 11
-5.95
 21
68.601957
 31
0.0
  0
LINE
  5
78
100
AcDbEntity
  8
0
390
0
  6
Continuous
 62
     7
100
AcDbLine
 10
12.25
 20
57.697753
 30
0.0
 11
12.25
 21
61.601947
 31
0.0
  0
LINE
  5
79
100
AcDbEntity
  8
0
390
0
  6
Continuous
 62
     7
100
AcDbLine
 10
12.25
 20
57.697753
 30
0.0
 11
12.25
 21
66.001947
 31
0.0
  0
LINE
  5
7A
100
AcDbEntity
  8
0
390
0
  6
Continuous
 62
     7
100
AcDbLine
 10
3.0
 20
47.156093
 30
0.0
 11
3.0
 21
31.321947
 31
0.0
  0
LINE
  5
7B
100
AcDbEntity
  8
0
390
0
  6
Continuous
 62
     7
100
AcDbLine
 10
3.0
 20
25.321947
 30
0.0
 11
3.0
 21
23.101947
 31
0.0
  0
LINE
  5
7C
100
AcDbEntity
  8
0
390
0
  6
Continuous
 62
     7
100
AcDbLine
 10
3.0
 20
18.601947
 30
0.0
 11
3.0
 21
23.101947
 31
0.0
  0
LINE
  5
7D
100
AcDbEntity
  8
0
390
0
  6
Continuous
 62
     7
100
AcDbLine
 10
3.0
 20
35.851947
 30
0.0
 11
3.0
 21
25.351947
 31
0.0
  0
LINE
  5
7E
100
AcDbEntity
  8
0
390
0
  6
Continuous
 62
     7
100
AcDbLine
 10
3.0
 20
18.601947
 30
0.0
 11
3.0
 21
23.101947
 31
0.0
  0
LINE
  5
7F
100
AcDbEntity
  8
0
390
0
  6
Continuous
 62
     7
100
AcDbLine
 10
1.4
 20
23.101947
 30
0.0
 11
1.4
 21
18.601947
 31
0.0
  0
LINE
  5
80
100
AcDbEntity
  8
0
390
0
  6
Continuous
 62
     7
100
AcDbLine
 10
-3.0
 20
18.601947
 30
0.0
 11
-3.0
 21
23.101947
 31
0.0
  0
LINE
  5
81
100
AcDbEntity
  8
0
390
0
  6
Continuous
 62
     7
100
AcDbLine
 10
-1.4
 20
23.101947
 30
0.0
 11
-1.4
 21
18.601947
 31
0.0
  0
LINE
  5
82
100
AcDbEntity
  8
0
390
0
  6
Continuous
 62
     7
100
AcDbLine
 10
-1.4
 20
23.101947
 30
0.0
 11
-1.4
 21
18.601947
 31
0.0
  0
LINE
  5
83
100
AcDbEntity
  8
0
390
0
  6
Continuous
 62
     7
100
AcDbLine
 10
-10.65
 20
61.601947
 30
0.0
 11
-10.65
 21
57.697752
 31
0.0
  0
LINE
  5
84
100
AcDbEntity
  8
0
390
0
  6
Continuous
 62
     7
100
AcDbLine
 10
-10.65
 20
66.001947
 30
0.0
 11
-10.65
 21
61.601947
 31
0.0
  0
LINE
  5
85
100
AcDbEntity
  8
0
390
0
  6
Continuous
 62
     7
100
AcDbLine
 10
10.348324
 20
56.981971
 30
0.0
 11
8.0
 21
54.690923
 31
0.0
  0
LINE
  5
86
100
AcDbEntity
  8
0
390
0
  6
Continuous
 62
     7
100
AcDbLine
 10
8.0
 20
54.690923
 30
0.0
 11
2.184358
 21
49.017126
 31
0.0
  0
LINE
  5
87
100
AcDbEntity
  8
0
390
0
  6
Continuous
 62
     7
100
AcDbLine
 10
10.348324
 20
56.981971
 30
0.0
 11
8.0
 21
54.690923
 31
0.0
  0
LINE
  5
88
100
AcDbEntity
  8
0
390
0
  6
Continuous
 62
     7
100
AcDbLine
 10
-10.348324
 20
56.981971
 30
0.0
 11
-8.0
 21
54.690923
 31
0.0
  0
LINE
  5
89
100
AcDbEntity
  8
0
390
0
  6
Continuous
 62
     7
100
AcDbLine
 10
-10.348324
 20
56.981971
 30
0.0
 11
-8.0
 21
54.690923
 31
0.0
  0
LINE
  5
8A
100
AcDbEntity
  8
0
390
0
  6
Continuous
 62
     7
100
AcDbLine
 10
-8.0
 20
54.690923
 30
0.0
 11
-2.184358
 21
49.017126
 31
0.0
  0
LINE
  5
8B
100
AcDbEntity
  8
0
390
0
  6
Continuous
 62
     7
100
AcDbLine
 10
-1.4
 20
23.101947
 30
0.0
 11
-1.4
 21
25.321947
 31
0.0
  0
LINE
  5
8C
100
AcDbEntity
  8
0
390
0
  6
Continuous
 62
     7
100
AcDbLine
 10
-1.4
 20
31.321947
 30
0.0
 11
-1.4
 21
47.156093
 31
0.0
  0
LINE
  5
8D
100
AcDbEntity
  8
0
390
0
  6
Continuous
 62
     7
100
AcDbLine
 10
-1.4
 20
25.351947
 30
0.0
 11
-1.4
 21
35.851947
 31
0.0
  0
LINE
  5
8E
100
AcDbEntity
  8
0
390
0
  6
Continuous
 62
     7
100
AcDbLine
 10
-7.5
 20
68.601957
 30
0.0
 11
7.5
 21
68.601957
 31
0.0
  0
LINE
  5
8F
100
AcDbEntity
  8
0
390
0
  6
Continuous
 62
     7
100
AcDbLine
 10
3.0
 20
35.851947
 30
0.0
 11
3.0
 21
31.321947
 31
0.0
  0
LINE
  5
90
100
AcDbEntity
  8
0
390
0
  6
Continuous
 62
     7
100
AcDbLine
 10
-1.4
 20
31.321947
 30
0.0
 11
-1.4
 21
35.851947
 31
0.0
  0
LINE
  5
91
100
AcDbEntity
  8
0
390
0
  6
Continuous
 62
     7
100
AcDbLine
 10
10.65
 20
61.601947
 30
0.0
 11
8.0
 21
61.601947
 31
0.0
  0
LINE
  5
92
100
AcDbEntity
  8
0
390
0
  6
Continuous
 62
     7
100
AcDbLine
 10
10.65
 20
61.601947
 30
0.0
 11
8.0
 21
61.601947
 31
0.0
  0
LINE
  5
93
100
AcDbEntity
  8
0
390
0
  6
Continuous
 62
     7
100
AcDbLine
 10
-10.65
 20
61.601947
 30
0.0
 11
-8.0
 21
61.601947
 31
0.0
  0
LINE
  5
94
100
AcDbEntity
  8
0
390
0
  6
Continuous
 62
     7
100
AcDbLine
 10
-10.65
 20
61.601947
 30
0.0
 11
-8.0
 21
61.601947
 31
0.0
  0
LINE
  5
95
100
AcDbEntity
  8
0
390
0
  6
Continuous
 62
     7
100
AcDbLine
 10
9.6
 20
61.601947
 30
0.0
 11
10.65
 21
61.601947
 31
0.0
  0
LINE
  5
96
100
AcDbEntity
  8
0
390
0
  6
Continuous
 62
     7
100
AcDbLine
 10
-9.6
 20
61.601947
 30
0.0
 11
-10.65
 21
61.601947
 31
0.0
  0
LINE
  5
97
100
AcDbEntity
  8
0
390
0
  6
Continuous
 62
     7
100
AcDbLine
 10
9.6
 20
61.601947
 30
0.0
 11
10.65
 21
61.601947
 31
0.0
  0
LINE
  5
98
100
AcDbEntity
  8
0
390
0
  6
Continuous
 62
     7
100
AcDbLine
 10
-9.6
 20
61.601947
 30
0.0
 11
-10.65
 21
61.601947
 31
0.0
  0
LINE
  5
99
100
AcDbEntity
  8
0
390
0
  6
Continuous
 62
     7
100
AcDbLine
 10
-3.5
 20
14.612806
 30
0.0
 11
-3.5
 21
20.821947
 31
0.0
  0
ARC
  5
9A
100
AcDbEntity
  8
0
390
0
  6
Continuous
 62
     7
100
AcDbCircle
 10
-4.5
 20
14.612806
 30
0.0
 40
1.0
210
0.0
220
0.0
230
1.0
100
AcDbArc
 50
287.116167
 51
360.0
  0
ARC
  5
9B
100
AcDbEntity
  8
0
390
0
  6
Continuous
 62
     7
100
AcDbCircle
 10
0.0
 20
0.0
 30
0.0
 40
14.29
210
0.0
220
0.0
230
1.0
100
AcDbArc
 50
107.116167
 51
72.883833
  0
LINE
  5
9C
100
AcDbEntity
  8
0
390
0
  6
Continuous
 62
     7
100
AcDbLine
 10
3.5
 20
20.821947
 30
0.0
 11
3.5
 21
14.612806
 31
0.0
  0
LINE
  5
9D
100
AcDbEntity
  8
0
390
0
  6
Continuous
 62
     7
100
AcDbLine
 10
3.5
 20
20.821947
 30
0.0
 11
6.1
 21
20.821947
 31
0.0
  0
LINE
  5
9E
100
AcDbEntity
  8
0
390
0
  6
Continuous
 62
     7
100
AcDbLine
 10
6.1
 20
20.821947
 30
0.0
 11
6.1
 21
16.972072
 31
0.0
  0
ARC
  5
9F
100
AcDbEntity
  8
0
390
0
  6
Continuous
 62
     7
100
AcDbCircle
 10
0.0
 20
0.0
 30
0.0
 40
18.035
210
0.0
220
0.0
230
1.0
100
AcDbArc
 50
109.769147
 51
70.230853
  0
LINE
  5
A0
100
AcDbEntity
  8
0
390
0
  6
Continuous
 62
     7
100
AcDbLine
 10
-6.1
 20
16.972072
 30
0.0
 11
-6.1
 21
20.821947
 31
0.0
  0
LINE
  5
A1
100
AcDbEntity
  8
0
390
0
  6
Continuous
 62
     7
100
AcDbLine
 10
-6.1
 20
20.821947
 30
0.0
 11
-3.5
 21
20.821947
 31
0.0
  0
ARC
  5
A2
100
AcDbEntity
  8
0
390
0
  6
Continuous
 62
     7
100
AcDbCircle
 10
4.5
 20
14.612806
 30
0.0
 40
1.0
210
0.0
220
0.0
230
1.0
100
AcDbArc
 50
180.0
 51
252.883833
  0
ARC
  5
A3
100
AcDbEntity
  8
0
390
0
  6
Continuous
 62
     7
100
AcDbCircle
 10
6.656772
 20
-5.96
 30
0.0
 40
10.6
210
0.0
220
0.0
230
1.0
100
AcDbArc
 50
272.788095
 51
318.161001
  0
ARC
  5
A4
100
AcDbEntity
  8
0
390
0
  6
Continuous
 62
     7
100
AcDbCircle
 10
6.656772
 20
-5.96
 30
0.0
 40
9.6
210
0.0
220
0.0
230
1.0
100
AcDbArc
 50
291.466466
 51
318.161001
  0
LINE
  5
A5
100
AcDbEntity
  8
0
390
0
  6
Continuous
 62
     7
100
AcDbLine
 10
14.554007
 20
-13.030621
 30
0.0
 11
13.808985
 21
-12.363581
 31
0.0
  0
ARC
  5
A6
100
AcDbEntity
  8
0
390
0
  6
Continuous
 62
     7
100
AcDbCircle
 10
-6.656773
 20
-5.96
 30
0.0
 40
9.6
210
0.0
220
0.0
230
1.0
100
AcDbArc
 50
221.838999
 51
248.533534
  0
ARC
  5
A7
100
AcDbEntity
  8
0
390
0
  6
Continuous
 62
     7
100
AcDbCircle
 10
0.0
 20
0.0
 30
0.0
 40
18.535
210
0.0
220
0.0
230
0.9999999999999999
100
AcDbArc
 50
109.214589
 51
221.838999
  0
ARC
  5
A8
100
AcDbEntity
  8
0
390
0
  6
Continuous
 62
     7
100
AcDbCircle
 10
0.0
 20
0.0
 30
0.0
 40
18.535
210
0.0
220
0.0
230
1.0
100
AcDbArc
 50
318.161001
 51
70.785411
  0
ARC
  5
A9
100
AcDbEntity
  8
0
390
0
  6
Continuous
 62
     7
100
AcDbCircle
 10
-6.656773
 20
-5.96
 30
0.0
 40
10.6
210
0.0
220
0.0
230
1.0
100
AcDbArc
 50
221.838999
 51
267.211905
  0
LINE
  5
AA
100
AcDbEntity
  8
0
390
0
  6
Continuous
 62
     7
100
AcDbLine
 10
-13.808986
 20
-12.363581
 30
0.0
 11
-14.554008
 21
-13.030621
 31
0.0
  0
ARC
  5
AB
100
AcDbEntity
  8
0
390
0
  6
Continuous
 62
     7
100
AcDbCircle
 10
0.0
 20
0.0
 30
0.0
 40
19.535
210
0.0
220
0.0
230
1.0
100
AcDbArc
 50
108.195484
 51
221.838999
  0
ARC
  5
AC
100
AcDbEntity
  8
0
390
0
  6
Continuous
 62
     7
100
AcDbCircle
 10
0.0
 20
0.0
 30
0.0
 40
19.535
210
0.0
220
0.0
230
1.0
100
AcDbArc
 50
318.161001
 51
71.804516
  0
LINE
  5
AD
100
AcDbEntity
  8
0
390
0
  6
Continuous
 62
     7
100
AcDbLine
 10
4.5
 20
38.309748
 30
0.0
 11
5.1
 21
38.309748
 31
0.0
  0
LINE
  5
AE
100
AcDbEntity
  8
0
390
0
  6
Continuous
 62
     7
100
AcDbLine
 10
5.1
 20
20.821947
 30
0.0
 11
5.1
 21
38.309748
 31
0.0
  0
LINE
  5
AF
100
AcDbEntity
  8
0
390
0
  6
Continuous
 62
     7
100
AcDbLine
 10
4.5
 20
20.821947
 30
0.0
 11
4.5
 21
38.309748
 31
0.0
  0
LINE
  5
B0
100
AcDbEntity
  8
0
390
0
  6
Continuous
 62
     7
100
AcDbLine
 10
5.1
 20
38.309748
 30
0.0
 11
5.1
 21
41.821947
 31
0.0
  0
LINE
  5
B1
100
AcDbEntity
  8
0
390
0
  6
Continuous
 62
     7
100
AcDbLine
 10
4.5
 20
38.309748
 30
0.0
 11
4.5
 21
41.821947
 31
0.0
  0
LINE
  5
B2
100
AcDbEntity
  8
0
390
0
  6
Continuous
 62
     7
100
AcDbLine
 10
-19.4
 20
31.321947
 30
0.0
 11
-19.9
 21
30.821947
 31
0.0
  0
LINE
  5
B3
100
AcDbEntity
  8
0
390
0
  6
Continuous
 62
     7
100
AcDbLine
 10
-19.9
 20
25.821947
 30
0.0
 11
-19.4
 21
25.321947
 31
0.0
  0
LINE
  5
B4
100
AcDbEntity
  8
0
390
0
  6
Continuous
 62
     7
100
AcDbLine
 10
-19.4
 20
25.321947
 30
0.0
 11
-11.5
 21
25.321947
 31
0.0
  0
LINE
  5
B5
100
AcDbEntity
  8
0
390
0
  6
Continuous
 62
     7
100
AcDbLine
 10
-3.5
 20
25.321947
 30
0.0
 11
-3.0
 21
25.321947
 31
0.0
  0
LINE
  5
B6
100
AcDbEntity
  8
0
390
0
  6
Continuous
 62
     7
100
AcDbLine
 10
4.5
 20
31.321947
 30
0.0
 11
3.0
 21
31.321947
 31
0.0
  0
LINE
  5
B7
100
AcDbEntity
  8
0
390
0
  6
Continuous
 62
     7
100
AcDbLine
 10
1.4
 20
31.321947
 30
0.0
 11
-1.4
 21
31.321947
 31
0.0
  0
LINE
  5
B8
100
AcDbEntity
  8
0
390
0
  6
Continuous
 62
     7
100
AcDbLine
 10
-3.0
 20
31.321947
 30
0.0
 11
-3.5
 21
31.321947
 31
0.0
  0
LINE
  5
B9
100
AcDbEntity
  8
0
390
0
  6
Continuous
 62
     7
100
AcDbLine
 10
-11.5
 20
31.321947
 30
0.0
 11
-19.4
 21
31.321947
 31
0.0
  0
LINE
  5
BA
100
AcDbEntity
  8
0
390
0
  6
Continuous
 62
     7
100
AcDbLine
 10
-3.5
 20
43.221947
 30
0.0
 11
-6.3
 21
43.221947
 31
0.0
  0
LINE
  5
BB
100
AcDbEntity
  8
0
390
0
  6
Continuous
 62
     7
100
AcDbLine
 10
-10.0
 20
66.938696
 30
0.0
 11
-10.0
 21
64.001947
 31
0.0
  0
LINE
  5
BC
100
AcDbEntity
  8
0
390
0
  6
Continuous
 62
     7
100
AcDbLine
 10
10.0
 20
64.001947
 30
0.0
 11
10.0
 21
66.938696
 31
0.0
  0
LINE
  5
BD
100
AcDbEntity
  8
0
390
0
  6
Continuous
 62
     7
100
AcDbLine
 10
1.4
 20
18.601947
 30
0.0
 11
3.0
 21
18.601947
 31
0.0
  0
LINE
  5
BE
100
AcDbEntity
  8
0
390
0
  6
Continuous
 62
     7
100
AcDbLine
 10
-3.0
 20
18.601947
 30
0.0
 11
-1.4
 21
18.601947
 31
0.0
  0
LINE
  5
BF
100
AcDbEntity
  8
0
390
0
  6
Continuous
 62
     7
100
AcDbLine
 10
8.0
 20
61.601947
 30
0.0
 11
8.0
 21
54.690923
 31
0.0
  0
LINE
  5
C0
100
AcDbEntity
  8
0
390
0
  6
Continuous
 62
     7
100
AcDbLine
 10
-8.0
 20
54.690923
 30
0.0
 11
-8.0
 21
61.601947
 31
0.0
  0
LINE
  5
C1
100
AcDbEntity
  8
0
390
0
  6
Continuous
 62
     7
100
AcDbLine
 10
5.1
 20
41.821947
 30
0.0
 11
4.5
 21
41.821947
 31
0.0
  0
LINE
  5
C2
100
AcDbEntity
  8
0
390
0
  6
Continuous
 62
     7
100
AcDbLine
 10
-19.9
 20
-94.04112
 30
0.0
 11
-19.9
 21
-89.04112
 31
0.0
  0
LINE
  5
C3
100
AcDbEntity
  8
0
390
0
  6
Continuous
 62
     7
100
AcDbLine
 10
18.035
 20
-105.54112
 30
0.0
 11
-18.035
 21
-105.54112
 31
0.0
  0
LINE
  5
C4
100
AcDbEntity
  8
0
390
0
  6
Continuous
 62
     7
100
AcDbLine
 10
18.035
 20
-77.54112
 30
0.0
 11
-18.035
 21
-77.54112
 31
0.0
  0
LINE
  5
C5
100
AcDbEntity
  8
0
390
0
  6
Continuous
 62
     7
100
AcDbLine
 10
-7.172381
 20
-98.04112
 30
0.0
 11
-10.169957
 21
-99.04112
 31
0.0
  0
LINE
  5
C6
100
AcDbEntity
  8
0
390
0
  6
Continuous
 62
     7
100
AcDbLine
 10
-7.172381
 20
-85.04112
 30
0.0
 11
-7.172381
 21
-98.04112
 31
0.0
  0
LINE
  5
C7
100
AcDbEntity
  8
0
390
0
  6
Continuous
 62
     7
100
AcDbLine
 10
-10.169957
 20
-84.04112
 30
0.0
 11
-7.172381
 21
-85.04112
 31
0.0
  0
LINE
  5
C8
100
AcDbEntity
  8
0
390
0
  6
Continuous
 62
     7
100
AcDbLine
 10
7.17238
 20
-85.04112
 30
0.0
 11
10.169956
 21
-84.04112
 31
0.0
  0
LINE
  5
C9
100
AcDbEntity
  8
0
390
0
  6
Continuous
 62
     7
100
AcDbLine
 10
7.17238
 20
-98.04112
 30
0.0
 11
7.17238
 21
-85.04112
 31
0.0
  0
LINE
  5
CA
100
AcDbEntity
  8
0
390
0
  6
Continuous
 62
     7
100
AcDbLine
 10
10.169956
 20
-99.04112
 30
0.0
 11
7.17238
 21
-98.04112
 31
0.0
  0
LINE
  5
CB
100
AcDbEntity
  8
0
390
0
  6
Continuous
 62
     7
100
AcDbLine
 10
13.808985
 20
-99.04112
 30
0.0
 11
10.169956
 21
-99.04112
 31
0.0
  0
LINE
  5
CC
100
AcDbEntity
  8
0
390
0
  6
Continuous
 62
     7
100
AcDbLine
 10
7.17238
 20
-98.04112
 30
0.0
 11
14.554007
 21
-98.04112
 31
0.0
  0
LINE
  5
CD
100
AcDbEntity
  8
0
390
0
  6
Continuous
 62
     7
100
AcDbLine
 10
13.808985
 20
-99.04112
 30
0.0
 11
14.554007
 21
-98.04112
 31
0.0
  0
LINE
  5
CE
100
AcDbEntity
  8
0
390
0
  6
Continuous
 62
     7
100
AcDbLine
 10
-14.554008
 20
-98.04112
 30
0.0
 11
-7.172381
 21
-98.04112
 31
0.0
  0
LINE
  5
CF
100
AcDbEntity
  8
0
390
0
  6
Continuous
 62
     7
100
AcDbLine
 10
-10.169957
 20
-99.04112
 30
0.0
 11
-13.808986
 21
-99.04112
 31
0.0
  0
LINE
  5
D0
100
AcDbEntity
  8
0
390
0
  6
Continuous
 62
     7
100
AcDbLine
 10
-14.554008
 20
-98.04112
 30
0.0
 11
-13.808986
 21
-99.04112
 31
0.0
  0
LINE
  5
D1
100
AcDbEntity
  8
0
390
0
  6
Continuous
 62
     7
100
AcDbLine
 10
14.554007
 20
-85.04112
 30
0.0
 11
7.17238
 21
-85.04112
 31
0.0
  0
LINE
  5
D2
100
AcDbEntity
  8
0
390
0
  6
Continuous
 62
     7
100
AcDbLine
 10
14.554007
 20
-98.04112
 30
0.0
 11
14.554007
 21
-85.04112
 31
0.0
  0
LINE
  5
D3
100
AcDbEntity
  8
0
390
0
  6
Continuous
 62
     7
100
AcDbLine
 10
-13.808986
 20
-84.04112
 30
0.0
 11
-10.169957
 21
-84.04112
 31
0.0
  0
LINE
  5
D4
100
AcDbEntity
  8
0
390
0
  6
Continuous
 62
     7
100
AcDbLine
 10
-7.172381
 20
-85.04112
 30
0.0
 11
-14.554008
 21
-85.04112
 31
0.0
  0
LINE
  5
D5
100
AcDbEntity
  8
0
390
0
  6
Continuous
 62
     7
100
AcDbLine
 10
-13.808986
 20
-84.04112
 30
0.0
 11
-14.554008
 21
-85.04112
 31
0.0
  0
LINE
  5
D6
100
AcDbEntity
  8
0
390
0
  6
Continuous
 62
     7
100
AcDbLine
 10
-14.554008
 20
-98.04112
 30
0.0
 11
-14.554008
 21
-85.04112
 31
0.0
  0
LINE
  5
D7
100
AcDbEntity
  8
0
390
0
  6
Continuous
 62
     7
100
AcDbLine
 10
10.169956
 20
-84.04112
 30
0.0
 11
13.808985
 21
-84.04112
 31
0.0
  0
LINE
  5
D8
100
AcDbEntity
  8
0
390
0
  6
Continuous
 62
     7
100
AcDbLine
 10
14.554007
 20
-85.04112
 30
0.0
 11
13.808985
 21
-84.04112
 31
0.0
  0
LINE
  5
D9
100
AcDbEntity
  8
0
390
0
  6
Continuous
 62
     7
100
AcDbLine
 10
19.535
 20
-85.04112
 30
0.0
 11
14.554007
 21
-85.04112
 31
0.0
  0
LINE
  5
DA
100
AcDbEntity
  8
0
390
0
  6
Continuous
 62
     7
100
AcDbLine
 10
14.554007
 20
-98.04112
 30
0.0
 11
19.535
 21
-98.04112
 31
0.0
  0
LINE
  5
DB
100
AcDbEntity
  8
0
390
0
  6
Continuous
 62
     7
100
AcDbLine
 10
-19.535
 20
-98.04112
 30
0.0
 11
-14.554008
 21
-98.04112
 31
0.0
  0
LINE
  5
DC
100
AcDbEntity
  8
0
390
0
  6
Continuous
 62
     7
100
AcDbLine
 10
-14.554008
 20
-85.04112
 30
0.0
 11
-19.535
 21
-85.04112
 31
0.0
  0
LINE
  5
DD
100
AcDbEntity
  8
0
390
0
  6
Continuous
 62
     7
100
AcDbLine
 10
-18.535
 20
-84.04112
 30
0.0
 11
-13.808986
 21
-84.04112
 31
0.0
  0
LINE
  5
DE
100
AcDbEntity
  8
0
390
0
  6
Continuous
 62
     7
100
AcDbLine
 10
13.808985
 20
-84.04112
 30
0.0
 11
18.535
 21
-84.04112
 31
0.0
  0
LINE
  5
DF
100
AcDbEntity
  8
0
390
0
  6
Continuous
 62
     7
100
AcDbLine
 10
18.535
 20
-99.04112
 30
0.0
 11
13.808985
 21
-99.04112
 31
0.0
  0
LINE
  5
E0
100
AcDbEntity
  8
0
390
0
  6
Continuous
 62
     7
100
AcDbLine
 10
-13.808986
 20
-99.04112
 30
0.0
 11
-18.535
 21
-99.04112
 31
0.0
  0
LINE
  5
E1
100
AcDbEntity
  8
0
390
0
  6
Continuous
 62
     7
100
AcDbLine
 10
-19.535
 20
-88.67612
 30
0.0
 11
-19.9
 21
-89.04112
 31
0.0
  0
LINE
  5
E2
100
AcDbEntity
  8
0
390
0
  6
Continuous
 62
     7
100
AcDbLine
 10
-19.9
 20
-94.04112
 30
0.0
 11
-19.535
 21
-94.40612
 31
0.0
  0
LINE
  5
E3
100
AcDbEntity
  8
0
390
0
  6
Continuous
 62
     7
100
AcDbLine
 10
-18.035
 20
-99.04112
 30
0.0
 11
-18.035
 21
-105.54112
 31
0.0
  0
LINE
  5
E4
100
AcDbEntity
  8
0
390
0
  6
Continuous
 62
     7
100
AcDbLine
 10
-18.035
 20
-77.54112
 30
0.0
 11
-18.035
 21
-84.04112
 31
0.0
  0
LINE
  5
E5
100
AcDbEntity
  8
0
390
0
  6
Continuous
 62
     7
100
AcDbLine
 10
18.035
 20
-84.04112
 30
0.0
 11
18.035
 21
-77.54112
 31
0.0
  0
LINE
  5
E6
100
AcDbEntity
  8
0
390
0
  6
Continuous
 62
     7
100
AcDbLine
 10
18.035
 20
-105.54112
 30
0.0
 11
18.035
 21
-99.04112
 31
0.0
  0
LINE
  5
E7
100
AcDbEntity
  8
0
390
0
  6
Continuous
 62
     7
100
AcDbLine
 10
19.535
 20
-98.04112
 30
0.0
 11
19.535
 21
-85.04112
 31
0.0
  0
LINE
  5
E8
100
AcDbEntity
  8
0
390
0
  6
Continuous
 62
     7
100
AcDbLine
 10
-19.535
 20
-85.04112
 30
0.0
 11
-19.535
 21
-98.04112
 31
0.0
  0
LINE
  5
E9
100
AcDbEntity
  8
0
390
0
  6
Continuous
 62
     7
100
AcDbLine
 10
-18.535
 20
-84.04112
 30
0.0
 11
-19.535
 21
-85.04112
 31
0.0
  0
LINE
  5
EA
100
AcDbEntity
  8
0
390
0
  6
Continuous
 62
     7
100
AcDbLine
 10
19.535
 20
-85.04112
 30
0.0
 11
18.535
 21
-84.04112
 31
0.0
  0
LINE
  5
EB
100
AcDbEntity
  8
0
390
0
  6
Continuous
 62
     7
100
AcDbLine
 10
18.535
 20
-99.04112
 30
0.0
 11
19.535
 21
-98.04112
 31
0.0
  0
LINE
  5
EC
100
AcDbEntity
  8
0
390
0
  6
Continuous
 62
     7
100
AcDbLine
 10
-19.535
 20
-98.04112
 30
0.0
 11
-18.535
 21
-99.04112
 31
0.0
  0
LINE
  5
ED
100
AcDbEntity
  8
0
390
0
  6
Continuous
 62
     7
100
AcDbLine
 10
104.96548
 20
22.548444
 30
0.0
 11
109.96548
 21
25.435195
 31
0.0
  0
LINE
  5
EE
100
AcDbEntity
  8
0
390
0
  6
Continuous
 62
     7
100
AcDbLine
 10
99.96548
 20
31.208698
 30
0.0
 11
99.96548
 21
25.435195
 31
0.0
  0
LINE
  5
EF
100
AcDbEntity
  8
0
390
0
  6
Continuous
 62
     7
100
AcDbLine
 10
104.96548
 20
34.095449
 30
0.0
 11
99.96548
 21
31.208698
 31
0.0
  0
LINE
  5
F0
100
AcDbEntity
  8
0
390
0
  6
Continuous
 62
     7
100
AcDbLine
 10
109.96548
 20
31.208698
 30
0.0
 11
104.96548
 21
34.095449
 31
0.0
  0
LINE
  5
F1
100
AcDbEntity
  8
0
390
0
  6
Continuous
 62
     7
100
AcDbLine
 10
109.96548
 20
25.435195
 30
0.0
 11
109.96548
 21
31.208698
 31
0.0
  0
LINE
  5
F2
100
AcDbEntity
  8
0
390
0
  6
Continuous
 62
     7
100
AcDbLine
 10
99.96548
 20
25.435195
 30
0.0
 11
104.96548
 21
22.548444
 31
0.0
  0
LINE
  5
F3
100
AcDbEntity
  8
0
390
0
  6
Continuous
 62
     7
100
AcDbLine
 10
91.26548
 20
39.865403
 30
0.0
 11
91.26548
 21
20.821947
 31
0.0
  0
ARC
  5
F4
100
AcDbEntity
  8
0
390
0
  6
Continuous
 62
     7
100
AcDbCircle
 10
92.26548
 20
39.865403
 30
0.0
 40
1.0
210
0.0
220
0.0
230
1.0
100
AcDbArc
 50
111.023883
 51
180.0
  0
ARC
  5
F5
100
AcDbEntity
  8
0
390
0
  6
Continuous
 62
     7
100
AcDbCircle
 10
104.96548
 20
6.821947
 30
0.0
 40
36.4
210
0.0
220
0.0
230
1.0
100
AcDbArc
 50
110.084559
 51
111.023883
  0
ARC
  5
F6
100
AcDbEntity
  8
0
390
0
  6
Continuous
 62
     7
100
AcDbCircle
 10
104.96548
 20
6.821947
 30
0.0
 40
36.4
210
0.0
220
0.0
230
1.0
100
AcDbArc
 50
68.976117
 51
69.915441
  0
ARC
  5
F7
100
AcDbEntity
  8
0
390
0
  6
Continuous
 62
     7
100
AcDbCircle
 10
117.66548
 20
39.865403
 30
0.0
 40
1.0
210
0.0
220
0.0
230
1.0
100
AcDbArc
 50
0.0
 51
68.976117
  0
LINE
  5
F8
100
AcDbEntity
  8
0
390
0
  6
Continuous
 62
     7
100
AcDbLine
 10
118.66548
 20
20.821947
 30
0.0
 11
118.66548
 21
39.865403
 31
0.0
  0
LINE
  5
F9
100
AcDbEntity
  8
0
390
0
  6
Continuous
 62
     7
100
AcDbLine
 10
98.095012
 20
77.601947
 30
0.0
 11
101.530246
 21
77.601947
 31
0.0
  0
LINE
  5
FA
100
AcDbEntity
  8
0
390
0
  6
Continuous
 62
     7
100
AcDbLine
 10
99.965485
 20
77.601947
 30
0.0
 11
98.095012
 21
77.601947
 31
0.0
  0
LINE
  5
FB
100
AcDbEntity
  8
0
390
0
  6
Continuous
 62
     7
100
AcDbLine
 10
111.835948
 20
77.601947
 30
0.0
 11
109.965475
 21
77.601947
 31
0.0
  0
LINE
  5
FC
100
AcDbEntity
  8
0
390
0
  6
Continuous
 62
     7
100
AcDbLine
 10
108.400714
 20
77.601947
 30
0.0
 11
111.835948
 21
77.601947
 31
0.0
  0
LINE
  5
FD
100
AcDbEntity
  8
0
390
0
  6
Continuous
 62
     7
100
AcDbLine
 10
101.530246
 20
77.601947
 30
0.0
 11
108.400714
 21
77.601947
 31
0.0
  0
LINE
  5
FE
100
AcDbEntity
  8
0
390
0
  6
Continuous
 62
     7
100
AcDbLine
 10
108.400714
 20
77.601947
 30
0.0
 11
108.400714
 21
68.601957
 31
0.0
  0
LINE
  5
FF
100
AcDbEntity
  8
0
390
0
  6
Continuous
 62
     7
100
AcDbLine
 10
111.835948
 20
77.601947
 30
0.0
 11
111.835948
 21
68.601957
 31
0.0
  0
LINE
  5
100
100
AcDbEntity
  8
0
390
0
  6
Continuous
 62
     7
100
AcDbLine
 10
101.530246
 20
77.601947
 30
0.0
 11
101.530246
 21
68.601957
 31
0.0
  0
LINE
  5
101
100
AcDbEntity
  8
0
390
0
  6
Continuous
 62
     7
100
AcDbLine
 10
98.095012
 20
77.601947
 30
0.0
 11
98.095012
 21
68.601957
 31
0.0
  0
ARC
  5
102
100
AcDbEntity
  8
0
390
0
  6
Continuous
 62
     7
100
AcDbCircle
 10
110.959619
 20
57.314967
 30
0.0
 40
8.65261
210
0.0
220
0.0
230
0.9999999999999999
100
AcDbArc
 50
177.46445
 51
189.836906
  0
LINE
  5
103
100
AcDbEntity
  8
0
390
0
  6
Continuous
 62
     7
100
AcDbLine
 10
102.31548
 20
57.697753
 30
0.0
 11
102.31548
 21
61.601947
 31
0.0
  0
LINE
  5
104
100
AcDbEntity
  8
0
390
0
  6
Continuous
 62
     7
100
AcDbLine
 10
107.61548
 20
57.697753
 30
0.0
 11
107.61548
 21
61.601947
 31
0.0
  0
ARC
  5
105
100
AcDbEntity
  8
0
390
0
  6
Continuous
 62
     7
100
AcDbCircle
 10
98.393678
 20
57.351824
 30
0.0
 40
9.228288
210
0.0
220
0.0
230
1.0
100
AcDbArc
 50
350.550371
 51
2.148274
  0
ELLIPSE
  5
106
100
AcDbEntity
  8
0
390
0
  6
Continuous
 62
     7
100
AcDbEllipse
 10
104.96548
 20
56.601947
 30
0.0
 11
-2.6499999999999857
 21
0.0000000017019164
 31
0.0
210
0.0
220
0.0
230
1.0
 40
0.97561
 41
0.300485682626764
 42
2.8411069725491185
  0
LINE
  5
107
100
AcDbEntity
  8
0
390
0
  6
Continuous
 62
     7
100
AcDbLine
 10
107.61548
 20
57.697753
 30
0.0
 11
117.46548
 21
57.697753
 31
0.0
  0
LINE
  5
108
100
AcDbEntity
  8
0
390
0
  6
Continuous
 62
     7
100
AcDbLine
 10
117.46548
 20
55.836719
 30
0.0
 11
117.46548
 21
57.697753
 31
0.0
  0
LINE
  5
109
100
AcDbEntity
  8
0
390
0
  6
Continuous
 62
     7
100
AcDbLine
 10
107.496741
 20
55.836719
 30
0.0
 11
117.46548
 21
55.836719
 31
0.0
  0
LINE
  5
10A
100
AcDbEntity
  8
0
390
0
  6
Continuous
 62
     7
100
AcDbLine
 10
92.46548
 20
55.836719
 30
0.0
 11
102.434219
 21
55.836719
 31
0.0
  0
LINE
  5
10B
100
AcDbEntity
  8
0
390
0
  6
Continuous
 62
     7
100
AcDbLine
 10
92.46548
 20
55.836719
 30
0.0
 11
92.46548
 21
57.697753
 31
0.0
  0
LINE
  5
10C
100
AcDbEntity
  8
0
390
0
  6
Continuous
 62
     7
100
AcDbLine
 10
92.46548
 20
57.697753
 30
0.0
 11
102.31548
 21
57.697753
 31
0.0
  0
LINE
  5
10D
100
AcDbEntity
  8
0
390
0
  6
Continuous
 62
     7
100
AcDbLine
 10
92.46548
 20
66.001947
 30
0.0
 11
117.46548
 21
66.001947
 31
0.0
  0
LINE
  5
10E
100
AcDbEntity
  8
0
390
0
  6
Continuous
 62
     7
100
AcDbLine
 10
92.46548
 20
66.001947
 30
0.0
 11
92.46548
 21
68.601947
 31
0.0
  0
LINE
  5
10F
100
AcDbEntity
  8
0
390
0
  6
Continuous
 62
     7
100
AcDbLine
 10
92.46548
 20
68.601947
 30
0.0
 11
117.46548
 21
68.601947
 31
0.0
  0
LINE
  5
110
100
AcDbEntity
  8
0
390
0
  6
Continuous
 62
     7
100
AcDbLine
 10
117.46548
 20
66.001947
 30
0.0
 11
117.46548
 21
68.601947
 31
0.0
  0
LINE
  5
111
100
AcDbEntity
  8
0
390
0
  6
Continuous
 62
     7
100
AcDbLine
 10
107.61548
 20
61.601947
 30
0.0
 11
102.31548
 21
61.601947
 31
0.0
  0
LINE
  5
112
100
AcDbEntity
  8
0
390
0
  6
Continuous
 62
     7
100
AcDbLine
 10
92.46548
 20
57.697753
 30
0.0
 11
92.46548
 21
66.001947
 31
0.0
  0
LINE
  5
113
100
AcDbEntity
  8
0
390
0
  6
Continuous
 62
     7
100
AcDbLine
 10
117.46548
 20
57.697753
 30
0.0
 11
117.46548
 21
66.001947
 31
0.0
  0
LINE
  5
114
100
AcDbEntity
  8
0
390
0
  6
Continuous
 62
     7
100
AcDbLine
 10
117.46548
 20
56.981971
 30
0.0
 11
117.46548
 21
57.697753
 31
0.0
  0
LINE
  5
115
100
AcDbEntity
  8
0
390
0
  6
Continuous
 62
     7
100
AcDbLine
 10
117.46548
 20
66.001947
 30
0.0
 11
117.46548
 21
57.697753
 31
0.0
  0
LINE
  5
116
100
AcDbEntity
  8
0
390
0
  6
Continuous
 62
     7
100
AcDbLine
 10
117.46548
 20
66.001947
 30
0.0
 11
117.46548
 21
67.001947
 31
0.0
  0
LINE
  5
117
100
AcDbEntity
  8
0
390
0
  6
Continuous
 62
     7
100
AcDbLine
 10
117.46548
 20
67.001947
 30
0.0
 11
117.46548
 21
66.001947
 31
0.0
  0
LINE
  5
118
100
AcDbEntity
  8
0
390
0
  6
Continuous
 62
     7
100
AcDbLine
 10
117.46548
 20
66.001947
 30
0.0
 11
117.46548
 21
57.697752
 31
0.0
  0
LINE
  5
119
100
AcDbEntity
  8
0
390
0
  6
Continuous
 62
     7
100
AcDbLine
 10
117.46548
 20
57.697752
 30
0.0
 11
117.46548
 21
56.981971
 31
0.0
  0
LINE
  5
11A
100
AcDbEntity
  8
0
390
0
  6
Continuous
 62
     7
100
AcDbLine
 10
117.46548
 20
56.981971
 30
0.0
 11
117.46548
 21
49.017126
 31
0.0
  0
LINE
  5
11B
100
AcDbEntity
  8
0
390
0
  6
Continuous
 62
     7
100
AcDbLine
 10
117.46548
 20
47.156093
 30
0.0
 11
117.46548
 21
49.017126
 31
0.0
  0
LINE
  5
11C
100
AcDbEntity
  8
0
390
0
  6
Continuous
 62
     7
100
AcDbLine
 10
117.46548
 20
38.309748
 30
0.0
 11
117.46548
 21
47.156093
 31
0.0
  0
LINE
  5
11D
100
AcDbEntity
  8
0
390
0
  6
Continuous
 62
     7
100
AcDbLine
 10
117.46548
 20
47.156093
 30
0.0
 11
117.46548
 21
38.309748
 31
0.0
  0
LINE
  5
11E
100
AcDbEntity
  8
0
390
0
  6
Continuous
 62
     7
100
AcDbLine
 10
117.46548
 20
47.871875
 30
0.0
 11
117.46548
 21
47.156093
 31
0.0
  0
LINE
  5
11F
100
AcDbEntity
  8
0
390
0
  6
Continuous
 62
     7
100
AcDbLine
 10
117.46548
 20
47.871875
 30
0.0
 11
117.46548
 21
55.836719
 31
0.0
  0
LINE
  5
120
100
AcDbEntity
  8
0
390
0
  6
Continuous
 62
     7
100
AcDbLine
 10
117.46548
 20
67.001947
 30
0.0
 11
117.46548
 21
66.001947
 31
0.0
  0
LINE
  5
121
100
AcDbEntity
  8
0
390
0
  6
Continuous
 62
     7
100
AcDbLine
 10
117.46548
 20
68.601947
 30
0.0
 11
117.46548
 21
67.001947
 31
0.0
  0
LINE
  5
122
100
AcDbEntity
  8
0
390
0
  6
Continuous
 62
     7
100
AcDbLine
 10
117.46548
 20
57.697753
 30
0.0
 11
117.46548
 21
66.001947
 31
0.0
  0
LINE
  5
123
100
AcDbEntity
  8
0
390
0
  6
Continuous
 62
     7
100
AcDbLine
 10
117.46548
 20
57.697753
 30
0.0
 11
117.46548
 21
55.836719
 31
0.0
  0
LINE
  5
124
100
AcDbEntity
  8
0
390
0
  6
Continuous
 62
     7
100
AcDbLine
 10
117.46548
 20
47.871875
 30
0.0
 11
117.46548
 21
55.836719
 31
0.0
  0
LINE
  5
125
100
AcDbEntity
  8
0
390
0
  6
Continuous
 62
     7
100
AcDbLine
 10
117.46548
 20
47.156093
 30
0.0
 11
117.46548
 21
47.871875
 31
0.0
  0
LINE
  5
126
100
AcDbEntity
  8
0
390
0
  6
Continuous
 62
     7
100
AcDbLine
 10
117.46548
 20
47.156093
 30
0.0
 11
117.46548
 21
38.309748
 31
0.0
  0
LINE
  5
127
100
AcDbEntity
  8
0
390
0
  6
Continuous
 62
     7
100
AcDbLine
 10
117.46548
 20
38.309748
 30
0.0
 11
117.46548
 21
47.156093
 31
0.0
  0
LINE
  5
128
100
AcDbEntity
  8
0
390
0
  6
Continuous
 62
     7
100
AcDbLine
 10
117.46548
 20
49.017126
 30
0.0
 11
117.46548
 21
47.156093
 31
0.0
  0
LINE
  5
129
100
AcDbEntity
  8
0
390
0
  6
Continuous
 62
     7
100
AcDbLine
 10
117.46548
 20
56.981971
 30
0.0
 11
117.46548
 21
49.017126
 31
0.0
  0
LINE
  5
12A
100
AcDbEntity
  8
0
390
0
  6
Continuous
 62
     7
100
AcDbLine
 10
117.46548
 20
47.871875
 30
0.0
 11
92.46548
 21
47.871875
 31
0.0
  0
LINE
  5
12B
100
AcDbEntity
  8
0
390
0
  6
Continuous
 62
     7
100
AcDbLine
 10
92.46548
 20
47.871875
 30
0.0
 11
92.46548
 21
55.836719
 31
0.0
  0
LINE
  5
12C
100
AcDbEntity
  8
0
390
0
  6
Continuous
 62
     7
100
AcDbLine
 10
92.46548
 20
68.601947
 30
0.0
 11
98.095012
 21
68.601947
 31
0.0
  0
LINE
  5
12D
100
AcDbEntity
  8
0
390
0
  6
Continuous
 62
     7
100
AcDbLine
 10
111.835948
 20
68.601947
 30
0.0
 11
117.46548
 21
68.601947
 31
0.0
  0
LINE
  5
12E
100
AcDbEntity
  8
0
390
0
  6
Continuous
 62
     7
100
AcDbLine
 10
104.96548
 20
68.601957
 30
0.0
 11
112.46548
 21
68.601957
 31
0.0
  0
LINE
  5
12F
100
AcDbEntity
  8
0
390
0
  6
Continuous
 62
     7
100
AcDbLine
 10
97.46548
 20
68.601957
 30
0.0
 11
104.96548
 21
68.601957
 31
0.0
  0
LINE
  5
130
100
AcDbEntity
  8
0
390
0
  6
Continuous
 62
     7
100
AcDbLine
 10
111.835948
 20
68.601957
 30
0.0
 11
112.46548
 21
68.601957
 31
0.0
  0
LINE
  5
131
100
AcDbEntity
  8
0
390
0
  6
Continuous
 62
     7
100
AcDbLine
 10
97.46548
 20
68.601957
 30
0.0
 11
98.095012
 21
68.601957
 31
0.0
  0
LINE
  5
132
100
AcDbEntity
  8
0
390
0
  6
Continuous
 62
     7
100
AcDbLine
 10
92.46548
 20
47.156093
 30
0.0
 11
117.46548
 21
47.156093
 31
0.0
  0
LINE
  5
133
100
AcDbEntity
  8
0
390
0
  6
Continuous
 62
     7
100
AcDbLine
 10
92.46548
 20
47.156093
 30
0.0
 11
92.46548
 21
47.871875
 31
0.0
  0
LINE
  5
134
100
AcDbEntity
  8
0
390
0
  6
Continuous
 62
     7
100
AcDbLine
 10
92.46548
 20
47.156093
 30
0.0
 11
92.46548
 21
38.309748
 31
0.0
  0
LINE
  5
135
100
AcDbEntity
  8
0
390
0
  6
Continuous
 62
     7
100
AcDbLine
 10
112.46548
 20
17.502464
 30
0.0
 11
112.46548
 21
-12.363581
 31
0.0
  0
LINE
  5
136
100
AcDbEntity
  8
0
390
0
  6
Continuous
 62
     7
100
AcDbLine
 10
112.46548
 20
-12.363581
 30
0.0
 11
111.46548
 21
-13.030621
 31
0.0
  0
LINE
  5
137
100
AcDbEntity
  8
0
390
0
  6
Continuous
 62
     7
100
AcDbLine
 10
111.46548
 20
-13.030621
 30
0.0
 11
111.46548
 21
18.558185
 31
0.0
  0
LINE
  5
138
100
AcDbEntity
  8
0
390
0
  6
Continuous
 62
     7
100
AcDbLine
 10
111.46548
 20
18.558185
 30
0.0
 11
112.46548
 21
17.502464
 31
0.0
  0
LINE
  5
139
100
AcDbEntity
  8
0
390
0
  6
Continuous
 62
     7
100
AcDbLine
 10
98.46548
 20
18.558185
 30
0.0
 11
98.46548
 21
-13.030621
 31
0.0
  0
LINE
  5
13A
100
AcDbEntity
  8
0
390
0
  6
Continuous
 62
     7
100
AcDbLine
 10
98.46548
 20
-13.030621
 30
0.0
 11
97.46548
 21
-12.363581
 31
0.0
  0
LINE
  5
13B
100
AcDbEntity
  8
0
390
0
  6
Continuous
 62
     7
100
AcDbLine
 10
97.46548
 20
-12.363581
 30
0.0
 11
97.46548
 21
17.502464
 31
0.0
  0
LINE
  5
13C
100
AcDbEntity
  8
0
390
0
  6
Continuous
 62
     7
100
AcDbLine
 10
97.46548
 20
17.502464
 30
0.0
 11
98.46548
 21
18.558185
 31
0.0
  0
LINE
  5
13D
100
AcDbEntity
  8
0
390
0
  6
Continuous
 62
     7
100
AcDbLine
 10
111.46548
 20
-13.030621
 30
0.0
 11
98.46548
 21
-13.030621
 31
0.0
  0
LINE
  5
13E
100
AcDbEntity
  8
0
390
0
  6
Continuous
 62
     7
100
AcDbLine
 10
98.46548
 20
18.558185
 30
0.0
 11
111.46548
 21
18.558185
 31
0.0
  0
LINE
  5
13F
100
AcDbEntity
  8
0
390
0
  6
Continuous
 62
     7
100
AcDbLine
 10
118.96548
 20
16.972072
 30
0.0
 11
112.46548
 21
16.972072
 31
0.0
  0
LINE
  5
140
100
AcDbEntity
  8
0
390
0
  6
Continuous
 62
     7
100
AcDbLine
 10
90.96548
 20
16.972072
 30
0.0
 11
90.96548
 21
-18.035
 31
0.0
  0
LINE
  5
141
100
AcDbEntity
  8
0
390
0
  6
Continuous
 62
     7
100
AcDbLine
 10
97.46548
 20
16.972072
 30
0.0
 11
90.96548
 21
16.972072
 31
0.0
  0
ARC
  5
142
100
AcDbEntity
  8
0
390
0
  6
Continuous
 62
     7
100
AcDbCircle
 10
102.641837
 20
-12.892408
 30
0.0
 40
5.549893
210
0.0
220
0.0
230
1.0
100
AcDbArc
 50
201.141113
 51
221.191614
  0
LINE
  5
143
100
AcDbEntity
  8
0
390
0
  6
Continuous
 62
     7
100
AcDbLine
 10
111.46548
 20
-16.547452
 30
0.0
 11
98.46548
 21
-16.547452
 31
0.0
  0
ARC
  5
144
100
AcDbEntity
  8
0
390
0
  6
Continuous
 62
     7
100
AcDbCircle
 10
107.240971
 20
-12.863284
 30
0.0
 40
5.605316
210
0.0
220
0.0
230
1.0
100
AcDbArc
 50
318.908521
 51
338.758751
  0
LINE
  5
145
100
AcDbEntity
  8
0
390
0
  6
Continuous
 62
     7
100
AcDbLine
 10
118.96548
 20
16.972072
 30
0.0
 11
118.96548
 21
-18.035
 31
0.0
  0
LINE
  5
146
100
AcDbEntity
  8
0
390
0
  6
Continuous
 62
     7
100
AcDbLine
 10
111.46548
 20
-16.547452
 30
0.0
 11
111.46548
 21
-13.030621
 31
0.0
  0
LINE
  5
147
100
AcDbEntity
  8
0
390
0
  6
Continuous
 62
     7
100
AcDbLine
 10
98.46548
 20
-13.030621
 30
0.0
 11
98.46548
 21
-16.547452
 31
0.0
  0
LINE
  5
148
100
AcDbEntity
  8
0
390
0
  6
Continuous
 62
     7
100
AcDbLine
 10
97.46548
 20
-14.894066
 30
0.0
 11
97.46548
 21
-12.363581
 31
0.0
  0
LINE
  5
149
100
AcDbEntity
  8
0
390
0
  6
Continuous
 62
     7
100
AcDbLine
 10
112.46548
 20
-12.363581
 30
0.0
 11
112.46548
 21
-14.894066
 31
0.0
  0
LINE
  5
14A
100
AcDbEntity
  8
0
390
0
  6
Continuous
 62
     7
100
AcDbLine
 10
90.96548
 20
20.821947
 30
0.0
 11
118.96548
 21
20.821947
 31
0.0
  0
LINE
  5
14B
100
AcDbEntity
  8
0
390
0
  6
Continuous
 62
     7
100
AcDbLine
 10
90.96548
 20
20.821947
 30
0.0
 11
90.96548
 21
16.972072
 31
0.0
  0
LINE
  5
14C
100
AcDbEntity
  8
0
390
0
  6
Continuous
 62
     7
100
AcDbLine
 10
118.96548
 20
20.821947
 30
0.0
 11
118.96548
 21
16.972072
 31
0.0
  0
ARC
  5
14D
100
AcDbEntity
  8
0
390
0
  6
Continuous
 62
     7
100
AcDbCircle
 10
104.96548
 20
17.821947
 30
0.0
 40
24.0
210
0.0
220
0.0
230
0.9999999999999999
100
AcDbArc
 50
58.611834
 51
121.388166
  0
LINE
  5
14E
100
AcDbEntity
  8
0
390
0
  6
Continuous
 62
     7
100
AcDbLine
 10
117.46548
 20
20.821947
 30
0.0
 11
117.46548
 21
38.309748
 31
0.0
  0
LINE
  5
14F
100
AcDbEntity
  8
0
390
0
  6
Continuous
 62
     7
100
AcDbLine
 10
92.46548
 20
20.821947
 30
0.0
 11
92.46548
 21
38.309748
 31
0.0
  0
LINE
  5
150
100
AcDbEntity
  8
0
390
0
  6
Continuous
 62
     7
100
AcDbLine
 10
90.96548
 20
-18.035
 30
0.0
 11
118.96548
 21
-18.035
 31
0.0
  0
ARC
  5
151
100
AcDbEntity
  8
0
390
0
  6
Continuous
 62
     7
100
AcDbCircle
 10
-113.418787
 20
28.321947
 30
0.0
 40
2.5
210
0.0
220
0.0
230
1.0
100
AcDbArc
 50
0.0
 51
180.0
  0
ARC
  5
152
100
AcDbEntity
  8
0
390
0
  6
Continuous
 62
     7
100
AcDbCircle
 10
-113.418787
 20
28.321947
 30
0.0
 40
2.5
210
0.0
220
0.0
230
1.0
100
AcDbArc
 50
180.0
 51
360.0
  0
ARC
  5
153
100
AcDbEntity
  8
0
390
0
  6
Continuous
 62
     7
100
AcDbCircle
 10
-113.418787
 20
28.321947
 30
0.0
 40
2.5
210
0.0
220
0.0
230
1.0
100
AcDbArc
 50
180.0
 51
360.0
  0
ARC
  5
154
100
AcDbEntity
  8
0
390
0
  6
Continuous
 62
     7
100
AcDbCircle
 10
-113.418787
 20
28.321947
 30
0.0
 40
2.5
210
0.0
220
0.0
230
1.0
100
AcDbArc
 50
0.0
 51
180.0
  0
CIRCLE
  5
155
100
AcDbEntity
  8
0
390
0
  6
Continuous
 62
     7
100
AcDbCircle
 10
-113.418787
 20
28.321947
 30
0.0
 40
3.0
210
0.0
220
0.0
230
1.0
  0
CIRCLE
  5
156
100
AcDbEntity
  8
0
390
0
  6
Continuous
 62
     7
100
AcDbCircle
 10
-113.418787
 20
28.321947
 30
0.0
 40
3.5
210
0.0
220
0.0
230
1.0
  0
LINE
  5
157
100
AcDbEntity
  8
0
390
0
  6
Continuous
 62
     7
100
AcDbLine
 10
-116.198631
 20
33.060223
 30
0.0
 11
-118.912177
 21
28.360223
 31
0.0
  0
ARC
  5
158
100
AcDbEntity
  8
0
390
0
  6
Continuous
 62
     7
100
AcDbCircle
 10
-116.132334
 20
33.021947
 30
0.0
 40
0.076553
210
0.0
220
0.0
230
1.0
100
AcDbArc
 50
90.0
 51
150.0
  0
LINE
  5
159
100
AcDbEntity
  8
0
390
0
  6
Continuous
 62
     7
100
AcDbLine
 10
-110.705241
 20
33.0985
 30
0.0
 11
-116.132334
 21
33.0985
 31
0.0
  0
ARC
  5
15A
100
AcDbEntity
  8
0
390
0
  6
Continuous
 62
     7
100
AcDbCircle
 10
-110.705241
 20
33.021947
 30
0.0
 40
0.076553
210
0.0
220
0.0
230
1.0
100
AcDbArc
 50
30.0
 51
90.0
  0
LINE
  5
15B
100
AcDbEntity
  8
0
390
0
  6
Continuous
 62
     7
100
AcDbLine
 10
-107.925398
 20
28.360223
 30
0.0
 11
-110.638944
 21
33.060223
 31
0.0
  0
ARC
  5
15C
100
AcDbEntity
  8
0
390
0
  6
Continuous
 62
     7
100
AcDbCircle
 10
-107.991695
 20
28.321947
 30
0.0
 40
0.076553
210
0.0
220
0.0
230
1.0
100
AcDbArc
 50
330.0
 51
30.0
  0
LINE
  5
15D
100
AcDbEntity
  8
0
390
0
  6
Continuous
 62
     7
100
AcDbLine
 10
-110.638944
 20
23.58367
 30
0.0
 11
-107.925398
 21
28.28367
 31
0.0
  0
ARC
  5
15E
100
AcDbEntity
  8
0
390
0
  6
Continuous
 62
     7
100
AcDbCircle
 10
-110.705241
 20
23.621947
 30
0.0
 40
0.076553
210
0.0
220
0.0
230
1.0
100
AcDbArc
 50
270.0
 51
330.0
  0
LINE
  5
15F
100
AcDbEntity
  8
0
390
0
  6
Continuous
 62
     7
100
AcDbLine
 10
-116.132334
 20
23.545394
 30
0.0
 11
-110.705241
 21
23.545394
 31
0.0
  0
ARC
  5
160
100
AcDbEntity
  8
0
390
0
  6
Continuous
 62
     7
100
AcDbCircle
 10
-116.132334
 20
23.621947
 30
0.0
 40
0.076553
210
0.0
220
0.0
230
1.0
100
AcDbArc
 50
210.0
 51
270.0
  0
LINE
  5
161
100
AcDbEntity
  8
0
390
0
  6
Continuous
 62
     7
100
AcDbLine
 10
-118.912177
 20
28.28367
 30
0.0
 11
-116.198631
 21
23.58367
 31
0.0
  0
ARC
  5
162
100
AcDbEntity
  8
0
390
0
  6
Continuous
 62
     7
100
AcDbCircle
 10
-118.84588
 20
28.321947
 30
0.0
 40
0.076553
210
0.0
220
0.0
230
1.0
100
AcDbArc
 50
150.0
 51
210.0
  0
LINE
  5
163
100
AcDbEntity
  8
0
390
0
  6
Continuous
 62
     7
100
AcDbLine
 10
-110.638944
 20
33.060223
 30
0.0
 11
-109.341686
 21
33.809195
 31
0.0
  0
LINE
  5
164
100
AcDbEntity
  8
0
390
0
  6
Continuous
 62
     7
100
AcDbLine
 10
-109.341686
 20
33.809195
 30
0.0
 11
-106.62814
 21
29.109195
 31
0.0
  0
LINE
  5
165
100
AcDbEntity
  8
0
390
0
  6
Continuous
 62
     7
100
AcDbLine
 10
-106.62814
 20
29.109195
 30
0.0
 11
-107.925398
 21
28.360223
 31
0.0
  0
LINE
  5
166
100
AcDbEntity
  8
0
390
0
  6
Continuous
 62
     7
100
AcDbLine
 10
-106.62814
 20
27.534698
 30
0.0
 11
-109.341686
 21
22.834698
 31
0.0
  0
LINE
  5
167
100
AcDbEntity
  8
0
390
0
  6
Continuous
 62
     7
100
AcDbLine
 10
-109.341686
 20
22.834698
 30
0.0
 11
-110.638944
 21
23.58367
 31
0.0
  0
LINE
  5
168
100
AcDbEntity
  8
0
390
0
  6
Continuous
 62
     7
100
AcDbLine
 10
-106.62814
 20
27.534698
 30
0.0
 11
-107.925398
 21
28.28367
 31
0.0
  0
LINE
  5
169
100
AcDbEntity
  8
0
390
0
  6
Continuous
 62
     7
100
AcDbLine
 10
-117.495888
 20
22.834698
 30
0.0
 11
-116.198631
 21
23.58367
 31
0.0
  0
LINE
  5
16A
100
AcDbEntity
  8
0
390
0
  6
Continuous
 62
     7
100
AcDbLine
 10
-117.495888
 20
22.834698
 30
0.0
 11
-120.209435
 21
27.534698
 31
0.0
  0
LINE
  5
16B
100
AcDbEntity
  8
0
390
0
  6
Continuous
 62
     7
100
AcDbLine
 10
-118.912177
 20
28.28367
 30
0.0
 11
-120.209435
 21
27.534698
 31
0.0
  0
ARC
  5
16C
100
AcDbEntity
  8
0
390
0
  6
Continuous
 62
     7
100
AcDbCircle
 10
-107.991695
 20
28.321947
 30
0.0
 40
1.574497
210
0.0
220
0.0
230
0.9999999999999999
100
AcDbArc
 50
330.0
 51
30.0
  0
LINE
  5
16D
100
AcDbEntity
  8
0
390
0
  6
Continuous
 62
     7
100
AcDbLine
 10
-110.705241
 20
33.0985
 30
0.0
 11
-110.705241
 21
34.596444
 31
0.0
  0
ARC
  5
16E
100
AcDbEntity
  8
0
390
0
  6
Continuous
 62
     7
100
AcDbCircle
 10
-110.705241
 20
33.021947
 30
0.0
 40
1.574497
210
0.0
220
0.0
230
0.9999999999999999
100
AcDbArc
 50
30.0
 51
90.0
  0
LINE
  5
16F
100
AcDbEntity
  8
0
390
0
  6
Continuous
 62
     7
100
AcDbLine
 10
-110.705241
 20
22.047449
 30
0.0
 11
-116.132334
 21
22.047449
 31
0.0
  0
LINE
  5
170
100
AcDbEntity
  8
0
390
0
  6
Continuous
 62
     7
100
AcDbLine
 10
-116.132334
 20
22.047449
 30
0.0
 11
-116.132334
 21
23.545394
 31
0.0
  0
LINE
  5
171
100
AcDbEntity
  8
0
390
0
  6
Continuous
 62
     7
100
AcDbLine
 10
-110.705241
 20
22.047449
 30
0.0
 11
-110.705241
 21
23.545394
 31
0.0
  0
ARC
  5
172
100
AcDbEntity
  8
0
390
0
  6
Continuous
 62
     7
100
AcDbCircle
 10
-110.705241
 20
23.621947
 30
0.0
 40
1.574497
210
0.0
220
0.0
230
1.0
100
AcDbArc
 50
270.0
 51
330.0
  0
LINE
  5
173
100
AcDbEntity
  8
0
390
0
  6
Continuous
 62
     7
100
AcDbLine
 10
-116.132334
 20
33.0985
 30
0.0
 11
-116.132334
 21
34.596444
 31
0.0
  0
LINE
  5
174
100
AcDbEntity
  8
0
390
0
  6
Continuous
 62
     7
100
AcDbLine
 10
-116.132334
 20
34.596444
 30
0.0
 11
-110.705241
 21
34.596444
 31
0.0
  0
ARC
  5
175
100
AcDbEntity
  8
0
390
0
  6
Continuous
 62
     7
100
AcDbCircle
 10
-118.84588
 20
28.321947
 30
0.0
 40
1.574497
210
0.0
220
0.0
230
0.9999999999999999
100
AcDbArc
 50
150.0
 51
210.0
  0
LINE
  5
176
100
AcDbEntity
  8
0
390
0
  6
Continuous
 62
     7
100
AcDbLine
 10
-118.912177
 20
28.360223
 30
0.0
 11
-120.209435
 21
29.109195
 31
0.0
  0
LINE
  5
177
100
AcDbEntity
  8
0
390
0
  6
Continuous
 62
     7
100
AcDbLine
 10
-120.209435
 20
29.109195
 30
0.0
 11
-117.495888
 21
33.809195
 31
0.0
  0
LINE
  5
178
100
AcDbEntity
  8
0
390
0
  6
Continuous
 62
     7
100
AcDbLine
 10
-116.198631
 20
33.060223
 30
0.0
 11
-117.495888
 21
33.809195
 31
0.0
  0
ARC
  5
179
100
AcDbEntity
  8
0
390
0
  6
Continuous
 62
     7
100
AcDbCircle
 10
-116.132334
 20
23.621947
 30
0.0
 40
1.574497
210
0.0
220
0.0
230
0.9999999999999999
100
AcDbArc
 50
210.0
 51
270.0
  0
ARC
  5
17A
100
AcDbEntity
  8
0
390
0
  6
Continuous
 62
     7
100
AcDbCircle
 10
-116.132334
 20
33.021947
 30
0.0
 40
1.574497
210
0.0
220
0.0
230
1.0
100
AcDbArc
 50
90.0
 51
150.0
  0
LINE
  5
17B
100
AcDbEntity
  8
0
390
0
  6
Continuous
 62
     7
100
AcDbLine
 10
-109.170193
 20
22.735686
 30
0.0
 11
-106.456647
 21
27.435686
 31
0.0
  0
LINE
  5
17C
100
AcDbEntity
  8
0
390
0
  6
Continuous
 62
     7
100
AcDbLine
 10
-109.170193
 20
22.735686
 30
0.0
 11
-109.341686
 21
22.834698
 31
0.0
  0
LINE
  5
17D
100
AcDbEntity
  8
0
390
0
  6
Continuous
 62
     7
100
AcDbLine
 10
-106.456647
 20
27.435686
 30
0.0
 11
-106.62814
 21
27.534698
 31
0.0
  0
LINE
  5
17E
100
AcDbEntity
  8
0
390
0
  6
Continuous
 62
     7
100
AcDbLine
 10
-106.456647
 20
29.208207
 30
0.0
 11
-109.170193
 21
33.908207
 31
0.0
  0
LINE
  5
17F
100
AcDbEntity
  8
0
390
0
  6
Continuous
 62
     7
100
AcDbLine
 10
-106.456647
 20
29.208207
 30
0.0
 11
-106.62814
 21
29.109195
 31
0.0
  0
LINE
  5
180
100
AcDbEntity
  8
0
390
0
  6
Continuous
 62
     7
100
AcDbLine
 10
-109.170193
 20
33.908207
 30
0.0
 11
-109.341686
 21
33.809195
 31
0.0
  0
ARC
  5
181
100
AcDbEntity
  8
0
390
0
  6
Continuous
 62
     7
100
AcDbCircle
 10
-110.705241
 20
23.621947
 30
0.0
 40
1.77252
210
0.0
220
0.0
230
1.0
100
AcDbArc
 50
270.0
 51
330.0
  0
LINE
  5
182
100
AcDbEntity
  8
0
390
0
  6
Continuous
 62
     7
100
AcDbLine
 10
-110.705241
 20
21.849426
 30
0.0
 11
-110.705241
 21
22.047449
 31
0.0
  0
ARC
  5
183
100
AcDbEntity
  8
0
390
0
  6
Continuous
 62
     7
100
AcDbCircle
 10
-107.991695
 20
28.321947
 30
0.0
 40
1.77252
210
0.0
220
0.0
230
1.0
100
AcDbArc
 50
330.0
 51
30.0
  0
LINE
  5
184
100
AcDbEntity
  8
0
390
0
  6
Continuous
 62
     7
100
AcDbLine
 10
-116.132334
 20
21.849426
 30
0.0
 11
-110.705241
 21
21.849426
 31
0.0
  0
LINE
  5
185
100
AcDbEntity
  8
0
390
0
  6
Continuous
 62
     7
100
AcDbLine
 10
-116.132334
 20
21.849426
 30
0.0
 11
-116.132334
 21
22.047449
 31
0.0
  0
ARC
  5
186
100
AcDbEntity
  8
0
390
0
  6
Continuous
 62
     7
100
AcDbCircle
 10
-110.705241
 20
33.021947
 30
0.0
 40
1.77252
210
0.0
220
0.0
230
1.0
100
AcDbArc
 50
30.0
 51
90.0
  0
LINE
  5
187
100
AcDbEntity
  8
0
390
0
  6
Continuous
 62
     7
100
AcDbLine
 10
-110.705241
 20
34.794467
 30
0.0
 11
-110.705241
 21
34.596444
 31
0.0
  0
LINE
  5
188
100
AcDbEntity
  8
0
390
0
  6
Continuous
 62
     7
100
AcDbLine
 10
-110.705241
 20
34.794467
 30
0.0
 11
-116.132334
 21
34.794467
 31
0.0
  0
LINE
  5
189
100
AcDbEntity
  8
0
390
0
  6
Continuous
 62
     7
100
AcDbLine
 10
-116.132334
 20
34.794467
 30
0.0
 11
-116.132334
 21
34.596444
 31
0.0
  0
LINE
  5
18A
100
AcDbEntity
  8
0
390
0
  6
Continuous
 62
     7
100
AcDbLine
 10
-120.380928
 20
27.435686
 30
0.0
 11
-117.667381
 21
22.735686
 31
0.0
  0
LINE
  5
18B
100
AcDbEntity
  8
0
390
0
  6
Continuous
 62
     7
100
AcDbLine
 10
-120.380928
 20
27.435686
 30
0.0
 11
-120.209435
 21
27.534698
 31
0.0
  0
LINE
  5
18C
100
AcDbEntity
  8
0
390
0
  6
Continuous
 62
     7
100
AcDbLine
 10
-117.667381
 20
22.735686
 30
0.0
 11
-117.495888
 21
22.834698
 31
0.0
  0
ARC
  5
18D
100
AcDbEntity
  8
0
390
0
  6
Continuous
 62
     7
100
AcDbCircle
 10
-116.132334
 20
23.621947
 30
0.0
 40
1.77252
210
0.0
220
0.0
230
1.0
100
AcDbArc
 50
210.0
 51
270.0
  0
LINE
  5
18E
100
AcDbEntity
  8
0
390
0
  6
Continuous
 62
     7
100
AcDbLine
 10
-117.667381
 20
33.908207
 30
0.0
 11
-120.380928
 21
29.208207
 31
0.0
  0
LINE
  5
18F
100
AcDbEntity
  8
0
390
0
  6
Continuous
 62
     7
100
AcDbLine
 10
-117.667381
 20
33.908207
 30
0.0
 11
-117.495888
 21
33.809195
 31
0.0
  0
LINE
  5
190
100
AcDbEntity
  8
0
390
0
  6
Continuous
 62
     7
100
AcDbLine
 10
-120.380928
 20
29.208207
 30
0.0
 11
-120.209435
 21
29.109195
 31
0.0
  0
ARC
  5
191
100
AcDbEntity
  8
0
390
0
  6
Continuous
 62
     7
100
AcDbCircle
 10
-118.84588
 20
28.321947
 30
0.0
 40
1.77252
210
0.0
220
0.0
230
1.0
100
AcDbArc
 50
150.0
 51
210.0
  0
ARC
  5
192
100
AcDbEntity
  8
0
390
0
  6
Continuous
 62
     7
100
AcDbCircle
 10
-116.132334
 20
33.021947
 30
0.0
 40
1.77252
210
0.0
220
0.0
230
1.0
100
AcDbArc
 50
90.0
 51
150.0
  0
LINE
  5
193
100
AcDbEntity
  8
0
390
0
  6
Continuous
 62
     7
100
AcDbLine
 10
-117.018006
 20
40.324078
 30
0.0
 11
-116.114249
 21
40.324078
 31
0.0
  0
LINE
  5
194
100
AcDbEntity
  8
0
390
0
  6
Continuous
 62
     7
100
AcDbLine
 10
-115.604592
 20
36.825639
 30
0.0
 11
-117.018006
 21
40.324078
 31
0.0
  0
LINE
  5
195
100
AcDbEntity
  8
0
390
0
  6
Continuous
 62
     7
100
AcDbLine
 10
-114.700636
 20
36.825639
 30
0.0
 11
-115.604592
 21
36.825639
 31
0.0
  0
LINE
  5
196
100
AcDbEntity
  8
0
390
0
  6
Continuous
 62
     7
100
AcDbLine
 10
-116.114249
 20
40.324078
 30
0.0
 11
-114.700636
 21
36.825639
 31
0.0
  0
LINE
  5
197
100
AcDbEntity
  8
0
390
0
  6
Continuous
 62
     7
100
AcDbLine
 10
-112.763872
 20
39.72697
 30
0.0
 11
-112.01792
 21
37.88076
 31
0.0
  0
LINE
  5
198
100
AcDbEntity
  8
0
390
0
  6
Continuous
 62
     7
100
AcDbLine
 10
-113.215887
 20
38.607996
 30
0.0
 11
-112.763872
 21
39.72697
 31
0.0
  0
LINE
  5
199
100
AcDbEntity
  8
0
390
0
  6
Continuous
 62
     7
100
AcDbLine
 10
-112.495643
 20
36.825639
 30
0.0
 11
-113.215887
 21
38.607996
 31
0.0
  0
LINE
  5
19A
100
AcDbEntity
  8
0
390
0
  6
Continuous
 62
     7
100
AcDbLine
 10
-111.539997
 20
36.825639
 30
0.0
 11
-112.495643
 21
36.825639
 31
0.0
  0
LINE
  5
19B
100
AcDbEntity
  8
0
390
0
  6
Continuous
 62
     7
100
AcDbLine
 10
-110.126607
 20
40.324078
 30
0.0
 11
-111.539997
 21
36.825639
 31
0.0
  0
LINE
  5
19C
100
AcDbEntity
  8
0
390
0
  6
Continuous
 62
     7
100
AcDbLine
 10
-111.030639
 20
40.324078
 30
0.0
 11
-110.126607
 21
40.324078
 31
0.0
  0
LINE
  5
19D
100
AcDbEntity
  8
0
390
0
  6
Continuous
 62
     7
100
AcDbLine
 10
-112.01792
 20
37.88076
 30
0.0
 11
-111.030639
 21
40.324078
 31
0.0
  0
ARC
  5
19E
100
AcDbEntity
  8
0
390
0
  6
Continuous
 62
     7
100
AcDbCircle
 10
-109.661896
 20
37.992768
 30
0.0
 40
1.167129
210
0.0
220
0.0
230
1.0
100
AcDbArc
 50
270.006335
 51
359.993661
  0
LINE
  5
19F
100
AcDbEntity
  8
0
390
0
  6
Continuous
 62
     7
100
AcDbLine
 10
-108.494767
 20
40.324078
 30
0.0
 11
-108.494767
 21
37.992639
 31
0.0
  0
LINE
  5
1A0
100
AcDbEntity
  8
0
390
0
  6
Continuous
 62
     7
100
AcDbLine
 10
-109.409052
 20
40.324078
 30
0.0
 11
-108.494767
 21
40.324078
 31
0.0
  0
LINE
  5
1A1
100
AcDbEntity
  8
0
390
0
  6
Continuous
 62
     7
100
AcDbLine
 10
-109.409052
 20
38.112378
 30
0.0
 11
-109.409052
 21
40.324078
 31
0.0
  0
LINE
  5
1A2
100
AcDbEntity
  8
0
390
0
  6
Continuous
 62
     7
100
AcDbLine
 10
-109.40998
 20
38.074768
 30
0.0
 11
-109.409052
 21
38.112378
 31
0.0
  0
LINE
  5
1A3
100
AcDbEntity
  8
0
390
0
  6
Continuous
 62
     7
100
AcDbLine
 10
-109.412747
 20
38.037176
 30
0.0
 11
-109.40998
 21
38.074768
 31
0.0
  0
LINE
  5
1A4
100
AcDbEntity
  8
0
390
0
  6
Continuous
 62
     7
100
AcDbLine
 10
-109.417326
 20
37.99973
 30
0.0
 11
-109.412747
 21
38.037176
 31
0.0
  0
LINE
  5
1A5
100
AcDbEntity
  8
0
390
0
  6
Continuous
 62
     7
100
AcDbLine
 10
-109.42369
 20
37.962556
 30
0.0
 11
-109.417326
 21
37.99973
 31
0.0
  0
LINE
  5
1A6
100
AcDbEntity
  8
0
390
0
  6
Continuous
 62
     7
100
AcDbLine
 10
-109.431813
 20
37.925784
 30
0.0
 11
-109.42369
 21
37.962556
 31
0.0
  0
LINE
  5
1A7
100
AcDbEntity
  8
0
390
0
  6
Continuous
 62
     7
100
AcDbLine
 10
-109.441667
 20
37.889541
 30
0.0
 11
-109.431813
 21
37.925784
 31
0.0
  0
LINE
  5
1A8
100
AcDbEntity
  8
0
390
0
  6
Continuous
 62
     7
100
AcDbLine
 10
-109.453224
 20
37.853956
 30
0.0
 11
-109.441667
 21
37.889541
 31
0.0
  0
LINE
  5
1A9
100
AcDbEntity
  8
0
390
0
  6
Continuous
 62
     7
100
AcDbLine
 10
-109.46649
 20
37.819036
 30
0.0
 11
-109.453224
 21
37.853956
 31
0.0
  0
LINE
  5
1AA
100
AcDbEntity
  8
0
390
0
  6
Continuous
 62
     7
100
AcDbLine
 10
-109.481462
 20
37.784727
 30
0.0
 11
-109.46649
 21
37.819036
 31
0.0
  0
LINE
  5
1AB
100
AcDbEntity
  8
0
390
0
  6
Continuous
 62
     7
100
AcDbLine
 10
-109.498079
 20
37.751136
 30
0.0
 11
-109.481462
 21
37.784727
 31
0.0
  0
LINE
  5
1AC
100
AcDbEntity
  8
0
390
0
  6
Continuous
 62
     7
100
AcDbLine
 10
-109.516279
 20
37.718369
 30
0.0
 11
-109.498079
 21
37.751136
 31
0.0
  0
LINE
  5
1AD
100
AcDbEntity
  8
0
390
0
  6
Continuous
 62
     7
100
AcDbLine
 10
-109.536001
 20
37.686532
 30
0.0
 11
-109.516279
 21
37.718369
 31
0.0
  0
LINE
  5
1AE
100
AcDbEntity
  8
0
390
0
  6
Continuous
 62
     7
100
AcDbLine
 10
-109.557185
 20
37.655731
 30
0.0
 11
-109.536001
 21
37.686532
 31
0.0
  0
LINE
  5
1AF
100
AcDbEntity
  8
0
390
0
  6
Continuous
 62
     7
100
AcDbLine
 10
-109.579768
 20
37.626074
 30
0.0
 11
-109.557185
 21
37.655731
 31
0.0
  0
LINE
  5
1B0
100
AcDbEntity
  8
0
390
0
  6
Continuous
 62
     7
100
AcDbLine
 10
-109.604136
 20
37.597145
 30
0.0
 11
-109.579768
 21
37.626074
 31
0.0
  0
LINE
  5
1B1
100
AcDbEntity
  8
0
390
0
  6
Continuous
 62
     7
100
AcDbLine
 10
-109.629978
 20
37.569355
 30
0.0
 11
-109.604136
 21
37.597145
 31
0.0
  0
LINE
  5
1B2
100
AcDbEntity
  8
0
390
0
  6
Continuous
 62
     7
100
AcDbLine
 10
-109.657201
 20
37.542791
 30
0.0
 11
-109.629978
 21
37.569355
 31
0.0
  0
LINE
  5
1B3
100
AcDbEntity
  8
0
390
0
  6
Continuous
 62
     7
100
AcDbLine
 10
-109.685711
 20
37.517543
 30
0.0
 11
-109.657201
 21
37.542791
 31
0.0
  0
LINE
  5
1B4
100
AcDbEntity
  8
0
390
0
  6
Continuous
 62
     7
100
AcDbLine
 10
-109.715412
 20
37.4937
 30
0.0
 11
-109.685711
 21
37.517543
 31
0.0
  0
LINE
  5
1B5
100
AcDbEntity
  8
0
390
0
  6
Continuous
 62
     7
100
AcDbLine
 10
-109.746213
 20
37.471349
 30
0.0
 11
-109.715412
 21
37.4937
 31
0.0
  0
LINE
  5
1B6
100
AcDbEntity
  8
0
390
0
  6
Continuous
 62
     7
100
AcDbLine
 10
-109.778019
 20
37.450581
 30
0.0
 11
-109.746213
 21
37.471349
 31
0.0
  0
LINE
  5
1B7
100
AcDbEntity
  8
0
390
0
  6
Continuous
 62
     7
100
AcDbLine
 10
-109.810689
 20
37.431495
 30
0.0
 11
-109.778019
 21
37.450581
 31
0.0
  0
LINE
  5
1B8
100
AcDbEntity
  8
0
390
0
  6
Continuous
 62
     7
100
AcDbLine
 10
-109.844403
 20
37.413962
 30
0.0
 11
-109.810689
 21
37.431495
 31
0.0
  0
LINE
  5
1B9
100
AcDbEntity
  8
0
390
0
  6
Continuous
 62
     7
100
AcDbLine
 10
-109.879034
 20
37.39804
 30
0.0
 11
-109.844403
 21
37.413962
 31
0.0
  0
LINE
  5
1BA
100
AcDbEntity
  8
0
390
0
  6
Continuous
 62
     7
100
AcDbLine
 10
-109.914456
 20
37.383787
 30
0.0
 11
-109.879034
 21
37.39804
 31
0.0
  0
LINE
  5
1BB
100
AcDbEntity
  8
0
390
0
  6
Continuous
 62
     7
100
AcDbLine
 10
-109.95054
 20
37.37126
 30
0.0
 11
-109.914456
 21
37.383787
 31
0.0
  0
LINE
  5
1BC
100
AcDbEntity
  8
0
390
0
  6
Continuous
 62
     7
100
AcDbLine
 10
-109.987159
 20
37.360518
 30
0.0
 11
-109.95054
 21
37.37126
 31
0.0
  0
LINE
  5
1BD
100
AcDbEntity
  8
0
390
0
  6
Continuous
 62
     7
100
AcDbLine
 10
-110.024187
 20
37.351616
 30
0.0
 11
-109.987159
 21
37.360518
 31
0.0
  0
LINE
  5
1BE
100
AcDbEntity
  8
0
390
0
  6
Continuous
 62
     7
100
AcDbLine
 10
-110.056353
 20
37.345441
 30
0.0
 11
-110.024187
 21
37.351616
 31
0.0
  0
LINE
  5
1BF
100
AcDbEntity
  8
0
390
0
  6
Continuous
 62
     7
100
AcDbLine
 10
-110.088816
 20
37.340618
 30
0.0
 11
-110.056353
 21
37.345441
 31
0.0
  0
LINE
  5
1C0
100
AcDbEntity
  8
0
390
0
  6
Continuous
 62
     7
100
AcDbLine
 10
-110.121482
 20
37.337159
 30
0.0
 11
-110.088816
 21
37.340618
 31
0.0
  0
LINE
  5
1C1
100
AcDbEntity
  8
0
390
0
  6
Continuous
 62
     7
100
AcDbLine
 10
-110.154258
 20
37.335076
 30
0.0
 11
-110.121482
 21
37.337159
 31
0.0
  0
LINE
  5
1C2
100
AcDbEntity
  8
0
390
0
  6
Continuous
 62
     7
100
AcDbLine
 10
-110.187052
 20
37.334378
 30
0.0
 11
-110.154258
 21
37.335076
 31
0.0
  0
LINE
  5
1C3
100
AcDbEntity
  8
0
390
0
  6
Continuous
 62
     7
100
AcDbLine
 10
-110.683978
 20
37.334378
 30
0.0
 11
-110.187052
 21
37.334378
 31
0.0
  0
LINE
  5
1C4
100
AcDbEntity
  8
0
390
0
  6
Continuous
 62
     7
100
AcDbLine
 10
-110.889522
 20
36.825639
 30
0.0
 11
-110.683978
 21
37.334378
 31
0.0
  0
LINE
  5
1C5
100
AcDbEntity
  8
0
390
0
  6
Continuous
 62
     7
100
AcDbLine
 10
-109.661767
 20
36.825639
 30
0.0
 11
-110.889522
 21
36.825639
 31
0.0
  0
LINE
  5
1C6
100
AcDbEntity
  8
0
390
0
  6
Continuous
 62
     7
100
AcDbLine
 10
-103.918787
 20
25.321947
 30
0.0
 11
-103.918787
 21
40.715751
 31
0.0
  0
ARC
  5
1C7
100
AcDbEntity
  8
0
390
0
  6
Continuous
 62
     7
100
AcDbCircle
 10
-102.418787
 20
25.321947
 30
0.0
 40
1.5
210
0.0
220
0.0
230
1.0
100
AcDbArc
 50
180.0
 51
270.0
  0
LINE
  5
1C8
100
AcDbEntity
  8
0
390
0
  6
Continuous
 62
     7
100
AcDbLine
 10
-100.918787
 20
23.821947
 30
0.0
 11
-102.418787
 21
23.821947
 31
0.0
  0
LINE
  5
1C9
100
AcDbEntity
  8
0
390
0
  6
Continuous
 62
     7
100
AcDbLine
 10
-100.918787
 20
23.821947
 30
0.0
 11
-100.918787
 21
39.727721
 31
0.0
  0
ARC
  5
1CA
100
AcDbEntity
  8
0
390
0
  6
Continuous
 62
     7
100
AcDbCircle
 10
-113.418787
 20
6.821947
 30
0.0
 40
35.2
210
0.0
220
0.0
230
1.0
100
AcDbArc
 50
69.199591
 51
74.342495
  0
LINE
  5
1CB
100
AcDbEntity
  8
0
390
0
  6
Continuous
 62
     7
100
AcDbLine
 10
-125.918787
 20
39.727721
 30
0.0
 11
-125.918787
 21
23.821947
 31
0.0
  0
LINE
  5
1CC
100
AcDbEntity
  8
0
390
0
  6
Continuous
 62
     7
100
AcDbLine
 10
-124.418787
 20
23.821947
 30
0.0
 11
-125.918787
 21
23.821947
 31
0.0
  0
ARC
  5
1CD
100
AcDbEntity
  8
0
390
0
  6
Continuous
 62
     7
100
AcDbCircle
 10
-124.418787
 20
25.321947
 30
0.0
 40
1.5
210
0.0
220
0.0
230
1.0
100
AcDbArc
 50
270.0
 51
360.0
  0
LINE
  5
1CE
100
AcDbEntity
  8
0
390
0
  6
Continuous
 62
     7
100
AcDbLine
 10
-122.918787
 20
40.715751
 30
0.0
 11
-122.918787
 21
25.321947
 31
0.0
  0
ARC
  5
1CF
100
AcDbEntity
  8
0
390
0
  6
Continuous
 62
     7
100
AcDbCircle
 10
-113.418787
 20
6.821947
 30
0.0
 40
35.2
210
0.0
220
0.0
230
0.9999999999999999
100
AcDbArc
 50
105.657505
 51
110.800409
  0
ARC
  5
1D0
100
AcDbEntity
  8
0
390
0
  6
Continuous
 62
     7
100
AcDbCircle
 10
-113.418787
 20
6.821947
 30
0.0
 40
36.4
210
0.0
220
0.0
230
1.0
100
AcDbArc
 50
68.976117
 51
111.023883
  0
ARC
  5
1D1
100
AcDbEntity
  8
0
390
0
  6
Continuous
 62
     7
100
AcDbCircle
 10
-100.718787
 20
39.865403
 30
0.0
 40
1.0
210
0.0
220
0.0
230
1.0
100
AcDbArc
 50
0.0
 51
68.976117
  0
LINE
  5
1D2
100
AcDbEntity
  8
0
390
0
  6
Continuous
 62
     7
100
AcDbLine
 10
-99.718787
 20
20.821947
 30
0.0
 11
-99.718787
 21
39.865403
 31
0.0
  0
LINE
  5
1D3
100
AcDbEntity
  8
0
390
0
  6
Continuous
 62
     7
100
AcDbLine
 10
-127.118787
 20
20.821947
 30
0.0
 11
-99.718787
 21
20.821947
 31
0.0
  0
LINE
  5
1D4
100
AcDbEntity
  8
0
390
0
  6
Continuous
 62
     7
100
AcDbLine
 10
-127.118787
 20
39.865403
 30
0.0
 11
-127.118787
 21
20.821947
 31
0.0
  0
ARC
  5
1D5
100
AcDbEntity
  8
0
390
0
  6
Continuous
 62
     7
100
AcDbCircle
 10
-126.118787
 20
39.865403
 30
0.0
 40
1.0
210
0.0
220
0.0
230
1.0
100
AcDbArc
 50
111.023883
 51
180.0
  0
LINE
  5
1D6
100
AcDbEntity
  8
0
390
0
  6
Continuous
 62
     7
100
AcDbLine
 10
-114.050138
 20
36.825639
 30
0.0
 11
-115.46375
 21
40.324078
 31
0.0
  0
LINE
  5
1D7
100
AcDbEntity
  8
0
390
0
  6
Continuous
 62
     7
100
AcDbLine
 10
-113.146118
 20
36.825639
 30
0.0
 11
-114.050138
 21
36.825639
 31
0.0
  0
LINE
  5
1D8
100
AcDbEntity
  8
0
390
0
  6
Continuous
 62
     7
100
AcDbLine
 10
-114.559731
 20
40.324078
 30
0.0
 11
-113.146118
 21
36.825639
 31
0.0
  0
LINE
  5
1D9
100
AcDbEntity
  8
0
390
0
  6
Continuous
 62
     7
100
AcDbLine
 10
-115.46375
 20
40.324078
 30
0.0
 11
-114.559731
 21
40.324078
 31
0.0
  0
LINE
  5
1DA
100
AcDbEntity
  8
0
390
0
  6
Continuous
 62
     7
100
AcDbLine
 10
-117.2945
 20
39.448676
 30
0.0
 11
-116.561518
 21
37.633645
 31
0.0
  0
LINE
  5
1DB
100
AcDbEntity
  8
0
390
0
  6
Continuous
 62
     7
100
AcDbLine
 10
-118.354139
 20
36.825639
 30
0.0
 11
-117.2945
 21
39.448676
 31
0.0
  0
LINE
  5
1DC
100
AcDbEntity
  8
0
390
0
  6
Continuous
 62
     7
100
AcDbLine
 10
-117.450382
 20
36.825639
 30
0.0
 11
-118.354139
 21
36.825639
 31
0.0
  0
LINE
  5
1DD
100
AcDbEntity
  8
0
390
0
  6
Continuous
 62
     7
100
AcDbLine
 10
-117.123689
 20
37.633645
 30
0.0
 11
-117.450382
 21
36.825639
 31
0.0
  0
LINE
  5
1DE
100
AcDbEntity
  8
0
390
0
  6
Continuous
 62
     7
100
AcDbLine
 10
-116.561518
 20
37.633645
 30
0.0
 11
-117.123689
 21
37.633645
 31
0.0
  0
LINE
  5
1DF
100
AcDbEntity
  8
0
390
0
  6
Continuous
 62
     7
100
AcDbLine
 10
-103.418787
 20
39.639371
 30
0.0
 11
-103.418787
 21
40.571613
 31
0.0
  0
LINE
  5
1E0
100
AcDbEntity
  8
0
390
0
  6
Continuous
 62
     7
100
AcDbLine
 10
-123.418787
 20
39.639371
 30
0.0
 11
-123.418787
 21
40.571613
 31
0.0
  0
LINE
  5
1E1
100
AcDbEntity
  8
0
390
0
  6
Continuous
 62
     7
100
AcDbLine
 10
-109.983553
 20
77.601947
 30
0.0
 11
-109.983553
 21
68.601947
 31
0.0
  0
LINE
  5
1E2
100
AcDbEntity
  8
0
390
0
  6
Continuous
 62
     7
100
AcDbLine
 10
-109.983553
 20
77.601947
 30
0.0
 11
-106.548319
 21
77.601947
 31
0.0
  0
LINE
  5
1E3
100
AcDbEntity
  8
0
390
0
  6
Continuous
 62
     7
100
AcDbLine
 10
-106.548319
 20
77.601947
 30
0.0
 11
-106.548319
 21
68.601957
 31
0.0
  0
LINE
  5
1E4
100
AcDbEntity
  8
0
390
0
  6
Continuous
 62
     7
100
AcDbLine
 10
-116.854021
 20
77.601947
 30
0.0
 11
-116.854021
 21
68.601947
 31
0.0
  0
LINE
  5
1E5
100
AcDbEntity
  8
0
390
0
  6
Continuous
 62
     7
100
AcDbLine
 10
-116.854021
 20
77.601947
 30
0.0
 11
-109.983553
 21
77.601947
 31
0.0
  0
LINE
  5
1E6
100
AcDbEntity
  8
0
390
0
  6
Continuous
 62
     7
100
AcDbLine
 10
-120.289256
 20
77.601947
 30
0.0
 11
-120.289256
 21
68.601957
 31
0.0
  0
LINE
  5
1E7
100
AcDbEntity
  8
0
390
0
  6
Continuous
 62
     7
100
AcDbLine
 10
-120.289256
 20
77.601947
 30
0.0
 11
-116.854021
 21
77.601947
 31
0.0
  0
ARC
  5
1E8
100
AcDbEntity
  8
0
390
0
  6
Continuous
 62
     7
100
AcDbCircle
 10
-106.847591
 20
57.351785
 30
0.0
 40
9.227684
210
0.0
220
0.0
230
1.0
100
AcDbArc
 50
177.851345
 51
189.45001
  0
LINE
  5
1E9
100
AcDbEntity
  8
0
390
0
  6
Continuous
 62
     7
100
AcDbLine
 10
-116.068787
 20
57.697753
 30
0.0
 11
-116.068787
 21
61.601947
 31
0.0
  0
LINE
  5
1EA
100
AcDbEntity
  8
0
390
0
  6
Continuous
 62
     7
100
AcDbLine
 10
-115.53125
 20
61.601947
 30
0.0
 11
-116.068787
 21
61.601947
 31
0.0
  0
LINE
  5
1EB
100
AcDbEntity
  8
0
390
0
  6
Continuous
 62
     7
100
AcDbLine
 10
-110.768787
 20
61.601947
 30
0.0
 11
-111.306324
 21
61.601947
 31
0.0
  0
LINE
  5
1EC
100
AcDbEntity
  8
0
390
0
  6
Continuous
 62
     7
100
AcDbLine
 10
-110.768787
 20
57.697753
 30
0.0
 11
-110.768787
 21
61.601947
 31
0.0
  0
ARC
  5
1ED
100
AcDbEntity
  8
0
390
0
  6
Continuous
 62
     7
100
AcDbCircle
 10
-119.417617
 20
57.315267
 30
0.0
 40
8.657284
210
0.0
220
0.0
230
1.0
100
AcDbArc
 50
350.166447
 51
2.532198
  0
ELLIPSE
  5
1EE
100
AcDbEntity
  8
0
390
0
  6
Continuous
 62
     7
100
AcDbEllipse
 10
-113.418787
 20
56.601947
 30
0.0
 11
-2.6499999999999719
 21
0.0000000023986924
 31
0.0
210
0.0
220
0.0
230
0.9999999999999999
 40
0.97561
 41
0.3004856826267622
 42
2.8411069725491154
  0
LINE
  5
1EF
100
AcDbEntity
  8
0
390
0
  6
Continuous
 62
     7
100
AcDbLine
 10
-125.918787
 20
55.836719
 30
0.0
 11
-125.918787
 21
57.697753
 31
0.0
  0
LINE
  5
1F0
100
AcDbEntity
  8
0
390
0
  6
Continuous
 62
     7
100
AcDbLine
 10
-116.068787
 20
57.697753
 30
0.0
 11
-125.918787
 21
57.697753
 31
0.0
  0
LINE
  5
1F1
100
AcDbEntity
  8
0
390
0
  6
Continuous
 62
     7
100
AcDbLine
 10
-115.950048
 20
55.836719
 30
0.0
 11
-125.918787
 21
55.836719
 31
0.0
  0
LINE
  5
1F2
100
AcDbEntity
  8
0
390
0
  6
Continuous
 62
     7
100
AcDbLine
 10
-100.918787
 20
55.836719
 30
0.0
 11
-100.918787
 21
57.697753
 31
0.0
  0
LINE
  5
1F3
100
AcDbEntity
  8
0
390
0
  6
Continuous
 62
     7
100
AcDbLine
 10
-100.918787
 20
55.836719
 30
0.0
 11
-110.887526
 21
55.836719
 31
0.0
  0
LINE
  5
1F4
100
AcDbEntity
  8
0
390
0
  6
Continuous
 62
     7
100
AcDbLine
 10
-100.918787
 20
57.697753
 30
0.0
 11
-110.768787
 21
57.697753
 31
0.0
  0
LINE
  5
1F5
100
AcDbEntity
  8
0
390
0
  6
Continuous
 62
     7
100
AcDbLine
 10
-100.918787
 20
47.156093
 30
0.0
 11
-100.918787
 21
41.008348
 31
0.0
  0
LINE
  5
1F6
100
AcDbEntity
  8
0
390
0
  6
Continuous
 62
     7
100
AcDbLine
 10
-100.918787
 20
47.156093
 30
0.0
 11
-100.918787
 21
47.871875
 31
0.0
  0
LINE
  5
1F7
100
AcDbEntity
  8
0
390
0
  6
Continuous
 62
     7
100
AcDbLine
 10
-100.918787
 20
47.871875
 30
0.0
 11
-100.918787
 21
55.836719
 31
0.0
  0
LINE
  5
1F8
100
AcDbEntity
  8
0
390
0
  6
Continuous
 62
     7
100
AcDbLine
 10
-100.918787
 20
57.697753
 30
0.0
 11
-100.918787
 21
66.001947
 31
0.0
  0
LINE
  5
1F9
100
AcDbEntity
  8
0
390
0
  6
Continuous
 62
     7
100
AcDbLine
 10
-100.918787
 20
66.001947
 30
0.0
 11
-100.918787
 21
68.601947
 31
0.0
  0
LINE
  5
1FA
100
AcDbEntity
  8
0
390
0
  6
Continuous
 62
     7
100
AcDbLine
 10
-100.918787
 20
67.001947
 30
0.0
 11
-100.918787
 21
66.001947
 31
0.0
  0
LINE
  5
1FB
100
AcDbEntity
  8
0
390
0
  6
Continuous
 62
     7
100
AcDbLine
 10
-100.918787
 20
68.601947
 30
0.0
 11
-100.918787
 21
67.001947
 31
0.0
  0
LINE
  5
1FC
100
AcDbEntity
  8
0
390
0
  6
Continuous
 62
     7
100
AcDbLine
 10
-100.918787
 20
57.697753
 30
0.0
 11
-100.918787
 21
66.001947
 31
0.0
  0
LINE
  5
1FD
100
AcDbEntity
  8
0
390
0
  6
Continuous
 62
     7
100
AcDbLine
 10
-100.918787
 20
57.697753
 30
0.0
 11
-100.918787
 21
55.836719
 31
0.0
  0
LINE
  5
1FE
100
AcDbEntity
  8
0
390
0
  6
Continuous
 62
     7
100
AcDbLine
 10
-100.918787
 20
47.871875
 30
0.0
 11
-100.918787
 21
55.836719
 31
0.0
  0
LINE
  5
1FF
100
AcDbEntity
  8
0
390
0
  6
Continuous
 62
     7
100
AcDbLine
 10
-100.918787
 20
47.871875
 30
0.0
 11
-100.918787
 21
47.156093
 31
0.0
  0
LINE
  5
200
100
AcDbEntity
  8
0
390
0
  6
Continuous
 62
     7
100
AcDbLine
 10
-100.918787
 20
47.156093
 30
0.0
 11
-100.918787
 21
41.008348
 31
0.0
  0
LINE
  5
201
100
AcDbEntity
  8
0
390
0
  6
Continuous
 62
     7
100
AcDbLine
 10
-100.918787
 20
41.008348
 30
0.0
 11
-100.918787
 21
47.156093
 31
0.0
  0
LINE
  5
202
100
AcDbEntity
  8
0
390
0
  6
Continuous
 62
     7
100
AcDbLine
 10
-100.918787
 20
47.156093
 30
0.0
 11
-100.918787
 21
49.017126
 31
0.0
  0
LINE
  5
203
100
AcDbEntity
  8
0
390
0
  6
Continuous
 62
     7
100
AcDbLine
 10
-100.918787
 20
56.981971
 30
0.0
 11
-100.918787
 21
49.017126
 31
0.0
  0
LINE
  5
204
100
AcDbEntity
  8
0
390
0
  6
Continuous
 62
     7
100
AcDbLine
 10
-100.918787
 20
56.981971
 30
0.0
 11
-100.918787
 21
57.697752
 31
0.0
  0
LINE
  5
205
100
AcDbEntity
  8
0
390
0
  6
Continuous
 62
     7
100
AcDbLine
 10
-100.918787
 20
66.001947
 30
0.0
 11
-100.918787
 21
57.697752
 31
0.0
  0
LINE
  5
206
100
AcDbEntity
  8
0
390
0
  6
Continuous
 62
     7
100
AcDbLine
 10
-100.918787
 20
66.001947
 30
0.0
 11
-100.918787
 21
67.001947
 31
0.0
  0
LINE
  5
207
100
AcDbEntity
  8
0
390
0
  6
Continuous
 62
     7
100
AcDbLine
 10
-100.918787
 20
67.001947
 30
0.0
 11
-100.918787
 21
66.001947
 31
0.0
  0
LINE
  5
208
100
AcDbEntity
  8
0
390
0
  6
Continuous
 62
     7
100
AcDbLine
 10
-100.918787
 20
66.001947
 30
0.0
 11
-100.918787
 21
57.697752
 31
0.0
  0
LINE
  5
209
100
AcDbEntity
  8
0
390
0
  6
Continuous
 62
     7
100
AcDbLine
 10
-100.918787
 20
57.697752
 30
0.0
 11
-100.918787
 21
56.981971
 31
0.0
  0
LINE
  5
20A
100
AcDbEntity
  8
0
390
0
  6
Continuous
 62
     7
100
AcDbLine
 10
-100.918787
 20
56.981971
 30
0.0
 11
-100.918787
 21
49.017126
 31
0.0
  0
LINE
  5
20B
100
AcDbEntity
  8
0
390
0
  6
Continuous
 62
     7
100
AcDbLine
 10
-100.918787
 20
49.017126
 30
0.0
 11
-100.918787
 21
47.156093
 31
0.0
  0
LINE
  5
20C
100
AcDbEntity
  8
0
390
0
  6
Continuous
 62
     7
100
AcDbLine
 10
-100.918787
 20
41.008348
 30
0.0
 11
-100.918787
 21
47.156093
 31
0.0
  0
LINE
  5
20D
100
AcDbEntity
  8
0
390
0
  6
Continuous
 62
     7
100
AcDbLine
 10
-125.918787
 20
57.697753
 30
0.0
 11
-125.918787
 21
66.001947
 31
0.0
  0
LINE
  5
20E
100
AcDbEntity
  8
0
390
0
  6
Continuous
 62
     7
100
AcDbLine
 10
-100.918787
 20
66.001947
 30
0.0
 11
-125.918787
 21
66.001947
 31
0.0
  0
LINE
  5
20F
100
AcDbEntity
  8
0
390
0
  6
Continuous
 62
     7
100
AcDbLine
 10
-116.068787
 20
61.601947
 30
0.0
 11
-110.768787
 21
61.601947
 31
0.0
  0
LINE
  5
210
100
AcDbEntity
  8
0
390
0
  6
Continuous
 62
     7
100
AcDbLine
 10
-115.53125
 20
61.601947
 30
0.0
 11
-111.306324
 21
61.601947
 31
0.0
  0
LINE
  5
211
100
AcDbEntity
  8
0
390
0
  6
Continuous
 62
     7
100
AcDbLine
 10
-100.918787
 20
68.601947
 30
0.0
 11
-125.918787
 21
68.601947
 31
0.0
  0
LINE
  5
212
100
AcDbEntity
  8
0
390
0
  6
Continuous
 62
     7
100
AcDbLine
 10
-125.918787
 20
66.001947
 30
0.0
 11
-125.918787
 21
68.601947
 31
0.0
  0
LINE
  5
213
100
AcDbEntity
  8
0
390
0
  6
Continuous
 62
     7
100
AcDbLine
 10
-125.918787
 20
47.871875
 30
0.0
 11
-100.918787
 21
47.871875
 31
0.0
  0
LINE
  5
214
100
AcDbEntity
  8
0
390
0
  6
Continuous
 62
     7
100
AcDbLine
 10
-125.918787
 20
47.871875
 30
0.0
 11
-125.918787
 21
55.836719
 31
0.0
  0
LINE
  5
215
100
AcDbEntity
  8
0
390
0
  6
Continuous
 62
     7
100
AcDbLine
 10
-106.548319
 20
68.601957
 30
0.0
 11
-105.918787
 21
68.601957
 31
0.0
  0
LINE
  5
216
100
AcDbEntity
  8
0
390
0
  6
Continuous
 62
     7
100
AcDbLine
 10
-120.918787
 20
68.601957
 30
0.0
 11
-120.289256
 21
68.601957
 31
0.0
  0
LINE
  5
217
100
AcDbEntity
  8
0
390
0
  6
Continuous
 62
     7
100
AcDbLine
 10
-100.918787
 20
47.156093
 30
0.0
 11
-125.918787
 21
47.156093
 31
0.0
  0
LINE
  5
218
100
AcDbEntity
  8
0
390
0
  6
Continuous
 62
     7
100
AcDbLine
 10
-125.918787
 20
47.871875
 30
0.0
 11
-125.918787
 21
47.156093
 31
0.0
  0
LINE
  5
219
100
AcDbEntity
  8
0
390
0
  6
Continuous
 62
     7
100
AcDbLine
 10
-125.918787
 20
47.156093
 30
0.0
 11
-125.918787
 21
41.008348
 31
0.0
  0
LINE
  5
21A
100
AcDbEntity
  8
0
390
0
  6
Continuous
 62
     7
100
AcDbLine
 10
-119.918787
 20
18.558185
 30
0.0
 11
-119.918787
 21
-13.030621
 31
0.0
  0
LINE
  5
21B
100
AcDbEntity
  8
0
390
0
  6
Continuous
 62
     7
100
AcDbLine
 10
-119.918787
 20
18.558185
 30
0.0
 11
-106.918787
 21
18.558185
 31
0.0
  0
LINE
  5
21C
100
AcDbEntity
  8
0
390
0
  6
Continuous
 62
     7
100
AcDbLine
 10
-106.918787
 20
-13.030621
 30
0.0
 11
-106.918787
 21
18.558185
 31
0.0
  0
LINE
  5
21D
100
AcDbEntity
  8
0
390
0
  6
Continuous
 62
     7
100
AcDbLine
 10
-119.918787
 20
-13.030621
 30
0.0
 11
-106.918787
 21
-13.030621
 31
0.0
  0
LINE
  5
21E
100
AcDbEntity
  8
0
390
0
  6
Continuous
 62
     7
100
AcDbLine
 10
-119.918787
 20
-13.030621
 30
0.0
 11
-120.918787
 21
-12.363581
 31
0.0
  0
LINE
  5
21F
100
AcDbEntity
  8
0
390
0
  6
Continuous
 62
     7
100
AcDbLine
 10
-120.918787
 20
-12.363581
 30
0.0
 11
-120.918787
 21
17.502464
 31
0.0
  0
LINE
  5
220
100
AcDbEntity
  8
0
390
0
  6
Continuous
 62
     7
100
AcDbLine
 10
-120.918787
 20
17.502464
 30
0.0
 11
-119.918787
 21
18.558185
 31
0.0
  0
LINE
  5
221
100
AcDbEntity
  8
0
390
0
  6
Continuous
 62
     7
100
AcDbLine
 10
-105.918787
 20
17.502464
 30
0.0
 11
-105.918787
 21
-12.363581
 31
0.0
  0
LINE
  5
222
100
AcDbEntity
  8
0
390
0
  6
Continuous
 62
     7
100
AcDbLine
 10
-105.918787
 20
-12.363581
 30
0.0
 11
-106.918787
 21
-13.030621
 31
0.0
  0
LINE
  5
223
100
AcDbEntity
  8
0
390
0
  6
Continuous
 62
     7
100
AcDbLine
 10
-106.918787
 20
18.558185
 30
0.0
 11
-105.918787
 21
17.502464
 31
0.0
  0
LINE
  5
224
100
AcDbEntity
  8
0
390
0
  6
Continuous
 62
     7
100
AcDbLine
 10
-127.418787
 20
-18.035
 30
0.0
 11
-127.418787
 21
16.972072
 31
0.0
  0
LINE
  5
225
100
AcDbEntity
  8
0
390
0
  6
Continuous
 62
     7
100
AcDbLine
 10
-99.418787
 20
-18.035
 30
0.0
 11
-99.418787
 21
16.972072
 31
0.0
  0
LINE
  5
226
100
AcDbEntity
  8
0
390
0
  6
Continuous
 62
     7
100
AcDbLine
 10
-127.418787
 20
16.972072
 30
0.0
 11
-120.918787
 21
16.972072
 31
0.0
  0
ARC
  5
227
100
AcDbEntity
  8
0
390
0
  6
Continuous
 62
     7
100
AcDbCircle
 10
-115.74243
 20
-12.892408
 30
0.0
 40
5.549893
210
0.0
220
0.0
230
1.0
100
AcDbArc
 50
201.141113
 51
221.191614
  0
LINE
  5
228
100
AcDbEntity
  8
0
390
0
  6
Continuous
 62
     7
100
AcDbLine
 10
-106.918787
 20
-16.547452
 30
0.0
 11
-119.918787
 21
-16.547452
 31
0.0
  0
ARC
  5
229
100
AcDbEntity
  8
0
390
0
  6
Continuous
 62
     7
100
AcDbCircle
 10
-111.143296
 20
-12.863284
 30
0.0
 40
5.605316
210
0.0
220
0.0
230
1.0
100
AcDbArc
 50
318.908521
 51
338.758751
  0
LINE
  5
22A
100
AcDbEntity
  8
0
390
0
  6
Continuous
 62
     7
100
AcDbLine
 10
-105.918787
 20
16.972072
 30
0.0
 11
-99.418787
 21
16.972072
 31
0.0
  0
LINE
  5
22B
100
AcDbEntity
  8
0
390
0
  6
Continuous
 62
     7
100
AcDbLine
 10
-106.918787
 20
-16.547452
 30
0.0
 11
-106.918787
 21
-13.030621
 31
0.0
  0
LINE
  5
22C
100
AcDbEntity
  8
0
390
0
  6
Continuous
 62
     7
100
AcDbLine
 10
-105.918787
 20
-12.363581
 30
0.0
 11
-105.918787
 21
-14.894066
 31
0.0
  0
LINE
  5
22D
100
AcDbEntity
  8
0
390
0
  6
Continuous
 62
     7
100
AcDbLine
 10
-119.918787
 20
-13.030621
 30
0.0
 11
-119.918787
 21
-16.547452
 31
0.0
  0
LINE
  5
22E
100
AcDbEntity
  8
0
390
0
  6
Continuous
 62
     7
100
AcDbLine
 10
-120.918787
 20
-14.894066
 30
0.0
 11
-120.918787
 21
-12.363581
 31
0.0
  0
LINE
  5
22F
100
AcDbEntity
  8
0
390
0
  6
Continuous
 62
     7
100
AcDbLine
 10
-127.418787
 20
20.821947
 30
0.0
 11
-127.118787
 21
20.821947
 31
0.0
  0
LINE
  5
230
100
AcDbEntity
  8
0
390
0
  6
Continuous
 62
     7
100
AcDbLine
 10
-99.718787
 20
20.821947
 30
0.0
 11
-99.418787
 21
20.821947
 31
0.0
  0
LINE
  5
231
100
AcDbEntity
  8
0
390
0
  6
Continuous
 62
     7
100
AcDbLine
 10
-127.418787
 20
16.972072
 30
0.0
 11
-127.418787
 21
20.821947
 31
0.0
  0
LINE
  5
232
100
AcDbEntity
  8
0
390
0
  6
Continuous
 62
     7
100
AcDbLine
 10
-99.418787
 20
16.972072
 30
0.0
 11
-99.418787
 21
20.821947
 31
0.0
  0
ARC
  5
233
100
AcDbEntity
  8
0
390
0
  6
Continuous
 62
     7
100
AcDbCircle
 10
-113.418787
 20
17.821947
 30
0.0
 40
24.0
210
0.0
220
0.0
230
1.0
100
AcDbArc
 50
113.317957
 51
121.388166
  0
ARC
  5
234
100
AcDbEntity
  8
0
390
0
  6
Continuous
 62
     7
100
AcDbCircle
 10
-113.418787
 20
17.821947
 30
0.0
 40
24.0
210
0.0
220
0.0
230
0.9999999999999999
100
AcDbArc
 50
58.611834
 51
66.682043
  0
LINE
  5
235
100
AcDbEntity
  8
0
390
0
  6
Continuous
 62
     7
100
AcDbLine
 10
-127.418787
 20
-18.035
 30
0.0
 11
-99.418787
 21
-18.035
 31
0.0
  0
POINT
  5
236
100
AcDbEntity
  8
0
390
0
 62
     7
100
AcDbPoint
 10
0.0
 20
0.0
 30
0.0
  0
POINT
  5
237
100
AcDbEntity
  8
0
390
0
 62
     7
100
AcDbPoint
 10
0.0
 20
0.0
 30
0.0
  0
ENDSEC
  0
SECTION
  2
OBJECTS
  0
DICTIONARY
  5
19
100
AcDbDictionary
280
     0
281
     1
  3
ACAD_GROUP
350
1A
  3
ACAD_MLINESTYLE
350
1B
  3
ACAD_LAYOUT
350
1E
  3
ACAD_PLOTSETTINGS
350
22
  3
ACAD_PLOTSTYLENAME
350
1F
  3
ACAD_WIPEOUT_VARS
350
23
  0
DICTIONARY
  5
1A
102
{ACAD_REACTORS
330
19
102
}
100
AcDbDictionary
280
     0
281
     1
  0
DICTIONARY
  5
1B
102
{ACAD_REACTORS
330
19
102
}
100
AcDbDictionary
280
     0
281
     1
  3
Standard
350
1C
  0
MLINESTYLE
  5
1C
102
{ACAD_REACTORS
330
1B
102
}
100
AcDbMlineStyle
  2
Standard
 70
     0
  3

 62
     0
 51
90.0
 52
90.0
 71
     2
 49
0.5
 62
   256
  6
ByLayer
 49
-0.5
 62
   256
  6
ByLayer
  0
ACDBDICTIONARYWDFLT
  5
1F
102
{ACAD_REACTORS
330
19
102
}
100
AcDbDictionary
281
     1
  3
Normal
350
1D
100
AcDbDictionaryWithDefault
340
1D
  0
ACDBPLACEHOLDER
  5
1D
102
{ACAD_REACTORS
330
1F
102
}
  0
LAYOUT
  5
20
102
{ACAD_REACTORS
330
1E
102
}
100
AcDbPlotSettings
  1

  2

  4

  6

 40
0.0
 41
0.0
 42
0.0
 43
0.0
 44
0.0
 45
0.0
 46
0.0
 47
0.0
 48
0.0
 49
0.0
140
0.0
141
0.0
142
1.0
143
1.0
 70
  1024
 72
     0
 73
     0
 74
     0
  7

 75
     0
147
1.0
148
0.0
149
0.0
100
AcDbLayout
  1
Model
 70
     0
 71
     1
 10
0.0
 20
0.0
 11
0.0
 21
0.0
 12
0.0
 22
0.0
 32
0.0
 14
0.0
 24
0.0
 34
0.0
 15
0.0
 25
0.0
 35
0.0
146
0.0
 13
0.0
 23
0.0
 33
0.0
 16
0.0
 26
0.0
 36
0.0
 17
0.0
 27
0.0
 37
0.0
 76
     0
330
A
331
0
345
0
346
0
  0
LAYOUT
  5
21
102
{ACAD_REACTORS
330
1E
102
}
100
AcDbPlotSettings
  1

  2

  4

  6

 40
0.0
 41
0.0
 42
0.0
 43
0.0
 44
0.0
 45
0.0
 46
0.0
 47
0.0
 48
0.0
 49
0.0
140
0.0
141
0.0
142
1.0
143
1.0
 70
     0
 72
     0
 73
     0
 74
     0
  7

 75
     0
147
1.0
148
0.0
149
0.0
100
AcDbLayout
  1
Layout1
 70
     0
 71
     2
 10
0.0
 20
0.0
 11
0.0
 21
0.0
 12
0.0
 22
0.0
 32
0.0
 14
0.0
 24
0.0
 34
0.0
 15
0.0
 25
0.0
 35
0.0
146
0.0
 13
0.0
 23
0.0
 33
0.0
 16
0.0
 26
0.0
 36
0.0
 17
0.0
 27
0.0
 37
0.0
 76
     0
330
B
331
0
345
0
346
0
  0
DICTIONARY
  5
1E
102
{ACAD_REACTORS
330
19
102
}
100
AcDbDictionary
280
     0
281
     1
  3
Layout1
350
21
  3
Model
350
20
  0
DICTIONARY
  5
22
102
{ACAD_REACTORS
330
19
102
}
100
AcDbDictionary
280
     0
281
     1
  0
WIPEOUTVARIABLES
  5
23
100
AcDbWipeoutVariables
 70
     1
  0
ENDSEC
  0
EOF
