  0
SECTION
  2
HEADER
  9
$ACADVER
  1
AC1015
  9
$ACADMAINTVER
 70
     6
  9
$DWGCODEPAGE
  3
DOS932
  9
$INSBASE
 10
0.0
 20
0.0
 30
0.0
  9
$EXTMIN
 10
-11.5
 20
-59.983619
 30
0.0
  9
$EXTMAX
 10
293.448002
 20
259.664106
 30
9.906
  9
$LIMMIN
 10
-11.5
 20
-59.983619
  9
$LIMMAX
 10
293.448002
 20
259.664106
  9
$ORTHOMODE
 70
     0
  9
$REGENMODE
 70
     1
  9
$FILLMODE
 70
     1
  9
$QTEXTMODE
 70
     0
  9
$MIRRTEXT
 70
     1
  9
$LTSCALE
 40
10.0
  9
$ATTMODE
 70
     1
  9
$TEXTSIZE
 40
0.2
  9
$TRACEWID
 40
0.05
  9
$TEXTSTYLE
  7
Standard
  9
$CLAYER
  8
0
  9
$CELTYPE
  6
Continuous
  9
$CECOLOR
 62
   256
  9
$CELTSCALE
 40
1.0
  9
$DISPSILH
 70
     0
  9
$DIMSCALE
 40
1.0
  9
$DIMASZ
 40
1.40208
  9
$DIMEXO
 40
1.40208
  9
$DIMDLI
 40
0.38
  9
$DIMRND
 40
0.0
  9
$DIMDLE
 40
0.0
  9
$DIMEXE
 40
1.05156
  9
$DIMTP
 40
0.0
  9
$DIMTM
 40
0.0
  9
$DIMTXT
 40
3.5052
  9
$DIMCEN
 40
0.09
  9
$DIMTSZ
 40
0.0
  9
$DIMTOL
 70
     0
  9
$DIMLIM
 70
     0
  9
$DIMTIH
 70
     0
  9
$DIMTOH
 70
     0
  9
$DIMSE1
 70
     0
  9
$DIMSE2
 70
     0
  9
$DIMTAD
 70
     1
  9
$DIMZIN
 70
     0
  9
$DIMBLK
  1

  9
$DIMASO
 70
     1
  9
$DIMSHO
 70
     1
  9
$DIMPOST
  1

  9
$DIMAPOST
  1

  9
$DIMALT
 70
     0
  9
$DIMALTD
 70
     2
  9
$DIMALTF
 40
25.4
  9
$DIMLFAC
 40
1.0
  9
$DIMTOFL
 70
     0
  9
$DIMTVP
 40
0.0
  9
$DIMTIX
 70
     0
  9
$DIMSOXD
 70
     0
  9
$DIMSAH
 70
     0
  9
$DIMBLK1
  1

  9
$DIMBLK2
  1

  9
$DIMSTYLE
  2
Standard
  9
$DIMCLRD
 70
     7
  9
$DIMCLRE
 70
     7
  9
$DIMCLRT
 70
     7
  9
$DIMTFAC
 40
0.5
  9
$DIMGAP
 40
1.7526
  9
$DIMJUST
 70
     0
  9
$DIMSD1
 70
     0
  9
$DIMSD2
 70
     0
  9
$DIMTOLJ
 70
     1
  9
$DIMTZIN
 70
     0
  9
$DIMALTZ
 70
     0
  9
$DIMALTTZ
 70
     0
  9
$DIMUPT
 70
     0
  9
$DIMDEC
 70
     2
  9
$DIMTDEC
 70
     4
  9
$DIMALTU
 70
     2
  9
$DIMALTTD
 70
     2
  9
$DIMTXSTY
  7
Standard
  9
$DIMAUNIT
 70
     0
  9
$DIMADEC
 70
     0
  9
$DIMALTRND
 40
0.0
  9
$DIMAZIN
 70
     0
  9
$DIMDSEP
 70
     0
  9
$DIMATFIT
 70
     3
  9
$DIMFRAC
 70
     0
  9
$DIMLDRBLK
  1

  9
$DIMLUNIT
 70
     2
  9
$DIMLWD
 70
     0
  9
$DIMLWE
 70
     0
  9
$DIMTMOVE
 70
     0
  9
$LUNITS
 70
     2
  9
$LUPREC
 70
     4
  9
$SKETCHINC
 40
0.1
  9
$FILLETRAD
 40
0.0
  9
$AUNITS
 70
     0
  9
$AUPREC
 70
     0
  9
$MENU
  1
acad
  9
$ELEVATION
 40
0.0
  9
$PELEVATION
 40
0.0
  9
$THICKNESS
 40
0.0
  9
$LIMCHECK
 70
     0
  9
$CHAMFERA
 40
0.0
  9
$CHAMFERB
 40
0.0
  9
$CHAMFERC
 40
0.0
  9
$CHAMFERD
 40
0.0
  9
$SKPOLY
 70
     0
  9
$TDCREATE
 40
2459780.728090278
  9
$TDUCREATE
 40
0.000000000
  9
$TDUPDATE
 40
2459780.353055555
  9
$TDUUPDATE
 40
0.000000000
  9
$TDINDWG
 40
0.0000000000
  9
$TDUSRTIMER
 40
0.0000000000
  9
$USRTIMER
 70
     1
  9
$ANGBASE
 50
0.0
  9
$ANGDIR
 70
     0
  9
$PDMODE
 70
     0
  9
$PDSIZE
 40
0.0
  9
$PLINEWID
 40
0.0
  9
$SPLFRAME
 70
     0
  9
$SPLINETYPE
 70
     6
  9
$SPLINESEGS
 70
     8
  9
$HANDSEED
  5
198
  9
$SURFTAB1
 70
     6
  9
$SURFTAB2
 70
     6
  9
$SURFTYPE
 70
     6
  9
$SURFU
 70
     6
  9
$SURFV
 70
     6
  9
$UCSBASE
  2

  9
$UCSNAME
  2

  9
$UCSORG
 10
0.0
 20
0.0
 30
0.0
  9
$UCSXDIR
 10
1.0
 20
0.0
 30
0.0
  9
$UCSYDIR
 10
0.0
 20
1.0
 30
0.0
  9
$UCSORTHOREF
  2

  9
$UCSORTHOVIEW
 70
     0
  9
$UCSORGTOP
 10
0.0
 20
0.0
 30
0.0
  9
$UCSORGBOTTOM
 10
0.0
 20
0.0
 30
0.0
  9
$UCSORGLEFT
 10
0.0
 20
0.0
 30
0.0
  9
$UCSORGRIGHT
 10
0.0
 20
0.0
 30
0.0
  9
$UCSORGFRONT
 10
0.0
 20
0.0
 30
0.0
  9
$UCSORGBACK
 10
0.0
 20
0.0
 30
0.0
  9
$PUCSBASE
  2

  9
$PUCSNAME
  2

  9
$PUCSORG
 10
0.0
 20
0.0
 30
0.0
  9
$PUCSXDIR
 10
1.0
 20
0.0
 30
0.0
  9
$PUCSYDIR
 10
0.0
 20
1.0
 30
0.0
  9
$PUCSORTHOREF
  2

  9
$PUCSORTHOVIEW
 70
     0
  9
$PUCSORGTOP
 10
0.0
 20
0.0
 30
0.0
  9
$PUCSORGBOTTOM
 10
0.0
 20
0.0
 30
0.0
  9
$PUCSORGLEFT
 10
0.0
 20
0.0
 30
0.0
  9
$PUCSORGRIGHT
 10
0.0
 20
0.0
 30
0.0
  9
$PUCSORGFRONT
 10
0.0
 20
0.0
 30
0.0
  9
$PUCSORGBACK
 10
0.0
 20
0.0
 30
0.0
  9
$USERI1
 70
     0
  9
$USERI2
 70
     0
  9
$USERI3
 70
     0
  9
$USERI4
 70
     0
  9
$USERI5
 70
     0
  9
$USERR1
 40
0.0
  9
$USERR2
 40
0.0
  9
$USERR3
 40
0.0
  9
$USERR4
 40
0.0
  9
$USERR5
 40
0.0
  9
$WORLDVIEW
 70
     1
  9
$SHADEDGE
 70
     3
  9
$SHADEDIF
 70
    70
  9
$TILEMODE
 70
     1
  9
$MAXACTVP
 70
    16
  9
$PINSBASE
 10
0.0
 20
0.0
 30
0.0
  9
$PLIMCHECK
 70
     0
  9
$PEXTMIN
 10
1.000000E+20
 20
1.000000E+20
 30
1.000000E+20
  9
$PEXTMAX
 10
-1.000000E+20
 20
-1.000000E+20
 30
-1.000000E+20
  9
$PLIMMIN
 10
0.0
 20
0.0
  9
$PLIMMAX
 10
12.0
 20
9.0
  9
$UNITMODE
 70
     0
  9
$VISRETAIN
 70
     0
  9
$PLINEGEN
 70
     1
  9
$PSLTSCALE
 70
     0
  9
$TREEDEPTH
 70
  3020
  9
$CMLSTYLE
  2
Standard
  9
$CMLJUST
 70
     0
  9
$CMLSCALE
 40
1.0
  9
$PROXYGRAPHICS
 70
     0
  9
$MEASUREMENT
 70
     0
  9
$CELWEIGHT
370
     0
  9
$ENDCAPS
280
     0
  9
$JOINSTYLE
280
     0
  9
$LWDISPLAY
290
     0
  9
$INSUNITS
 70
     0
  9
$HYPERLINKBASE
  1

  9
$STYLESHEET
  1

  9
$XEDIT
290
     1
  9
$CEPSNTYPE
380
     0
  9
$PSTYLEMODE
290
     1
  9
$FINGERPRINTGUID
  2

  9
$VERSIONGUID
  2

  9
$EXTNAMES
290
     1
  9
$PSVPSCALE
 40
0.0
  0
ENDSEC
  0
SECTION
  2
CLASSES
  0
CLASS
  1
LWPOLYLINE
  2
AcDbPolyline
  3
AutoCAD 2000
 90
        0
280
     0
281
     1
  0
CLASS
  1
IMAGE
  2
AcDbRasterImage
  3
ISM
 90
      127
280
     0
281
     1
  0
CLASS
  1
OLE2FRAME
  2
AcDbOle2Frame
  3
AutoCAD 2000
 90
        0
280
     0
281
     1
  0
CLASS
  1
HATCH
  2
AcDbHatch
  3
AutoCAD 2000
 90
        0
280
     0
281
     1
  0
CLASS
  1
DICTIONARYVAR
  2
AcDbDictionaryVar
  3
AutoCAD 2000
 90
        0
280
     0
281
     0
  0
CLASS
  1
RASTERVARIABLES
  2
AcDbRasterVariables
  3
ISM
 90
        0
280
     0
281
     0
  0
CLASS
  1
IMAGEDEF
  2
AcDbRasterImageDef
  3
ISM
 90
        0
280
     0
281
     0
  0
CLASS
  1
IMAGEDEF_REACTOR
  2
AcDbRasterImageDefReactor
  3
ISM
 90
        1
280
     0
281
     0
  0
CLASS
  1
IDBUFFER
  2
AcDbIdBuffer
  3
AutoCAD 2000
 90
        0
280
     0
281
     0
  0
CLASS
  1
SPATIAL_FILTER
  2
AcDbSpatialFilter
  3
AutoCAD 2000
 90
        0
280
     0
281
     0
  0
CLASS
  1
XRECORD
  2
AcDbXrecord
  3
AutoCAD 2000
 90
        0
280
     0
281
     0
  0
CLASS
  1
SORTENTSTABLE
  2
AcDbSortentsTable
  3
AutoCAD 2000
 90
        0
280
     0
281
     0
  0
CLASS
  1
LAYER_INDEX
  2
AcDbLayerIndex
  3
AutoCAD 2000
 90
        0
280
     0
281
     0
  0
CLASS
  1
SPATIAL_INDEX
  2
AcDbSpatialIndex
  3
AutoCAD 2000
 90
        0
280
     0
281
     0
  0
CLASS
  1
OBJECT_PTR
  2
CAseDLPNTableRecord
  3
"ASE-LPNTableRecord"
 90
        1
280
     0
281
     0
  0
CLASS
  1
LAYOUT
  2
AcDbLayout
  3
AutoCAD 2000
 90
        0
280
     0
281
     0
  0
CLASS
  1
PLOTSETTINGS
  2
AcDbPlotSettings
  3
AutoCAD 2000
 90
        0
280
     0
281
     0
  0
CLASS
  1
ACDBDICTIONARYWDFLT
  2
AcDbDictionaryWithDefault
  3
AutoCAD 2000
 90
        0
280
     0
281
     0
  0
CLASS
  1
ACDBPLACEHOLDER
  2
AcDbPlaceHolder
  3
AutoCAD 2000
 90
        0
280
     0
281
     0
  0
CLASS
  1
VBA_PROJECT
  2
AcDbVbaProject
  3
acadvba
 90
        0
280
     0
281
     0
  0
CLASS
  1
WIPEOUT
  2
AcDbWipeout
  3
WipeOut|AutoCAD Express Tool|expresstools@autodesk.com
 90
      127
280
     0
281
     1
  0
CLASS
  1
WIPEOUTVARIABLES
  2
AcDbWipeoutVariables
  3
WipeOut|AutoCAD Express Tool|expresstools@autodesk.com
 90
        0
280
     0
281
     0
  0
CLASS
  1
RTEXT
  2
RText
  3
RText|AutoCAD Express Tool|expresstools@autodesk.com
 90
        0
280
     0
281
     1
  0
CLASS
  1
ARCALIGNEDTEXT
  2
AcDbArcAlignedText
  3
ATEXT|AutoCAD Express Tool|expresstools@autodesk.com
 90
        0
280
     0
281
     1
  0
ENDSEC
  0
SECTION
  2
TABLES
  0
TABLE
  2
VPORT
  5
7
100
AcDbSymbolTable
 70
     1
  0
VPORT
  5
15
100
AcDbSymbolTableRecord
100
AcDbViewportTableRecord
  2
*ACTIVE
 70
     0
 10
0.0
 20
0.0
 11
1.0
 21
1.0
 12
6.591288
 22
4.579184
 13
0.0
 23
0.0
 14
1.0
 24
1.0
 15
0.0
 25
0.0
 16
0.0
 26
0.0
 36
1.0
 17
0.0
 27
0.0
 37
0.0
 40
9.158369
 41
0.688564
 42
50.0
 43
0.0
 44
0.0
 50
0.0
 51
0.0
 71
     0
 72
   100
 73
     1
 74
     1
 75
     0
 76
     0
 77
     0
 78
     0
281
     0
 65
     0
110
0.0
120
0.0
130
0.0
111
1.0
121
0.0
131
0.0
112
0.0
122
1.0
132
0.0
345
0
346
0
 79
     0
146
0.0
  0
ENDTAB
  0
TABLE
  2
LTYPE
  5
4
100
AcDbSymbolTable
 70
     3
  0
LTYPE
  5
11
100
AcDbSymbolTableRecord
100
AcDbLinetypeTableRecord
  2
ByBlock
 70
    64
  3

 72
    65
 73
     0
 40
0.0
  0
LTYPE
  5
12
100
AcDbSymbolTableRecord
100
AcDbLinetypeTableRecord
  2
ByLayer
 70
    64
  3

 72
    65
 73
     0
 40
0.0
  0
LTYPE
  5
13
100
AcDbSymbolTableRecord
100
AcDbLinetypeTableRecord
  2
Continuous
 70
    64
  3
Solid line
 72
    65
 73
     0
 40
0.0
  0
ENDTAB
  0
TABLE
  2
LAYER
  5
2
100
AcDbSymbolTable
 70
     1
  0
LAYER
  5
14
100
AcDbSymbolTableRecord
100
AcDbLayerTableRecord
  2
0
 70
     0
 62
     7
  6
Continuous
290
     1
370
    -3
390
1D
  0
ENDTAB
  0
TABLE
  2
STYLE
  5
3
100
AcDbSymbolTable
 70
     1
  0
STYLE
  5
17
100
AcDbSymbolTableRecord
100
AcDbTextStyleTableRecord
  2
Standard
 70
     0
 40
0.0
 41
1.0
 50
0.0
 71
     0
 42
0.0
  3
FG教科書体NT-M
  4

1001
ACAD
1000
FG教科書体NT-M
1071
        0
  0
ENDTAB
  0
TABLE
  2
VIEW
  5
5
100
AcDbSymbolTable
 70
     0
  0
ENDTAB
  0
TABLE
  2
UCS
  5
6
100
AcDbSymbolTable
 70
     0
  0
ENDTAB
  0
TABLE
  2
APPID
  5
8
100
AcDbSymbolTable
 70
     2
  0
APPID
  5
16
100
AcDbSymbolTableRecord
100
AcDbRegAppTableRecord
  2
ACAD
 70
     0
  0
APPID
  5
26
100
AcDbSymbolTableRecord
100
AcDbRegAppTableRecord
  2
TOPsolid_Design
 70
     0
  0
ENDTAB
  0
TABLE
  2
DIMSTYLE
  5
9
100
AcDbSymbolTable
 70
     1
100
AcDbDimStyleTable
 71
     0
  0
DIMSTYLE
105
18
100
AcDbSymbolTableRecord
100
AcDbDimStyleTableRecord
  2
Standard
 70
     0
  3

  4

 40
1.0
 41
1.40208
 42
1.40208
 43
0.38
 44
1.05156
 45
0.0
 46
0.0
 47
0.0
 48
0.0
 71
     0
 72
     0
 73
     0
 74
     0
 75
     0
 76
     0
 77
     1
 78
     0
 79
     0
140
3.5052
141
0.09
142
0.0
143
25.4
144
1.0
145
0.0
146
0.5
147
1.7526
148
0.0
170
     0
171
     2
172
     0
173
     0
174
     0
175
     0
176
     7
177
     7
178
     7
179
     0
271
     2
272
     4
273
     2
274
     2
275
     0
276
     0
277
     2
278
    46
279
     0
280
     0
281
     0
282
     0
283
     1
284
     0
285
     0
286
     0
288
     0
289
     3
340
17
341
0
342
0
343
0
344
0
371
    -2
372
    -2
  0
ENDTAB
  0
TABLE
  2
BLOCK_RECORD
  5
1
100
AcDbSymbolTable
 70
     0
  0
BLOCK_RECORD
  5
A
100
AcDbSymbolTableRecord
100
AcDbBlockTableRecord
  2
*MODEL_SPACE
340
20
  0
BLOCK_RECORD
  5
B
100
AcDbSymbolTableRecord
100
AcDbBlockTableRecord
  2
*PAPER_SPACE
340
21
  0
ENDTAB
  0
ENDSEC
  0
SECTION
  2
BLOCKS
  0
BLOCK
  5
D
100
AcDbEntity
  8
0
390
0
100
AcDbBlockBegin
  2
*MODEL_SPACE
 70
     0
 10
0.0
 20
0.0
 30
0.0
  3
*MODEL_SPACE
  1

  0
ENDBLK
  5
E
100
AcDbEntity
  8
0
390
0
100
AcDbBlockEnd
  0
BLOCK
  5
F
100
AcDbEntity
 67
     1
  8
0
390
0
100
AcDbBlockBegin
  2
*PAPER_SPACE
 70
     0
 10
0.0
 20
0.0
 30
0.0
  3
*PAPER_SPACE
  1

  0
ENDBLK
  5
10
100
AcDbEntity
 67
     1
  8
0
390
0
100
AcDbBlockEnd
  0
ENDSEC
  0
SECTION
  2
ENTITIES
  0
LINE
  5
27
100
AcDbEntity
  8
0
390
0
  6
Continuous
 62
     7
100
AcDbLine
 10
-4.636245
 20
12.496707
 30
0.0
 11
-2.819518
 21
8.0
 31
0.0
  0
LINE
  5
28
100
AcDbEntity
  8
0
390
0
  6
Continuous
 62
     7
100
AcDbLine
 10
-3.474603
 20
12.496707
 30
0.0
 11
-4.636245
 21
12.496707
 31
0.0
  0
LINE
  5
29
100
AcDbEntity
  8
0
390
0
  6
Continuous
 62
     7
100
AcDbLine
 10
-1.657621
 20
8.0
 30
0.0
 11
-3.474603
 21
12.496707
 31
0.0
  0
LINE
  5
2A
100
AcDbEntity
  8
0
390
0
  6
Continuous
 62
     7
100
AcDbLine
 10
-2.819518
 20
8.0
 30
0.0
 11
-1.657621
 21
8.0
 31
0.0
  0
LINE
  5
2B
100
AcDbEntity
  8
0
390
0
  6
Continuous
 62
     7
100
AcDbLine
 10
-0.821505
 20
8.0
 30
0.0
 11
0.340475
 21
8.0
 31
0.0
  0
LINE
  5
2C
100
AcDbEntity
  8
0
390
0
  6
Continuous
 62
     7
100
AcDbLine
 10
-2.638487
 20
12.496707
 30
0.0
 11
-0.821505
 21
8.0
 31
0.0
  0
LINE
  5
2D
100
AcDbEntity
  8
0
390
0
  6
Continuous
 62
     7
100
AcDbLine
 10
-1.476508
 20
12.496707
 30
0.0
 11
-2.638487
 21
12.496707
 31
0.0
  0
LINE
  5
2E
100
AcDbEntity
  8
0
390
0
  6
Continuous
 62
     7
100
AcDbLine
 10
0.340475
 20
8.0
 30
0.0
 11
-1.476508
 21
12.496707
 31
0.0
  0
LINE
  5
2F
100
AcDbEntity
  8
0
390
0
  6
Continuous
 62
     7
100
AcDbLine
 10
1.176561
 20
8.0
 30
0.0
 11
2.404897
 21
8.0
 31
0.0
  0
LINE
  5
30
100
AcDbEntity
  8
0
390
0
  6
Continuous
 62
     7
100
AcDbLine
 10
0.250797
 20
10.290946
 30
0.0
 11
1.176561
 21
8.0
 31
0.0
  0
LINE
  5
31
100
AcDbEntity
  8
0
390
0
  6
Continuous
 62
     7
100
AcDbLine
 10
0.831794
 20
11.729217
 30
0.0
 11
0.250797
 21
10.290946
 31
0.0
  0
LINE
  5
32
100
AcDbEntity
  8
0
390
0
  6
Continuous
 62
     7
100
AcDbLine
 10
1.790602
 20
9.356196
 30
0.0
 11
0.831794
 21
11.729217
 31
0.0
  0
LINE
  5
33
100
AcDbEntity
  8
0
390
0
  6
Continuous
 62
     7
100
AcDbLine
 10
3.0596
 20
12.496707
 30
0.0
 11
1.790602
 21
9.356196
 31
0.0
  0
LINE
  5
34
100
AcDbEntity
  8
0
390
0
  6
Continuous
 62
     7
100
AcDbLine
 10
4.221594
 20
12.496707
 30
0.0
 11
3.0596
 21
12.496707
 31
0.0
  0
LINE
  5
35
100
AcDbEntity
  8
0
390
0
  6
Continuous
 62
     7
100
AcDbLine
 10
2.404897
 20
8.0
 30
0.0
 11
4.221594
 21
12.496707
 31
0.0
  0
LINE
  5
36
100
AcDbEntity
  8
0
390
0
  6
Continuous
 62
     7
100
AcDbLine
 10
3.240984
 20
8.0
 30
0.0
 11
4.819075
 21
8.0
 31
0.0
  0
LINE
  5
37
100
AcDbEntity
  8
0
390
0
  6
Continuous
 62
     7
100
AcDbLine
 10
3.505179
 20
8.653906
 30
0.0
 11
3.240984
 21
8.0
 31
0.0
  0
LINE
  5
38
100
AcDbEntity
  8
0
390
0
  6
Continuous
 62
     7
100
AcDbLine
 10
4.143902
 20
8.653906
 30
0.0
 11
3.505179
 21
8.653906
 31
0.0
  0
ARC
  5
39
100
AcDbEntity
  8
0
390
0
  6
Continuous
 62
     7
100
AcDbCircle
 10
4.143902
 20
9.653906
 30
0.0
 40
1.0
210
0.0
220
0.0
230
1.0
100
AcDbArc
 50
270.0
 51
360.0
  0
LINE
  5
3A
100
AcDbEntity
  8
0
390
0
  6
Continuous
 62
     7
100
AcDbLine
 10
5.143902
 20
12.496707
 30
0.0
 11
5.143902
 21
9.653906
 31
0.0
  0
LINE
  5
3B
100
AcDbEntity
  8
0
390
0
  6
Continuous
 62
     7
100
AcDbLine
 10
6.319075
 20
12.496707
 30
0.0
 11
5.143902
 21
12.496707
 31
0.0
  0
LINE
  5
3C
100
AcDbEntity
  8
0
390
0
  6
Continuous
 62
     7
100
AcDbLine
 10
6.319075
 20
9.5
 30
0.0
 11
6.319075
 21
12.496707
 31
0.0
  0
ARC
  5
3D
100
AcDbEntity
  8
0
390
0
  6
Continuous
 62
     7
100
AcDbCircle
 10
4.819075
 20
9.5
 30
0.0
 40
1.5
210
0.0
220
0.0
230
1.0
100
AcDbArc
 50
270.0
 51
360.0
  0
LINE
  5
3E
100
AcDbEntity
  8
0
390
0
  6
Continuous
 62
     7
100
AcDbLine
 10
-5.191998
 20
8.0
 30
0.0
 11
-4.772084
 21
9.038567
 31
0.0
  0
LINE
  5
3F
100
AcDbEntity
  8
0
390
0
  6
Continuous
 62
     7
100
AcDbLine
 10
-6.35364
 20
8.0
 30
0.0
 11
-5.191998
 21
8.0
 31
0.0
  0
LINE
  5
40
100
AcDbEntity
  8
0
390
0
  6
Continuous
 62
     7
100
AcDbLine
 10
-4.991635
 20
11.371512
 30
0.0
 11
-6.35364
 21
8.0
 31
0.0
  0
LINE
  5
41
100
AcDbEntity
  8
0
390
0
  6
Continuous
 62
     7
100
AcDbLine
 10
-4.0495
 20
9.038567
 30
0.0
 11
-4.991635
 21
11.371512
 31
0.0
  0
LINE
  5
42
100
AcDbEntity
  8
0
390
0
  6
Continuous
 62
     7
100
AcDbLine
 10
-4.772084
 20
9.038567
 30
0.0
 11
-4.0495
 21
9.038567
 31
0.0
  0
LINE
  5
43
100
AcDbEntity
  8
0
390
0
  6
Continuous
 62
     7
100
AcDbLine
 10
-11.5
 20
0.0
 30
0.0
 11
-11.5
 21
21.5
 31
0.0
  0
LINE
  5
44
100
AcDbEntity
  8
0
390
0
  6
Continuous
 62
     7
100
AcDbLine
 10
-10.5
 20
21.5
 30
0.0
 11
-11.5
 21
21.5
 31
0.0
  0
LINE
  5
45
100
AcDbEntity
  8
0
390
0
  6
Continuous
 62
     7
100
AcDbLine
 10
-10.5
 20
21.5
 30
0.0
 11
-10.5
 21
0.0
 31
0.0
  0
LINE
  5
46
100
AcDbEntity
  8
0
390
0
  6
Continuous
 62
     7
100
AcDbLine
 10
-10.5
 20
0.0
 30
0.0
 11
-11.5
 21
0.0
 31
0.0
  0
LINE
  5
47
100
AcDbEntity
  8
0
390
0
  6
Continuous
 62
     7
100
AcDbLine
 10
10.5
 20
0.0
 30
0.0
 11
10.5
 21
21.5
 31
0.0
  0
LINE
  5
48
100
AcDbEntity
  8
0
390
0
  6
Continuous
 62
     7
100
AcDbLine
 10
11.5
 20
21.5
 30
0.0
 11
10.5
 21
21.5
 31
0.0
  0
LINE
  5
49
100
AcDbEntity
  8
0
390
0
  6
Continuous
 62
     7
100
AcDbLine
 10
11.5
 20
21.5
 30
0.0
 11
11.5
 21
0.0
 31
0.0
  0
LINE
  5
4A
100
AcDbEntity
  8
0
390
0
  6
Continuous
 62
     7
100
AcDbLine
 10
11.5
 20
0.0
 30
0.0
 11
10.5
 21
0.0
 31
0.0
  0
LINE
  5
4B
100
AcDbEntity
  8
0
390
0
  6
Continuous
 62
     7
100
AcDbLine
 10
-9.340235
 20
21.5
 30
0.0
 11
-10.5
 21
21.5
 31
0.0
  0
POLYLINE
  5
4C
100
AcDbEntity
  8
0
390
0
  6
Continuous
 62
     7
100
AcDb2dPolyline
 66
     1
 10
0.0
 20
0.0
 30
0.0
 40
0.1
 41
0.1
  0
VERTEX
  5
4D
100
AcDbEntity
  8
0
390
0
 62
     7
100
AcDbVertex
100
AcDb2dVertex
 10
-10.5
 20
21.5
 30
0.0
 42
-0.112473
  0
VERTEX
  5
4E
100
AcDbEntity
  8
0
390
0
 62
     7
100
AcDbVertex
100
AcDb2dVertex
 10
-10.257051
 20
22.786592
 30
0.0
  0
VERTEX
  5
4F
100
AcDbEntity
  8
0
390
0
 62
     7
100
AcDbVertex
100
AcDb2dVertex
 10
-10.191341
 20
22.885819
 30
0.0
  0
VERTEX
  5
50
100
AcDbEntity
  8
0
390
0
 62
     7
100
AcDbVertex
100
AcDb2dVertex
 10
-10.097545
 20
22.971177
 30
0.0
  0
VERTEX
  5
51
100
AcDbEntity
  8
0
390
0
 62
     7
100
AcDbVertex
100
AcDb2dVertex
 10
-10.0
 20
23.0
 30
0.0
  0
SEQEND
  5
52
100
AcDbEntity
  8
0
390
0
  0
LINE
  5
53
100
AcDbEntity
  8
0
390
0
  6
Continuous
 62
     7
100
AcDbLine
 10
-10.0
 20
23.0
 30
0.0
 11
-9.340235
 21
23.0
 31
0.0
  0
LINE
  5
54
100
AcDbEntity
  8
0
390
0
  6
Continuous
 62
     7
100
AcDbLine
 10
-9.340235
 20
21.5
 30
0.0
 11
-9.340235
 21
23.0
 31
0.0
  0
ARC
  5
55
100
AcDbEntity
  8
0
390
0
  6
Continuous
 62
     7
100
AcDbCircle
 10
10.0
 20
21.5
 30
0.0
 40
1.5
210
0.0
220
0.0
230
1.0
100
AcDbArc
 50
0.0
 51
90.0
  0
POLYLINE
  5
56
100
AcDbEntity
  8
0
390
0
  6
Continuous
 62
     7
100
AcDb2dPolyline
 66
     1
 10
0.0
 20
0.0
 30
0.0
 40
0.1
 41
0.1
  0
VERTEX
  5
57
100
AcDbEntity
  8
0
390
0
 62
     7
100
AcDbVertex
100
AcDb2dVertex
 10
10.5
 20
21.5
 30
0.0
 42
0.112473
  0
VERTEX
  5
58
100
AcDbEntity
  8
0
390
0
 62
     7
100
AcDbVertex
100
AcDb2dVertex
 10
10.257052
 20
22.786592
 30
0.0
  0
VERTEX
  5
59
100
AcDbEntity
  8
0
390
0
 62
     7
100
AcDbVertex
100
AcDb2dVertex
 10
10.191342
 20
22.885819
 30
0.0
  0
VERTEX
  5
5A
100
AcDbEntity
  8
0
390
0
 62
     7
100
AcDbVertex
100
AcDb2dVertex
 10
10.097546
 20
22.971177
 30
0.0
  0
VERTEX
  5
5B
100
AcDbEntity
  8
0
390
0
 62
     7
100
AcDbVertex
100
AcDb2dVertex
 10
10.0
 20
23.0
 30
0.0
  0
SEQEND
  5
5C
100
AcDbEntity
  8
0
390
0
  0
ARC
  5
5D
100
AcDbEntity
  8
0
390
0
  6
Continuous
 62
     7
100
AcDbCircle
 10
9.340236
 20
21.5
 30
0.0
 40
1.5
210
0.0
220
0.0
230
1.0
100
AcDbArc
 50
90.0
 51
125.613106
  0
LINE
  5
5E
100
AcDbEntity
  8
0
390
0
  6
Continuous
 62
     7
100
AcDbLine
 10
9.340236
 20
21.5
 30
0.0
 11
9.340236
 21
23.0
 31
0.0
  0
LINE
  5
5F
100
AcDbEntity
  8
0
390
0
  6
Continuous
 62
     7
100
AcDbLine
 10
9.340236
 20
21.5
 30
0.0
 11
8.466772
 21
22.719451
 31
0.0
  0
LINE
  5
60
100
AcDbEntity
  8
0
390
0
  6
Continuous
 62
     7
100
AcDbLine
 10
10.5
 20
21.5
 30
0.0
 11
9.340236
 21
21.5
 31
0.0
  0
LINE
  5
61
100
AcDbEntity
  8
0
390
0
  6
Continuous
 62
     7
100
AcDbLine
 10
9.340236
 20
23.0
 30
0.0
 11
10.0
 21
23.0
 31
0.0
  0
ARC
  5
62
100
AcDbEntity
  8
0
390
0
  6
Continuous
 62
     7
100
AcDbCircle
 10
0.0
 20
34.54
 30
0.0
 40
16.04
210
0.0
220
0.0
230
1.0
100
AcDbArc
 50
234.386894
 51
305.613106
  0
LINE
  5
63
100
AcDbEntity
  8
0
390
0
  6
Continuous
 62
     7
100
AcDbLine
 10
-9.340235
 20
21.5
 30
0.0
 11
-8.466772
 21
22.719451
 31
0.0
  0
ARC
  5
64
100
AcDbEntity
  8
0
390
0
  6
Continuous
 62
     7
100
AcDbCircle
 10
0.0
 20
34.54
 30
0.0
 40
14.54
210
0.0
220
0.0
230
1.0
100
AcDbArc
 50
234.386894
 51
305.613106
  0
ARC
  5
65
100
AcDbEntity
  8
0
390
0
  6
Continuous
 62
     7
100
AcDbCircle
 10
-10.0
 20
21.5
 30
0.0
 40
1.5
210
0.0
220
0.0
230
1.0
100
AcDbArc
 50
90.0
 51
180.0
  0
LINE
  5
66
100
AcDbEntity
  8
0
390
0
  6
Continuous
 62
     7
100
AcDbLine
 10
-10.5
 20
0.0
 30
0.0
 11
10.5
 21
0.0
 31
0.0
  0
ARC
  5
67
100
AcDbEntity
  8
0
390
0
  6
Continuous
 62
     7
100
AcDbCircle
 10
-9.340235
 20
21.5
 30
0.0
 40
1.5
210
0.0
220
0.0
230
1.0
100
AcDbArc
 50
54.386894
 51
90.0
  0
LINE
  5
68
100
AcDbEntity
  8
0
390
0
  6
Continuous
 62
     7
100
AcDbLine
 10
82.712033
 20
0.0
 30
0.0
 11
82.712033
 21
21.5
 31
0.0
  0
LINE
  5
69
100
AcDbEntity
  8
0
390
0
  6
Continuous
 62
     7
100
AcDbLine
 10
83.712033
 20
21.5
 30
0.0
 11
82.712033
 21
21.5
 31
0.0
  0
LINE
  5
6A
100
AcDbEntity
  8
0
390
0
  6
Continuous
 62
     7
100
AcDbLine
 10
83.712033
 20
21.5
 30
0.0
 11
83.712033
 21
0.0
 31
0.0
  0
LINE
  5
6B
100
AcDbEntity
  8
0
390
0
  6
Continuous
 62
     7
100
AcDbLine
 10
83.712033
 20
0.0
 30
0.0
 11
82.712033
 21
0.0
 31
0.0
  0
LINE
  5
6C
100
AcDbEntity
  8
0
390
0
  6
Continuous
 62
     7
100
AcDbLine
 10
59.712033
 20
21.5
 30
0.0
 11
59.712033
 21
0.0
 31
0.0
  0
LINE
  5
6D
100
AcDbEntity
  8
0
390
0
  6
Continuous
 62
     7
100
AcDbLine
 10
82.712033
 20
21.5
 30
0.0
 11
59.712033
 21
21.5
 31
0.0
  0
LINE
  5
6E
100
AcDbEntity
  8
0
390
0
  6
Continuous
 62
     7
100
AcDbLine
 10
82.712033
 20
0.0
 30
0.0
 11
59.712033
 21
0.0
 31
0.0
  0
LINE
  5
6F
100
AcDbEntity
  8
0
390
0
  6
Continuous
 62
     7
100
AcDbLine
 10
58.712033
 20
0.0
 30
0.0
 11
58.712033
 21
21.5
 31
0.0
  0
LINE
  5
70
100
AcDbEntity
  8
0
390
0
  6
Continuous
 62
     7
100
AcDbLine
 10
59.712033
 20
21.5
 30
0.0
 11
58.731248
 21
21.5
 31
0.0
  0
LINE
  5
71
100
AcDbEntity
  8
0
390
0
  6
Continuous
 62
     7
100
AcDbLine
 10
59.712033
 20
0.0
 30
0.0
 11
58.712033
 21
0.0
 31
0.0
  0
LINE
  5
72
100
AcDbEntity
  8
0
390
0
  6
Continuous
 62
     7
100
AcDbLine
 10
58.731248
 20
21.5
 30
0.0
 11
58.712033
 21
21.5
 31
0.0
  0
POLYLINE
  5
73
100
AcDbEntity
  8
0
390
0
  6
Continuous
 62
     7
100
AcDb2dPolyline
 66
     1
 10
0.0
 20
0.0
 30
0.0
 40
0.1
 41
0.1
  0
VERTEX
  5
74
100
AcDbEntity
  8
0
390
0
 62
     7
100
AcDbVertex
100
AcDb2dVertex
 10
60.212033
 20
23.0
 30
0.0
  0
VERTEX
  5
75
100
AcDbEntity
  8
0
390
0
 62
     7
100
AcDbVertex
100
AcDb2dVertex
 10
60.114488
 20
22.971177
 30
0.0
  0
VERTEX
  5
76
100
AcDbEntity
  8
0
390
0
 62
     7
100
AcDbVertex
100
AcDb2dVertex
 10
60.020691
 20
22.885819
 30
0.0
  0
VERTEX
  5
77
100
AcDbEntity
  8
0
390
0
 62
     7
100
AcDbVertex
100
AcDb2dVertex
 10
59.954981
 20
22.786592
 30
0.0
 42
0.112473
  0
VERTEX
  5
78
100
AcDbEntity
  8
0
390
0
 62
     7
100
AcDbVertex
100
AcDb2dVertex
 10
59.712033
 20
21.5
 30
0.0
  0
SEQEND
  5
79
100
AcDbEntity
  8
0
390
0
  0
LINE
  5
7A
100
AcDbEntity
  8
0
390
0
  6
Continuous
 62
     7
100
AcDbLine
 10
60.212033
 20
23.0
 30
0.0
 11
82.212033
 21
23.0
 31
0.0
  0
POLYLINE
  5
7B
100
AcDbEntity
  8
0
390
0
  6
Continuous
 62
     7
100
AcDb2dPolyline
 66
     1
 10
0.0
 20
0.0
 30
0.0
 40
0.1
 41
0.1
  0
VERTEX
  5
7C
100
AcDbEntity
  8
0
390
0
 62
     7
100
AcDbVertex
100
AcDb2dVertex
 10
82.212033
 20
23.0
 30
0.0
  0
VERTEX
  5
7D
100
AcDbEntity
  8
0
390
0
 62
     7
100
AcDbVertex
100
AcDb2dVertex
 10
82.309578
 20
22.971177
 30
0.0
  0
VERTEX
  5
7E
100
AcDbEntity
  8
0
390
0
 62
     7
100
AcDbVertex
100
AcDb2dVertex
 10
82.403375
 20
22.885819
 30
0.0
  0
VERTEX
  5
7F
100
AcDbEntity
  8
0
390
0
 62
     7
100
AcDbVertex
100
AcDb2dVertex
 10
82.469084
 20
22.786592
 30
0.0
 42
-0.112473
  0
VERTEX
  5
80
100
AcDbEntity
  8
0
390
0
 62
     7
100
AcDbVertex
100
AcDb2dVertex
 10
82.712033
 20
21.5
 30
0.0
  0
SEQEND
  5
81
100
AcDbEntity
  8
0
390
0
  0
ARC
  5
82
100
AcDbEntity
  8
0
390
0
  6
Continuous
 62
     7
100
AcDbCircle
 10
82.212033
 20
21.5
 30
0.0
 40
1.5
210
0.0
220
0.0
230
1.0
100
AcDbArc
 50
0.0
 51
90.0
  0
LINE
  5
83
100
AcDbEntity
  8
0
390
0
  6
Continuous
 62
     7
100
AcDbLine
 10
58.712033
 20
21.5
 30
0.0
 11
58.712033
 21
18.5
 31
0.0
  0
ELLIPSE
  5
84
100
AcDbEntity
  8
0
390
0
  6
Continuous
 62
     7
100
AcDbEllipse
 10
60.212033
 20
21.5
 30
0.0
 11
-1.5000000000000013
 21
0.0
 31
0.0
210
0.0
220
0.0
230
1.0
 40
0.812968
 41
6.0161255753817819
 42
6.2831853071795862
  0
LINE
  5
85
100
AcDbEntity
  8
0
390
0
  6
Continuous
 62
     7
100
AcDbLine
 10
83.712033
 20
18.5
 30
0.0
 11
83.712033
 21
21.5
 31
0.0
  0
LINE
  5
86
100
AcDbEntity
  8
0
390
0
  6
Continuous
 62
     7
100
AcDbLine
 10
58.512033
 20
8.0
 30
0.0
 11
58.712033
 21
8.0
 31
0.0
  0
LINE
  5
87
100
AcDbEntity
  8
0
390
0
  6
Continuous
 62
     7
100
AcDbLine
 10
58.512033
 20
8.0
 30
0.0
 11
58.512033
 21
9.5
 31
0.0
  0
LINE
  5
88
100
AcDbEntity
  8
0
390
0
  6
Continuous
 62
     7
100
AcDbLine
 10
58.512033
 20
9.5
 30
0.0
 11
58.712033
 21
9.5
 31
0.0
  0
LINE
  5
89
100
AcDbEntity
  8
0
390
0
  6
Continuous
 62
     7
100
AcDbLine
 10
58.512033
 20
12.496707
 30
0.0
 11
58.712033
 21
12.496707
 31
0.0
  0
LINE
  5
8A
100
AcDbEntity
  8
0
390
0
  6
Continuous
 62
     7
100
AcDbLine
 10
58.512033
 20
9.5
 30
0.0
 11
58.512033
 21
12.496707
 31
0.0
  0
ARC
  5
8B
100
AcDbEntity
  8
0
390
0
  6
Continuous
 62
     7
100
AcDbCircle
 10
60.216786
 20
21.514399
 30
0.0
 40
1.485608
210
0.0
220
0.0
230
1.0
100
AcDbArc
 50
90.183311
 51
180.555358
  0
ARC
  5
8C
100
AcDbEntity
  8
0
390
0
  6
Continuous
 62
     7
100
AcDbCircle
 10
-10.5
 20
-58.983619
 30
0.0
 40
1.0
210
0.0
220
0.0
230
1.0
100
AcDbArc
 50
180.0
 51
270.0
  0
LINE
  5
8D
100
AcDbEntity
  8
0
390
0
  6
Continuous
 62
     7
100
AcDbLine
 10
-11.5
 20
-35.983619
 30
0.0
 11
-11.5
 21
-58.983619
 31
0.0
  0
ARC
  5
8E
100
AcDbEntity
  8
0
390
0
  6
Continuous
 62
     7
100
AcDbCircle
 10
-10.5
 20
-35.983619
 30
0.0
 40
1.0
210
0.0
220
0.0
230
1.0
100
AcDbArc
 50
90.0
 51
180.0
  0
LINE
  5
8F
100
AcDbEntity
  8
0
390
0
  6
Continuous
 62
     7
100
AcDbLine
 10
-10.5
 20
-34.983619
 30
0.0
 11
10.5
 21
-34.983619
 31
0.0
  0
ARC
  5
90
100
AcDbEntity
  8
0
390
0
  6
Continuous
 62
     7
100
AcDbCircle
 10
10.5
 20
-35.983619
 30
0.0
 40
1.0
210
0.0
220
0.0
230
1.0
100
AcDbArc
 50
0.0
 51
90.0
  0
LINE
  5
91
100
AcDbEntity
  8
0
390
0
  6
Continuous
 62
     7
100
AcDbLine
 10
11.5
 20
-58.983619
 30
0.0
 11
11.5
 21
-35.983619
 31
0.0
  0
ARC
  5
92
100
AcDbEntity
  8
0
390
0
  6
Continuous
 62
     7
100
AcDbCircle
 10
10.5
 20
-58.983619
 30
0.0
 40
1.0
210
0.0
220
0.0
230
1.0
100
AcDbArc
 50
270.0
 51
360.0
  0
LINE
  5
93
100
AcDbEntity
  8
0
390
0
  6
Continuous
 62
     7
100
AcDbLine
 10
-10.5
 20
-59.983619
 30
0.0
 11
10.5
 21
-59.983619
 31
0.0
  0
LINE
  5
94
100
AcDbEntity
  8
0
390
0
  6
Continuous
 62
     7
100
AcDbLine
 10
-5.75
 20
-51.669408
 30
0.0
 11
-3.25
 21
-50.226032
 31
0.0
  0
LINE
  5
95
100
AcDbEntity
  8
0
390
0
  6
Continuous
 62
     7
100
AcDbLine
 10
-5.75
 20
-54.556159
 30
0.0
 11
-5.75
 21
-51.669408
 31
0.0
  0
LINE
  5
96
100
AcDbEntity
  8
0
390
0
  6
Continuous
 62
     7
100
AcDbLine
 10
-3.25
 20
-55.999535
 30
0.0
 11
-5.75
 21
-54.556159
 31
0.0
  0
LINE
  5
97
100
AcDbEntity
  8
0
390
0
  6
Continuous
 62
     7
100
AcDbLine
 10
-0.75
 20
-54.556159
 30
0.0
 11
-3.25
 21
-55.999535
 31
0.0
  0
LINE
  5
98
100
AcDbEntity
  8
0
390
0
  6
Continuous
 62
     7
100
AcDbLine
 10
-0.75
 20
-51.669408
 30
0.0
 11
-0.75
 21
-54.556159
 31
0.0
  0
LINE
  5
99
100
AcDbEntity
  8
0
390
0
  6
Continuous
 62
     7
100
AcDbLine
 10
-3.25
 20
-50.226032
 30
0.0
 11
-0.75
 21
-51.669408
 31
0.0
  0
LINE
  5
9A
100
AcDbEntity
  8
0
390
0
  6
Continuous
 62
     7
100
AcDbLine
 10
2.5
 20
-46.040243
 30
0.0
 11
0.0
 21
-44.596867
 31
0.0
  0
LINE
  5
9B
100
AcDbEntity
  8
0
390
0
  6
Continuous
 62
     7
100
AcDbLine
 10
0.0
 20
-44.596867
 30
0.0
 11
-2.5
 21
-46.040243
 31
0.0
  0
LINE
  5
9C
100
AcDbEntity
  8
0
390
0
  6
Continuous
 62
     7
100
AcDbLine
 10
-2.5
 20
-46.040243
 30
0.0
 11
-2.5
 21
-48.926994
 31
0.0
  0
LINE
  5
9D
100
AcDbEntity
  8
0
390
0
  6
Continuous
 62
     7
100
AcDbLine
 10
-2.5
 20
-48.926994
 30
0.0
 11
0.0
 21
-50.37037
 31
0.0
  0
LINE
  5
9E
100
AcDbEntity
  8
0
390
0
  6
Continuous
 62
     7
100
AcDbLine
 10
0.0
 20
-50.37037
 30
0.0
 11
2.5
 21
-48.926994
 31
0.0
  0
LINE
  5
9F
100
AcDbEntity
  8
0
390
0
  6
Continuous
 62
     7
100
AcDbLine
 10
2.5
 20
-48.926994
 30
0.0
 11
2.5
 21
-46.040243
 31
0.0
  0
LINE
  5
A0
100
AcDbEntity
  8
0
390
0
  6
Continuous
 62
     7
100
AcDbLine
 10
9.0
 20
-46.040243
 30
0.0
 11
6.5
 21
-44.596867
 31
0.0
  0
LINE
  5
A1
100
AcDbEntity
  8
0
390
0
  6
Continuous
 62
     7
100
AcDbLine
 10
6.5
 20
-44.596867
 30
0.0
 11
4.0
 21
-46.040243
 31
0.0
  0
LINE
  5
A2
100
AcDbEntity
  8
0
390
0
  6
Continuous
 62
     7
100
AcDbLine
 10
4.0
 20
-46.040243
 30
0.0
 11
4.0
 21
-48.926994
 31
0.0
  0
LINE
  5
A3
100
AcDbEntity
  8
0
390
0
  6
Continuous
 62
     7
100
AcDbLine
 10
4.0
 20
-48.926994
 30
0.0
 11
6.5
 21
-50.37037
 31
0.0
  0
LINE
  5
A4
100
AcDbEntity
  8
0
390
0
  6
Continuous
 62
     7
100
AcDbLine
 10
6.5
 20
-50.37037
 30
0.0
 11
9.0
 21
-48.926994
 31
0.0
  0
LINE
  5
A5
100
AcDbEntity
  8
0
390
0
  6
Continuous
 62
     7
100
AcDbLine
 10
9.0
 20
-48.926994
 30
0.0
 11
9.0
 21
-46.040243
 31
0.0
  0
LINE
  5
A6
100
AcDbEntity
  8
0
390
0
  6
Continuous
 62
     7
100
AcDbLine
 10
-4.0
 20
-46.040243
 30
0.0
 11
-6.5
 21
-44.596867
 31
0.0
  0
LINE
  5
A7
100
AcDbEntity
  8
0
390
0
  6
Continuous
 62
     7
100
AcDbLine
 10
-6.5
 20
-44.596867
 30
0.0
 11
-9.0
 21
-46.040243
 31
0.0
  0
LINE
  5
A8
100
AcDbEntity
  8
0
390
0
  6
Continuous
 62
     7
100
AcDbLine
 10
-9.0
 20
-46.040243
 30
0.0
 11
-9.0
 21
-48.926994
 31
0.0
  0
LINE
  5
A9
100
AcDbEntity
  8
0
390
0
  6
Continuous
 62
     7
100
AcDbLine
 10
-9.0
 20
-48.926994
 30
0.0
 11
-6.5
 21
-50.37037
 31
0.0
  0
LINE
  5
AA
100
AcDbEntity
  8
0
390
0
  6
Continuous
 62
     7
100
AcDbLine
 10
-6.5
 20
-50.37037
 30
0.0
 11
-4.0
 21
-48.926994
 31
0.0
  0
LINE
  5
AB
100
AcDbEntity
  8
0
390
0
  6
Continuous
 62
     7
100
AcDbLine
 10
-4.0
 20
-48.926994
 30
0.0
 11
-4.0
 21
-46.040243
 31
0.0
  0
LINE
  5
AC
100
AcDbEntity
  8
0
390
0
  6
Continuous
 62
     7
100
AcDbLine
 10
5.75
 20
-40.411078
 30
0.0
 11
3.25
 21
-38.967702
 31
0.0
  0
LINE
  5
AD
100
AcDbEntity
  8
0
390
0
  6
Continuous
 62
     7
100
AcDbLine
 10
3.25
 20
-38.967702
 30
0.0
 11
0.75
 21
-40.411078
 31
0.0
  0
LINE
  5
AE
100
AcDbEntity
  8
0
390
0
  6
Continuous
 62
     7
100
AcDbLine
 10
0.75
 20
-40.411078
 30
0.0
 11
0.75
 21
-43.297829
 31
0.0
  0
LINE
  5
AF
100
AcDbEntity
  8
0
390
0
  6
Continuous
 62
     7
100
AcDbLine
 10
0.75
 20
-43.297829
 30
0.0
 11
3.25
 21
-44.741205
 31
0.0
  0
LINE
  5
B0
100
AcDbEntity
  8
0
390
0
  6
Continuous
 62
     7
100
AcDbLine
 10
3.25
 20
-44.741205
 30
0.0
 11
5.75
 21
-43.297829
 31
0.0
  0
LINE
  5
B1
100
AcDbEntity
  8
0
390
0
  6
Continuous
 62
     7
100
AcDbLine
 10
5.75
 20
-43.297829
 30
0.0
 11
5.75
 21
-40.411078
 31
0.0
  0
LINE
  5
B2
100
AcDbEntity
  8
0
390
0
  6
Continuous
 62
     7
100
AcDbLine
 10
-0.75
 20
-40.411078
 30
0.0
 11
-3.25
 21
-38.967702
 31
0.0
  0
LINE
  5
B3
100
AcDbEntity
  8
0
390
0
  6
Continuous
 62
     7
100
AcDbLine
 10
-3.25
 20
-38.967702
 30
0.0
 11
-5.75
 21
-40.411078
 31
0.0
  0
LINE
  5
B4
100
AcDbEntity
  8
0
390
0
  6
Continuous
 62
     7
100
AcDbLine
 10
-5.75
 20
-40.411078
 30
0.0
 11
-5.75
 21
-43.297829
 31
0.0
  0
LINE
  5
B5
100
AcDbEntity
  8
0
390
0
  6
Continuous
 62
     7
100
AcDbLine
 10
-5.75
 20
-43.297829
 30
0.0
 11
-3.25
 21
-44.741205
 31
0.0
  0
LINE
  5
B6
100
AcDbEntity
  8
0
390
0
  6
Continuous
 62
     7
100
AcDbLine
 10
-3.25
 20
-44.741205
 30
0.0
 11
-0.75
 21
-43.297829
 31
0.0
  0
LINE
  5
B7
100
AcDbEntity
  8
0
390
0
  6
Continuous
 62
     7
100
AcDbLine
 10
-0.75
 20
-43.297829
 30
0.0
 11
-0.75
 21
-40.411078
 31
0.0
  0
LINE
  5
B8
100
AcDbEntity
  8
0
390
0
  6
Continuous
 62
     7
100
AcDbLine
 10
0.75
 20
-51.669408
 30
0.0
 11
3.25
 21
-50.226032
 31
0.0
  0
LINE
  5
B9
100
AcDbEntity
  8
0
390
0
  6
Continuous
 62
     7
100
AcDbLine
 10
0.75
 20
-54.556159
 30
0.0
 11
0.75
 21
-51.669408
 31
0.0
  0
LINE
  5
BA
100
AcDbEntity
  8
0
390
0
  6
Continuous
 62
     7
100
AcDbLine
 10
3.25
 20
-55.999535
 30
0.0
 11
0.75
 21
-54.556159
 31
0.0
  0
LINE
  5
BB
100
AcDbEntity
  8
0
390
0
  6
Continuous
 62
     7
100
AcDbLine
 10
5.75
 20
-54.556159
 30
0.0
 11
3.25
 21
-55.999535
 31
0.0
  0
LINE
  5
BC
100
AcDbEntity
  8
0
390
0
  6
Continuous
 62
     7
100
AcDbLine
 10
5.75
 20
-51.669408
 30
0.0
 11
5.75
 21
-54.556159
 31
0.0
  0
LINE
  5
BD
100
AcDbEntity
  8
0
390
0
  6
Continuous
 62
     7
100
AcDbLine
 10
3.25
 20
-50.226032
 30
0.0
 11
5.75
 21
-51.669408
 31
0.0
  0
LINE
  5
BE
100
AcDbEntity
  8
0
390
0
  6
Continuous
 62
     7
100
AcDbLine
 10
-9.0
 20
-36.983619
 30
0.0
 11
-9.0
 21
-37.668994
 31
0.0
  0
LINE
  5
BF
100
AcDbEntity
  8
0
390
0
  6
Continuous
 62
     7
100
AcDbLine
 10
-9.0
 20
-37.668994
 30
0.0
 11
-6.5
 21
-39.11237
 31
0.0
  0
LINE
  5
C0
100
AcDbEntity
  8
0
390
0
  6
Continuous
 62
     7
100
AcDbLine
 10
-6.5
 20
-39.11237
 30
0.0
 11
-4.0
 21
-37.668994
 31
0.0
  0
LINE
  5
C1
100
AcDbEntity
  8
0
390
0
  6
Continuous
 62
     7
100
AcDbLine
 10
-4.0
 20
-37.668994
 30
0.0
 11
-4.0
 21
-36.983619
 31
0.0
  0
LINE
  5
C2
100
AcDbEntity
  8
0
390
0
  6
Continuous
 62
     7
100
AcDbLine
 10
-9.0
 20
-36.983619
 30
0.0
 11
-4.0
 21
-36.983619
 31
0.0
  0
LINE
  5
C3
100
AcDbEntity
  8
0
390
0
  6
Continuous
 62
     7
100
AcDbLine
 10
-2.5
 20
-37.668994
 30
0.0
 11
0.0
 21
-39.11237
 31
0.0
  0
LINE
  5
C4
100
AcDbEntity
  8
0
390
0
  6
Continuous
 62
     7
100
AcDbLine
 10
0.0
 20
-39.11237
 30
0.0
 11
2.5
 21
-37.668994
 31
0.0
  0
LINE
  5
C5
100
AcDbEntity
  8
0
390
0
  6
Continuous
 62
     7
100
AcDbLine
 10
2.5
 20
-37.668994
 30
0.0
 11
2.5
 21
-36.983619
 31
0.0
  0
LINE
  5
C6
100
AcDbEntity
  8
0
390
0
  6
Continuous
 62
     7
100
AcDbLine
 10
-2.5
 20
-36.983619
 30
0.0
 11
2.5
 21
-36.983619
 31
0.0
  0
LINE
  5
C7
100
AcDbEntity
  8
0
390
0
  6
Continuous
 62
     7
100
AcDbLine
 10
-2.5
 20
-36.983619
 30
0.0
 11
-2.5
 21
-37.668994
 31
0.0
  0
LINE
  5
C8
100
AcDbEntity
  8
0
390
0
  6
Continuous
 62
     7
100
AcDbLine
 10
4.0
 20
-37.668994
 30
0.0
 11
6.5
 21
-39.11237
 31
0.0
  0
LINE
  5
C9
100
AcDbEntity
  8
0
390
0
  6
Continuous
 62
     7
100
AcDbLine
 10
6.5
 20
-39.11237
 30
0.0
 11
9.0
 21
-37.668994
 31
0.0
  0
LINE
  5
CA
100
AcDbEntity
  8
0
390
0
  6
Continuous
 62
     7
100
AcDbLine
 10
9.0
 20
-37.668994
 30
0.0
 11
9.0
 21
-36.983619
 31
0.0
  0
LINE
  5
CB
100
AcDbEntity
  8
0
390
0
  6
Continuous
 62
     7
100
AcDbLine
 10
4.0
 20
-36.983619
 30
0.0
 11
9.0
 21
-36.983619
 31
0.0
  0
LINE
  5
CC
100
AcDbEntity
  8
0
390
0
  6
Continuous
 62
     7
100
AcDbLine
 10
4.0
 20
-36.983619
 30
0.0
 11
4.0
 21
-37.668994
 31
0.0
  0
LINE
  5
CD
100
AcDbEntity
  8
0
390
0
  6
Continuous
 62
     7
100
AcDbLine
 10
-4.0
 20
-57.983619
 30
0.0
 11
-4.0
 21
-57.298243
 31
0.0
  0
LINE
  5
CE
100
AcDbEntity
  8
0
390
0
  6
Continuous
 62
     7
100
AcDbLine
 10
-4.0
 20
-57.298243
 30
0.0
 11
-6.5
 21
-55.854867
 31
0.0
  0
LINE
  5
CF
100
AcDbEntity
  8
0
390
0
  6
Continuous
 62
     7
100
AcDbLine
 10
-6.5
 20
-55.854867
 30
0.0
 11
-9.0
 21
-57.298243
 31
0.0
  0
LINE
  5
D0
100
AcDbEntity
  8
0
390
0
  6
Continuous
 62
     7
100
AcDbLine
 10
-9.0
 20
-57.298243
 30
0.0
 11
-9.0
 21
-57.983619
 31
0.0
  0
LINE
  5
D1
100
AcDbEntity
  8
0
390
0
  6
Continuous
 62
     7
100
AcDbLine
 10
-9.0
 20
-57.983619
 30
0.0
 11
-4.0
 21
-57.983619
 31
0.0
  0
LINE
  5
D2
100
AcDbEntity
  8
0
390
0
  6
Continuous
 62
     7
100
AcDbLine
 10
2.5
 20
-57.983619
 30
0.0
 11
2.5
 21
-57.298243
 31
0.0
  0
LINE
  5
D3
100
AcDbEntity
  8
0
390
0
  6
Continuous
 62
     7
100
AcDbLine
 10
2.5
 20
-57.298243
 30
0.0
 11
0.0
 21
-55.854867
 31
0.0
  0
LINE
  5
D4
100
AcDbEntity
  8
0
390
0
  6
Continuous
 62
     7
100
AcDbLine
 10
0.0
 20
-55.854867
 30
0.0
 11
-2.5
 21
-57.298243
 31
0.0
  0
LINE
  5
D5
100
AcDbEntity
  8
0
390
0
  6
Continuous
 62
     7
100
AcDbLine
 10
-2.5
 20
-57.298243
 30
0.0
 11
-2.5
 21
-57.983619
 31
0.0
  0
LINE
  5
D6
100
AcDbEntity
  8
0
390
0
  6
Continuous
 62
     7
100
AcDbLine
 10
-2.5
 20
-57.983619
 30
0.0
 11
2.5
 21
-57.983619
 31
0.0
  0
LINE
  5
D7
100
AcDbEntity
  8
0
390
0
  6
Continuous
 62
     7
100
AcDbLine
 10
9.0
 20
-57.983619
 30
0.0
 11
9.0
 21
-57.298243
 31
0.0
  0
LINE
  5
D8
100
AcDbEntity
  8
0
390
0
  6
Continuous
 62
     7
100
AcDbLine
 10
9.0
 20
-57.298243
 30
0.0
 11
6.5
 21
-55.854867
 31
0.0
  0
LINE
  5
D9
100
AcDbEntity
  8
0
390
0
  6
Continuous
 62
     7
100
AcDbLine
 10
6.5
 20
-55.854867
 30
0.0
 11
4.0
 21
-57.298243
 31
0.0
  0
LINE
  5
DA
100
AcDbEntity
  8
0
390
0
  6
Continuous
 62
     7
100
AcDbLine
 10
4.0
 20
-57.298243
 30
0.0
 11
4.0
 21
-57.983619
 31
0.0
  0
LINE
  5
DB
100
AcDbEntity
  8
0
390
0
  6
Continuous
 62
     7
100
AcDbLine
 10
4.0
 20
-57.983619
 30
0.0
 11
9.0
 21
-57.983619
 31
0.0
  0
LINE
  5
DC
100
AcDbEntity
  8
0
390
0
  6
Continuous
 62
     7
100
AcDbLine
 10
7.25
 20
-51.669408
 30
0.0
 11
9.5
 21
-50.37037
 31
0.0
  0
LINE
  5
DD
100
AcDbEntity
  8
0
390
0
  6
Continuous
 62
     7
100
AcDbLine
 10
7.25
 20
-54.556159
 30
0.0
 11
7.25
 21
-51.669408
 31
0.0
  0
LINE
  5
DE
100
AcDbEntity
  8
0
390
0
  6
Continuous
 62
     7
100
AcDbLine
 10
9.5
 20
-55.855197
 30
0.0
 11
7.25
 21
-54.556159
 31
0.0
  0
LINE
  5
DF
100
AcDbEntity
  8
0
390
0
  6
Continuous
 62
     7
100
AcDbLine
 10
9.5
 20
-55.855197
 30
0.0
 11
9.5
 21
-50.37037
 31
0.0
  0
LINE
  5
E0
100
AcDbEntity
  8
0
390
0
  6
Continuous
 62
     7
100
AcDbLine
 10
9.5
 20
-39.11204
 30
0.0
 11
7.25
 21
-40.411078
 31
0.0
  0
LINE
  5
E1
100
AcDbEntity
  8
0
390
0
  6
Continuous
 62
     7
100
AcDbLine
 10
7.25
 20
-40.411078
 30
0.0
 11
7.25
 21
-43.297829
 31
0.0
  0
LINE
  5
E2
100
AcDbEntity
  8
0
390
0
  6
Continuous
 62
     7
100
AcDbLine
 10
7.25
 20
-43.297829
 30
0.0
 11
9.5
 21
-44.596867
 31
0.0
  0
LINE
  5
E3
100
AcDbEntity
  8
0
390
0
  6
Continuous
 62
     7
100
AcDbLine
 10
9.5
 20
-44.596867
 30
0.0
 11
9.5
 21
-39.11204
 31
0.0
  0
LINE
  5
E4
100
AcDbEntity
  8
0
390
0
  6
Continuous
 62
     7
100
AcDbLine
 10
-7.25
 20
-51.669408
 30
0.0
 11
-7.25
 21
-54.556159
 31
0.0
  0
LINE
  5
E5
100
AcDbEntity
  8
0
390
0
  6
Continuous
 62
     7
100
AcDbLine
 10
-9.5
 20
-50.37037
 30
0.0
 11
-7.25
 21
-51.669408
 31
0.0
  0
LINE
  5
E6
100
AcDbEntity
  8
0
390
0
  6
Continuous
 62
     7
100
AcDbLine
 10
-9.5
 20
-55.855197
 30
0.0
 11
-9.5
 21
-50.37037
 31
0.0
  0
LINE
  5
E7
100
AcDbEntity
  8
0
390
0
  6
Continuous
 62
     7
100
AcDbLine
 10
-7.25
 20
-54.556159
 30
0.0
 11
-9.5
 21
-55.855197
 31
0.0
  0
LINE
  5
E8
100
AcDbEntity
  8
0
390
0
  6
Continuous
 62
     7
100
AcDbLine
 10
-7.25
 20
-43.297829
 30
0.0
 11
-7.25
 21
-40.411078
 31
0.0
  0
LINE
  5
E9
100
AcDbEntity
  8
0
390
0
  6
Continuous
 62
     7
100
AcDbLine
 10
-7.25
 20
-40.411078
 30
0.0
 11
-9.5
 21
-39.11204
 31
0.0
  0
LINE
  5
EA
100
AcDbEntity
  8
0
390
0
  6
Continuous
 62
     7
100
AcDbLine
 10
-9.5
 20
-44.596867
 30
0.0
 11
-9.5
 21
-39.11204
 31
0.0
  0
LINE
  5
EB
100
AcDbEntity
  8
0
390
0
  6
Continuous
 62
     7
100
AcDbLine
 10
-9.5
 20
-44.596867
 30
0.0
 11
-7.25
 21
-43.297829
 31
0.0
  0
LINE
  5
EC
100
AcDbEntity
  8
0
390
0
  6
Continuous
 62
     7
100
AcDbLine
 10
-8.663312
 20
-37.474608
 30
0.0
 11
-9.0
 21
-37.668994
 31
0.0
  0
LINE
  5
ED
100
AcDbEntity
  8
0
390
0
  6
Continuous
 62
     7
100
AcDbLine
 10
-8.663312
 20
-37.474608
 30
0.0
 11
-8.663312
 21
-36.983619
 31
0.0
  0
LINE
  5
EE
100
AcDbEntity
  8
0
390
0
  6
Continuous
 62
     7
100
AcDbLine
 10
4.306106
 20
-37.492264
 30
0.0
 11
4.306106
 21
-36.983619
 31
0.0
  0
LINE
  5
EF
100
AcDbEntity
  8
0
390
0
  6
Continuous
 62
     7
100
AcDbLine
 10
4.306106
 20
-37.492264
 30
0.0
 11
4.0
 21
-37.668994
 31
0.0
  0
LINE
  5
F0
100
AcDbEntity
  8
0
390
0
  6
Continuous
 62
     7
100
AcDbLine
 10
-2.200844
 20
-37.496277
 30
0.0
 11
-2.200844
 21
-36.983619
 31
0.0
  0
LINE
  5
F1
100
AcDbEntity
  8
0
390
0
  6
Continuous
 62
     7
100
AcDbLine
 10
-2.200844
 20
-37.496277
 30
0.0
 11
-2.5
 21
-37.668994
 31
0.0
  0
LINE
  5
F2
100
AcDbEntity
  8
0
390
0
  6
Continuous
 62
     7
100
AcDbLine
 10
8.663313
 20
-37.474608
 30
0.0
 11
9.0
 21
-37.668994
 31
0.0
  0
LINE
  5
F3
100
AcDbEntity
  8
0
390
0
  6
Continuous
 62
     7
100
AcDbLine
 10
8.663313
 20
-36.983619
 30
0.0
 11
8.663313
 21
-37.474608
 31
0.0
  0
LINE
  5
F4
100
AcDbEntity
  8
0
390
0
  6
Continuous
 62
     7
100
AcDbLine
 10
2.200845
 20
-37.496277
 30
0.0
 11
2.5
 21
-37.668994
 31
0.0
  0
LINE
  5
F5
100
AcDbEntity
  8
0
390
0
  6
Continuous
 62
     7
100
AcDbLine
 10
2.200845
 20
-36.983619
 30
0.0
 11
2.200845
 21
-37.496277
 31
0.0
  0
LINE
  5
F6
100
AcDbEntity
  8
0
390
0
  6
Continuous
 62
     7
100
AcDbLine
 10
-4.306105
 20
-37.492264
 30
0.0
 11
-4.0
 21
-37.668994
 31
0.0
  0
LINE
  5
F7
100
AcDbEntity
  8
0
390
0
  6
Continuous
 62
     7
100
AcDbLine
 10
-4.306105
 20
-36.983619
 30
0.0
 11
-4.306105
 21
-37.492264
 31
0.0
  0
LINE
  5
F8
100
AcDbEntity
  8
0
390
0
  6
Continuous
 62
     7
100
AcDbLine
 10
-6.5
 20
-38.744558
 30
0.0
 11
-6.5
 21
-39.11237
 31
0.0
  0
ELLIPSE
  5
F9
100
AcDbEntity
  8
0
390
0
  6
Continuous
 62
     7
100
AcDbEllipse
 10
0.0
 20
-34.663427
 30
0.0
 11
17.539331723472827
 21
10.129423882533434
 31
0.0
210
0.0
220
0.0
230
1.0
 40
0.015115
 41
4.3240246256986135
 42
4.4556221224619526
  0
LINE
  5
FA
100
AcDbEntity
  8
0
390
0
  6
Continuous
 62
     7
100
AcDbLine
 10
0.0
 20
-38.769729
 30
0.0
 11
0.0
 21
-39.11237
 31
0.0
  0
ELLIPSE
  5
FB
100
AcDbEntity
  8
0
390
0
  6
Continuous
 62
     7
100
AcDbEllipse
 10
0.0
 20
-38.416203
 30
0.0
 11
-17.539331723472827
 21
10.129423882533434
 31
0.0
210
0.0
220
0.0
230
1.0
 40
0.015115
 41
1.453718301451306
 42
1.5795256321532773
  0
LINE
  5
FC
100
AcDbEntity
  8
0
390
0
  6
Continuous
 62
     7
100
AcDbLine
 10
6.5
 20
-38.744558
 30
0.0
 11
6.5
 21
-39.11237
 31
0.0
  0
ELLIPSE
  5
FD
100
AcDbEntity
  8
0
390
0
  6
Continuous
 62
     7
100
AcDbEllipse
 10
0.0
 20
-42.16898
 30
0.0
 11
17.539331723472827
 21
10.129423882533434
 31
0.0
210
0.0
220
0.0
230
1.0
 40
0.015115
 41
5.0832947243540056
 42
5.2202490782970719
  0
ELLIPSE
  5
FE
100
AcDbEntity
  8
0
390
0
  6
Continuous
 62
     7
100
AcDbEllipse
 10
0.0
 20
-42.16898
 30
0.0
 11
-17.539331723472827
 21
10.129423882533434
 31
0.0
210
0.0
220
0.0
230
1.0
 40
0.015115
 41
1.0629362288825133
 42
1.199890582825581
  0
ELLIPSE
  5
FF
100
AcDbEntity
  8
0
390
0
  6
Continuous
 62
     7
100
AcDbEllipse
 10
0.0
 20
-38.416203
 30
0.0
 11
17.539331723472827
 21
10.129423882533434
 31
0.0
210
0.0
220
0.0
230
1.0
 40
0.015115
 41
4.7036596750263096
 42
4.8294670057282802
  0
ELLIPSE
  5
100
100
AcDbEntity
  8
0
390
0
  6
Continuous
 62
     7
100
AcDbEllipse
 10
0.0
 20
-34.663427
 30
0.0
 11
-17.539331723472827
 21
10.129423882533434
 31
0.0
210
0.0
220
0.0
230
1.0
 40
0.015115
 41
1.8275631847176343
 42
1.9591606814809737
  0
LINE
  5
101
100
AcDbEntity
  8
0
390
0
  6
Continuous
 62
     7
100
AcDbLine
 10
1.047283
 20
-40.582714
 30
0.0
 11
0.75
 21
-40.411078
 31
0.0
  0
LINE
  5
102
100
AcDbEntity
  8
0
390
0
  6
Continuous
 62
     7
100
AcDbLine
 10
3.25
 20
-39.316465
 30
0.0
 11
3.25
 21
-38.967702
 31
0.0
  0
ELLIPSE
  5
103
100
AcDbEntity
  8
0
390
0
  6
Continuous
 62
     7
100
AcDbEllipse
 10
0.0
 20
-41.540257
 30
0.0
 11
17.539331723472827
 21
10.129423882533434
 31
0.0
210
0.0
220
0.0
230
1.0
 40
0.015115
 41
1.3756992797194922
 42
1.502323258095706
  0
LINE
  5
104
100
AcDbEntity
  8
0
390
0
  6
Continuous
 62
     7
100
AcDbLine
 10
5.438177
 20
-40.591109
 30
0.0
 11
5.75
 21
-40.411078
 31
0.0
  0
ELLIPSE
  5
105
100
AcDbEntity
  8
0
390
0
  6
Continuous
 62
     7
100
AcDbEllipse
 10
0.0
 20
-37.78748
 30
0.0
 11
-17.539331723472827
 21
10.129423882533434
 31
0.0
210
0.0
220
0.0
230
1.0
 40
0.015115
 41
4.4058786655421258
 42
4.5347505440260463
  0
LINE
  5
106
100
AcDbEntity
  8
0
390
0
  6
Continuous
 62
     7
100
AcDbLine
 10
-5.438177
 20
-40.591109
 30
0.0
 11
-5.75
 21
-40.411078
 31
0.0
  0
LINE
  5
107
100
AcDbEntity
  8
0
390
0
  6
Continuous
 62
     7
100
AcDbLine
 10
-3.25
 20
-39.316465
 30
0.0
 11
-3.25
 21
-38.967702
 31
0.0
  0
ELLIPSE
  5
108
100
AcDbEntity
  8
0
390
0
  6
Continuous
 62
     7
100
AcDbEllipse
 10
0.0
 20
-37.78748
 30
0.0
 11
17.539331723472827
 21
10.129423882533434
 31
0.0
210
0.0
220
0.0
230
1.0
 40
0.015115
 41
1.74843476315354
 42
1.8773066416374602
  0
LINE
  5
109
100
AcDbEntity
  8
0
390
0
  6
Continuous
 62
     7
100
AcDbLine
 10
-1.047282
 20
-40.582714
 30
0.0
 11
-0.75
 21
-40.411078
 31
0.0
  0
ELLIPSE
  5
10A
100
AcDbEntity
  8
0
390
0
  6
Continuous
 62
     7
100
AcDbEllipse
 10
0.0
 20
-41.540257
 30
0.0
 11
-17.539331723472827
 21
10.129423882533434
 31
0.0
210
0.0
220
0.0
230
1.0
 40
0.015115
 41
4.7808620490838809
 42
4.9074860274600942
  0
LINE
  5
10B
100
AcDbEntity
  8
0
390
0
  6
Continuous
 62
     7
100
AcDbLine
 10
7.576775
 20
-40.599741
 30
0.0
 11
7.25
 21
-40.411078
 31
0.0
  0
ELLIPSE
  5
10C
100
AcDbEntity
  8
0
390
0
  6
Continuous
 62
     7
100
AcDbEllipse
 10
0.0
 20
-45.293034
 30
0.0
 11
17.539331723472827
 21
10.129423882533434
 31
0.0
210
0.0
220
0.0
230
1.0
 40
0.015115
 41
0.9897049684510086
 42
1.1153897730318199
  0
LINE
  5
10D
100
AcDbEntity
  8
0
390
0
  6
Continuous
 62
     7
100
AcDbLine
 10
-7.576774
 20
-40.599741
 30
0.0
 11
-7.25
 21
-40.411078
 31
0.0
  0
ELLIPSE
  5
10E
100
AcDbEntity
  8
0
390
0
  6
Continuous
 62
     7
100
AcDbEllipse
 10
0.0
 20
-45.293034
 30
0.0
 11
-17.539331723472827
 21
10.129423882533434
 31
0.0
210
0.0
220
0.0
230
1.0
 40
0.015115
 41
5.1677955341477659
 42
5.2934803387285783
  0
LINE
  5
10F
100
AcDbEntity
  8
0
390
0
  6
Continuous
 62
     7
100
AcDbLine
 10
1.047283
 20
-43.126193
 30
0.0
 11
0.75
 21
-43.297829
 31
0.0
  0
LINE
  5
110
100
AcDbEntity
  8
0
390
0
  6
Continuous
 62
     7
100
AcDbLine
 10
1.047283
 20
-43.126193
 30
0.0
 11
1.047283
 21
-40.582714
 31
0.0
  0
LINE
  5
111
100
AcDbEntity
  8
0
390
0
  6
Continuous
 62
     7
100
AcDbLine
 10
5.438177
 20
-43.117798
 30
0.0
 11
5.75
 21
-43.297829
 31
0.0
  0
LINE
  5
112
100
AcDbEntity
  8
0
390
0
  6
Continuous
 62
     7
100
AcDbLine
 10
5.438177
 20
-40.591109
 30
0.0
 11
5.438177
 21
-43.117798
 31
0.0
  0
LINE
  5
113
100
AcDbEntity
  8
0
390
0
  6
Continuous
 62
     7
100
AcDbLine
 10
-5.438177
 20
-43.117798
 30
0.0
 11
-5.75
 21
-43.297829
 31
0.0
  0
LINE
  5
114
100
AcDbEntity
  8
0
390
0
  6
Continuous
 62
     7
100
AcDbLine
 10
-5.438177
 20
-43.117798
 30
0.0
 11
-5.438177
 21
-40.591109
 31
0.0
  0
LINE
  5
115
100
AcDbEntity
  8
0
390
0
  6
Continuous
 62
     7
100
AcDbLine
 10
-1.047282
 20
-43.126193
 30
0.0
 11
-0.75
 21
-43.297829
 31
0.0
  0
LINE
  5
116
100
AcDbEntity
  8
0
390
0
  6
Continuous
 62
     7
100
AcDbLine
 10
-1.047282
 20
-40.582714
 30
0.0
 11
-1.047282
 21
-43.126193
 31
0.0
  0
LINE
  5
117
100
AcDbEntity
  8
0
390
0
  6
Continuous
 62
     7
100
AcDbLine
 10
-7.576774
 20
-43.109166
 30
0.0
 11
-7.25
 21
-43.297829
 31
0.0
  0
LINE
  5
118
100
AcDbEntity
  8
0
390
0
  6
Continuous
 62
     7
100
AcDbLine
 10
-7.576774
 20
-40.599741
 30
0.0
 11
-7.576774
 21
-43.109166
 31
0.0
  0
LINE
  5
119
100
AcDbEntity
  8
0
390
0
  6
Continuous
 62
     7
100
AcDbLine
 10
7.576775
 20
-43.109166
 30
0.0
 11
7.25
 21
-43.297829
 31
0.0
  0
LINE
  5
11A
100
AcDbEntity
  8
0
390
0
  6
Continuous
 62
     7
100
AcDbLine
 10
7.576775
 20
-43.109166
 30
0.0
 11
7.576775
 21
-40.599741
 31
0.0
  0
ELLIPSE
  5
11B
100
AcDbEntity
  8
0
390
0
  6
Continuous
 62
     7
100
AcDbEllipse
 10
0.0
 20
-38.415873
 30
0.0
 11
-17.539331723472827
 21
10.129423882533434
 31
0.0
210
0.0
220
0.0
230
1.0
 40
0.015115
 41
2.0262028805579737
 42
2.1518876851387851
  0
ELLIPSE
  5
11C
100
AcDbEntity
  8
0
390
0
  6
Continuous
 62
     7
100
AcDbEllipse
 10
0.0
 20
-38.415873
 30
0.0
 11
17.539331723472827
 21
10.129423882533434
 31
0.0
210
0.0
220
0.0
230
1.0
 40
0.015115
 41
4.131297622040802
 42
4.2569824266216134
  0
LINE
  5
11D
100
AcDbEntity
  8
0
390
0
  6
Continuous
 62
     7
100
AcDbLine
 10
3.25
 20
-44.392442
 30
0.0
 11
3.25
 21
-44.741205
 31
0.0
  0
ELLIPSE
  5
11E
100
AcDbEntity
  8
0
390
0
  6
Continuous
 62
     7
100
AcDbEllipse
 10
0.0
 20
-45.921427
 30
0.0
 11
17.539331723472827
 21
10.129423882533434
 31
0.0
210
0.0
220
0.0
230
1.0
 40
0.015115
 41
4.8900274167433331
 42
5.0188992952272535
  0
LINE
  5
11F
100
AcDbEntity
  8
0
390
0
  6
Continuous
 62
     7
100
AcDbLine
 10
-3.25
 20
-44.392442
 30
0.0
 11
-3.25
 21
-44.741205
 31
0.0
  0
ELLIPSE
  5
120
100
AcDbEntity
  8
0
390
0
  6
Continuous
 62
     7
100
AcDbEllipse
 10
0.0
 20
-45.921427
 30
0.0
 11
-17.539331723472827
 21
10.129423882533434
 31
0.0
210
0.0
220
0.0
230
1.0
 40
0.015115
 41
1.264286011952334
 42
1.3931578904362543
  0
ELLIPSE
  5
121
100
AcDbEntity
  8
0
390
0
  6
Continuous
 62
     7
100
AcDbEllipse
 10
0.0
 20
-42.16865
 30
0.0
 11
17.539331723472827
 21
10.129423882533434
 31
0.0
210
0.0
220
0.0
230
1.0
 40
0.015115
 41
4.5172919333092851
 42
4.6439159116854993
  0
ELLIPSE
  5
122
100
AcDbEntity
  8
0
390
0
  6
Continuous
 62
     7
100
AcDbEllipse
 10
0.0
 20
-42.16865
 30
0.0
 11
-17.539331723472827
 21
10.129423882533434
 31
0.0
210
0.0
220
0.0
230
1.0
 40
0.015115
 41
1.6392693954940882
 42
1.765893373870302
  0
LINE
  5
123
100
AcDbEntity
  8
0
390
0
  6
Continuous
 62
     7
100
AcDbLine
 10
-8.663312
 20
-46.23463
 30
0.0
 11
-9.0
 21
-46.040243
 31
0.0
  0
LINE
  5
124
100
AcDbEntity
  8
0
390
0
  6
Continuous
 62
     7
100
AcDbLine
 10
-6.5
 20
-44.96468
 30
0.0
 11
-6.5
 21
-44.596867
 31
0.0
  0
ELLIPSE
  5
125
100
AcDbEntity
  8
0
390
0
  6
Continuous
 62
     7
100
AcDbEllipse
 10
0.0
 20
-41.540257
 30
0.0
 11
17.539331723472827
 21
10.129423882533434
 31
0.0
210
0.0
220
0.0
230
1.0
 40
0.015115
 41
1.941702070764213
 42
2.0786564247072801
  0
LINE
  5
126
100
AcDbEntity
  8
0
390
0
  6
Continuous
 62
     7
100
AcDbLine
 10
4.306106
 20
-46.216973
 30
0.0
 11
4.0
 21
-46.040243
 31
0.0
  0
LINE
  5
127
100
AcDbEntity
  8
0
390
0
  6
Continuous
 62
     7
100
AcDbLine
 10
6.5
 20
-44.96468
 30
0.0
 11
6.5
 21
-44.596867
 31
0.0
  0
ELLIPSE
  5
128
100
AcDbEntity
  8
0
390
0
  6
Continuous
 62
     7
100
AcDbEllipse
 10
0.0
 20
-49.045811
 30
0.0
 11
17.539331723472827
 21
10.129423882533434
 31
0.0
210
0.0
220
0.0
230
1.0
 40
0.015115
 41
1.1824319721088197
 42
1.3140294688721599
  0
LINE
  5
129
100
AcDbEntity
  8
0
390
0
  6
Continuous
 62
     7
100
AcDbLine
 10
8.663313
 20
-46.23463
 30
0.0
 11
9.0
 21
-46.040243
 31
0.0
  0
ELLIPSE
  5
12A
100
AcDbEntity
  8
0
390
0
  6
Continuous
 62
     7
100
AcDbEllipse
 10
0.0
 20
-41.540257
 30
0.0
 11
-17.539331723472827
 21
10.129423882533434
 31
0.0
210
0.0
220
0.0
230
1.0
 40
0.015115
 41
4.2045288824723084
 42
4.3414832364153746
  0
LINE
  5
12B
100
AcDbEntity
  8
0
390
0
  6
Continuous
 62
     7
100
AcDbLine
 10
-4.306105
 20
-46.216973
 30
0.0
 11
-4.0
 21
-46.040243
 31
0.0
  0
ELLIPSE
  5
12C
100
AcDbEntity
  8
0
390
0
  6
Continuous
 62
     7
100
AcDbEllipse
 10
0.0
 20
-49.045811
 30
0.0
 11
-17.539331723472827
 21
10.129423882533434
 31
0.0
210
0.0
220
0.0
230
1.0
 40
0.015115
 41
4.9691558383074268
 42
5.1007533350707668
  0
LINE
  5
12D
100
AcDbEntity
  8
0
390
0
  6
Continuous
 62
     7
100
AcDbLine
 10
-2.200844
 20
-46.212961
 30
0.0
 11
-2.5
 21
-46.040243
 31
0.0
  0
LINE
  5
12E
100
AcDbEntity
  8
0
390
0
  6
Continuous
 62
     7
100
AcDbLine
 10
0.0
 20
-44.939509
 30
0.0
 11
0.0
 21
-44.596867
 31
0.0
  0
ELLIPSE
  5
12F
100
AcDbEntity
  8
0
390
0
  6
Continuous
 62
     7
100
AcDbEllipse
 10
0.0
 20
-45.293034
 30
0.0
 11
17.539331723472827
 21
10.129423882533434
 31
0.0
210
0.0
220
0.0
230
1.0
 40
0.015115
 41
1.562067021436516
 42
1.6878743521384871
  0
LINE
  5
130
100
AcDbEntity
  8
0
390
0
  6
Continuous
 62
     7
100
AcDbLine
 10
2.200845
 20
-46.212961
 30
0.0
 11
2.5
 21
-46.040243
 31
0.0
  0
ELLIPSE
  5
131
100
AcDbEntity
  8
0
390
0
  6
Continuous
 62
     7
100
AcDbEllipse
 10
0.0
 20
-45.293034
 30
0.0
 11
-17.539331723472827
 21
10.129423882533434
 31
0.0
210
0.0
220
0.0
230
1.0
 40
0.015115
 41
4.5953109550410991
 42
4.7211182857430707
  0
LINE
  5
132
100
AcDbEntity
  8
0
390
0
  6
Continuous
 62
     7
100
AcDbLine
 10
4.306106
 20
-48.750264
 30
0.0
 11
4.0
 21
-48.926994
 31
0.0
  0
LINE
  5
133
100
AcDbEntity
  8
0
390
0
  6
Continuous
 62
     7
100
AcDbLine
 10
4.306106
 20
-48.750264
 30
0.0
 11
4.306106
 21
-46.216973
 31
0.0
  0
LINE
  5
134
100
AcDbEntity
  8
0
390
0
  6
Continuous
 62
     7
100
AcDbLine
 10
-8.663312
 20
-48.732608
 30
0.0
 11
-9.0
 21
-48.926994
 31
0.0
  0
LINE
  5
135
100
AcDbEntity
  8
0
390
0
  6
Continuous
 62
     7
100
AcDbLine
 10
-8.663312
 20
-48.732608
 30
0.0
 11
-8.663312
 21
-46.23463
 31
0.0
  0
LINE
  5
136
100
AcDbEntity
  8
0
390
0
  6
Continuous
 62
     7
100
AcDbLine
 10
-2.200844
 20
-48.754277
 30
0.0
 11
-2.5
 21
-48.926994
 31
0.0
  0
LINE
  5
137
100
AcDbEntity
  8
0
390
0
  6
Continuous
 62
     7
100
AcDbLine
 10
-2.200844
 20
-48.754277
 30
0.0
 11
-2.200844
 21
-46.212961
 31
0.0
  0
LINE
  5
138
100
AcDbEntity
  8
0
390
0
  6
Continuous
 62
     7
100
AcDbLine
 10
2.200845
 20
-48.754277
 30
0.0
 11
2.5
 21
-48.926994
 31
0.0
  0
LINE
  5
139
100
AcDbEntity
  8
0
390
0
  6
Continuous
 62
     7
100
AcDbLine
 10
2.200845
 20
-46.212961
 30
0.0
 11
2.200845
 21
-48.754277
 31
0.0
  0
LINE
  5
13A
100
AcDbEntity
  8
0
390
0
  6
Continuous
 62
     7
100
AcDbLine
 10
8.663313
 20
-48.732608
 30
0.0
 11
9.0
 21
-48.926994
 31
0.0
  0
LINE
  5
13B
100
AcDbEntity
  8
0
390
0
  6
Continuous
 62
     7
100
AcDbLine
 10
8.663313
 20
-46.23463
 30
0.0
 11
8.663313
 21
-48.732608
 31
0.0
  0
LINE
  5
13C
100
AcDbEntity
  8
0
390
0
  6
Continuous
 62
     7
100
AcDbLine
 10
-4.306105
 20
-48.750264
 30
0.0
 11
-4.0
 21
-48.926994
 31
0.0
  0
LINE
  5
13D
100
AcDbEntity
  8
0
390
0
  6
Continuous
 62
     7
100
AcDbLine
 10
-4.306105
 20
-46.216973
 30
0.0
 11
-4.306105
 21
-48.750264
 31
0.0
  0
LINE
  5
13E
100
AcDbEntity
  8
0
390
0
  6
Continuous
 62
     7
100
AcDbLine
 10
-6.5
 20
-50.002558
 30
0.0
 11
-6.5
 21
-50.37037
 31
0.0
  0
ELLIPSE
  5
13F
100
AcDbEntity
  8
0
390
0
  6
Continuous
 62
     7
100
AcDbEllipse
 10
0.0
 20
-53.42698
 30
0.0
 11
-17.539331723472827
 21
10.129423882533434
 31
0.0
210
0.0
220
0.0
230
1.0
 40
0.015115
 41
1.0629362288825133
 42
1.199890582825581
  0
ELLIPSE
  5
140
100
AcDbEntity
  8
0
390
0
  6
Continuous
 62
     7
100
AcDbEllipse
 10
0.0
 20
-45.921427
 30
0.0
 11
17.539331723472827
 21
10.129423882533434
 31
0.0
210
0.0
220
0.0
230
1.0
 40
0.015115
 41
4.3240246256986135
 42
4.4556221224619526
  0
LINE
  5
141
100
AcDbEntity
  8
0
390
0
  6
Continuous
 62
     7
100
AcDbLine
 10
0.0
 20
-50.027729
 30
0.0
 11
0.0
 21
-50.37037
 31
0.0
  0
ELLIPSE
  5
142
100
AcDbEntity
  8
0
390
0
  6
Continuous
 62
     7
100
AcDbEllipse
 10
0.0
 20
-49.674203
 30
0.0
 11
-17.539331723472827
 21
10.129423882533434
 31
0.0
210
0.0
220
0.0
230
1.0
 40
0.015115
 41
1.453718301451306
 42
1.5795256321532773
  0
ELLIPSE
  5
143
100
AcDbEntity
  8
0
390
0
  6
Continuous
 62
     7
100
AcDbEllipse
 10
0.0
 20
-49.674203
 30
0.0
 11
17.539331723472827
 21
10.129423882533434
 31
0.0
210
0.0
220
0.0
230
1.0
 40
0.015115
 41
4.7036596750263096
 42
4.8294670057282802
  0
LINE
  5
144
100
AcDbEntity
  8
0
390
0
  6
Continuous
 62
     7
100
AcDbLine
 10
6.5
 20
-50.002558
 30
0.0
 11
6.5
 21
-50.37037
 31
0.0
  0
ELLIPSE
  5
145
100
AcDbEntity
  8
0
390
0
  6
Continuous
 62
     7
100
AcDbEllipse
 10
0.0
 20
-45.921427
 30
0.0
 11
-17.539331723472827
 21
10.129423882533434
 31
0.0
210
0.0
220
0.0
230
1.0
 40
0.015115
 41
1.8275631847176341
 42
1.9591606814809737
  0
ELLIPSE
  5
146
100
AcDbEntity
  8
0
390
0
  6
Continuous
 62
     7
100
AcDbEllipse
 10
0.0
 20
-53.42698
 30
0.0
 11
17.539331723472827
 21
10.129423882533434
 31
0.0
210
0.0
220
0.0
230
1.0
 40
0.015115
 41
5.0832947243540048
 42
5.2202490782970736
  0
ELLIPSE
  5
147
100
AcDbEntity
  8
0
390
0
  6
Continuous
 62
     7
100
AcDbEllipse
 10
0.0
 20
-49.045811
 30
0.0
 11
17.539331723472827
 21
10.129423882533434
 31
0.0
210
0.0
220
0.0
230
1.0
 40
0.015115
 41
1.74843476315354
 42
1.8773066416374604
  0
LINE
  5
148
100
AcDbEntity
  8
0
390
0
  6
Continuous
 62
     7
100
AcDbLine
 10
-5.438177
 20
-51.849439
 30
0.0
 11
-5.75
 21
-51.669408
 31
0.0
  0
LINE
  5
149
100
AcDbEntity
  8
0
390
0
  6
Continuous
 62
     7
100
AcDbLine
 10
-3.25
 20
-50.574795
 30
0.0
 11
-3.25
 21
-50.226032
 31
0.0
  0
ELLIPSE
  5
14A
100
AcDbEntity
  8
0
390
0
  6
Continuous
 62
     7
100
AcDbEllipse
 10
0.0
 20
-49.045811
 30
0.0
 11
-17.539331723472827
 21
10.129423882533434
 31
0.0
210
0.0
220
0.0
230
1.0
 40
0.015115
 41
4.4058786655421258
 42
4.5347505440260463
  0
LINE
  5
14B
100
AcDbEntity
  8
0
390
0
  6
Continuous
 62
     7
100
AcDbLine
 10
3.25
 20
-50.574795
 30
0.0
 11
3.25
 21
-50.226032
 31
0.0
  0
LINE
  5
14C
100
AcDbEntity
  8
0
390
0
  6
Continuous
 62
     7
100
AcDbLine
 10
5.438177
 20
-51.849439
 30
0.0
 11
5.75
 21
-51.669408
 31
0.0
  0
ELLIPSE
  5
14D
100
AcDbEntity
  8
0
390
0
  6
Continuous
 62
     7
100
AcDbEllipse
 10
0.0
 20
-52.798587
 30
0.0
 11
17.539331723472827
 21
10.129423882533434
 31
0.0
210
0.0
220
0.0
230
1.0
 40
0.015115
 41
1.3756992797194918
 42
1.502323258095706
  0
LINE
  5
14E
100
AcDbEntity
  8
0
390
0
  6
Continuous
 62
     7
100
AcDbLine
 10
1.047283
 20
-51.841044
 30
0.0
 11
0.75
 21
-51.669408
 31
0.0
  0
ELLIPSE
  5
14F
100
AcDbEntity
  8
0
390
0
  6
Continuous
 62
     7
100
AcDbEllipse
 10
0.0
 20
-52.798587
 30
0.0
 11
-17.539331723472827
 21
10.129423882533434
 31
0.0
210
0.0
220
0.0
230
1.0
 40
0.015115
 41
4.7808620490838809
 42
4.9074860274600942
  0
LINE
  5
150
100
AcDbEntity
  8
0
390
0
  6
Continuous
 62
     7
100
AcDbLine
 10
-1.047282
 20
-51.841044
 30
0.0
 11
-0.75
 21
-51.669408
 31
0.0
  0
ELLIPSE
  5
151
100
AcDbEntity
  8
0
390
0
  6
Continuous
 62
     7
100
AcDbEllipse
 10
0.0
 20
-56.551364
 30
0.0
 11
17.539331723472827
 21
10.129423882533434
 31
0.0
210
0.0
220
0.0
230
1.0
 40
0.015115
 41
0.9897049684510086
 42
1.1153897730318201
  0
LINE
  5
152
100
AcDbEntity
  8
0
390
0
  6
Continuous
 62
     7
100
AcDbLine
 10
7.576775
 20
-51.858071
 30
0.0
 11
7.25
 21
-51.669408
 31
0.0
  0
ELLIPSE
  5
153
100
AcDbEntity
  8
0
390
0
  6
Continuous
 62
     7
100
AcDbEllipse
 10
0.0
 20
-56.551364
 30
0.0
 11
-17.539331723472827
 21
10.129423882533434
 31
0.0
210
0.0
220
0.0
230
1.0
 40
0.015115
 41
5.1677955341477668
 42
5.2934803387285783
  0
LINE
  5
154
100
AcDbEntity
  8
0
390
0
  6
Continuous
 62
     7
100
AcDbLine
 10
-7.576774
 20
-51.858071
 30
0.0
 11
-7.25
 21
-51.669408
 31
0.0
  0
LINE
  5
155
100
AcDbEntity
  8
0
390
0
  6
Continuous
 62
     7
100
AcDbLine
 10
-1.047282
 20
-54.384523
 30
0.0
 11
-1.047282
 21
-51.841044
 31
0.0
  0
LINE
  5
156
100
AcDbEntity
  8
0
390
0
  6
Continuous
 62
     7
100
AcDbLine
 10
-1.047282
 20
-54.384523
 30
0.0
 11
-0.75
 21
-54.556159
 31
0.0
  0
LINE
  5
157
100
AcDbEntity
  8
0
390
0
  6
Continuous
 62
     7
100
AcDbLine
 10
-7.576774
 20
-54.367496
 30
0.0
 11
-7.576774
 21
-51.858071
 31
0.0
  0
LINE
  5
158
100
AcDbEntity
  8
0
390
0
  6
Continuous
 62
     7
100
AcDbLine
 10
-7.576774
 20
-54.367496
 30
0.0
 11
-7.25
 21
-54.556159
 31
0.0
  0
LINE
  5
159
100
AcDbEntity
  8
0
390
0
  6
Continuous
 62
     7
100
AcDbLine
 10
-5.438177
 20
-51.849439
 30
0.0
 11
-5.438177
 21
-54.376128
 31
0.0
  0
LINE
  5
15A
100
AcDbEntity
  8
0
390
0
  6
Continuous
 62
     7
100
AcDbLine
 10
-5.438177
 20
-54.376128
 30
0.0
 11
-5.75
 21
-54.556159
 31
0.0
  0
LINE
  5
15B
100
AcDbEntity
  8
0
390
0
  6
Continuous
 62
     7
100
AcDbLine
 10
1.047283
 20
-51.841044
 30
0.0
 11
1.047283
 21
-54.384523
 31
0.0
  0
LINE
  5
15C
100
AcDbEntity
  8
0
390
0
  6
Continuous
 62
     7
100
AcDbLine
 10
1.047283
 20
-54.384523
 30
0.0
 11
0.75
 21
-54.556159
 31
0.0
  0
LINE
  5
15D
100
AcDbEntity
  8
0
390
0
  6
Continuous
 62
     7
100
AcDbLine
 10
5.438177
 20
-54.376128
 30
0.0
 11
5.438177
 21
-51.849439
 31
0.0
  0
LINE
  5
15E
100
AcDbEntity
  8
0
390
0
  6
Continuous
 62
     7
100
AcDbLine
 10
5.438177
 20
-54.376128
 30
0.0
 11
5.75
 21
-54.556159
 31
0.0
  0
LINE
  5
15F
100
AcDbEntity
  8
0
390
0
  6
Continuous
 62
     7
100
AcDbLine
 10
7.576775
 20
-51.858071
 30
0.0
 11
7.576775
 21
-54.367496
 31
0.0
  0
LINE
  5
160
100
AcDbEntity
  8
0
390
0
  6
Continuous
 62
     7
100
AcDbLine
 10
7.576775
 20
-54.367496
 30
0.0
 11
7.25
 21
-54.556159
 31
0.0
  0
ELLIPSE
  5
161
100
AcDbEntity
  8
0
390
0
  6
Continuous
 62
     7
100
AcDbEllipse
 10
0.0
 20
-49.674203
 30
0.0
 11
17.539331723472827
 21
10.129423882533434
 31
0.0
210
0.0
220
0.0
230
1.0
 40
0.015115
 41
4.1312976220408011
 42
4.2569824266216134
  0
ELLIPSE
  5
162
100
AcDbEntity
  8
0
390
0
  6
Continuous
 62
     7
100
AcDbEllipse
 10
0.0
 20
-49.674203
 30
0.0
 11
-17.539331723472827
 21
10.129423882533434
 31
0.0
210
0.0
220
0.0
230
1.0
 40
0.015115
 41
2.0262028805579733
 42
2.1518876851387847
  0
ELLIPSE
  5
163
100
AcDbEntity
  8
0
390
0
  6
Continuous
 62
     7
100
AcDbEllipse
 10
0.0
 20
-57.179757
 30
0.0
 11
17.539331723472827
 21
10.129423882533434
 31
0.0
210
0.0
220
0.0
230
1.0
 40
0.015115
 41
4.8900274167433331
 42
5.0188992952272535
  0
LINE
  5
164
100
AcDbEntity
  8
0
390
0
  6
Continuous
 62
     7
100
AcDbLine
 10
3.25
 20
-55.650772
 30
0.0
 11
3.25
 21
-55.999535
 31
0.0
  0
ELLIPSE
  5
165
100
AcDbEntity
  8
0
390
0
  6
Continuous
 62
     7
100
AcDbEllipse
 10
0.0
 20
-57.179757
 30
0.0
 11
-17.539331723472827
 21
10.129423882533434
 31
0.0
210
0.0
220
0.0
230
1.0
 40
0.015115
 41
1.2642860119523331
 42
1.3931578904362536
  0
LINE
  5
166
100
AcDbEntity
  8
0
390
0
  6
Continuous
 62
     7
100
AcDbLine
 10
-3.25
 20
-55.650772
 30
0.0
 11
-3.25
 21
-55.999535
 31
0.0
  0
ELLIPSE
  5
167
100
AcDbEntity
  8
0
390
0
  6
Continuous
 62
     7
100
AcDbEllipse
 10
0.0
 20
-53.42698
 30
0.0
 11
-17.539331723472827
 21
10.129423882533434
 31
0.0
210
0.0
220
0.0
230
1.0
 40
0.015115
 41
1.6392693954940873
 42
1.7658933738703011
  0
ELLIPSE
  5
168
100
AcDbEntity
  8
0
390
0
  6
Continuous
 62
     7
100
AcDbEllipse
 10
0.0
 20
-53.42698
 30
0.0
 11
17.539331723472827
 21
10.129423882533434
 31
0.0
210
0.0
220
0.0
230
1.0
 40
0.015115
 41
4.5172919333092851
 42
4.6439159116854993
  0
LINE
  5
169
100
AcDbEntity
  8
0
390
0
  6
Continuous
 62
     7
100
AcDbLine
 10
-6.5
 20
-56.22268
 30
0.0
 11
-6.5
 21
-55.854867
 31
0.0
  0
LINE
  5
16A
100
AcDbEntity
  8
0
390
0
  6
Continuous
 62
     7
100
AcDbLine
 10
-4.306105
 20
-57.474973
 30
0.0
 11
-4.0
 21
-57.298243
 31
0.0
  0
ELLIPSE
  5
16B
100
AcDbEntity
  8
0
390
0
  6
Continuous
 62
     7
100
AcDbEllipse
 10
0.0
 20
-60.303811
 30
0.0
 11
-17.539331723472827
 21
10.129423882533434
 31
0.0
210
0.0
220
0.0
230
1.0
 40
0.015115
 41
4.9691558383074268
 42
5.1007533350707668
  0
LINE
  5
16C
100
AcDbEntity
  8
0
390
0
  6
Continuous
 62
     7
100
AcDbLine
 10
4.306106
 20
-57.474973
 30
0.0
 11
4.0
 21
-57.298243
 31
0.0
  0
LINE
  5
16D
100
AcDbEntity
  8
0
390
0
  6
Continuous
 62
     7
100
AcDbLine
 10
6.5
 20
-56.22268
 30
0.0
 11
6.5
 21
-55.854867
 31
0.0
  0
ELLIPSE
  5
16E
100
AcDbEntity
  8
0
390
0
  6
Continuous
 62
     7
100
AcDbEllipse
 10
0.0
 20
-60.303811
 30
0.0
 11
17.539331723472827
 21
10.129423882533434
 31
0.0
210
0.0
220
0.0
230
1.0
 40
0.015115
 41
1.1824319721088197
 42
1.3140294688721599
  0
LINE
  5
16F
100
AcDbEntity
  8
0
390
0
  6
Continuous
 62
     7
100
AcDbLine
 10
-2.200844
 20
-57.470961
 30
0.0
 11
-2.5
 21
-57.298243
 31
0.0
  0
LINE
  5
170
100
AcDbEntity
  8
0
390
0
  6
Continuous
 62
     7
100
AcDbLine
 10
0.0
 20
-56.197509
 30
0.0
 11
0.0
 21
-55.854867
 31
0.0
  0
ELLIPSE
  5
171
100
AcDbEntity
  8
0
390
0
  6
Continuous
 62
     7
100
AcDbEllipse
 10
0.0
 20
-56.551034
 30
0.0
 11
17.539331723472827
 21
10.129423882533434
 31
0.0
210
0.0
220
0.0
230
1.0
 40
0.015115
 41
1.562067021436516
 42
1.6878743521384871
  0
LINE
  5
172
100
AcDbEntity
  8
0
390
0
  6
Continuous
 62
     7
100
AcDbLine
 10
-8.663312
 20
-57.49263
 30
0.0
 11
-9.0
 21
-57.298243
 31
0.0
  0
ELLIPSE
  5
173
100
AcDbEntity
  8
0
390
0
  6
Continuous
 62
     7
100
AcDbEllipse
 10
0.0
 20
-52.798257
 30
0.0
 11
17.539331723472827
 21
10.129423882533434
 31
0.0
210
0.0
220
0.0
230
1.0
 40
0.015115
 41
1.941702070764213
 42
2.0786564247072801
  0
LINE
  5
174
100
AcDbEntity
  8
0
390
0
  6
Continuous
 62
     7
100
AcDbLine
 10
2.200845
 20
-57.470961
 30
0.0
 11
2.5
 21
-57.298243
 31
0.0
  0
ELLIPSE
  5
175
100
AcDbEntity
  8
0
390
0
  6
Continuous
 62
     7
100
AcDbEllipse
 10
0.0
 20
-56.551034
 30
0.0
 11
-17.539331723472827
 21
10.129423882533434
 31
0.0
210
0.0
220
0.0
230
1.0
 40
0.015115
 41
4.5953109550410991
 42
4.7211182857430707
  0
LINE
  5
176
100
AcDbEntity
  8
0
390
0
  6
Continuous
 62
     7
100
AcDbLine
 10
8.663313
 20
-57.49263
 30
0.0
 11
9.0
 21
-57.298243
 31
0.0
  0
ELLIPSE
  5
177
100
AcDbEntity
  8
0
390
0
  6
Continuous
 62
     7
100
AcDbEllipse
 10
0.0
 20
-52.798257
 30
0.0
 11
-17.539331723472827
 21
10.129423882533434
 31
0.0
210
0.0
220
0.0
230
1.0
 40
0.015115
 41
4.2045288824723066
 42
4.3414832364153746
  0
LINE
  5
178
100
AcDbEntity
  8
0
390
0
  6
Continuous
 62
     7
100
AcDbLine
 10
-8.663312
 20
-57.983619
 30
0.0
 11
-8.663312
 21
-57.49263
 31
0.0
  0
LINE
  5
179
100
AcDbEntity
  8
0
390
0
  6
Continuous
 62
     7
100
AcDbLine
 10
2.200845
 20
-57.470961
 30
0.0
 11
2.200845
 21
-57.983619
 31
0.0
  0
LINE
  5
17A
100
AcDbEntity
  8
0
390
0
  6
Continuous
 62
     7
100
AcDbLine
 10
-4.306105
 20
-57.474973
 30
0.0
 11
-4.306105
 21
-57.983619
 31
0.0
  0
LINE
  5
17B
100
AcDbEntity
  8
0
390
0
  6
Continuous
 62
     7
100
AcDbLine
 10
4.306106
 20
-57.983619
 30
0.0
 11
4.306106
 21
-57.474973
 31
0.0
  0
LINE
  5
17C
100
AcDbEntity
  8
0
390
0
  6
Continuous
 62
     7
100
AcDbLine
 10
-2.200844
 20
-57.983619
 30
0.0
 11
-2.200844
 21
-57.470961
 31
0.0
  0
LINE
  5
17D
100
AcDbEntity
  8
0
390
0
  6
Continuous
 62
     7
100
AcDbLine
 10
8.663313
 20
-57.49263
 30
0.0
 11
8.663313
 21
-57.983619
 31
0.0
  0
LINE
  5
17E
100
AcDbEntity
  8
0
390
0
  6
Continuous
 62
     7
100
AcDbLine
 10
3.240984
 20
-34.783619
 30
0.0
 11
3.240984
 21
-34.983619
 31
0.0
  0
LINE
  5
17F
100
AcDbEntity
  8
0
390
0
  6
Continuous
 62
     7
100
AcDbLine
 10
3.240984
 20
-34.783619
 30
0.0
 11
4.819075
 21
-34.783619
 31
0.0
  0
LINE
  5
180
100
AcDbEntity
  8
0
390
0
  6
Continuous
 62
     7
100
AcDbLine
 10
4.819075
 20
-34.783619
 30
0.0
 11
4.819075
 21
-34.983619
 31
0.0
  0
LINE
  5
181
100
AcDbEntity
  8
0
390
0
  6
Continuous
 62
     7
100
AcDbLine
 10
-1.657621
 20
-34.783619
 30
0.0
 11
-0.821505
 21
-34.783619
 31
0.0
  0
LINE
  5
182
100
AcDbEntity
  8
0
390
0
  6
Continuous
 62
     7
100
AcDbLine
 10
-0.821505
 20
-34.783619
 30
0.0
 11
-0.821505
 21
-34.983619
 31
0.0
  0
LINE
  5
183
100
AcDbEntity
  8
0
390
0
  6
Continuous
 62
     7
100
AcDbLine
 10
2.404897
 20
-34.783619
 30
0.0
 11
2.404897
 21
-34.983619
 31
0.0
  0
LINE
  5
184
100
AcDbEntity
  8
0
390
0
  6
Continuous
 62
     7
100
AcDbLine
 10
2.404897
 20
-34.783619
 30
0.0
 11
3.240984
 21
-34.783619
 31
0.0
  0
LINE
  5
185
100
AcDbEntity
  8
0
390
0
  6
Continuous
 62
     7
100
AcDbLine
 10
1.176561
 20
-34.783619
 30
0.0
 11
1.176561
 21
-34.983619
 31
0.0
  0
LINE
  5
186
100
AcDbEntity
  8
0
390
0
  6
Continuous
 62
     7
100
AcDbLine
 10
1.176561
 20
-34.783619
 30
0.0
 11
2.404897
 21
-34.783619
 31
0.0
  0
LINE
  5
187
100
AcDbEntity
  8
0
390
0
  6
Continuous
 62
     7
100
AcDbLine
 10
0.340475
 20
-34.783619
 30
0.0
 11
0.340475
 21
-34.983619
 31
0.0
  0
LINE
  5
188
100
AcDbEntity
  8
0
390
0
  6
Continuous
 62
     7
100
AcDbLine
 10
-0.821505
 20
-34.783619
 30
0.0
 11
0.340475
 21
-34.783619
 31
0.0
  0
LINE
  5
189
100
AcDbEntity
  8
0
390
0
  6
Continuous
 62
     7
100
AcDbLine
 10
-2.819518
 20
-34.783619
 30
0.0
 11
-2.819518
 21
-34.983619
 31
0.0
  0
LINE
  5
18A
100
AcDbEntity
  8
0
390
0
  6
Continuous
 62
     7
100
AcDbLine
 10
-2.819518
 20
-34.783619
 30
0.0
 11
-1.657621
 21
-34.783619
 31
0.0
  0
LINE
  5
18B
100
AcDbEntity
  8
0
390
0
  6
Continuous
 62
     7
100
AcDbLine
 10
-1.657621
 20
-34.783619
 30
0.0
 11
-1.657621
 21
-34.983619
 31
0.0
  0
LINE
  5
18C
100
AcDbEntity
  8
0
390
0
  6
Continuous
 62
     7
100
AcDbLine
 10
-5.191998
 20
-34.783619
 30
0.0
 11
-5.191998
 21
-34.983619
 31
0.0
  0
LINE
  5
18D
100
AcDbEntity
  8
0
390
0
  6
Continuous
 62
     7
100
AcDbLine
 10
-5.191998
 20
-34.783619
 30
0.0
 11
-4.772084
 21
-34.783619
 31
0.0
  0
LINE
  5
18E
100
AcDbEntity
  8
0
390
0
  6
Continuous
 62
     7
100
AcDbLine
 10
-4.772084
 20
-34.783619
 30
0.0
 11
-4.772084
 21
-34.983619
 31
0.0
  0
LINE
  5
18F
100
AcDbEntity
  8
0
390
0
  6
Continuous
 62
     7
100
AcDbLine
 10
0.340475
 20
-34.783619
 30
0.0
 11
1.176561
 21
-34.783619
 31
0.0
  0
LINE
  5
190
100
AcDbEntity
  8
0
390
0
  6
Continuous
 62
     7
100
AcDbLine
 10
-6.35364
 20
-34.783619
 30
0.0
 11
-5.191998
 21
-34.783619
 31
0.0
  0
LINE
  5
191
100
AcDbEntity
  8
0
390
0
  6
Continuous
 62
     7
100
AcDbLine
 10
-6.35364
 20
-34.783619
 30
0.0
 11
-6.35364
 21
-34.983619
 31
0.0
  0
LINE
  5
192
100
AcDbEntity
  8
0
390
0
  6
Continuous
 62
     7
100
AcDbLine
 10
6.319075
 20
-34.783619
 30
0.0
 11
6.319075
 21
-34.983619
 31
0.0
  0
LINE
  5
193
100
AcDbEntity
  8
0
390
0
  6
Continuous
 62
     7
100
AcDbLine
 10
4.819075
 20
-34.783619
 30
0.0
 11
6.319075
 21
-34.783619
 31
0.0
  0
LINE
  5
194
100
AcDbEntity
  8
0
390
0
  6
Continuous
 62
     7
100
AcDbLine
 10
-4.0495
 20
-34.783619
 30
0.0
 11
-2.819518
 21
-34.783619
 31
0.0
  0
LINE
  5
195
100
AcDbEntity
  8
0
390
0
  6
Continuous
 62
     7
100
AcDbLine
 10
-4.0495
 20
-34.783619
 30
0.0
 11
-4.0495
 21
-34.983619
 31
0.0
  0
LINE
  5
196
100
AcDbEntity
  8
0
390
0
  6
Continuous
 62
     7
100
AcDbLine
 10
-4.772084
 20
-34.783619
 30
0.0
 11
-4.0495
 21
-34.783619
 31
0.0
  0
POINT
  5
197
100
AcDbEntity
  8
0
390
0
 62
     7
100
AcDbPoint
 10
0.0
 20
0.0
 30
0.0
  0
ENDSEC
  0
SECTION
  2
OBJECTS
  0
DICTIONARY
  5
19
100
AcDbDictionary
280
     0
281
     1
  3
ACAD_GROUP
350
1A
  3
ACAD_MLINESTYLE
350
1B
  3
ACAD_LAYOUT
350
1E
  3
ACAD_PLOTSETTINGS
350
22
  3
ACAD_PLOTSTYLENAME
350
1F
  3
ACAD_WIPEOUT_VARS
350
23
  0
DICTIONARY
  5
1A
102
{ACAD_REACTORS
330
19
102
}
100
AcDbDictionary
280
     0
281
     1
  0
DICTIONARY
  5
1B
102
{ACAD_REACTORS
330
19
102
}
100
AcDbDictionary
280
     0
281
     1
  3
Standard
350
1C
  0
MLINESTYLE
  5
1C
102
{ACAD_REACTORS
330
1B
102
}
100
AcDbMlineStyle
  2
Standard
 70
     0
  3

 62
     0
 51
90.0
 52
90.0
 71
     2
 49
0.5
 62
   256
  6
ByLayer
 49
-0.5
 62
   256
  6
ByLayer
  0
ACDBDICTIONARYWDFLT
  5
1F
102
{ACAD_REACTORS
330
19
102
}
100
AcDbDictionary
281
     1
  3
Normal
350
1D
100
AcDbDictionaryWithDefault
340
1D
  0
ACDBPLACEHOLDER
  5
1D
102
{ACAD_REACTORS
330
1F
102
}
  0
LAYOUT
  5
20
102
{ACAD_REACTORS
330
1E
102
}
100
AcDbPlotSettings
  1

  2

  4

  6

 40
0.0
 41
0.0
 42
0.0
 43
0.0
 44
0.0
 45
0.0
 46
0.0
 47
0.0
 48
0.0
 49
0.0
140
0.0
141
0.0
142
1.0
143
1.0
 70
  1024
 72
     0
 73
     0
 74
     0
  7

 75
     0
147
1.0
148
0.0
149
0.0
100
AcDbLayout
  1
Model
 70
     0
 71
     1
 10
0.0
 20
0.0
 11
0.0
 21
0.0
 12
0.0
 22
0.0
 32
0.0
 14
0.0
 24
0.0
 34
0.0
 15
0.0
 25
0.0
 35
0.0
146
0.0
 13
0.0
 23
0.0
 33
0.0
 16
0.0
 26
0.0
 36
0.0
 17
0.0
 27
0.0
 37
0.0
 76
     0
330
A
331
0
345
0
346
0
  0
LAYOUT
  5
21
102
{ACAD_REACTORS
330
1E
102
}
100
AcDbPlotSettings
  1

  2

  4

  6

 40
0.0
 41
0.0
 42
0.0
 43
0.0
 44
0.0
 45
0.0
 46
0.0
 47
0.0
 48
0.0
 49
0.0
140
0.0
141
0.0
142
1.0
143
1.0
 70
     0
 72
     0
 73
     0
 74
     0
  7

 75
     0
147
1.0
148
0.0
149
0.0
100
AcDbLayout
  1
Layout1
 70
     0
 71
     2
 10
0.0
 20
0.0
 11
0.0
 21
0.0
 12
0.0
 22
0.0
 32
0.0
 14
0.0
 24
0.0
 34
0.0
 15
0.0
 25
0.0
 35
0.0
146
0.0
 13
0.0
 23
0.0
 33
0.0
 16
0.0
 26
0.0
 36
0.0
 17
0.0
 27
0.0
 37
0.0
 76
     0
330
B
331
0
345
0
346
0
  0
DICTIONARY
  5
1E
102
{ACAD_REACTORS
330
19
102
}
100
AcDbDictionary
280
     0
281
     1
  3
Layout1
350
21
  3
Model
350
20
  0
DICTIONARY
  5
22
102
{ACAD_REACTORS
330
19
102
}
100
AcDbDictionary
280
     0
281
     1
  0
WIPEOUTVARIABLES
  5
23
100
AcDbWipeoutVariables
 70
     1
  0
ENDSEC
  0
EOF
